  0
SECTION
  2
HEADER
  9
$ACADVER
  1
AC1014
  9
$ACADMAINTVER
 70
     0
  9
$DWGCODEPAGE
  3
ANSI_1252
  9
$INSBASE
 10
0.0
 20
0.0
 30
0.0
  9
$EXTMIN
 10
-1.377953
 20
-0.118
 30
0.0
  9
$EXTMAX
 10
1.377953
 20
32.558945
 30
0.0
  9
$LIMMIN
 10
0.0
 20
0.0
  9
$LIMMAX
 10
0.0
 20
0.0
  9
$ORTHOMODE
 70
     0
  9
$REGENMODE
 70
     1
  9
$FILLMODE
 70
     1
  9
$QTEXTMODE
 70
     0
  9
$MIRRTEXT
 70
     1
  9
$DRAGMODE
 70
     2
  9
$LTSCALE
 40
1.0
  9
$OSMODE
 70
     0
  9
$ATTMODE
 70
     1
  9
$TEXTSIZE
 40
0.2
  9
$TRACEWID
 40
0.05
  9
$TEXTSTYLE
  7
STANDARD
  9
$CLAYER
  8
0
  9
$CELTYPE
  6
CONTINUOUS
  9
$CECOLOR
 62
   256
  9
$CELTSCALE
 40
1.0
  9
$DELOBJ
 70
     1
  9
$DISPSILH
 70
     0
  9
$DIMSCALE
 40
1.0
  9
$DIMASZ
 40
0.18
  9
$DIMEXO
 40
0.0625
  9
$DIMDLI
 40
0.38
  9
$DIMRND
 40
0.0
  9
$DIMDLE
 40
0.0
  9
$DIMEXE
 40
0.18
  9
$DIMTP
 40
0.0
  9
$DIMTM
 40
0.0
  9
$DIMTXT
 40
0.18
  9
$DIMCEN
 40
0.09
  9
$DIMTSZ
 40
0.0
  9
$DIMTOL
 70
     0
  9
$DIMLIM
 70
     0
  9
$DIMTIH
 70
     1
  9
$DIMTOH
 70
     1
  9
$DIMSE1
 70
     0
  9
$DIMSE2
 70
     0
  9
$DIMTAD
 70
     0
  9
$DIMZIN
 70
     0
  9
$DIMBLK
  1

  9
$DIMASO
 70
     1
  9
$DIMSHO
 70
     1
  9
$DIMPOST
  1

  9
$DIMAPOST
  1

  9
$DIMALT
 70
     0
  9
$DIMALTD
 70
     2
  9
$DIMALTF
 40
25.4
  9
$DIMLFAC
 40
1.0
  9
$DIMTOFL
 70
     0
  9
$DIMTVP
 40
0.0
  9
$DIMTIX
 70
     0
  9
$DIMSOXD
 70
     0
  9
$DIMSAH
 70
     0
  9
$DIMBLK1
  1

  9
$DIMBLK2
  1

  9
$DIMSTYLE
  2
STANDARD
  9
$DIMCLRD
 70
     0
  9
$DIMCLRE
 70
     0
  9
$DIMCLRT
 70
     0
  9
$DIMTFAC
 40
1.0
  9
$DIMGAP
 40
0.09
  9
$DIMJUST
 70
     0
  9
$DIMSD1
 70
     0
  9
$DIMSD2
 70
     0
  9
$DIMTOLJ
 70
     1
  9
$DIMTZIN
 70
     0
  9
$DIMALTZ
 70
     0
  9
$DIMALTTZ
 70
     0
  9
$DIMFIT
 70
     3
  9
$DIMUPT
 70
     0
  9
$DIMUNIT
 70
     2
  9
$DIMDEC
 70
     4
  9
$DIMTDEC
 70
     4
  9
$DIMALTU
 70
     2
  9
$DIMALTTD
 70
     2
  9
$DIMTXSTY
  7
STANDARD
  9
$DIMAUNIT
 70
     0
  9
$LUNITS
 70
     2
  9
$LUPREC
 70
     4
  9
$SKETCHINC
 40
0.1
  9
$FILLETRAD
 40
0.0
  9
$AUNITS
 70
     0
  9
$AUPREC
 70
     0
  9
$MENU
  1
acad
  9
$ELEVATION
 40
0.0
  9
$PELEVATION
 40
0.0
  9
$THICKNESS
 40
0.0
  9
$LIMCHECK
 70
     0
  9
$BLIPMODE
 70
     1
  9
$CHAMFERA
 40
0.0
  9
$CHAMFERB
 40
0.0
  9
$CHAMFERC
 40
0.0
  9
$CHAMFERD
 40
0.0
  9
$SKPOLY
 70
     0
  9
$TDCREATE
 40
0.000000000
  9
$TDUPDATE
 40
0.000000000
  9
$TDINDWG
 40
0.0000000000
  9
$TDUSRTIMER
 40
0.0000000000
  9
$USRTIMER
 70
     1
  9
$ANGBASE
 50
0.0
  9
$ANGDIR
 70
     0
  9
$PDMODE
 70
     0
  9
$PDSIZE
 40
0.0
  9
$PLINEWID
 40
0.0
  9
$COORDS
 70
     0
  9
$SPLFRAME
 70
     0
  9
$SPLINETYPE
 70
     6
  9
$SPLINESEGS
 70
     8
  9
$ATTDIA
 70
     0
  9
$ATTREQ
 70
     1
  9
$HANDLING
 70
     1
  9
$HANDSEED
  5
12A
  9
$SURFTAB1
 70
     6
  9
$SURFTAB2
 70
     6
  9
$SURFTYPE
 70
     6
  9
$SURFU
 70
     6
  9
$SURFV
 70
     6
  9
$UCSNAME
  2

  9
$UCSORG
 10
0.0
 20
0.0
 30
0.0
  9
$UCSXDIR
 10
1.0
 20
0.0
 30
0.0
  9
$UCSYDIR
 10
0.0
 20
1.0
 30
0.0
  9
$PUCSNAME
  2

  9
$PUCSORG
 10
0.0
 20
0.0
 30
0.0
  9
$PUCSXDIR
 10
1.0
 20
0.0
 30
0.0
  9
$PUCSYDIR
 10
0.0
 20
1.0
 30
0.0
  9
$USERI1
 70
     0
  9
$USERI2
 70
     0
  9
$USERI3
 70
     0
  9
$USERI4
 70
     0
  9
$USERI5
 70
     0
  9
$USERR1
 40
0.0
  9
$USERR2
 40
0.0
  9
$USERR3
 40
0.0
  9
$USERR4
 40
0.0
  9
$USERR5
 40
0.0
  9
$WORLDVIEW
 70
     1
  9
$SHADEDGE
 70
     3
  9
$SHADEDIF
 70
    70
  9
$TILEMODE
 70
     1
  9
$MAXACTVP
 70
    16
  9
$PINSBASE
 10
0.0
 20
0.0
 30
0.0
  9
$PLIMCHECK
 70
     0
  9
$PEXTMIN
 10
1.000000E+20
 20
1.000000E+20
 30
1.000000E+20
  9
$PEXTMAX
 10
-1.000000E+20
 20
-1.000000E+20
 30
-1.000000E+20
  9
$PLIMMIN
 10
0.0
 20
0.0
  9
$PLIMMAX
 10
12.0
 20
9.0
  9
$UNITMODE
 70
     0
  9
$VISRETAIN
 70
     0
  9
$PLINEGEN
 70
     1
  9
$PSLTSCALE
 70
     0
  9
$TREEDEPTH
 70
  3020
  9
$PICKSTYLE
 70
     1
  9
$CMLSTYLE
  2
STANDARD
  9
$CMLJUST
 70
     0
  9
$CMLSCALE
 40
1.0
  9
$PROXYGRAPHICS
 70
     0
  9
$MEASUREMENT
 70
     0
  0
ENDSEC
  0
SECTION
  2
CLASSES
  0
CLASS
  1
LWPOLYLINE
  2
AcDbPolyline
  3
"AutoCAD"
 90
        0
280
     0
281
     1
  0
CLASS
  1
IMAGE
  2
AcDbRasterImage
  3
ISM
 90
      127
280
     0
281
     1
  0
CLASS
  1
OLE2FRAME
  2
AcDbOle2Frame
  3
""
 90
        0
280
     0
281
     1
  0
CLASS
  1
HATCH
  2
AcDbHatch
  3
"ACAD_SEDONA"
 90
        0
280
     0
281
     1
  0
CLASS
  1
DICTIONARYVAR
  2
AcDbDictionaryVar
  3
"AutoCAD"
 90
        0
280
     0
281
     0
  0
CLASS
  1
RASTERVARIABLES
  2
AcDbRasterVariables
  3
ISM
 90
        0
280
     0
281
     0
  0
CLASS
  1
IMAGEDEF
  2
AcDbRasterImageDef
  3
ISM
 90
        0
280
     0
281
     0
  0
CLASS
  1
IMAGEDEF_REACTOR
  2
AcDbRasterImageDefReactor
  3
ISM
 90
        1
280
     0
281
     0
  0
CLASS
  1
IDBUFFER
  2
AcDbIdBuffer
  3
"Acad"
 90
        0
280
     0
281
     0
  0
CLASS
  1
SPATIAL_FILTER
  2
AcDbSpatialFilter
  3
"Acad"
 90
        0
280
     0
281
     0
  0
CLASS
  1
XRECORD
  2
AcDbXrecord
  3
"<Built In>"
 90
        0
280
     0
281
     0
  0
CLASS
  1
SORTENTSTABLE
  2
AcDbSortentsTable
  3
"AutoCAD"
 90
        0
280
     0
281
     0
  0
CLASS
  1
LAYER_INDEX
  2
AcDbLayerIndex
  3
"Acad"
 90
        0
280
     0
281
     0
  0
CLASS
  1
SPATIAL_INDEX
  2
AcDbSpatialIndex
  3
"Acad"
 90
        0
280
     0
281
     0
  0
CLASS
  1
OBJECT_PTR
  2
CAseDLPNTableRecord
  3
"ASE-LPNTableRecord"
 90
        1
280
     0
281
     0
  0
CLASS
  1
LAYOUT
  2
AcDbLayout
  3
"AutoCAD 2000"
 90
        0
280
     0
281
     0
  0
CLASS
  1
PLOTSETTINGS
  2
AcDbPlotSettings
  3
"AutoCAD 2000"
 90
        0
280
     0
281
     0
  0
CLASS
  1
ACDBDICTIONARYWDFLT
  2
AcDbDictionaryWithDefault
  3
"AutoCAD 2000"
 90
        0
280
     0
281
     0
  0
CLASS
  1
ACDBPLACEHOLDER
  2
AcDbPlaceHolder
  3
"AutoCAD 2000"
 90
        0
280
     0
281
     0
  0
CLASS
  1
VBA_PROJECT
  2
AcDbVbaProject
  3
"acadvba"
 90
        0
280
     0
281
     0
  0
CLASS
  1
WIPEOUT
  2
AcDbWipeout
  3
WipeOut|AutoCAD Express Tool|expresstools@autodesk.com
 90
      127
280
     0
281
     1
  0
CLASS
  1
WIPEOUTVARIABLES
  2
AcDbWipeoutVariables
  3
WipeOut|AutoCAD Express Tool|expresstools@autodesk.com
 90
        0
280
     0
281
     0
  0
CLASS
  1
RTEXT
  2
RText
  3
RText|AutoCAD Express Tool|expresstools@autodesk.com
 90
        0
280
     0
281
     1
  0
CLASS
  1
ARCALIGNEDTEXT
  2
AcDbArcAlignedText
  3
ATEXT|AutoCAD Express Tool|expresstools@autodesk.com
 90
        0
280
     0
281
     1
  0
ENDSEC
  0
SECTION
  2
TABLES
  0
TABLE
  2
VPORT
  5
7
100
AcDbSymbolTable
 70
     1
  0
VPORT
  5
15
100
AcDbSymbolTableRecord
100
AcDbViewportTableRecord
  2
*ACTIVE
 70
     0
 10
0.0
 20
0.0
 11
1.0
 21
1.0
 12
6.591288
 22
4.579184
 13
0.0
 23
0.0
 14
1.0
 24
1.0
 15
0.0
 25
0.0
 16
0.0
 26
0.0
 36
1.0
 17
0.0
 27
0.0
 37
0.0
 40
9.158369
 41
0.688564
 42
50.0
 43
0.0
 44
0.0
 50
0.0
 51
0.0
 71
     0
 72
   100
 73
     1
 74
     1
 75
     0
 76
     0
 77
     0
 78
     0
  0
ENDTAB
  0
TABLE
  2
LTYPE
  5
4
100
AcDbSymbolTable
 70
     7
  0
LTYPE
  5
11
100
AcDbSymbolTableRecord
100
AcDbLinetypeTableRecord
  2
BYBLOCK
 70
    64
  3

 72
    65
 73
     0
 40
0.0
  0
LTYPE
  5
12
100
AcDbSymbolTableRecord
100
AcDbLinetypeTableRecord
  2
BYLAYER
 70
    64
  3

 72
    65
 73
     0
 40
0.0
  0
LTYPE
  5
13
100
AcDbSymbolTableRecord
100
AcDbLinetypeTableRecord
  2
CONTINUOUS
 70
    64
  3
Solid line
 72
    65
 73
     0
 40
0.0
  0
LTYPE
  5
1F
100
AcDbSymbolTableRecord
100
AcDbLinetypeTableRecord
  2
CENTER
 70
    64
  3
Center ____ _ ____ _ ____ _ ____ _ ____ _ ____
 72
    65
 73
     4
 40
50.8
 49
31.75
 74
     0
 49
-6.35
 74
     0
 49
6.35
 74
     0
 49
-6.35
 74
     0
  0
LTYPE
  5
20
100
AcDbSymbolTableRecord
100
AcDbLinetypeTableRecord
  2
HIDDEN
 70
    64
  3
Hidden __ __ __ __ __ __ __ __ __ __ __ __ __ __
 72
    65
 73
     2
 40
9.525
 49
6.35
 74
     0
 49
-3.175
 74
     0
  0
LTYPE
  5
21
100
AcDbSymbolTableRecord
100
AcDbLinetypeTableRecord
  2
CENTER2
 70
    64
  3
Center (.5x) ___ _ ___ _ ___ _ ___ _ ___ _ ___
 72
    65
 73
     4
 40
28.575
 49
19.05
 74
     0
 49
-3.175
 74
     0
 49
3.175
 74
     0
 49
-3.175
 74
     0
  0
LTYPE
  5
22
100
AcDbSymbolTableRecord
100
AcDbLinetypeTableRecord
  2
HIDDEN2
 70
    64
  3
Hidden (.5x) _ _ _ _ _ _ _ _ _ _ _ _ _ _ _ _ _
 72
    65
 73
     2
 40
4.7625
 49
3.175
 74
     0
 49
-1.5875
 74
     0
  0
ENDTAB
  0
TABLE
  2
LAYER
  5
2
100
AcDbSymbolTable
 70
     7
  0
LAYER
  5
14
100
AcDbSymbolTableRecord
100
AcDbLayerTableRecord
  2
0
 70
     0
 62
     7
  6
CONTINUOUS
  0
LAYER
  5
23
100
AcDbSymbolTableRecord
100
AcDbLayerTableRecord
  2
TRMODEL1
 70
     0
 62
     7
  6
CONTINUOUS
  0
LAYER
  5
24
100
AcDbSymbolTableRecord
100
AcDbLayerTableRecord
  2
TRMODEL3
 70
     0
 62
     7
  6
CONTINUOUS
  0
LAYER
  5
25
100
AcDbSymbolTableRecord
100
AcDbLayerTableRecord
  2
TRDETAIL2
 70
     0
 62
     7
  6
CONTINUOUS
  0
LAYER
  5
26
100
AcDbSymbolTableRecord
100
AcDbLayerTableRecord
  2
TRDETAIL3
 70
     0
 62
     7
  6
CONTINUOUS
  0
LAYER
  5
27
100
AcDbSymbolTableRecord
100
AcDbLayerTableRecord
  2
TRDETAIL4
 70
     0
 62
     7
  6
CONTINUOUS
  0
LAYER
  5
28
100
AcDbSymbolTableRecord
100
AcDbLayerTableRecord
  2
TRDETAIL5
 70
     0
 62
     7
  6
CONTINUOUS
  0
ENDTAB
  0
TABLE
  2
STYLE
  5
3
100
AcDbSymbolTable
 70
     1
  0
STYLE
  5
17
100
AcDbSymbolTableRecord
100
AcDbTextStyleTableRecord
  2
STANDARD
 70
     0
 40
0.0
 41
1.0
 50
0.0
 71
     0
 42
0.0
  3
txt
  4

  0
ENDTAB
  0
TABLE
  2
VIEW
  5
5
100
AcDbSymbolTable
 70
     0
  0
ENDTAB
  0
TABLE
  2
UCS
  5
6
100
AcDbSymbolTable
 70
     0
  0
ENDTAB
  0
TABLE
  2
APPID
  5
8
100
AcDbSymbolTable
 70
     1
  0
APPID
  5
16
100
AcDbSymbolTableRecord
100
AcDbRegAppTableRecord
  2
ACAD
 70
     0
  0
ENDTAB
  0
TABLE
  2
DIMSTYLE
  5
9
100
AcDbSymbolTable
 70
     1
  0
DIMSTYLE
105
18
100
AcDbSymbolTableRecord
100
AcDbDimStyleTableRecord
  2
STANDARD
 70
     0
  3

  4

  5

  6

  7

 40
1.0
 41
0.18
 42
0.0625
 43
0.38
 44
0.18
 45
0.0
 46
0.0
 47
0.0
 48
0.0
 71
     0
 72
     0
 73
     1
 74
     1
 75
     0
 76
     0
 77
     0
 78
     0
140
0.18
141
0.09
142
0.0
143
25.4
144
1.0
145
0.0
146
1.0
147
0.09
170
     0
171
     2
172
     0
173
     0
174
     0
175
     0
176
     0
177
     0
178
     0
270
     2
271
     4
272
     4
273
     2
274
     2
275
     0
280
     0
281
     0
282
     0
283
     1
284
     0
285
     0
286
     0
287
     3
288
     0
340
17
  0
ENDTAB
  0
TABLE
  2
BLOCK_RECORD
  5
1
100
AcDbSymbolTable
 70
     0
  0
BLOCK_RECORD
  5
A
100
AcDbSymbolTableRecord
100
AcDbBlockTableRecord
  2
*MODEL_SPACE
  0
BLOCK_RECORD
  5
B
100
AcDbSymbolTableRecord
100
AcDbBlockTableRecord
  2
*PAPER_SPACE
  0
ENDTAB
  0
ENDSEC
  0
SECTION
  2
BLOCKS
  0
BLOCK
  5
D
100
AcDbEntity
  8
0
100
AcDbBlockBegin
  2
*MODEL_SPACE
 70
     0
 10
0.0
 20
0.0
 30
0.0
  3
*MODEL_SPACE
  1

  0
ENDBLK
  5
E
100
AcDbEntity
  8
0
100
AcDbBlockEnd
  0
BLOCK
  5
F
100
AcDbEntity
 67
     1
  8
0
100
AcDbBlockBegin
  2
*PAPER_SPACE
 70
     0
 10
0.0
 20
0.0
 30
0.0
  3
*PAPER_SPACE
  1

  0
ENDBLK
  5
10
100
AcDbEntity
 67
     1
  8
0
100
AcDbBlockEnd
  0
ENDSEC
  0
SECTION
  2
ENTITIES
  0
LINE
  5
B8
100
AcDbEntity
  8
TRMODEL1
  6
CONTINUOUS
 62
     7
100
AcDbLine
 10
0.451825
 20
0.526756
 30
0.0
 11
0.451825
 21
2.2
 31
0.0
  0
LINE
  5
B9
100
AcDbEntity
  8
TRMODEL1
  6
CONTINUOUS
 62
     7
100
AcDbLine
 10
0.48718
 20
2.2
 30
0.0
 11
0.451825
 21
2.2
 31
0.0
  0
LINE
  5
BA
100
AcDbEntity
  8
TRMODEL1
  6
CONTINUOUS
 62
     7
100
AcDbLine
 10
0.556836
 20
0.4
 30
0.0
 11
0.552723
 21
0.400112
 31
0.0
  0
LINE
  5
BB
100
AcDbEntity
  8
TRMODEL1
  6
CONTINUOUS
 62
     7
100
AcDbLine
 10
0.552723
 20
0.400112
 30
0.0
 11
0.548496
 21
0.400463
 31
0.0
  0
LINE
  5
BC
100
AcDbEntity
  8
TRMODEL1
  6
CONTINUOUS
 62
     7
100
AcDbLine
 10
0.548496
 20
0.400463
 30
0.0
 11
0.544193
 21
0.401066
 31
0.0
  0
LINE
  5
BD
100
AcDbEntity
  8
TRMODEL1
  6
CONTINUOUS
 62
     7
100
AcDbLine
 10
0.544193
 20
0.401066
 30
0.0
 11
0.539852
 21
0.401928
 31
0.0
  0
LINE
  5
BE
100
AcDbEntity
  8
TRMODEL1
  6
CONTINUOUS
 62
     7
100
AcDbLine
 10
0.539852
 20
0.401928
 30
0.0
 11
0.535512
 21
0.403051
 31
0.0
  0
LINE
  5
BF
100
AcDbEntity
  8
TRMODEL1
  6
CONTINUOUS
 62
     7
100
AcDbLine
 10
0.535512
 20
0.403051
 30
0.0
 11
0.531214
 21
0.404426
 31
0.0
  0
LINE
  5
C0
100
AcDbEntity
  8
TRMODEL1
  6
CONTINUOUS
 62
     7
100
AcDbLine
 10
0.531214
 20
0.404426
 30
0.0
 11
0.526994
 21
0.406036
 31
0.0
  0
LINE
  5
C1
100
AcDbEntity
  8
TRMODEL1
  6
CONTINUOUS
 62
     7
100
AcDbLine
 10
0.526994
 20
0.406036
 30
0.0
 11
0.522888
 21
0.40786
 31
0.0
  0
LINE
  5
C2
100
AcDbEntity
  8
TRMODEL1
  6
CONTINUOUS
 62
     7
100
AcDbLine
 10
0.522888
 20
0.40786
 30
0.0
 11
0.518931
 21
0.409867
 31
0.0
  0
LINE
  5
C3
100
AcDbEntity
  8
TRMODEL1
  6
CONTINUOUS
 62
     7
100
AcDbLine
 10
0.518931
 20
0.409867
 30
0.0
 11
0.515139
 21
0.412029
 31
0.0
  0
LINE
  5
C4
100
AcDbEntity
  8
TRMODEL1
  6
CONTINUOUS
 62
     7
100
AcDbLine
 10
0.515139
 20
0.412029
 30
0.0
 11
0.511354
 21
0.414432
 31
0.0
  0
LINE
  5
C5
100
AcDbEntity
  8
TRMODEL1
  6
CONTINUOUS
 62
     7
100
AcDbLine
 10
0.511354
 20
0.414432
 30
0.0
 11
0.507539
 21
0.417115
 31
0.0
  0
LINE
  5
C6
100
AcDbEntity
  8
TRMODEL1
  6
CONTINUOUS
 62
     7
100
AcDbLine
 10
0.507539
 20
0.417115
 30
0.0
 11
0.503731
 21
0.42007
 31
0.0
  0
LINE
  5
C7
100
AcDbEntity
  8
TRMODEL1
  6
CONTINUOUS
 62
     7
100
AcDbLine
 10
0.503731
 20
0.42007
 30
0.0
 11
0.499969
 21
0.423281
 31
0.0
  0
LINE
  5
C8
100
AcDbEntity
  8
TRMODEL1
  6
CONTINUOUS
 62
     7
100
AcDbLine
 10
0.499969
 20
0.423281
 30
0.0
 11
0.496288
 21
0.426725
 31
0.0
  0
LINE
  5
C9
100
AcDbEntity
  8
TRMODEL1
  6
CONTINUOUS
 62
     7
100
AcDbLine
 10
0.496288
 20
0.426725
 30
0.0
 11
0.492721
 21
0.43037
 31
0.0
  0
LINE
  5
CA
100
AcDbEntity
  8
TRMODEL1
  6
CONTINUOUS
 62
     7
100
AcDbLine
 10
0.492721
 20
0.43037
 30
0.0
 11
0.489299
 21
0.43418
 31
0.0
  0
LINE
  5
CB
100
AcDbEntity
  8
TRMODEL1
  6
CONTINUOUS
 62
     7
100
AcDbLine
 10
0.489299
 20
0.43418
 30
0.0
 11
0.486048
 21
0.438114
 31
0.0
  0
LINE
  5
CC
100
AcDbEntity
  8
TRMODEL1
  6
CONTINUOUS
 62
     7
100
AcDbLine
 10
0.486048
 20
0.438114
 30
0.0
 11
0.482987
 21
0.442125
 31
0.0
  0
LINE
  5
CD
100
AcDbEntity
  8
TRMODEL1
  6
CONTINUOUS
 62
     7
100
AcDbLine
 10
0.482987
 20
0.442125
 30
0.0
 11
0.480104
 21
0.44621
 31
0.0
  0
LINE
  5
CE
100
AcDbEntity
  8
TRMODEL1
  6
CONTINUOUS
 62
     7
100
AcDbLine
 10
0.480104
 20
0.44621
 30
0.0
 11
0.477266
 21
0.450555
 31
0.0
  0
LINE
  5
CF
100
AcDbEntity
  8
TRMODEL1
  6
CONTINUOUS
 62
     7
100
AcDbLine
 10
0.477266
 20
0.450555
 30
0.0
 11
0.474486
 21
0.45517
 31
0.0
  0
LINE
  5
D0
100
AcDbEntity
  8
TRMODEL1
  6
CONTINUOUS
 62
     7
100
AcDbLine
 10
0.474486
 20
0.45517
 30
0.0
 11
0.471795
 21
0.460022
 31
0.0
  0
LINE
  5
D1
100
AcDbEntity
  8
TRMODEL1
  6
CONTINUOUS
 62
     7
100
AcDbLine
 10
0.471795
 20
0.460022
 30
0.0
 11
0.469224
 21
0.465076
 31
0.0
  0
LINE
  5
D2
100
AcDbEntity
  8
TRMODEL1
  6
CONTINUOUS
 62
     7
100
AcDbLine
 10
0.469224
 20
0.465076
 30
0.0
 11
0.466797
 21
0.470289
 31
0.0
  0
LINE
  5
D3
100
AcDbEntity
  8
TRMODEL1
  6
CONTINUOUS
 62
     7
100
AcDbLine
 10
0.466797
 20
0.470289
 30
0.0
 11
0.464537
 21
0.475613
 31
0.0
  0
LINE
  5
D4
100
AcDbEntity
  8
TRMODEL1
  6
CONTINUOUS
 62
     7
100
AcDbLine
 10
0.464537
 20
0.475613
 30
0.0
 11
0.46246
 21
0.480997
 31
0.0
  0
LINE
  5
D5
100
AcDbEntity
  8
TRMODEL1
  6
CONTINUOUS
 62
     7
100
AcDbLine
 10
0.46246
 20
0.480997
 30
0.0
 11
0.460576
 21
0.486388
 31
0.0
  0
LINE
  5
D6
100
AcDbEntity
  8
TRMODEL1
  6
CONTINUOUS
 62
     7
100
AcDbLine
 10
0.460576
 20
0.486388
 30
0.0
 11
0.458891
 21
0.491731
 31
0.0
  0
LINE
  5
D7
100
AcDbEntity
  8
TRMODEL1
  6
CONTINUOUS
 62
     7
100
AcDbLine
 10
0.458891
 20
0.491731
 30
0.0
 11
0.45737
 21
0.49711
 31
0.0
  0
LINE
  5
D8
100
AcDbEntity
  8
TRMODEL1
  6
CONTINUOUS
 62
     7
100
AcDbLine
 10
0.45737
 20
0.49711
 30
0.0
 11
0.455958
 21
0.502733
 31
0.0
  0
LINE
  5
D9
100
AcDbEntity
  8
TRMODEL1
  6
CONTINUOUS
 62
     7
100
AcDbLine
 10
0.455958
 20
0.502733
 30
0.0
 11
0.454679
 21
0.508559
 31
0.0
  0
LINE
  5
DA
100
AcDbEntity
  8
TRMODEL1
  6
CONTINUOUS
 62
     7
100
AcDbLine
 10
0.454679
 20
0.508559
 30
0.0
 11
0.453554
 21
0.51454
 31
0.0
  0
LINE
  5
DB
100
AcDbEntity
  8
TRMODEL1
  6
CONTINUOUS
 62
     7
100
AcDbLine
 10
0.453554
 20
0.51454
 30
0.0
 11
0.452599
 21
0.520623
 31
0.0
  0
LINE
  5
DC
100
AcDbEntity
  8
TRMODEL1
  6
CONTINUOUS
 62
     7
100
AcDbLine
 10
0.452599
 20
0.520623
 30
0.0
 11
0.451825
 21
0.526756
 31
0.0
  0
LINE
  5
DD
100
AcDbEntity
  8
TRMODEL1
  6
CONTINUOUS
 62
     7
100
AcDbLine
 10
0.797583
 20
0.4
 30
0.0
 11
0.796832
 21
0.4
 31
0.0
  0
LINE
  5
DE
100
AcDbEntity
  8
TRMODEL1
  6
CONTINUOUS
 62
     7
100
AcDbLine
 10
0.451825
 20
2.2
 30
0.0
 11
0.797583
 21
0.4
 31
0.0
  0
LINE
  5
DF
100
AcDbEntity
  8
TRMODEL1
  6
CONTINUOUS
 62
     7
100
AcDbLine
 10
0.868294
 20
0.4
 30
0.0
 11
0.832938
 21
0.4
 31
0.0
  0
LINE
  5
E0
100
AcDbEntity
  8
TRMODEL1
  6
CONTINUOUS
 62
     7
100
AcDbLine
 10
0.832938
 20
0.4
 30
0.0
 11
0.797583
 21
0.4
 31
0.0
  0
LINE
  5
E1
100
AcDbEntity
  8
TRMODEL1
  6
CONTINUOUS
 62
     7
100
AcDbLine
 10
0.522535
 20
2.2
 30
0.0
 11
0.48718
 21
2.2
 31
0.0
  0
LINE
  5
E2
100
AcDbEntity
  8
TRMODEL1
  6
CONTINUOUS
 62
     7
100
AcDbLine
 10
0.868294
 20
0.4
 30
0.0
 11
0.522535
 21
2.2
 31
0.0
  0
LINE
  5
E3
100
AcDbEntity
  8
TRMODEL1
  6
CONTINUOUS
 62
     7
100
AcDbLine
 10
0.627547
 20
0.4
 30
0.0
 11
0.797583
 21
0.4
 31
0.0
  0
LINE
  5
E4
100
AcDbEntity
  8
TRMODEL1
  6
CONTINUOUS
 62
     7
100
AcDbLine
 10
1.177953
 20
0.4
 30
0.0
 11
0.867543
 21
0.4
 31
0.0
  0
LINE
  5
E5
100
AcDbEntity
  8
TRMODEL1
  6
CONTINUOUS
 62
     7
100
AcDbLine
 10
-0.48718
 20
2.2
 30
0.0
 11
-0.522535
 21
2.2
 31
0.0
  0
LINE
  5
E6
100
AcDbEntity
  8
TRMODEL1
  6
CONTINUOUS
 62
     7
100
AcDbLine
 10
-0.797583
 20
0.4
 30
0.0
 11
-0.627547
 21
0.4
 31
0.0
  0
LINE
  5
E7
100
AcDbEntity
  8
TRMODEL1
  6
CONTINUOUS
 62
     7
100
AcDbLine
 10
-0.522535
 20
2.2
 30
0.0
 11
-0.868294
 21
0.4
 31
0.0
  0
LINE
  5
E8
100
AcDbEntity
  8
TRMODEL1
  6
CONTINUOUS
 62
     7
100
AcDbLine
 10
-0.796832
 20
0.4
 30
0.0
 11
-0.797583
 21
0.4
 31
0.0
  0
LINE
  5
E9
100
AcDbEntity
  8
TRMODEL1
  6
CONTINUOUS
 62
     7
100
AcDbLine
 10
-0.797583
 20
0.4
 30
0.0
 11
-0.832938
 21
0.4
 31
0.0
  0
LINE
  5
EA
100
AcDbEntity
  8
TRMODEL1
  6
CONTINUOUS
 62
     7
100
AcDbLine
 10
-0.832938
 20
0.4
 30
0.0
 11
-0.868294
 21
0.4
 31
0.0
  0
LINE
  5
EB
100
AcDbEntity
  8
TRMODEL1
  6
CONTINUOUS
 62
     7
100
AcDbLine
 10
-0.451825
 20
2.2
 30
0.0
 11
-0.48718
 21
2.2
 31
0.0
  0
LINE
  5
EC
100
AcDbEntity
  8
TRMODEL1
  6
CONTINUOUS
 62
     7
100
AcDbLine
 10
-0.451825
 20
2.2
 30
0.0
 11
-0.451825
 21
0.526756
 31
0.0
  0
LINE
  5
ED
100
AcDbEntity
  8
TRMODEL1
  6
CONTINUOUS
 62
     7
100
AcDbLine
 10
-0.797583
 20
0.4
 30
0.0
 11
-0.451825
 21
2.2
 31
0.0
  0
LINE
  5
EE
100
AcDbEntity
  8
TRMODEL1
  6
CONTINUOUS
 62
     7
100
AcDbLine
 10
-0.451825
 20
0.526756
 30
0.0
 11
-0.452599
 21
0.520623
 31
0.0
  0
LINE
  5
EF
100
AcDbEntity
  8
TRMODEL1
  6
CONTINUOUS
 62
     7
100
AcDbLine
 10
-0.452599
 20
0.520623
 30
0.0
 11
-0.453554
 21
0.51454
 31
0.0
  0
LINE
  5
F0
100
AcDbEntity
  8
TRMODEL1
  6
CONTINUOUS
 62
     7
100
AcDbLine
 10
-0.453554
 20
0.51454
 30
0.0
 11
-0.454679
 21
0.508559
 31
0.0
  0
LINE
  5
F1
100
AcDbEntity
  8
TRMODEL1
  6
CONTINUOUS
 62
     7
100
AcDbLine
 10
-0.454679
 20
0.508559
 30
0.0
 11
-0.455958
 21
0.502733
 31
0.0
  0
LINE
  5
F2
100
AcDbEntity
  8
TRMODEL1
  6
CONTINUOUS
 62
     7
100
AcDbLine
 10
-0.455958
 20
0.502733
 30
0.0
 11
-0.45737
 21
0.49711
 31
0.0
  0
LINE
  5
F3
100
AcDbEntity
  8
TRMODEL1
  6
CONTINUOUS
 62
     7
100
AcDbLine
 10
-0.45737
 20
0.49711
 30
0.0
 11
-0.458891
 21
0.491731
 31
0.0
  0
LINE
  5
F4
100
AcDbEntity
  8
TRMODEL1
  6
CONTINUOUS
 62
     7
100
AcDbLine
 10
-0.458891
 20
0.491731
 30
0.0
 11
-0.460576
 21
0.486388
 31
0.0
  0
LINE
  5
F5
100
AcDbEntity
  8
TRMODEL1
  6
CONTINUOUS
 62
     7
100
AcDbLine
 10
-0.460576
 20
0.486388
 30
0.0
 11
-0.46246
 21
0.480997
 31
0.0
  0
LINE
  5
F6
100
AcDbEntity
  8
TRMODEL1
  6
CONTINUOUS
 62
     7
100
AcDbLine
 10
-0.46246
 20
0.480997
 30
0.0
 11
-0.464537
 21
0.475613
 31
0.0
  0
LINE
  5
F7
100
AcDbEntity
  8
TRMODEL1
  6
CONTINUOUS
 62
     7
100
AcDbLine
 10
-0.464537
 20
0.475613
 30
0.0
 11
-0.466797
 21
0.470289
 31
0.0
  0
LINE
  5
F8
100
AcDbEntity
  8
TRMODEL1
  6
CONTINUOUS
 62
     7
100
AcDbLine
 10
-0.466797
 20
0.470289
 30
0.0
 11
-0.469224
 21
0.465076
 31
0.0
  0
LINE
  5
F9
100
AcDbEntity
  8
TRMODEL1
  6
CONTINUOUS
 62
     7
100
AcDbLine
 10
-0.469224
 20
0.465076
 30
0.0
 11
-0.471795
 21
0.460022
 31
0.0
  0
LINE
  5
FA
100
AcDbEntity
  8
TRMODEL1
  6
CONTINUOUS
 62
     7
100
AcDbLine
 10
-0.471795
 20
0.460022
 30
0.0
 11
-0.474486
 21
0.45517
 31
0.0
  0
LINE
  5
FB
100
AcDbEntity
  8
TRMODEL1
  6
CONTINUOUS
 62
     7
100
AcDbLine
 10
-0.474486
 20
0.45517
 30
0.0
 11
-0.477266
 21
0.450555
 31
0.0
  0
LINE
  5
FC
100
AcDbEntity
  8
TRMODEL1
  6
CONTINUOUS
 62
     7
100
AcDbLine
 10
-0.477266
 20
0.450555
 30
0.0
 11
-0.480104
 21
0.44621
 31
0.0
  0
LINE
  5
FD
100
AcDbEntity
  8
TRMODEL1
  6
CONTINUOUS
 62
     7
100
AcDbLine
 10
-0.480104
 20
0.44621
 30
0.0
 11
-0.482987
 21
0.442125
 31
0.0
  0
LINE
  5
FE
100
AcDbEntity
  8
TRMODEL1
  6
CONTINUOUS
 62
     7
100
AcDbLine
 10
-0.482987
 20
0.442125
 30
0.0
 11
-0.486048
 21
0.438114
 31
0.0
  0
LINE
  5
FF
100
AcDbEntity
  8
TRMODEL1
  6
CONTINUOUS
 62
     7
100
AcDbLine
 10
-0.486048
 20
0.438114
 30
0.0
 11
-0.489299
 21
0.43418
 31
0.0
  0
LINE
  5
100
100
AcDbEntity
  8
TRMODEL1
  6
CONTINUOUS
 62
     7
100
AcDbLine
 10
-0.489299
 20
0.43418
 30
0.0
 11
-0.492721
 21
0.43037
 31
0.0
  0
LINE
  5
101
100
AcDbEntity
  8
TRMODEL1
  6
CONTINUOUS
 62
     7
100
AcDbLine
 10
-0.492721
 20
0.43037
 30
0.0
 11
-0.496288
 21
0.426725
 31
0.0
  0
LINE
  5
102
100
AcDbEntity
  8
TRMODEL1
  6
CONTINUOUS
 62
     7
100
AcDbLine
 10
-0.496288
 20
0.426725
 30
0.0
 11
-0.499969
 21
0.423281
 31
0.0
  0
LINE
  5
103
100
AcDbEntity
  8
TRMODEL1
  6
CONTINUOUS
 62
     7
100
AcDbLine
 10
-0.499969
 20
0.423281
 30
0.0
 11
-0.503731
 21
0.42007
 31
0.0
  0
LINE
  5
104
100
AcDbEntity
  8
TRMODEL1
  6
CONTINUOUS
 62
     7
100
AcDbLine
 10
-0.503731
 20
0.42007
 30
0.0
 11
-0.507539
 21
0.417115
 31
0.0
  0
LINE
  5
105
100
AcDbEntity
  8
TRMODEL1
  6
CONTINUOUS
 62
     7
100
AcDbLine
 10
-0.507539
 20
0.417115
 30
0.0
 11
-0.511354
 21
0.414432
 31
0.0
  0
LINE
  5
106
100
AcDbEntity
  8
TRMODEL1
  6
CONTINUOUS
 62
     7
100
AcDbLine
 10
-0.511354
 20
0.414432
 30
0.0
 11
-0.515139
 21
0.412029
 31
0.0
  0
LINE
  5
107
100
AcDbEntity
  8
TRMODEL1
  6
CONTINUOUS
 62
     7
100
AcDbLine
 10
-0.515139
 20
0.412029
 30
0.0
 11
-0.518931
 21
0.409867
 31
0.0
  0
LINE
  5
108
100
AcDbEntity
  8
TRMODEL1
  6
CONTINUOUS
 62
     7
100
AcDbLine
 10
-0.518931
 20
0.409867
 30
0.0
 11
-0.522888
 21
0.40786
 31
0.0
  0
LINE
  5
109
100
AcDbEntity
  8
TRMODEL1
  6
CONTINUOUS
 62
     7
100
AcDbLine
 10
-0.522888
 20
0.40786
 30
0.0
 11
-0.526994
 21
0.406036
 31
0.0
  0
LINE
  5
10A
100
AcDbEntity
  8
TRMODEL1
  6
CONTINUOUS
 62
     7
100
AcDbLine
 10
-0.526994
 20
0.406036
 30
0.0
 11
-0.531214
 21
0.404426
 31
0.0
  0
LINE
  5
10B
100
AcDbEntity
  8
TRMODEL1
  6
CONTINUOUS
 62
     7
100
AcDbLine
 10
-0.531214
 20
0.404426
 30
0.0
 11
-0.535512
 21
0.403051
 31
0.0
  0
LINE
  5
10C
100
AcDbEntity
  8
TRMODEL1
  6
CONTINUOUS
 62
     7
100
AcDbLine
 10
-0.535512
 20
0.403051
 30
0.0
 11
-0.539852
 21
0.401928
 31
0.0
  0
LINE
  5
10D
100
AcDbEntity
  8
TRMODEL1
  6
CONTINUOUS
 62
     7
100
AcDbLine
 10
-0.539852
 20
0.401928
 30
0.0
 11
-0.544193
 21
0.401066
 31
0.0
  0
LINE
  5
10E
100
AcDbEntity
  8
TRMODEL1
  6
CONTINUOUS
 62
     7
100
AcDbLine
 10
-0.544193
 20
0.401066
 30
0.0
 11
-0.548496
 21
0.400463
 31
0.0
  0
LINE
  5
10F
100
AcDbEntity
  8
TRMODEL1
  6
CONTINUOUS
 62
     7
100
AcDbLine
 10
-0.548496
 20
0.400463
 30
0.0
 11
-0.552723
 21
0.400112
 31
0.0
  0
LINE
  5
110
100
AcDbEntity
  8
TRMODEL1
  6
CONTINUOUS
 62
     7
100
AcDbLine
 10
-0.552723
 20
0.400112
 30
0.0
 11
-0.556836
 21
0.4
 31
0.0
  0
LINE
  5
111
100
AcDbEntity
  8
TRMODEL1
  6
CONTINUOUS
 62
     7
100
AcDbLine
 10
0.796832
 20
0.4
 30
0.0
 11
-0.796832
 21
0.4
 31
0.0
  0
LINE
  5
112
100
AcDbEntity
  8
TRMODEL1
  6
CONTINUOUS
 62
     7
100
AcDbLine
 10
-0.627547
 20
0.4
 30
0.0
 11
-0.556836
 21
0.4
 31
0.0
  0
LINE
  5
113
100
AcDbEntity
  8
TRMODEL1
  6
CONTINUOUS
 62
     7
100
AcDbLine
 10
-0.867543
 20
0.4
 30
0.0
 11
-1.177953
 21
0.4
 31
0.0
  0
LINE
  5
114
100
AcDbEntity
  8
TRMODEL1
  6
CONTINUOUS
 62
     7
100
AcDbLine
 10
-0.590551
 20
30.709661
 30
0.0
 11
0.590551
 21
30.709661
 31
0.0
  0
LINE
  5
115
100
AcDbEntity
  8
TRMODEL1
  6
CONTINUOUS
 62
     7
100
AcDbLine
 10
-0.590551
 20
32.440945
 30
0.0
 11
0.590551
 21
32.440945
 31
0.0
  0
LINE
  5
116
100
AcDbEntity
  8
TRMODEL1
  6
CONTINUOUS
 62
     7
100
AcDbLine
 10
0.638976
 20
2.362205
 30
0.0
 11
-0.638976
 21
2.362205
 31
0.0
  0
LINE
  5
117
100
AcDbEntity
  8
TRMODEL1
  6
CONTINUOUS
 62
     7
100
AcDbLine
 10
0.590551
 20
30.708661
 30
0.0
 11
-0.590551
 21
30.708661
 31
0.0
  0
LINE
  5
118
100
AcDbEntity
  8
TRMODEL1
  6
CONTINUOUS
 62
     7
100
AcDbLine
 10
1.377953
 20
0.0
 30
0.0
 11
-1.377953
 21
0.0
 31
0.0
  0
LINE
  5
119
100
AcDbEntity
  8
TRMODEL1
  6
CONTINUOUS
 62
     7
100
AcDbLine
 10
-0.590551
 20
30.709661
 30
0.0
 11
-0.589551
 21
30.708661
 31
0.0
  0
LINE
  5
11A
100
AcDbEntity
  8
TRMODEL1
  6
CONTINUOUS
 62
     7
100
AcDbLine
 10
0.589551
 20
30.708661
 30
0.0
 11
0.590551
 21
30.709661
 31
0.0
  0
LINE
  5
11B
100
AcDbEntity
  8
TRMODEL1
  6
CONTINUOUS
 62
     7
100
AcDbLine
 10
-0.590551
 20
32.440945
 30
0.0
 11
-0.590551
 21
30.709661
 31
0.0
  0
LINE
  5
11C
100
AcDbEntity
  8
TRMODEL1
  6
CONTINUOUS
 62
     7
100
AcDbLine
 10
0.590551
 20
30.709661
 30
0.0
 11
0.590551
 21
32.440945
 31
0.0
  0
LINE
  5
11D
100
AcDbEntity
  8
TRMODEL1
  6
CONTINUOUS
 62
     7
100
AcDbLine
 10
0.688976
 20
1.333516
 30
0.0
 11
0.688976
 21
2.312205
 31
0.0
  0
LINE
  5
11E
100
AcDbEntity
  8
TRMODEL1
  6
CONTINUOUS
 62
     7
100
AcDbLine
 10
-0.688976
 20
2.312205
 30
0.0
 11
-0.688976
 21
1.333516
 31
0.0
  0
ARC
  5
11F
100
AcDbEntity
  8
TRMODEL1
  6
CONTINUOUS
 62
     7
100
AcDbCircle
 10
-0.638976
 20
2.312205
 30
0.0
 40
0.05
100
AcDbArc
 50
90.0
 51
180.0
  0
ARC
  5
120
100
AcDbEntity
  8
TRMODEL1
  6
CONTINUOUS
 62
     7
100
AcDbCircle
 10
0.638976
 20
2.312205
 30
0.0
 40
0.05
100
AcDbArc
 50
0.0
 51
90.0
  0
LINE
  5
121
100
AcDbEntity
  8
TRMODEL1
  6
CONTINUOUS
 62
     7
100
AcDbLine
 10
0.590551
 20
2.362205
 30
0.0
 11
0.590551
 21
30.708661
 31
0.0
  0
LINE
  5
122
100
AcDbEntity
  8
TRMODEL1
  6
CONTINUOUS
 62
     7
100
AcDbLine
 10
-0.590551
 20
30.708661
 30
0.0
 11
-0.590551
 21
2.362205
 31
0.0
  0
ARC
  5
123
100
AcDbEntity
  8
TRMODEL1
  6
CONTINUOUS
 62
     7
100
AcDbCircle
 10
-1.177953
 20
0.2
 30
0.0
 40
0.2
100
AcDbArc
 50
90.0
 51
180.0
  0
ARC
  5
124
100
AcDbEntity
  8
TRMODEL1
  6
CONTINUOUS
 62
     7
100
AcDbCircle
 10
1.177953
 20
0.2
 30
0.0
 40
0.2
100
AcDbArc
 50
0.0
 51
90.0
  0
LINE
  5
125
100
AcDbEntity
  8
TRMODEL1
  6
CONTINUOUS
 62
     7
100
AcDbLine
 10
1.377953
 20
0.0
 30
0.0
 11
1.377953
 21
0.2
 31
0.0
  0
LINE
  5
126
100
AcDbEntity
  8
TRMODEL1
  6
CONTINUOUS
 62
     7
100
AcDbLine
 10
-1.377953
 20
0.2
 30
0.0
 11
-1.377953
 21
0.0
 31
0.0
  0
LINE
  5
127
100
AcDbEntity
  8
TRDETAIL3
  6
CENTER2
 62
     4
100
AcDbLine
 10
0.0
 20
-0.118
 30
0.0
 11
0.0
 21
32.558945
 31
0.0
  0
LINE
  5
128
100
AcDbEntity
  8
TRDETAIL3
  6
CENTER2
 62
     4
100
AcDbLine
 10
1.062992
 20
0.44
 30
0.0
 11
1.062992
 21
-0.04
 31
0.0
  0
LINE
  5
129
100
AcDbEntity
  8
TRDETAIL3
  6
CENTER2
 62
     4
100
AcDbLine
 10
-1.062992
 20
0.44
 30
0.0
 11
-1.062992
 21
-0.04
 31
0.0
  0
ENDSEC
  0
SECTION
  2
OBJECTS
  0
DICTIONARY
  5
19
100
AcDbDictionary
  3
ACAD_GROUP
350
1A
  3
ACAD_MLINESTYLE
350
1B
  0
DICTIONARY
  5
1A
102
{ACAD_REACTORS
330
19
102
}
100
AcDbDictionary
  0
DICTIONARY
  5
1B
102
{ACAD_REACTORS
330
19
102
}
100
AcDbDictionary
  3
STANDARD
350
1C
  0
MLINESTYLE
  5
1C
102
{ACAD_REACTORS
330
1B
102
}
100
AcDbMlineStyle
  2
STANDARD
 70
     0
  3

 62
     0
 51
90.0
 52
90.0
 71
     2
 49
0.5
 62
   256
  6
BYLAYER
 49
-0.5
 62
   256
  6
BYLAYER
  0
ENDSEC
  0
EOF
