999
DXF file: C:\Users\sesa63760\Dev\_Creo\CAD\MCADPD0004353_3D-CAD\drw0001_1.dxf
999
Pro/ENGINEER 2019471 by Parametric Technology Corporation
  0
SECTION
  2
HEADER
  9
$ACADVER
  1
AC1024
  9
$DWGCODEPAGE
  3
ANSI_1252
  9
$EXTMAX
 10
125.5162603723
 20
177.5158539551
 30
0.0
  9
$EXTMIN
 10
0.0
 20
0.0
 30
0.0
  9
$LIMMIN
 10
0.0
 20
0.0
  9
$LIMMAX
 10
125.5162603723
 20
177.5158539551
  9
$VIEWCTR
 10
62.7581301861
 20
88.7579269775
  9
$VIEWSIZE
 40
177.5158539551
  9
$CLAYER
  8
0
  9
$LTSCALE
 40
11.5714038134
  9
$CELTYPE
  6
BYLAYER
  9
$DIMSCALE
 40
1.0
  9
$DIMASZ
 40
1.4942411949
  9
$DIMEXO
 40
1.0
  9
$DIMDLI
 40
7.9947880892
  9
$DIMEXE
 40
1.0
  9
$DIMCEN
 40
1.8935024422
  9
$DIMLFAC
 40
1.0
  9
$DIMBLK
  1
_FILLED
  9
$DIMALT
 70
0
  9
$DIMALTF
 40
0.0393700787
  9
$DIMTXT
 40
2.0919376729
  9
$DIMTOL
 70
1
  9
$DIMLIM
 70
0
  9
$DIMTFAC
 40
1.0
  9
$DIMTP
 40
0.01
  9
$DIMTM
 40
0.01
  9
$DIMGAP
 40
0.625
  9
$DIMDSEP
 70
46
  9
$AUNITS
 70
0
  9
$PDMODE
 70
3
  9
$PDSIZE
 40
0.3125
  9
$HANDSEED
  5
2F9
  9
$TILEMODE
 70
1
  9
$MEASUREMENT
 70
1
  9
$INSUNITS
 70
4
  0
ENDSEC
  0
SECTION
  2
CLASSES
  0
CLASS
  1
ACDBDICTIONARYWDFLT
  2
AcDbDictionaryWithDefault
  3
AutoCAD 2000
 90
0
 91
1
280
0
281
0
  0
CLASS
  1
ACDBPLACEHOLDER
  2
AcDbPlaceHolder
  3
AutoCAD 2000
 90
0
 91
1
280
0
281
0
  0
CLASS
  1
LAYOUT
  2
AcDbLayout
  3
AutoCAD 2000
 90
0
 91
0
280
0
281
0
  0
ENDSEC
  0
SECTION
  2
TABLES
  0
TABLE
  2
VPORT
  5
8
100
AcDbSymbolTable
 70
2
  0
VPORT
  5
1F4
100
AcDbSymbolTableRecord
100
AcDbViewportTableRecord
  2
*ACTIVE
 70
0
 10
0.0
 20
0.0
 11
1.0
 21
1.0
 12
62.7581301861
 22
88.7579269775
 13
0.0
 23
0.0
 14
1.0
 24
1.0
 15
0.0
 25
0.0
 16
0.0
 26
0.0
 36
1.0
 17
0.0
 27
0.0
 37
0.0
 40
177.5158539551
 41
0.7070707071
 42
50.0
 43
0.0
 44
0.0
 50
0.0
 51
0.0
 71
0
 72
100
 73
1
 74
1
 75
0
 76
0
 77
0
 78
0
  0
ENDTAB
  0
TABLE
  2
LTYPE
  5
5
100
AcDbSymbolTable
 70
6
  0
LTYPE
  5
14
100
AcDbSymbolTableRecord
100
AcDbLinetypeTableRecord
  2
BYBLOCK
 70
0
  3

 72
65
 73
0
 40
0.0
  0
LTYPE
  5
15
100
AcDbSymbolTableRecord
100
AcDbLinetypeTableRecord
  2
BYLAYER
 70
0
  3

 72
65
 73
0
 40
0.0
  0
LTYPE
  5
16
100
AcDbSymbolTableRecord
100
AcDbLinetypeTableRecord
  2
CONTINUOUS
 70
64
  3
Solid line
 72
65
 73
0
 40
0.0
  0
LTYPE
  5
1F5
100
AcDbSymbolTableRecord
100
AcDbLinetypeTableRecord
  2
CENTER
 70
64
  3
____ _ ____ _ ____ _ ____ _ ____ _ ____ _ ____
 72
65
 73
4
 40
0.6
 49
0.375
 74
0
 49
-0.075
 74
0
 49
0.075
 74
0
 49
-0.075
 74
0
  0
LTYPE
  5
1F6
100
AcDbSymbolTableRecord
100
AcDbLinetypeTableRecord
  2
HIDDEN
 70
64
  3
- - - - - - - - - - - - - - - - - - - -
 72
65
 73
2
 40
0.2
 49
0.1
 74
0
 49
-0.1
 74
0
  0
LTYPE
  5
1F7
100
AcDbSymbolTableRecord
100
AcDbLinetypeTableRecord
  2
PHANTOM
 70
64
  3
_____ _ _ _____ _ _ _____ _ _ _____
 72
65
 73
6
 40
0.8
 49
0.45
 74
0
 49
-0.05
 74
0
 49
0.1
 74
0
 49
-0.05
 74
0
 49
0.1
 74
0
 49
-0.05
 74
0
  0
LTYPE
  5
1F8
100
AcDbSymbolTableRecord
100
AcDbLinetypeTableRecord
  2
DOT
 70
64
  3
. . . . . . . . . . . . . . . . . . . .
 72
65
 73
2
 40
0.2
 49
0.1
 74
0
 49
-0.1
 74
0
  0
LTYPE
  5
1F9
100
AcDbSymbolTableRecord
100
AcDbLinetypeTableRecord
  2
DASHED
 70
64
  3
- - - - - - - - - - - - - - - - - - - -
 72
65
 73
2
 40
0.2
 49
0.1
 74
0
 49
-0.1
 74
0
  0
ENDTAB
  0
TABLE
  2
LAYER
  5
2
100
AcDbSymbolTable
 70
36
  0
LAYER
  5
10
100
AcDbSymbolTableRecord
100
AcDbLayerTableRecord
  2
0
 70
0
 62
7
  6
CONTINUOUS
370
-3
390
F
  0
LAYER
  5
1FA
100
AcDbSymbolTableRecord
100
AcDbLayerTableRecord
  2
DEFAULT_1
 70
0
 62
7
  6
CENTER
370
-3
390
F
  0
LAYER
  5
1FB
100
AcDbSymbolTableRecord
100
AcDbLayerTableRecord
  2
DEFAULT_2
 70
0
 62
7
  6
HIDDEN
370
-3
390
F
  0
LAYER
  5
1FC
100
AcDbSymbolTableRecord
100
AcDbLayerTableRecord
  2
DEFAULT_3
 70
0
 62
7
  6
PHANTOM
370
-3
390
F
  0
LAYER
  5
1FD
100
AcDbSymbolTableRecord
100
AcDbLayerTableRecord
  2
00_COMPONENTS
 70
0
 62
7
  6
CONTINUOUS
370
-3
390
F
  0
LAYER
  5
1FE
100
AcDbSymbolTableRecord
100
AcDbLayerTableRecord
  2
01_1_DEFAULT_DATUMS
 70
0
 62
7
  6
CONTINUOUS
370
-3
390
F
  0
LAYER
  5
1FF
100
AcDbSymbolTableRecord
100
AcDbLayerTableRecord
  2
01_PLANES
 70
0
 62
7
  6
CONTINUOUS
370
-3
390
F
  0
LAYER
  5
200
100
AcDbSymbolTableRecord
100
AcDbLayerTableRecord
  2
02_COORD_SYS
 70
0
 62
7
  6
CONTINUOUS
370
-3
390
F
  0
LAYER
  5
201
100
AcDbSymbolTableRecord
100
AcDbLayerTableRecord
  2
03_AXES
 70
0
 62
7
  6
CONTINUOUS
370
-3
390
F
  0
LAYER
  5
202
100
AcDbSymbolTableRecord
100
AcDbLayerTableRecord
  2
04_POINTS
 70
0
 62
7
  6
CONTINUOUS
370
-3
390
F
  0
LAYER
  5
203
100
AcDbSymbolTableRecord
100
AcDbLayerTableRecord
  2
05_CURVES
 70
0
 62
7
  6
CONTINUOUS
370
-3
390
F
  0
LAYER
  5
204
100
AcDbSymbolTableRecord
100
AcDbLayerTableRecord
  2
06_SURFS
 70
0
 62
7
  6
CONTINUOUS
370
-3
390
F
  0
LAYER
  5
205
100
AcDbSymbolTableRecord
100
AcDbLayerTableRecord
  2
07_COSMETICS
 70
0
 62
7
  6
CONTINUOUS
370
-3
390
F
  0
LAYER
  5
206
100
AcDbSymbolTableRecord
100
AcDbLayerTableRecord
  2
10_NOTES
 70
0
 62
7
  6
CONTINUOUS
370
-3
390
F
  0
LAYER
  5
207
100
AcDbSymbolTableRecord
100
AcDbLayerTableRecord
  2
11_NOTES_PUB
 70
0
 62
7
  6
CONTINUOUS
370
-3
390
F
  0
LAYER
  5
208
100
AcDbSymbolTableRecord
100
AcDbLayerTableRecord
  2
13_REF_GTOL
 70
0
 62
7
  6
CONTINUOUS
370
-3
390
F
  0
LAYER
  5
209
100
AcDbSymbolTableRecord
100
AcDbLayerTableRecord
  2
16_MISC
 70
0
 62
7
  6
CONTINUOUS
370
-3
390
F
  0
LAYER
  5
20A
100
AcDbSymbolTableRecord
100
AcDbLayerTableRecord
  2
17_NO_PRINT
 70
0
 62
7
  6
CONTINUOUS
370
-3
390
F
  0
LAYER
  5
20B
100
AcDbSymbolTableRecord
100
AcDbLayerTableRecord
  2
18_DATUM_CAMS_JOINTS
 70
0
 62
7
  6
CONTINUOUS
370
-3
390
F
  0
LAYER
  5
20C
100
AcDbSymbolTableRecord
100
AcDbLayerTableRecord
  2
19_DATUM_FUNCTIONAL
 70
0
 62
7
  6
CONTINUOUS
370
-3
390
F
  0
LAYER
  5
20D
100
AcDbSymbolTableRecord
100
AcDbLayerTableRecord
  2
20_DATUM_KINEMATIC_SCHEME
 70
0
 62
7
  6
CONTINUOUS
370
-3
390
F
  0
ENDTAB
  0
TABLE
  2
STYLE
  5
3
100
AcDbSymbolTable
 70
1
  0
STYLE
  5
11
100
AcDbSymbolTableRecord
100
AcDbTextStyleTableRecord
  2
STANDARD
 70
0
 40
0.0
 41
1.0
 50
0.0
 71
0
 42
0.2
  3
ARIAL.TTF
  4

  0
STYLE
  5
20E
100
AcDbSymbolTableRecord
100
AcDbTextStyleTableRecord
  2
TEXTSTYLE_1
 70
0
 40
0.0
 41
0.8
 50
0.0
 71
0
 42
0.2
  3
gdt
  4

  0
ENDTAB
  0
TABLE
  2
VIEW
  5
6
100
AcDbSymbolTable
 70
0
  0
ENDTAB
  0
TABLE
  2
UCS
  5
7
100
AcDbSymbolTable
 70
0
  0
ENDTAB
  0
TABLE
  2
APPID
  5
9
100
AcDbSymbolTable
 70
1
  0
APPID
  5
20F
100
AcDbSymbolTableRecord
100
AcDbRegAppTableRecord
  2
ACAD
 70
0
  0
ENDTAB
  0
TABLE
  2
BLOCK_RECORD
  5
1
100
AcDbSymbolTable
 70
0
  0
BLOCK_RECORD
  5
210
100
AcDbSymbolTableRecord
100
AcDbBlockTableRecord
  2
*Model_Space
  0
BLOCK_RECORD
  5
211
100
AcDbSymbolTableRecord
100
AcDbBlockTableRecord
  2
*Paper_Space
  0
BLOCK_RECORD
  5
212
100
AcDbSymbolTableRecord
100
AcDbBlockTableRecord
  2
_FILLED
  0
ENDTAB
  0
TABLE
  2
DIMSTYLE
  5
A
100
AcDbSymbolTable
 70
1
100
AcDbDimStyleTable
 71
0
  0
DIMSTYLE
105
213
100
AcDbSymbolTableRecord
100
AcDbDimStyleTableRecord
  2
STANDARD
 70
0
  3

  4

 40
1.0
 41
1.4942411949
 42
1.0
 43
0.38
 44
1.0
 45
0.0
 46
0.0
 47
0.01
 48
0.01
140
2.0919376729
141
0.09
142
0.0
143
25.4
144
1.0
145
0.0
146
1.0
147
0.625
 71
1
 72
0
 73
0
 74
0
 75
0
 76
0
 77
1
 78
8
 79
2
170
0
171
1
172
0
173
0
174
0
175
0
176
0
177
0
178
0
270
2
179
2
271
2
272
2
273
2
274
2
275
0
280
0
281
0
282
0
283
1
284
8
285
0
286
0
287
3
288
0
340
11
278
46
341
212
342
212
343
212
344
212
  0
ENDTAB
  0
ENDSEC
  0
SECTION
  2
BLOCKS
  0
BLOCK
  5
20
100
AcDbEntity
  8
0
100
AcDbBlockBegin
  2
*Model_Space
 70
0
 10
0.0
 20
0.0
 30
0.0
  3
*Model_Space
  1

  0
ENDBLK
  5
21
100
AcDbEntity
  8
0
100
AcDbBlockEnd
  0
BLOCK
  5
1C
100
AcDbEntity
  8
0
100
AcDbBlockBegin
  2
*Paper_Space
 70
0
 10
0.0
 20
0.0
 30
0.0
  3
*Paper_Space
  1

  0
ENDBLK
  5
1D
100
AcDbEntity
  8
0
100
AcDbBlockEnd
  0
BLOCK
  5
214
100
AcDbEntity
  8
0
100
AcDbBlockBegin
  2
_FILLED
 70
64
 10
0.0
 20
0.0
  3
_FILLED
  1

  0
SOLID
  5
215
100
AcDbEntity
  8
0
  6
BYBLOCK
 62
0
100
AcDbTrace
 10
0.0
 20
0.0
 11
-1.0
 21
0.25
 12
-1.0
 22
-0.25
 13
-1.0
 23
-0.25
  0
ENDBLK
  5
216
100
AcDbEntity
  8
0
  6
BYBLOCK
 62
0
100
AcDbBlockEnd
  0
ENDSEC
  0
SECTION
  2
ENTITIES
  0
LINE
  5
217
100
AcDbEntity
  8
0
100
AcDbLine
 62
7
  6
BYLAYER
 10
42.1158613766
 20
162.9859267807
 11
43.530069051
 21
163.8024150884
  0
LINE
  5
218
100
AcDbEntity
  8
0
100
AcDbLine
 62
7
  6
BYLAYER
 10
48.5300466666
 20
163.3071722983
 11
47.1158389922
 21
162.4906839905
  0
LINE
  5
219
100
AcDbEntity
  8
0
100
AcDbLine
 62
7
  6
BYLAYER
 10
50.651375842
 20
153.1009234463
 11
49.2371681676
 21
152.2844351385
  0
LINE
  5
21A
100
AcDbEntity
  8
0
100
AcDbLine
 62
7
  6
BYLAYER
 10
50.6513876179
 20
27.3595862258
 11
71.8646793723
 21
15.1123635902
  0
LINE
  5
21B
100
AcDbEntity
  8
0
100
AcDbLine
 62
7
  6
BYLAYER
 10
56.7224481307
 20
149.9339793326
 11
55.3082404563
 21
149.1174910248
  0
LINE
  5
21C
100
AcDbEntity
  8
0
100
AcDbLine
 62
7
  6
BYLAYER
 10
57.7224436539
 20
149.8349307745
 11
56.3082359794
 21
149.0184424668
  0
LINE
  5
21D
100
AcDbEntity
  8
0
100
AcDbLine
 62
7
  6
BYLAYER
 10
53.4798088547
 20
135.954396994
 11
54.1869126919
 21
136.3626411479
  0
LINE
  5
21E
100
AcDbEntity
  8
0
100
AcDbLine
 62
7
  6
BYLAYER
 10
49.2371681676
 20
133.096628336
 11
50.651375842
 21
133.9131166437
  0
LINE
  5
21F
100
AcDbEntity
  8
0
100
AcDbLine
 62
7
  6
BYLAYER
 10
75.4002279981
 20
146.1610538097
 11
76.8144356725
 21
146.9775421175
  0
LINE
  5
220
100
AcDbEntity
  8
0
100
AcDbLine
 62
7
  6
BYLAYER
 10
82.4713252495
 20
26.1353030321
 11
40.0447417407
 21
50.6297483033
  0
LINE
  5
221
100
AcDbEntity
  8
0
100
AcDbLine
 62
7
  6
BYLAYER
 10
66.2077603556
 20
136.1586407361
 11
64.7935526812
 21
135.3421524284
  0
LINE
  5
222
100
AcDbEntity
  8
0
100
AcDbLine
 62
7
  6
BYLAYER
 10
42.1660532524
 20
54.3039880163
 11
84.5926367612
 21
29.8095427451
  0
LINE
  5
223
100
AcDbEntity
  8
0
100
AcDbLine
 62
7
  6
BYLAYER
 10
85.2997405984
 20
30.217786899
 11
42.8731570896
 21
54.7122321702
  0
LINE
  5
224
100
AcDbEntity
  8
0
100
AcDbLine
 62
7
  6
BYLAYER
 10
43.5802609268
 20
55.9369787412
 11
86.0068444356
 21
31.44253347
  0
LINE
  5
225
100
AcDbEntity
  8
0
100
AcDbLine
 62
7
  6
BYLAYER
 10
64.0864723957
 20
124.5235724911
 11
65.5006800701
 21
125.3400607988
  0
LINE
  5
226
100
AcDbEntity
  8
0
100
AcDbLine
 62
7
  6
BYLAYER
 10
83.885532924
 20
134.730110401
 11
82.4713252495
 21
133.9136220932
  0
LINE
  5
227
100
AcDbEntity
  8
0
100
AcDbLine
 62
7
  6
BYLAYER
 10
40.0447417407
 20
45.7307338006
 11
40.0447417407
 21
50.6297483033
  0
LINE
  5
228
100
AcDbEntity
  8
0
100
AcDbLine
 62
7
  6
BYLAYER
 10
40.0447417407
 20
74.3083184001
 11
40.0447417407
 21
158.4080673644
  0
LINE
  5
229
100
AcDbEntity
  8
0
100
AcDbLine
 62
7
  6
BYLAYER
 10
40.6660787029
 20
72.9349599566
 11
83.0926622117
 21
48.4405146854
  0
LINE
  5
22A
100
AcDbEntity
  8
0
100
AcDbLine
 62
7
  6
BYLAYER
 10
40.0447417407
 20
74.3083184001
 11
82.4713252495
 21
49.8138731289
  0
LINE
  5
22B
100
AcDbEntity
  8
0
100
AcDbLine
 62
7
  6
BYLAYER
 10
86.0068444356
 20
48.5890842297
 11
85.299731545
 21
48.9973268117
  0
LINE
  5
22C
100
AcDbEntity
  8
0
100
AcDbLine
 62
7
  6
BYLAYER
 10
83.8855238706
 20
50.6303457554
 11
84.5926367612
 21
50.2221031734
  0
LINE
  5
22D
100
AcDbEntity
  8
0
100
AcDbLine
 62
7
  6
BYLAYER
 10
85.2997405984
 20
50.6303473272
 11
83.885532924
 21
51.4468220376
  0
LINE
  5
22E
100
AcDbEntity
  8
0
100
AcDbLine
 62
7
  6
BYLAYER
 10
83.885532924
 20
52.4613968099
 11
86.7997151478
 21
50.7789309809
  0
LINE
  5
22F
100
AcDbEntity
  8
0
100
AcDbLine
 62
7
  6
BYLAYER
 10
43.5802609268
 20
55.9369787412
 11
43.5802609268
 21
71.2524941277
  0
LINE
  5
230
100
AcDbEntity
  8
0
100
AcDbLine
 62
7
  6
BYLAYER
 10
48.3532515715
 20
65.8371411137
 11
48.3532515715
 21
57.6721169424
  0
LINE
  5
231
100
AcDbEntity
  8
0
100
AcDbLine
 62
7
  6
BYLAYER
 10
49.2371681676
 20
133.096628336
 11
49.2371681676
 21
152.2844351385
  0
LINE
  5
232
100
AcDbEntity
  8
0
100
AcDbLine
 62
7
  6
BYLAYER
 10
49.7674592459
 20
66.6536294215
 11
49.7674592459
 21
58.4886052502
  0
LINE
  5
233
100
AcDbEntity
  8
0
100
AcDbLine
 62
7
  6
BYLAYER
 10
50.651375842
 20
133.9131166437
 11
50.651375842
 21
153.1009234463
  0
LINE
  5
234
100
AcDbEntity
  8
0
100
AcDbLine
 62
7
  6
BYLAYER
 10
51.3584973431
 20
131.8719060724
 11
51.3584973431
 21
132.280157281
  0
LINE
  5
235
100
AcDbEntity
  8
0
100
AcDbLine
 62
7
  6
BYLAYER
 10
52.949464785
 20
55.018552038
 11
52.949464785
 21
63.1835762093
  0
LINE
  5
236
100
AcDbEntity
  8
0
100
AcDbLine
 62
7
  6
BYLAYER
 10
54.8940165291
 20
137.5873877189
 11
54.8940165291
 21
148.2019191416
  0
LINE
  5
237
100
AcDbEntity
  8
0
100
AcDbLine
 62
7
  6
BYLAYER
 10
64.0864723957
 20
124.5235724911
 11
64.0864723957
 21
124.9318236996
  0
LINE
  5
238
100
AcDbEntity
  8
0
100
AcDbLine
 62
7
  6
BYLAYER
 10
65.5006800701
 20
125.7483120074
 11
65.5006800701
 21
125.3400607988
  0
LINE
  5
239
100
AcDbEntity
  8
0
100
AcDbLine
 62
7
  6
BYLAYER
 10
66.2078015711
 20
142.4866570301
 11
66.2078015711
 21
123.2988502275
  0
LINE
  5
23A
100
AcDbEntity
  8
0
100
AcDbLine
 62
7
  6
BYLAYER
 10
70.3797195098
 20
53.1204416104
 11
70.3797195098
 21
44.9554174391
  0
LINE
  5
23B
100
AcDbEntity
  8
0
100
AcDbLine
 62
7
  6
BYLAYER
 10
71.7939271843
 20
53.9369299181
 11
71.7939271843
 21
45.7719057468
  0
LINE
  5
23C
100
AcDbEntity
  8
0
100
AcDbLine
 62
7
  6
BYLAYER
 10
73.3495803555
 20
43.2408062701
 11
73.3495803555
 21
51.4058304414
  0
LINE
  5
23D
100
AcDbEntity
  8
0
100
AcDbLine
 62
7
  6
BYLAYER
 10
76.6376405774
 20
49.5075109329
 11
76.6376405774
 21
41.3424867616
  0
LINE
  5
23E
100
AcDbEntity
  8
0
100
AcDbLine
 62
7
  6
BYLAYER
 10
78.0518482518
 20
50.3239992406
 11
78.0518482518
 21
42.1589750693
  0
LINE
  5
23F
100
AcDbEntity
  8
0
100
AcDbLine
 62
7
  6
BYLAYER
 10
49.7674592459
 20
66.6536294215
 11
48.3532515715
 21
65.8371411137
  0
LINE
  5
240
100
AcDbEntity
  8
0
100
AcDbLine
 62
7
  6
BYLAYER
 10
81.2338537909
 20
38.6889218572
 11
81.2338537909
 21
46.8539460285
  0
LINE
  5
241
100
AcDbEntity
  8
0
100
AcDbLine
 62
7
  6
BYLAYER
 10
82.4713252495
 20
21.2362885293
 11
82.4713252495
 21
26.1353030321
  0
LINE
  5
242
100
AcDbEntity
  8
0
100
AcDbLine
 62
7
  6
BYLAYER
 10
82.4713252495
 20
49.8138731289
 11
82.4713252495
 21
133.9136220932
  0
LINE
  5
243
100
AcDbEntity
  8
0
100
AcDbLine
 62
7
  6
BYLAYER
 10
83.885532924
 20
134.730110401
 11
83.885532924
 21
50.6303614366
  0
LINE
  5
244
100
AcDbEntity
  8
0
100
AcDbLine
 62
7
  6
BYLAYER
 10
83.885532924
 20
26.9517913399
 11
83.885532924
 21
22.0527768371
  0
LINE
  5
245
100
AcDbEntity
  8
0
100
AcDbLine
 62
7
  6
BYLAYER
 10
42.8731570896
 20
54.7122321702
 11
42.1660532524
 21
54.3039880163
  0
LINE
  5
246
100
AcDbEntity
  8
0
100
AcDbLine
 62
7
  6
BYLAYER
 10
48.3532515715
 20
57.6721169424
 11
49.7674592459
 21
58.4886052502
  0
LINE
  5
247
100
AcDbEntity
  8
0
100
AcDbLine
 62
7
  6
BYLAYER
 10
86.0068444356
 20
48.5890842297
 11
86.0068444356
 21
31.44253347
  0
LINE
  5
248
100
AcDbEntity
  8
0
100
AcDbLine
 62
7
  6
BYLAYER
 10
87.42105211
 20
49.4055725375
 11
87.42105211
 21
32.2590217777
  0
LINE
  5
249
100
AcDbEntity
  8
0
100
AcDbLine
 62
7
  6
BYLAYER
 10
82.4713252495
 20
21.2362885293
 11
81.662464711
 21
17.0122465743
  0
LINE
  5
24A
100
AcDbEntity
  8
0
100
AcDbLine
 62
7
  6
BYLAYER
 10
64.0864723957
 20
124.9318236996
 11
51.3584973431
 21
132.280157281
  0
LINE
  5
24B
100
AcDbEntity
  8
0
100
AcDbLine
 62
7
  6
BYLAYER
 10
71.7939271843
 20
53.9369299181
 11
70.3797195098
 21
53.1204416104
  0
LINE
  5
24C
100
AcDbEntity
  8
0
100
AcDbLine
 62
7
  6
BYLAYER
 10
53.4798088547
 20
135.954396994
 11
66.2077839073
 21
128.6060634126
  0
LINE
  5
24D
100
AcDbEntity
  8
0
100
AcDbLine
 62
7
  6
BYLAYER
 10
66.2078015711
 20
129.4225347237
 11
54.1869126919
 21
136.3626411479
  0
LINE
  5
24E
100
AcDbEntity
  8
0
100
AcDbLine
 62
7
  6
BYLAYER
 10
78.0518482518
 20
50.3239992406
 11
76.6376405774
 21
49.5075109329
  0
LINE
  5
24F
100
AcDbEntity
  8
0
100
AcDbLine
 62
7
  6
BYLAYER
 10
70.3797195098
 20
44.9554174391
 11
71.7939271843
 21
45.7719057468
  0
LINE
  5
250
100
AcDbEntity
  8
0
100
AcDbLine
 62
7
  6
BYLAYER
 10
54.8940165291
 20
137.5873877189
 11
66.2078015711
 21
131.0555186499
  0
LINE
  5
251
100
AcDbEntity
  8
0
100
AcDbLine
 62
7
  6
BYLAYER
 10
64.7935526812
 20
135.3421524284
 11
66.2077721315
 21
134.5256709194
  0
LINE
  5
252
100
AcDbEntity
  8
0
100
AcDbLine
 62
7
  6
BYLAYER
 10
85.2997405984
 20
50.6303473272
 11
84.5926367612
 21
50.2221031734
  0
LINE
  5
253
100
AcDbEntity
  8
0
100
AcDbLine
 62
7
  6
BYLAYER
 10
84.5926367612
 20
48.5890983391
 11
85.2997405984
 21
48.997342493
  0
LINE
  5
254
100
AcDbEntity
  8
0
100
AcDbLine
 62
7
  6
BYLAYER
 10
76.6376405774
 20
41.3424867616
 11
78.0518482518
 21
42.1589750693
  0
LINE
  5
255
100
AcDbEntity
  8
0
100
AcDbLine
 62
7
  6
BYLAYER
 10
66.2077721315
 20
139.8329366307
 11
64.7935526812
 21
140.6494181397
  0
LINE
  5
256
100
AcDbEntity
  8
0
100
AcDbLine
 62
7
  6
BYLAYER
 10
56.3082359794
 20
149.0184424668
 11
66.0181329549
 21
143.4125576562
  0
LINE
  5
257
100
AcDbEntity
  8
0
100
AcDbLine
 62
7
  6
BYLAYER
 10
57.7224436539
 20
149.8349307745
 11
65.1224806777
 21
145.5626140595
  0
LINE
  5
258
100
AcDbEntity
  8
0
100
AcDbLine
 62
7
  6
BYLAYER
 10
52.0656070682
 20
153.917481789
 11
63.3793626706
 21
147.3856297167
  0
LINE
  5
259
100
AcDbEntity
  8
0
100
AcDbLine
 62
7
  6
BYLAYER
 10
75.4002279981
 20
146.1610538097
 11
47.1158389922
 21
162.4906839905
  0
LINE
  5
25A
100
AcDbEntity
  8
0
100
AcDbLine
 62
7
  6
BYLAYER
 10
76.8144356725
 20
146.9775421175
 11
48.5300466666
 21
163.3071722983
  0
LINE
  5
25B
100
AcDbEntity
  8
0
100
AcDbLine
 62
7
  6
BYLAYER
 10
81.662464711
 20
17.0122465743
 11
79.3646375886
 21
14.3695136202
  0
LINE
  5
25C
100
AcDbEntity
  8
0
100
AcDbLine
 62
7
  6
BYLAYER
 10
85.2997405984
 20
30.217786899
 11
84.5926367612
 21
29.8095427451
  0
LINE
  5
25D
100
AcDbEntity
  8
0
100
AcDbLine
 62
7
  6
BYLAYER
 10
84.5926367612
 20
28.1765379109
 11
85.2997405984
 21
28.5847820647
  0
LINE
  5
25E
100
AcDbEntity
  8
0
100
AcDbLine
 62
7
  6
BYLAYER
 10
82.4713252495
 20
21.2362885293
 11
83.885532924
 21
22.0527768371
  0
LINE
  5
25F
100
AcDbEntity
  8
0
100
AcDbLine
 62
7
  6
BYLAYER
 10
79.3646457957
 20
14.369499405
 11
80.7788534702
 21
15.1859877127
  0
ARC
  5
260
100
AcDbEntity
  8
0
100
AcDbCircle
 62
7
  6
BYLAYER
 10
52.8196740328
 20
133.8321106717
 40
2.0811235403
100
AcDbArc
 50
225.6540155979
 51
227.4683059828
  0
ARC
  5
261
100
AcDbEntity
  8
0
100
AcDbCircle
 62
7
  6
BYLAYER
 10
59.5487144492
 20
143.7522891887
 40
1.896981792
100
AcDbArc
 50
177.9094563001
 51
180.0091356148
  0
ARC
  5
262
100
AcDbEntity
  8
0
100
AcDbCircle
 62
7
  6
BYLAYER
 10
60.0853929409
 20
142.8227072467
 40
1.8969685767
100
AcDbArc
 50
239.9914357819
 51
242.0899220972
  0
ARC
  5
263
100
AcDbEntity
  8
0
100
AcDbCircle
 62
7
  6
BYLAYER
 10
73.6381436189
 20
134.3532637398
 40
0.667768328
100
AcDbArc
 50
139.6525722851
 51
142.4605273253
  0
ARC
  5
264
100
AcDbEntity
  8
0
100
AcDbCircle
 62
7
  6
BYLAYER
 10
60.3798362725
 20
29.7386955317
 40
0.6677683281
100
AcDbArc
 50
139.6525722956
 51
142.4605273358
  0
ARC
  5
265
100
AcDbEntity
  8
0
100
AcDbCircle
 62
7
  6
BYLAYER
 10
60.3798362725
 20
37.4954684944
 40
0.6677683281
100
AcDbArc
 50
139.6525722956
 51
142.4605273357
  0
ARC
  5
266
100
AcDbEntity
  8
0
100
AcDbCircle
 62
7
  6
BYLAYER
 10
63.0314977417
 20
71.8906720187
 40
0.667768328
100
AcDbArc
 50
139.6525722852
 51
142.4605273253
  0
ARC
  5
267
100
AcDbEntity
  8
0
100
AcDbCircle
 62
7
  6
BYLAYER
 10
69.925817562
 20
112.8179576042
 40
0.6677683281
100
AcDbArc
 50
139.6525722955
 51
142.4605273357
  0
ARC
  5
268
100
AcDbEntity
  8
0
100
AcDbCircle
 62
7
  6
BYLAYER
 10
45.1769771818
 20
82.1987510703
 40
0.667768328
100
AcDbArc
 50
139.6525722852
 51
142.4605273254
  0
ARC
  5
269
100
AcDbEntity
  8
0
100
AcDbCircle
 62
7
  6
BYLAYER
 10
47.1215289259
 20
149.6622920343
 40
0.667768328
100
AcDbArc
 50
139.6525722851
 51
142.4605273254
  0
SPLINE
  5
26A
100
AcDbEntity
  8
0
100
AcDbSpline
 62
7
  6
BYLAYER
 70
0
 71
3
 72
11
 73
7
 74
0
 42
0.0000001
 43
0.0000001
 44
0.0000000001
 40
0.0
 40
0.0
 40
0.0
 40
0.0
 40
0.289702809
 40
0.549088757
 40
0.7822160314
 40
1.0
 40
1.0
 40
1.0
 40
1.0
 10
84.5926367612
 20
48.5890983391
 30
0.0
 10
84.4610021571
 20
48.5130995187
 30
0.0
 10
84.199138519
 20
48.3885233814
 30
0.0
 10
83.7966484621
 20
48.2913256765
 30
0.0
 10
83.4189946131
 20
48.3008845756
 30
0.0
 10
83.1916263633
 20
48.3833962723
 30
0.0
 10
83.0926696964
 20
48.4405276495
 30
0.0
  0
SPLINE
  5
26B
100
AcDbEntity
  8
0
100
AcDbSpline
 62
7
  6
BYLAYER
 70
0
 71
3
 72
11
 73
7
 74
0
 42
0.0000001
 43
0.0000001
 44
0.0000000001
 40
0.0
 40
0.0
 40
0.0
 40
0.0
 40
0.2895411595
 40
0.5491183966
 40
0.7822559144
 40
1.0
 40
1.0
 40
1.0
 40
1.0
 10
83.885532924
 20
50.6303614366
 30
0.0
 10
83.885532924
 20
50.5797225847
 30
0.0
 10
83.8932649654
 20
50.4833657324
 30
0.0
 10
83.9322180736
 20
50.3509545692
 30
0.0
 10
83.9979246381
 20
50.2434734322
 30
0.0
 10
84.0596930398
 20
50.1916644256
 30
0.0
 10
84.0926732204
 20
50.1726237459
 30
0.0
  0
SPLINE
  5
26C
100
AcDbEntity
  8
0
100
AcDbSpline
 62
7
  6
BYLAYER
 70
0
 71
3
 72
13
 73
9
 74
0
 42
0.0000001
 43
0.0000001
 44
0.0000000001
 40
0.0
 40
0.0
 40
0.0
 40
0.0
 40
0.1142260229
 40
0.2375602528
 40
0.5000015383
 40
0.7624419778
 40
0.8857752456
 40
1.0
 40
1.0
 40
1.0
 40
1.0
 10
87.42105211
 20
32.2590217777
 30
0.0
 10
87.42105211
 20
32.0913803118
 30
0.0
 10
87.390296194
 20
31.7423828321
 30
0.0
 10
87.2235823962
 20
31.025949305
 30
0.0
 10
86.8361249381
 20
30.1472346095
 30
0.0
 10
86.2688692885
 20
29.3723272181
 30
0.0
 10
85.7317810848
 20
28.8697337654
 30
0.0
 10
85.444920971
 20
28.6686014916
 30
0.0
 10
85.2997405984
 20
28.5847820647
 30
0.0
  0
SPLINE
  5
26D
100
AcDbEntity
  8
0
100
AcDbSpline
 62
7
  6
BYLAYER
 70
0
 71
3
 72
11
 73
7
 74
0
 42
0.0000001
 43
0.0000001
 44
0.0000000001
 40
0.0
 40
0.0
 40
0.0
 40
0.0
 40
0.2372518718
 40
0.4999985497
 40
0.7627460178
 40
1.0
 40
1.0
 40
1.0
 40
1.0
 10
84.5926367612
 20
28.1765379109
 30
0.0
 10
84.4922427946
 20
28.1185757732
 30
0.0
 10
84.302256261
 20
27.9586988635
 30
0.0
 10
84.0806010164
 20
27.6556669455
 30
0.0
 10
83.9289967607
 20
27.3121901356
 30
0.0
 10
83.885532924
 20
27.0677171652
 30
0.0
 10
83.885532924
 20
26.9517913399
 30
0.0
  0
SPLINE
  5
26E
100
AcDbEntity
  8
0
100
AcDbSpline
 62
7
  6
BYLAYER
 70
0
 71
3
 72
11
 73
7
 74
0
 42
0.0000001
 43
0.0000001
 44
0.0000000001
 40
0.0
 40
0.0
 40
0.0
 40
0.0
 40
0.2177660095
 40
0.4508968553
 40
0.7103699668
 40
1.0
 40
1.0
 40
1.0
 40
1.0
 10
69.8290924177
 20
86.4077543334
 30
0.0
 10
69.9280212867
 20
86.4649230117
 30
0.0
 10
70.1132708004
 20
86.6204253548
 30
0.0
 10
70.3103579961
 20
86.9428179833
 30
0.0
 10
70.4273601379
 20
87.3400105013
 30
0.0
 10
70.450459922
 20
87.6290923376
 30
0.0
 10
70.450459922
 20
87.7810578066
 30
0.0
  0
SPLINE
  5
26F
100
AcDbEntity
  8
0
100
AcDbSpline
 62
7
  6
BYLAYER
 70
0
 71
3
 72
15
 73
11
 74
0
 42
0.0000001
 43
0.0000001
 44
0.0000000001
 40
0.0
 40
0.0
 40
0.0
 40
0.0
 40
0.1013908516
 40
0.2162929375
 40
0.3428343565
 40
0.4773598328
 40
0.6152237108
 40
0.7513616988
 40
0.8810173227
 40
1.0
 40
1.0
 40
1.0
 40
1.0
 10
70.3942688357
 20
87.1151895712
 30
0.0
 10
70.2251970827
 20
87.149874879
 30
0.0
 10
69.8753396421
 20
87.2788256714
 30
0.0
 10
69.3813105979
 20
87.5952904146
 30
0.0
 10
68.9073801263
 20
88.0295144098
 30
0.0
 10
68.4783511408
 20
88.5587587098
 30
0.0
 10
68.116610886
 20
89.1551110827
 30
0.0
 10
67.841134016
 20
89.787038317
 30
0.0
 10
67.6669433531
 20
90.420760314
 30
0.0
 10
67.6220092456
 20
90.8444519351
 30
0.0
 10
67.6220092456
 20
91.0469906415
 30
0.0
  0
SPLINE
  5
270
100
AcDbEntity
  8
0
100
AcDbSpline
 62
7
  6
BYLAYER
 70
0
 71
3
 72
11
 73
7
 74
0
 42
0.0000001
 43
0.0000001
 44
0.0000000001
 40
0.0
 40
0.0
 40
0.0
 40
0.0
 40
0.217745073
 40
0.4508830113
 40
0.7104597664
 40
1.0
 40
1.0
 40
1.0
 40
1.0
 10
58.7723919779
 20
140.2596385261
 30
0.0
 10
58.8416502817
 20
140.2996246208
 30
0.0
 10
58.9713636371
 20
140.4084242385
 30
0.0
 10
59.1093470996
 20
140.6341347956
 30
0.0
 10
59.1911486747
 20
140.912197468
 30
0.0
 10
59.2073858525
 20
141.1145461213
 30
0.0
 10
59.2073858525
 20
141.2208872448
 30
0.0
  0
SPLINE
  5
271
100
AcDbEntity
  8
0
100
AcDbSpline
 62
7
  6
BYLAYER
 70
0
 71
3
 72
11
 73
7
 74
0
 42
0.0000001
 43
0.0000001
 44
0.0000000001
 40
0.0
 40
0.0
 40
0.0
 40
0.0
 40
0.2897042895
 40
0.5490907647
 40
0.7822174449
 40
1.0
 40
1.0
 40
1.0
 40
1.0
 10
40.0447417407
 20
74.3083184001
 30
0.0
 10
40.0447417407
 20
74.1563132808
 30
0.0
 10
40.0677878254
 20
73.8672320643
 30
0.0
 10
40.1848619581
 20
73.4700500296
 30
0.0
 10
40.3819760283
 20
73.1477602132
 30
0.0
 10
40.5671262163
 20
72.9921061443
 30
0.0
 10
40.6660861875
 20
72.9349729208
 30
0.0
  0
SPLINE
  5
272
100
AcDbEntity
  8
0
100
AcDbSpline
 62
7
  6
BYLAYER
 70
0
 71
3
 72
11
 73
7
 74
0
 42
0.0000001
 43
0.0000001
 44
0.0000000001
 40
0.0
 40
0.0
 40
0.0
 40
0.0
 40
0.2372542275
 40
0.5000017852
 40
0.7627483734
 40
1.0
 40
1.0
 40
1.0
 40
1.0
 10
43.5802609268
 20
55.9369787412
 30
0.0
 10
43.5802609268
 20
55.821052796
 30
0.0
 10
43.5367970189
 20
55.5765796622
 30
0.0
 10
43.3851926293
 20
55.2331027804
 30
0.0
 10
43.1635373799
 20
54.9300710143
 30
0.0
 10
42.9735509523
 20
54.7701942479
 30
0.0
 10
42.8731570896
 20
54.7122321702
 30
0.0
  0
SPLINE
  5
273
100
AcDbEntity
  8
0
100
AcDbSpline
 62
7
  6
BYLAYER
 70
0
 71
3
 72
13
 73
9
 74
0
 42
0.0000001
 43
0.0000001
 44
0.0000000001
 40
0.0
 40
0.0
 40
0.0
 40
0.0
 40
0.1142247162
 40
0.2375579183
 40
0.4999983243
 40
0.7624396433
 40
0.8857739388
 40
1.0
 40
1.0
 40
1.0
 40
1.0
 10
42.1660532524
 20
54.3039880163
 30
0.0
 10
42.0208729284
 20
54.2201686175
 30
0.0
 10
41.7340129103
 20
54.0190364746
 30
0.0
 10
41.1969248564
 20
53.5164431544
 30
0.0
 10
40.6296691737
 20
52.7415359236
 30
0.0
 10
40.2422115598
 20
51.8628211766
 30
0.0
 10
40.0754977222
 20
51.1463874535
 30
0.0
 10
40.0447417407
 20
50.7973898255
 30
0.0
 10
40.0447417407
 20
50.6297483033
 30
0.0
  0
SPLINE
  5
274
100
AcDbEntity
  8
0
100
AcDbSpline
 62
7
  6
BYLAYER
 70
0
 71
3
 72
11
 73
7
 74
0
 42
0.0000001
 43
0.0000001
 44
0.0000000001
 40
0.0
 40
0.0
 40
0.0
 40
0.0
 40
0.2176867845
 40
0.4508859199
 40
0.7106269577
 40
1.0
 40
1.0
 40
1.0
 40
1.0
 10
51.0478027561
 20
131.1852733226
 30
0.0
 10
51.0972786503
 20
131.2137928552
 30
0.0
 10
51.1898528409
 20
131.2916068149
 30
0.0
 10
51.288512259
 20
131.4528009333
 30
0.0
 10
51.346820628
 20
131.6514779419
 30
0.0
 10
51.3584973431
 20
131.7959929986
 30
0.0
 10
51.3584973431
 20
131.8719060724
 30
0.0
  0
SPLINE
  5
275
100
AcDbEntity
  8
0
100
AcDbSpline
 62
7
  6
BYLAYER
 70
0
 71
3
 72
9
 73
5
 74
0
 42
0.0000001
 43
0.0000001
 44
0.0000000001
 40
0.0
 40
0.0
 40
0.0
 40
0.0
 40
0.245976077
 40
1.0
 40
1.0
 40
1.0
 40
1.0
 10
51.5320978523
 20
132.1976555499
 30
0.0
 10
51.5219786638
 20
132.2055084753
 30
0.0
 10
51.4811880514
 20
132.23788126
 30
0.0
 10
51.4417763503
 20
132.271984138
 30
0.0
 10
51.4128388062
 20
132.2985234276
 30
0.0
  0
SPLINE
  5
276
100
AcDbEntity
  8
0
100
AcDbSpline
 62
7
  6
BYLAYER
 70
0
 71
3
 72
11
 73
7
 74
0
 42
0.0000001
 43
0.0000001
 44
0.0000000001
 40
0.0
 40
0.0
 40
0.0
 40
0.0
 40
0.2545778088
 40
0.5167343402
 40
0.7701908588
 40
1.0
 40
1.0
 40
1.0
 40
1.0
 10
51.364990612
 20
132.3438326952
 30
0.0
 10
51.2580163884
 20
132.4483669311
 30
0.0
 10
51.0626855398
 20
132.6835541827
 30
0.0
 10
50.8379624117
 20
133.0788572015
 30
0.0
 10
50.6911875711
 20
133.4938732768
 30
0.0
 10
50.651375842
 20
133.7780996616
 30
0.0
 10
50.651375842
 20
133.9131166437
 30
0.0
  0
SPLINE
  5
277
100
AcDbEntity
  8
0
100
AcDbSpline
 62
7
  6
BYLAYER
 70
0
 71
3
 72
11
 73
7
 74
0
 42
0.0000001
 43
0.0000001
 44
0.0000000001
 40
0.0
 40
0.0
 40
0.0
 40
0.0
 40
0.2176867845
 40
0.4508859199
 40
0.7106269577
 40
1.0
 40
1.0
 40
1.0
 40
1.0
 10
65.8971069842
 20
122.6122174777
 30
0.0
 10
65.9465828784
 20
122.6407370103
 30
0.0
 10
66.039157069
 20
122.71855097
 30
0.0
 10
66.1378164871
 20
122.8797450884
 30
0.0
 10
66.1961248561
 20
123.078422097
 30
0.0
 10
66.2078015711
 20
123.2229371537
 30
0.0
 10
66.2078015711
 20
123.2988502275
 30
0.0
  0
SPLINE
  5
278
100
AcDbEntity
  8
0
100
AcDbSpline
 62
7
  6
BYLAYER
 70
0
 71
3
 72
11
 73
7
 74
0
 42
0.0000001
 43
0.0000001
 44
0.0000000001
 40
0.0
 40
0.0
 40
0.0
 40
0.0
 40
0.2555578376
 40
0.5176068761
 40
0.7705302833
 40
1.0
 40
1.0
 40
1.0
 40
1.0
 10
66.1902240774
 20
123.794673763
 30
0.0
 10
66.0865305048
 20
123.899248733
 30
0.0
 10
65.8975514549
 20
124.1325800814
 30
0.0
 10
65.6803376382
 20
124.522257404
 30
0.0
 10
65.5388987417
 20
124.9295435884
 30
0.0
 10
65.5006800701
 20
125.207825091
 30
0.0
 10
65.5006800701
 20
125.3400607988
 30
0.0
  0
SPLINE
  5
279
100
AcDbEntity
  8
0
100
AcDbSpline
 62
7
  6
BYLAYER
 70
0
 71
3
 72
17
 73
13
 74
0
 42
0.0000001
 43
0.0000001
 44
0.0000000001
 40
0.0
 40
0.0
 40
0.0
 40
0.0
 40
0.1047604017
 40
0.2412500012
 40
0.3951274516
 40
0.5543536189
 40
0.7076201255
 40
0.8427688001
 40
0.8991930517
 40
0.9454400964
 40
0.9795549732
 40
1.0
 40
1.0
 40
1.0
 40
1.0
 10
71.1021096155
 20
110.3369412637
 30
0.0
 10
71.1021096156
 20
110.4636855699
 30
0.0
 10
71.0686616609
 20
110.7554716918
 30
0.0
 10
70.9432518579
 20
111.2182211866
 30
0.0
 10
70.7307228522
 20
111.7206932745
 30
0.0
 10
70.446200373
 20
112.209714371
 30
0.0
 10
70.1156722122
 20
112.6405276003
 30
0.0
 10
69.8182893289
 20
112.9356973804
 30
0.0
 10
69.5898845501
 20
113.111147409
 30
0.0
 10
69.4503203652
 20
113.2005986594
 30
0.0
 10
69.3413967416
 20
113.2557999164
 30
0.0
 10
69.2797944802
 20
113.2800289709
 30
0.0
 10
69.2560707759
 20
113.2870308285
 30
0.0
  0
SPLINE
  5
27A
100
AcDbEntity
  8
0
100
AcDbSpline
 62
7
  6
BYLAYER
 70
0
 71
3
 72
9
 73
5
 74
0
 42
0.0000001
 43
0.0000001
 44
0.0000000001
 40
0.0
 40
0.0
 40
0.0
 40
0.0
 40
0.2646623766
 40
1.0
 40
1.0
 40
1.0
 40
1.0
 10
78.0518482518
 20
50.3239992406
 30
0.0
 10
78.0518482518
 20
50.3859842323
 30
0.0
 10
78.0590543165
 20
50.6200148002
 30
0.0
 10
78.0960452483
 20
50.8540192151
 30
0.0
 10
78.145292116
 20
51.0190469054
 30
0.0
  0
SPLINE
  5
27B
100
AcDbEntity
  8
0
100
AcDbSpline
 62
7
  6
BYLAYER
 70
0
 71
3
 72
15
 73
11
 74
0
 42
0.0000001
 43
0.0000001
 44
0.0000000001
 40
0.0
 40
0.0
 40
0.0
 40
0.0
 40
0.0807837301
 40
0.1155333003
 40
0.1309783312
 40
0.1975602404
 40
0.3169488469
 40
0.4906327659
 40
0.7183716597
 40
1.0
 40
1.0
 40
1.0
 40
1.0
 10
71.0905235437
 20
110.1289594684
 30
0.0
 10
71.0868738587
 20
110.1227144299
 30
0.0
 10
71.0836056979
 20
110.1182721702
 30
0.0
 10
71.0747013614
 20
110.0980389849
 30
0.0
 10
71.0792214054
 20
110.1115925801
 30
0.0
 10
71.0828957447
 20
110.1260440796
 30
0.0
 10
71.0899538582
 20
110.1594986342
 30
0.0
 10
71.0960031246
 20
110.2048528817
 30
0.0
 10
71.1010203216
 20
110.2662043737
 30
0.0
 10
71.1021096154
 20
110.3117245055
 30
0.0
 10
71.1021096155
 20
110.3369412637
 30
0.0
  0
SPLINE
  5
27C
100
AcDbEntity
  8
0
100
AcDbSpline
 62
7
  6
BYLAYER
 70
0
 71
3
 72
9
 73
5
 74
0
 42
0.0000001
 43
0.0000001
 44
0.0000000001
 40
0.0
 40
0.0
 40
0.0
 40
0.0
 40
0.2646623766
 40
1.0
 40
1.0
 40
1.0
 40
1.0
 10
49.7674592459
 20
66.6536294215
 30
0.0
 10
49.7674592459
 20
66.7156144131
 30
0.0
 10
49.7746653106
 20
66.949644981
 30
0.0
 10
49.8116562424
 20
67.1836493959
 30
0.0
 10
49.8609031101
 20
67.3486770862
 30
0.0
  0
SPLINE
  5
27D
100
AcDbEntity
  8
0
100
AcDbSpline
 62
7
  6
BYLAYER
 70
0
 71
3
 72
15
 73
11
 74
0
 42
0.0000001
 43
0.0000001
 44
0.0000000001
 40
0.0
 40
0.0
 40
0.0
 40
0.0
 40
0.1141555516
 40
0.2373276756
 40
0.3669773296
 40
0.5000011
 40
0.6330247168
 40
0.7626739247
 40
0.885845342
 40
1.0
 40
1.0
 40
1.0
 40
1.0
 10
83.885532924
 20
134.730110401
 30
0.0
 10
83.885532924
 20
135.2890711502
 30
0.0
 10
83.7831513103
 20
136.4522275581
 30
0.0
 10
83.3750090627
 20
138.2069753004
 30
0.0
 10
82.7211887295
 20
139.9843940384
 30
0.0
 10
81.8461248802
 20
141.7176471373
 30
0.0
 10
80.7826090347
 20
143.3420943222
 30
0.0
 10
79.5702257939
 20
144.7970174221
 30
0.0
 10
78.254640234
 20
146.0278376824
 30
0.0
 10
77.2985088291
 20
146.6980686727
 30
0.0
 10
76.8144356725
 20
146.9775421175
 30
0.0
  0
SPLINE
  5
27E
100
AcDbEntity
  8
0
100
AcDbSpline
 62
7
  6
BYLAYER
 70
0
 71
3
 72
12
 73
8
 74
0
 42
0.0000001
 43
0.0000001
 44
0.0000000001
 40
0.0
 40
0.0
 40
0.0
 40
0.0
 40
0.2895802184
 40
0.5486333627
 40
0.7816359182
 40
0.8918377609
 40
1.0
 40
1.0
 40
1.0
 40
1.0
 10
48.5300466666
 20
163.3071722983
 30
0.0
 10
48.091104395
 20
163.5605900039
 30
0.0
 10
47.2181149024
 20
163.9759268983
 30
0.0
 10
45.877274334
 20
164.3000905691
 30
0.0
 10
44.8065709553
 20
164.2717105401
 30
0.0
 10
44.0421925177
 20
164.0599793803
 30
0.0
 10
43.6940279563
 20
163.8970565085
 30
0.0
 10
43.530077587
 20
163.8024003035
 30
0.0
  0
SPLINE
  5
27F
100
AcDbEntity
  8
0
100
AcDbSpline
 62
7
  6
BYLAYER
 70
0
 71
3
 72
17
 73
13
 74
0
 42
0.0000001
 43
0.0000001
 44
0.0000000001
 40
0.0
 40
0.0
 40
0.0
 40
0.0
 40
0.1047604017
 40
0.2412500012
 40
0.3951274516
 40
0.5543536189
 40
0.7076201255
 40
0.8427688001
 40
0.8991930517
 40
0.9454400964
 40
0.9795549732
 40
1.0
 40
1.0
 40
1.0
 40
1.0
 10
64.2077897953
 20
69.4096556781
 30
0.0
 10
64.2077897954
 20
69.5363999844
 30
0.0
 10
64.1743418408
 20
69.8281861063
 30
0.0
 10
64.0489320377
 20
70.2909356011
 30
0.0
 10
63.836403032
 20
70.793407689
 30
0.0
 10
63.5518805528
 20
71.2824287855
 30
0.0
 10
63.2213523921
 20
71.7132420147
 30
0.0
 10
62.9239695087
 20
72.0084117948
 30
0.0
 10
62.6955647299
 20
72.1838618235
 30
0.0
 10
62.556000545
 20
72.2733130738
 30
0.0
 10
62.4470769214
 20
72.3285143309
 30
0.0
 10
62.38547466
 20
72.3527433854
 30
0.0
 10
62.3617509557
 20
72.359745243
 30
0.0
  0
SPLINE
  5
280
100
AcDbEntity
  8
0
100
AcDbSpline
 62
7
  6
BYLAYER
 70
0
 71
3
 72
15
 73
11
 74
0
 42
0.0000001
 43
0.0000001
 44
0.0000000001
 40
0.0
 40
0.0
 40
0.0
 40
0.0
 40
0.0807837301
 40
0.1155333003
 40
0.1309783312
 40
0.1975602404
 40
0.3169488469
 40
0.4906327659
 40
0.7183716597
 40
1.0
 40
1.0
 40
1.0
 40
1.0
 10
64.1962037235
 20
69.2016738828
 30
0.0
 10
64.1925540385
 20
69.1954288443
 30
0.0
 10
64.1892858778
 20
69.1909865847
 30
0.0
 10
64.1803815412
 20
69.1707533993
 30
0.0
 10
64.1849015852
 20
69.1843069946
 30
0.0
 10
64.1885759245
 20
69.198758494
 30
0.0
 10
64.195634038
 20
69.2322130487
 30
0.0
 10
64.2016833044
 20
69.2775672962
 30
0.0
 10
64.2067005014
 20
69.3389187881
 30
0.0
 10
64.2077897953
 20
69.38443892
 30
0.0
 10
64.2077897953
 20
69.4096556781
 30
0.0
  0
SPLINE
  5
281
100
AcDbEntity
  8
0
100
AcDbSpline
 62
7
  6
BYLAYER
 70
0
 71
3
 72
17
 73
13
 74
0
 42
0.0000001
 43
0.0000001
 44
0.0000000001
 40
0.0
 40
0.0
 40
0.0
 40
0.0
 40
0.1047604017
 40
0.2412500012
 40
0.3951274516
 40
0.5543536189
 40
0.7076201255
 40
0.8427688001
 40
0.8991930517
 40
0.9454400964
 40
0.9795549732
 40
1.0
 40
1.0
 40
1.0
 40
1.0
 10
46.3532692353
 20
79.7177347298
 30
0.0
 10
46.3532692354
 20
79.844479036
 30
0.0
 10
46.3198212808
 20
80.1362651579
 30
0.0
 10
46.1944114777
 20
80.5990146527
 30
0.0
 10
45.9818824721
 20
81.1014867406
 30
0.0
 10
45.6973599928
 20
81.5905078371
 30
0.0
 10
45.3668318321
 20
82.0213210664
 30
0.0
 10
45.0694489487
 20
82.3164908465
 30
0.0
 10
44.84104417
 20
82.4919408751
 30
0.0
 10
44.7014799851
 20
82.5813921255
 30
0.0
 10
44.5925563615
 20
82.6365933825
 30
0.0
 10
44.5309541
 20
82.660822437
 30
0.0
 10
44.5072303957
 20
82.6678242946
 30
0.0
  0
SPLINE
  5
282
100
AcDbEntity
  8
0
100
AcDbSpline
 62
7
  6
BYLAYER
 70
0
 71
3
 72
15
 73
11
 74
0
 42
0.0000001
 43
0.0000001
 44
0.0000000001
 40
0.0
 40
0.0
 40
0.0
 40
0.0
 40
0.0807837301
 40
0.1155333003
 40
0.1309783312
 40
0.1975602404
 40
0.3169488469
 40
0.4906327659
 40
0.7183716597
 40
1.0
 40
1.0
 40
1.0
 40
1.0
 10
46.3416831635
 20
79.5097529345
 30
0.0
 10
46.3380334786
 20
79.503507896
 30
0.0
 10
46.3347653178
 20
79.4990656363
 30
0.0
 10
46.3258609813
 20
79.478832451
 30
0.0
 10
46.3303810253
 20
79.4923860462
 30
0.0
 10
46.3340553645
 20
79.5068375457
 30
0.0
 10
46.3411134781
 20
79.5402921003
 30
0.0
 10
46.3471627445
 20
79.5856463478
 30
0.0
 10
46.3521799415
 20
79.6469978398
 30
0.0
 10
46.3532692353
 20
79.6925179716
 30
0.0
 10
46.3532692353
 20
79.7177347298
 30
0.0
  0
SPLINE
  5
283
100
AcDbEntity
  8
0
100
AcDbSpline
 62
7
  6
BYLAYER
 70
0
 71
3
 72
9
 73
5
 74
0
 42
0.0000001
 43
0.0000001
 44
0.0000000001
 40
0.0
 40
0.0
 40
0.0
 40
0.0
 40
0.2727022759
 40
1.0
 40
1.0
 40
1.0
 40
1.0
 10
50.651375842
 20
153.1009234463
 30
0.0
 10
50.651375842
 20
153.2107718685
 30
0.0
 10
50.6689357022
 20
153.6126597292
 30
0.0
 10
50.7628896374
 20
154.016590771
 30
0.0
 10
50.8917546109
 20
154.2796932654
 30
0.0
  0
SPLINE
  5
284
100
AcDbEntity
  8
0
100
AcDbSpline
 62
7
  6
BYLAYER
 70
0
 71
3
 72
17
 73
13
 74
0
 42
0.0000001
 43
0.0000001
 44
0.0000000001
 40
0.0
 40
0.0
 40
0.0
 40
0.0
 40
0.1047604017
 40
0.2412500012
 40
0.3951274516
 40
0.5543536189
 40
0.7076201255
 40
0.8427688001
 40
0.8991930517
 40
0.9454400964
 40
0.9795549732
 40
1.0
 40
1.0
 40
1.0
 40
1.0
 10
74.8144356725
 20
131.8722473992
 30
0.0
 10
74.8144356726
 20
131.9989917054
 30
0.0
 10
74.780987718
 20
132.2907778274
 30
0.0
 10
74.6555779149
 20
132.7535273221
 30
0.0
 10
74.4430489092
 20
133.2559994101
 30
0.0
 10
74.15852643
 20
133.7450205065
 30
0.0
 10
73.8279982693
 20
134.1758337358
 30
0.0
 10
73.5306153859
 20
134.4710035159
 30
0.0
 10
73.3022106071
 20
134.6464535446
 30
0.0
 10
73.1626464222
 20
134.7359047949
 30
0.0
 10
73.0537227987
 20
134.791106052
 30
0.0
 10
72.9921205372
 20
134.8153351065
 30
0.0
 10
72.9683968329
 20
134.8223369641
 30
0.0
  0
SPLINE
  5
285
100
AcDbEntity
  8
0
100
AcDbSpline
 62
7
  6
BYLAYER
 70
0
 71
3
 72
15
 73
11
 74
0
 42
0.0000001
 43
0.0000001
 44
0.0000000001
 40
0.0
 40
0.0
 40
0.0
 40
0.0
 40
0.0807837301
 40
0.1155333003
 40
0.1309783312
 40
0.1975602404
 40
0.3169488469
 40
0.4906327659
 40
0.7183716597
 40
1.0
 40
1.0
 40
1.0
 40
1.0
 10
74.8028496007
 20
131.6642656039
 30
0.0
 10
74.7991999157
 20
131.6580205654
 30
0.0
 10
74.795931755
 20
131.6535783057
 30
0.0
 10
74.7870274184
 20
131.6333451204
 30
0.0
 10
74.7915474624
 20
131.6468987156
 30
0.0
 10
74.7952218017
 20
131.6613502151
 30
0.0
 10
74.8022799152
 20
131.6948047697
 30
0.0
 10
74.8083291817
 20
131.7401590173
 30
0.0
 10
74.8133463786
 20
131.8015105092
 30
0.0
 10
74.8144356725
 20
131.847030641
 30
0.0
 10
74.8144356725
 20
131.8722473992
 30
0.0
  0
SPLINE
  5
286
100
AcDbEntity
  8
0
100
AcDbSpline
 62
7
  6
BYLAYER
 70
0
 71
3
 72
11
 73
7
 74
0
 42
0.0000001
 43
0.0000001
 44
0.0000000001
 40
0.0
 40
0.0
 40
0.0
 40
0.0
 40
0.2182103603
 40
0.4535874921
 40
0.7135295334
 40
1.0
 40
1.0
 40
1.0
 40
1.0
 10
50.679504373
 20
147.0114005197
 30
0.0
 10
50.7613337352
 20
147.0757777094
 30
0.0
 10
50.9112099823
 20
147.2368439956
 30
0.0
 10
51.0688970696
 20
147.5423061212
 30
0.0
 10
51.1628009805
 20
147.9058759807
 30
0.0
 10
51.1816963601
 20
148.1672571676
 30
0.0
 10
51.18169636
 20
148.3039445687
 30
0.0
  0
SPLINE
  5
287
100
AcDbEntity
  8
0
100
AcDbSpline
 62
7
  6
BYLAYER
 70
0
 71
3
 72
9
 73
5
 74
0
 42
0.0000001
 43
0.0000001
 44
0.0000000001
 40
0.0
 40
0.0
 40
0.0
 40
0.0
 40
0.2629042941
 40
1.0
 40
1.0
 40
1.0
 40
1.0
 10
67.6220092456
 20
91.0469906415
 30
0.0
 10
67.6220092456
 20
91.0982593744
 30
0.0
 10
67.6273866457
 20
91.2931658112
 30
0.0
 10
67.6549128109
 20
91.4879597438
 30
0.0
 10
67.6911048513
 20
91.6270691711
 30
0.0
  0
SPLINE
  5
288
100
AcDbEntity
  8
0
100
AcDbSpline
 62
7
  6
BYLAYER
 70
0
 71
3
 72
12
 73
8
 74
0
 42
0.0000001
 43
0.0000001
 44
0.0000000001
 40
0.0
 40
0.0
 40
0.0
 40
0.0
 40
0.289581202
 40
0.5486347013
 40
0.7816368512
 40
0.8918382666
 40
1.0
 40
1.0
 40
1.0
 40
1.0
 10
40.0447417407
 20
158.4080673644
 30
0.0
 10
40.0447417407
 20
158.9149266609
 30
0.0
 10
40.1215372757
 20
159.8786551235
 30
0.0
 10
40.5112236227
 20
161.2019793219
 30
0.0
 10
41.0711632804
 20
162.1150726852
 30
0.0
 10
41.6367304351
 20
162.6711917673
 30
0.0
 10
41.9519159307
 20
162.8912536853
 30
0.0
 10
42.1158699126
 20
162.9859119958
 30
0.0
  0
SPLINE
  5
289
100
AcDbEntity
  8
0
100
AcDbSpline
 62
7
  6
BYLAYER
 70
0
 71
3
 72
11
 73
7
 74
0
 42
0.0000001
 43
0.0000001
 44
0.0000000001
 40
0.0
 40
0.0
 40
0.0
 40
0.0
 40
0.289702329
 40
0.5490881649
 40
0.7822156415
 40
1.0
 40
1.0
 40
1.0
 40
1.0
 10
52.0656070682
 20
153.917481789
 30
0.0
 10
51.8900917719
 20
154.0188133001
 30
0.0
 10
51.5409352517
 20
154.1849139019
 30
0.0
 10
51.0042747326
 20
154.314507802
 30
0.0
 10
50.5007301651
 20
154.301758145
 30
0.0
 10
50.1975694494
 20
154.1917387736
 30
0.0
 10
50.0656260017
 20
154.1155616196
 30
0.0
  0
SPLINE
  5
28A
100
AcDbEntity
  8
0
100
AcDbSpline
 62
7
  6
BYLAYER
 70
0
 71
3
 72
13
 73
9
 74
0
 42
0.0000001
 43
0.0000001
 44
0.0000000001
 40
0.0
 40
0.0
 40
0.0
 40
0.0
 40
0.1142259181
 40
0.2375599982
 40
0.5000010158
 40
0.7624414734
 40
0.8857749255
 40
1.0
 40
1.0
 40
1.0
 40
1.0
 10
66.2078015711
 20
142.4866570301
 30
0.0
 10
66.2078015711
 20
142.7101789101
 30
0.0
 10
66.1667933618
 20
143.1755086667
 30
0.0
 10
65.9445064041
 20
144.130752513
 30
0.0
 10
65.4278917919
 20
145.3023702628
 30
0.0
 10
64.6715444407
 20
146.3355763329
 30
0.0
 10
63.955421099
 20
147.0056971749
 30
0.0
 10
63.5729379622
 20
147.2738714983
 30
0.0
 10
63.3793626706
 20
147.3856297167
 30
0.0
  0
SPLINE
  5
28B
100
AcDbEntity
  8
0
100
AcDbSpline
 62
7
  6
BYLAYER
 70
0
 71
3
 72
17
 73
13
 74
0
 42
0.0000001
 43
0.0000001
 44
0.0000000001
 40
0.0
 40
0.0
 40
0.0
 40
0.0
 40
0.128688864
 40
0.2702797703
 40
0.4174318348
 40
0.5617733576
 40
0.6954455149
 40
0.8127096012
 40
0.8646749146
 40
0.9125085807
 40
0.9571389861
 40
1.0
 40
1.0
 40
1.0
 40
1.0
 10
70.450459922
 20
87.7810578066
 30
0.0
 10
70.450459922
 20
88.0374825378
 30
0.0
 10
70.3787209196
 20
88.5766544906
 30
0.0
 10
70.1109800552
 20
89.3683089214
 30
0.0
 10
69.6983917165
 20
90.1309165335
 30
0.0
 10
69.1741407569
 20
90.8019521559
 30
0.0
 10
68.5810565522
 20
91.3272146052
 30
0.0
 10
68.044232947
 20
91.6207499721
 30
0.0
 10
67.6243030662
 20
91.7324481047
 30
0.0
 10
67.3352877677
 20
91.7537295942
 30
0.0
 10
67.0661667224
 20
91.7142876877
 30
0.0
 10
66.9031147905
 20
91.6465373052
 30
0.0
 10
66.8291690755
 20
91.603805807
 30
0.0
  0
SPLINE
  5
28C
100
AcDbEntity
  8
0
100
AcDbSpline
 62
7
  6
BYLAYER
 70
0
 71
3
 72
17
 73
13
 74
0
 42
0.0000001
 43
0.0000001
 44
0.0000000001
 40
0.0
 40
0.0
 40
0.0
 40
0.0
 40
0.128688864
 40
0.2702797703
 40
0.4174318348
 40
0.5617733576
 40
0.6954455149
 40
0.8127096012
 40
0.8646749146
 40
0.9125085807
 40
0.9571389861
 40
1.0
 40
1.0
 40
1.0
 40
1.0
 10
81.2338537909
 20
46.8539460285
 30
0.0
 10
81.2338537909
 20
47.1317394872
 30
0.0
 10
81.1561365382
 20
47.7158424361
 30
0.0
 10
80.8660839351
 20
48.5734680695
 30
0.0
 10
80.4191132349
 20
49.3996263159
 30
0.0
 10
79.8511746953
 20
50.1265815736
 30
0.0
 10
79.2086668069
 20
50.6956158936
 30
0.0
 10
78.6271079012
 20
51.0136125411
 30
0.0
 10
78.1721838637
 20
51.1346188514
 30
0.0
 10
77.859083957
 20
51.1576737983
 30
0.0
 10
77.5675361579
 20
51.1149450663
 30
0.0
 10
77.390896565
 20
51.0415488186
 30
0.0
 10
77.3107887071
 20
50.9952563622
 30
0.0
  0
SPLINE
  5
28D
100
AcDbEntity
  8
0
100
AcDbSpline
 62
7
  6
BYLAYER
 70
0
 71
3
 72
17
 73
13
 74
0
 42
0.0000001
 43
0.0000001
 44
0.0000000001
 40
0.0
 40
0.0
 40
0.0
 40
0.0
 40
0.128688864
 40
0.2702797703
 40
0.4174318348
 40
0.5617733576
 40
0.6954455149
 40
0.8127096012
 40
0.8646749146
 40
0.9125085807
 40
0.9571389861
 40
1.0
 40
1.0
 40
1.0
 40
1.0
 10
52.949464785
 20
63.1835762093
 30
0.0
 10
52.949464785
 20
63.461369668
 30
0.0
 10
52.8717475323
 20
64.045472617
 30
0.0
 10
52.5816949293
 20
64.9030982503
 30
0.0
 10
52.134724229
 20
65.7292564967
 30
0.0
 10
51.5667856894
 20
66.4562117544
 30
0.0
 10
50.924277801
 20
67.0252460744
 30
0.0
 10
50.3427188953
 20
67.3432427219
 30
0.0
 10
49.8877948578
 20
67.4642490322
 30
0.0
 10
49.5746949512
 20
67.4873039791
 30
0.0
 10
49.283147152
 20
67.4445752471
 30
0.0
 10
49.1065075591
 20
67.3711789994
 30
0.0
 10
49.0263997012
 20
67.324886543
 30
0.0
  0
SPLINE
  5
28E
100
AcDbEntity
  8
0
100
AcDbSpline
 62
7
  6
BYLAYER
 70
0
 71
3
 72
17
 73
13
 74
0
 42
0.0000001
 43
0.0000001
 44
0.0000000001
 40
0.0
 40
0.0
 40
0.0
 40
0.0
 40
0.1286846513
 40
0.2703032228
 40
0.4174430309
 40
0.5617811216
 40
0.695448235
 40
0.8127121431
 40
0.8646788239
 40
0.9125086207
 40
0.9571391214
 40
1.0
 40
1.0
 40
1.0
 40
1.0
 10
73.3495803555
 20
51.4058304414
 30
0.0
 10
73.3495803555
 20
51.585320585
 30
0.0
 10
73.2993279337
 20
51.9627647572
 30
0.0
 10
73.1119508685
 20
52.5169496545
 30
0.0
 10
72.8230761295
 20
53.0507583919
 30
0.0
 10
72.4561385566
 20
53.52046101
 30
0.0
 10
72.0409780833
 20
53.888143628
 30
0.0
 10
71.6651961279
 20
54.0935373033
 30
0.0
 10
71.3712714989
 20
54.1718500913
 30
0.0
 10
71.1689660546
 20
54.1866292318
 30
0.0
 10
70.9805601475
 20
54.1591474502
 30
0.0
 10
70.8664748732
 20
54.1116017298
 30
0.0
 10
70.81470038
 20
54.0817125482
 30
0.0
  0
SPLINE
  5
28F
100
AcDbEntity
  8
0
100
AcDbSpline
 62
7
  6
BYLAYER
 70
0
 71
3
 72
15
 73
11
 74
0
 42
0.0000001
 43
0.0000001
 44
0.0000000001
 40
0.0
 40
0.0
 40
0.0
 40
0.0
 40
0.1141547311
 40
0.2373259733
 40
0.3669751276
 40
0.4999989055
 40
0.633022836
 40
0.7626724346
 40
0.8858443789
 40
1.0
 40
1.0
 40
1.0
 40
1.0
 10
50.6513876179
 20
27.3595862258
 30
0.0
 10
49.9252773387
 20
27.7787967072
 30
0.0
 10
48.4910874783
 20
28.784152327
 30
0.0
 10
46.5176997801
 20
30.6303695288
 30
0.0
 10
44.6991152917
 20
32.8127477135
 30
0.0
 10
43.1038536833
 20
35.2494287577
 30
0.0
 10
41.7912429674
 20
37.8493030073
 30
0.0
 10
40.8105229123
 20
40.5154361747
 30
0.0
 10
40.1983256805
 20
43.1475592321
 30
0.0
 10
40.0447417407
 20
44.8922920757
 30
0.0
 10
40.0447417407
 20
45.7307338006
 30
0.0
  0
SPLINE
  5
290
100
AcDbEntity
  8
0
100
AcDbSpline
 62
7
  6
BYLAYER
 70
0
 71
3
 72
17
 73
13
 74
0
 42
0.0000001
 43
0.0000001
 44
0.0000000001
 40
0.0
 40
0.0
 40
0.0
 40
0.0
 40
0.1047604017
 40
0.2412500012
 40
0.3951274516
 40
0.5543536189
 40
0.7076201255
 40
0.8427688001
 40
0.8991930517
 40
0.9454400964
 40
0.9795549732
 40
1.0
 40
1.0
 40
1.0
 40
1.0
 10
48.2978209795
 20
147.1812756937
 30
0.0
 10
48.2978209796
 20
147.3080199999
 30
0.0
 10
48.264373025
 20
147.5998061219
 30
0.0
 10
48.1389632219
 20
148.0625556166
 30
0.0
 10
47.9264342162
 20
148.5650277046
 30
0.0
 10
47.641911737
 20
149.054048801
 30
0.0
 10
47.3113835763
 20
149.4848620303
 30
0.0
 10
47.0140006929
 20
149.7800318104
 30
0.0
 10
46.7855959141
 20
149.9554818391
 30
0.0
 10
46.6460317292
 20
150.0449330894
 30
0.0
 10
46.5371081056
 20
150.1001343465
 30
0.0
 10
46.4755058442
 20
150.124363401
 30
0.0
 10
46.4517821399
 20
150.1313652586
 30
0.0
  0
SPLINE
  5
291
100
AcDbEntity
  8
0
100
AcDbSpline
 62
7
  6
BYLAYER
 70
0
 71
3
 72
15
 73
11
 74
0
 42
0.0000001
 43
0.0000001
 44
0.0000000001
 40
0.0
 40
0.0
 40
0.0
 40
0.0
 40
0.0807837301
 40
0.1155333003
 40
0.1309783312
 40
0.1975602404
 40
0.3169488469
 40
0.4906327659
 40
0.7183716597
 40
1.0
 40
1.0
 40
1.0
 40
1.0
 10
48.2862349077
 20
146.9732938984
 30
0.0
 10
48.2825852227
 20
146.9670488599
 30
0.0
 10
48.279317062
 20
146.9626066002
 30
0.0
 10
48.2704127254
 20
146.9423734149
 30
0.0
 10
48.2749327694
 20
146.9559270101
 30
0.0
 10
48.2786071087
 20
146.9703785096
 30
0.0
 10
48.2856652222
 20
147.0038330643
 30
0.0
 10
48.2917144886
 20
147.0491873118
 30
0.0
 10
48.2967316856
 20
147.1105388037
 30
0.0
 10
48.2978209795
 20
147.1560589356
 30
0.0
 10
48.2978209795
 20
147.1812756937
 30
0.0
  0
SPLINE
  5
292
100
AcDbEntity
  8
0
100
AcDbSpline
 62
7
  6
BYLAYER
 70
0
 71
3
 72
11
 73
7
 74
0
 42
0.0000001
 43
0.0000001
 44
0.0000000001
 40
0.0
 40
0.0
 40
0.0
 40
0.0
 40
0.2339887997
 40
0.4966720745
 40
0.7611503359
 40
1.0
 40
1.0
 40
1.0
 40
1.0
 10
73.3541420524
 20
43.1587172679
 30
0.0
 10
73.1351177358
 20
43.2722685475
 30
0.0
 10
72.7170880339
 20
43.6037825519
 30
0.0
 10
72.2282422515
 20
44.2481034996
 30
0.0
 10
71.8913943748
 20
44.9890908256
 30
0.0
 10
71.7939271843
 20
45.520071192
 30
0.0
 10
71.7939271843
 20
45.7719057468
 30
0.0
  0
SPLINE
  5
293
100
AcDbEntity
  8
0
100
AcDbSpline
 62
7
  6
BYLAYER
 70
0
 71
3
 72
11
 73
7
 74
0
 42
0.0000001
 43
0.0000001
 44
0.0000000001
 40
0.0
 40
0.0
 40
0.0
 40
0.0
 40
0.2177239861
 40
0.4508730345
 40
0.7104683317
 40
1.0
 40
1.0
 40
1.0
 40
1.0
 10
72.9145994853
 20
42.2795353323
 30
0.0
 10
72.9838528825
 20
42.3195150064
 30
0.0
 10
73.1135378767
 20
42.4283436887
 30
0.0
 10
73.2515425742
 20
42.6540394614
 30
0.0
 10
73.3333410633
 20
42.9321164067
 30
0.0
 10
73.3495803555
 20
43.1344679131
 30
0.0
 10
73.3495803555
 20
43.2408062701
 30
0.0
  0
SPLINE
  5
294
100
AcDbEntity
  8
0
100
AcDbSpline
 62
7
  6
BYLAYER
 70
0
 71
3
 72
15
 73
11
 74
0
 42
0.0000001
 43
0.0000001
 44
0.0000000001
 40
0.0
 40
0.0
 40
0.0
 40
0.0
 40
0.0992085569
 40
0.2124836991
 40
0.3382903835
 40
0.4729760758
 40
0.6116958092
 40
0.7490776515
 40
0.8800060883
 40
1.0
 40
1.0
 40
1.0
 40
1.0
 10
52.8864734305
 20
54.2093740323
 30
0.0
 10
52.7013699369
 20
54.2345465012
 30
0.0
 10
52.3133914439
 20
54.3546014967
 30
0.0
 10
51.7619892464
 20
54.6812229053
 30
0.0
 10
51.2290126061
 20
55.1460264188
 30
0.0
 10
50.7436425876
 20
55.7234888588
 30
0.0
 10
50.3324592483
 20
56.3815303526
 30
0.0
 10
50.0182689812
 20
57.0834595218
 30
0.0
 10
49.8190588128
 20
57.7896713593
 30
0.0
 10
49.7674592459
 20
58.2626596676
 30
0.0
 10
49.7674592459
 20
58.4886052502
 30
0.0
  0
SPLINE
  5
295
100
AcDbEntity
  8
0
100
AcDbSpline
 62
7
  6
BYLAYER
 70
0
 71
3
 72
11
 73
7
 74
0
 42
0.0000001
 43
0.0000001
 44
0.0000000001
 40
0.0
 40
0.0
 40
0.0
 40
0.0
 40
0.2177660095
 40
0.4508968553
 40
0.7103699668
 40
1.0
 40
1.0
 40
1.0
 40
1.0
 10
52.2763166553
 20
53.5308066087
 30
0.0
 10
52.3834895967
 20
53.5927393435
 30
0.0
 10
52.5841765698
 20
53.7612002152
 30
0.0
 10
52.7976876986
 20
54.1104588961
 30
0.0
 10
52.9244400188
 20
54.5407507906
 30
0.0
 10
52.949464785
 20
54.8539227799
 30
0.0
 10
52.949464785
 20
55.018552038
 30
0.0
  0
SPLINE
  5
296
100
AcDbEntity
  8
0
100
AcDbSpline
 62
7
  6
BYLAYER
 70
0
 71
3
 72
15
 73
11
 74
0
 42
0.0000001
 43
0.0000001
 44
0.0000000001
 40
0.0
 40
0.0
 40
0.0
 40
0.0
 40
0.0992085569
 40
0.2124836991
 40
0.3382903835
 40
0.4729760758
 40
0.6116958092
 40
0.7490776515
 40
0.8800060883
 40
1.0
 40
1.0
 40
1.0
 40
1.0
 10
81.1708624363
 20
37.8797438515
 30
0.0
 10
80.9857589428
 20
37.9049163204
 30
0.0
 10
80.5977804497
 20
38.0249713159
 30
0.0
 10
80.0463782523
 20
38.3515927244
 30
0.0
 10
79.513401612
 20
38.816396238
 30
0.0
 10
79.0280315935
 20
39.393858678
 30
0.0
 10
78.6168482541
 20
40.0519001718
 30
0.0
 10
78.3026579871
 20
40.753829341
 30
0.0
 10
78.1034478187
 20
41.4600411785
 30
0.0
 10
78.0518482518
 20
41.9330294867
 30
0.0
 10
78.0518482518
 20
42.1589750693
 30
0.0
  0
SPLINE
  5
297
100
AcDbEntity
  8
0
100
AcDbSpline
 62
7
  6
BYLAYER
 70
0
 71
3
 72
11
 73
7
 74
0
 42
0.0000001
 43
0.0000001
 44
0.0000000001
 40
0.0
 40
0.0
 40
0.0
 40
0.0
 40
0.2177660095
 40
0.4508968553
 40
0.7103699668
 40
1.0
 40
1.0
 40
1.0
 40
1.0
 10
80.5607056612
 20
37.2011764279
 30
0.0
 10
80.6678786026
 20
37.2631091626
 30
0.0
 10
80.8685655757
 20
37.4315700344
 30
0.0
 10
81.0820767045
 20
37.7808287153
 30
0.0
 10
81.2088290247
 20
38.2111206098
 30
0.0
 10
81.2338537909
 20
38.5242925991
 30
0.0
 10
81.2338537909
 20
38.6889218572
 30
0.0
  0
SPLINE
  5
298
100
AcDbEntity
  8
0
100
AcDbSpline
 62
7
  6
BYLAYER
 70
0
 71
3
 72
15
 73
11
 74
0
 42
0.0000001
 43
0.0000001
 44
0.0000000001
 40
0.0
 40
0.0
 40
0.0
 40
0.0
 40
0.0807837301
 40
0.1155333003
 40
0.1309783312
 40
0.1975602404
 40
0.3169488469
 40
0.4906327659
 40
0.7183716597
 40
1.0
 40
1.0
 40
1.0
 40
1.0
 10
61.5445422542
 20
27.0496973959
 30
0.0
 10
61.5408925692
 20
27.0434523574
 30
0.0
 10
61.5376244085
 20
27.0390100977
 30
0.0
 10
61.5287200719
 20
27.0187769124
 30
0.0
 10
61.5332401159
 20
27.0323305076
 30
0.0
 10
61.5369144552
 20
27.0467820071
 30
0.0
 10
61.5439725687
 20
27.0802365617
 30
0.0
 10
61.5500218351
 20
27.1255908092
 30
0.0
 10
61.5550390321
 20
27.1869423012
 30
0.0
 10
61.556128326
 20
27.232462433
 30
0.0
 10
61.556128326
 20
27.2576791911
 30
0.0
  0
SPLINE
  5
299
100
AcDbEntity
  8
0
100
AcDbSpline
 62
7
  6
BYLAYER
 70
0
 71
3
 72
9
 73
5
 74
0
 42
0.0000001
 43
0.0000001
 44
0.0000000001
 40
0.0
 40
0.0
 40
0.0
 40
0.0
 40
0.4749825938
 40
1.0
 40
1.0
 40
1.0
 40
1.0
 10
51.18169636
 20
148.3039445687
 30
0.0
 10
51.1816963599
 20
148.6031026895
 30
0.0
 10
51.0845854769
 20
149.2333969694
 30
0.0
 10
50.8556551255
 20
149.824813954
 30
0.0
 10
50.707805832
 20
150.1205913139
 30
0.0
  0
SPLINE
  5
29A
100
AcDbEntity
  8
0
100
AcDbSpline
 62
7
  6
BYLAYER
 70
0
 71
3
 72
17
 73
13
 74
0
 42
0.0000001
 43
0.0000001
 44
0.0000000001
 40
0.0
 40
0.0
 40
0.0
 40
0.0
 40
0.1047604017
 40
0.2412500012
 40
0.3951274516
 40
0.5543536189
 40
0.7076201255
 40
0.8427688001
 40
0.8991930517
 40
0.9454400964
 40
0.9795549732
 40
1.0
 40
1.0
 40
1.0
 40
1.0
 10
61.556128326
 20
27.2576791911
 30
0.0
 10
61.5561283261
 20
27.3844234974
 30
0.0
 10
61.5226803715
 20
27.6762096193
 30
0.0
 10
61.3972705684
 20
28.1389591141
 30
0.0
 10
61.1847415627
 20
28.641431202
 30
0.0
 10
60.9002190835
 20
29.1304522985
 30
0.0
 10
60.5696909228
 20
29.5612655278
 30
0.0
 10
60.2723080394
 20
29.8564353078
 30
0.0
 10
60.0439032606
 20
30.0318853365
 30
0.0
 10
59.9043390757
 20
30.1213365869
 30
0.0
 10
59.7954154521
 20
30.1765378439
 30
0.0
 10
59.7338131907
 20
30.2007668984
 30
0.0
 10
59.7100894864
 20
30.207768756
 30
0.0
  0
SPLINE
  5
29B
100
AcDbEntity
  8
0
100
AcDbSpline
 62
7
  6
BYLAYER
 70
0
 71
3
 72
15
 73
11
 74
0
 42
0.0000001
 43
0.0000001
 44
0.0000000001
 40
0.0
 40
0.0
 40
0.0
 40
0.0
 40
0.0807837301
 40
0.1155333003
 40
0.1309783312
 40
0.1975602404
 40
0.3169488469
 40
0.4906327659
 40
0.7183716597
 40
1.0
 40
1.0
 40
1.0
 40
1.0
 10
61.5445422542
 20
34.8064703586
 30
0.0
 10
61.5408925692
 20
34.8002253201
 30
0.0
 10
61.5376244085
 20
34.7957830604
 30
0.0
 10
61.5287200719
 20
34.7755498751
 30
0.0
 10
61.5332401159
 20
34.7891034703
 30
0.0
 10
61.5369144552
 20
34.8035549698
 30
0.0
 10
61.5439725687
 20
34.8370095244
 30
0.0
 10
61.5500218351
 20
34.8823637719
 30
0.0
 10
61.5550390321
 20
34.9437152639
 30
0.0
 10
61.556128326
 20
34.9892353957
 30
0.0
 10
61.556128326
 20
35.0144521539
 30
0.0
  0
SPLINE
  5
29C
100
AcDbEntity
  8
0
100
AcDbSpline
 62
7
  6
BYLAYER
 70
0
 71
3
 72
17
 73
13
 74
0
 42
0.0000001
 43
0.0000001
 44
0.0000000001
 40
0.0
 40
0.0
 40
0.0
 40
0.0
 40
0.1047604017
 40
0.2412500012
 40
0.3951274516
 40
0.5543536189
 40
0.7076201255
 40
0.8427688001
 40
0.8991930517
 40
0.9454400964
 40
0.9795549732
 40
1.0
 40
1.0
 40
1.0
 40
1.0
 10
61.556128326
 20
35.0144521539
 30
0.0
 10
61.5561283261
 20
35.1411964601
 30
0.0
 10
61.5226803715
 20
35.4329825821
 30
0.0
 10
61.3972705684
 20
35.8957320768
 30
0.0
 10
61.1847415627
 20
36.3982041647
 30
0.0
 10
60.9002190835
 20
36.8872252612
 30
0.0
 10
60.5696909228
 20
37.3180384905
 30
0.0
 10
60.2723080394
 20
37.6132082706
 30
0.0
 10
60.0439032606
 20
37.7886582992
 30
0.0
 10
59.9043390757
 20
37.8781095496
 30
0.0
 10
59.7954154521
 20
37.9333108066
 30
0.0
 10
59.7338131907
 20
37.9575398611
 30
0.0
 10
59.7100894864
 20
37.9645417187
 30
0.0
  0
SPLINE
  5
29D
100
AcDbEntity
  8
0
100
AcDbSpline
 62
7
  6
BYLAYER
 70
0
 71
3
 72
11
 73
7
 74
0
 42
0.0000001
 43
0.0000001
 44
0.0000000001
 40
0.0
 40
0.0
 40
0.0
 40
0.0
 40
0.2177456295
 40
0.4508837762
 40
0.7104602913
 40
1.0
 40
1.0
 40
1.0
 40
1.0
 10
85.7997041392
 20
49.0468219204
 30
0.0
 10
85.7667250307
 20
49.0658619811
 30
0.0
 10
85.6909752851
 20
49.0934484789
 30
0.0
 10
85.5650454017
 20
49.0966107591
 30
0.0
 10
85.4309030025
 20
49.0641410076
 30
0.0
 10
85.3435932397
 20
49.0226606761
 30
0.0
 10
85.2997405984
 20
48.997342493
 30
0.0
  0
SPLINE
  5
29E
100
AcDbEntity
  8
0
100
AcDbSpline
 62
7
  6
BYLAYER
 70
0
 71
3
 72
11
 73
7
 74
0
 42
0.0000001
 43
0.0000001
 44
0.0000000001
 40
0.0
 40
0.0
 40
0.0
 40
0.0
 40
0.2177825102
 40
0.4509091639
 40
0.7102957096
 40
1.0
 40
1.0
 40
1.0
 40
1.0
 10
86.7997076632
 20
50.7789180168
 30
0.0
 10
86.8986675871
 20
50.7217847591
 30
0.0
 10
87.0838177936
 20
50.5661307992
 30
0.0
 10
87.2809318706
 20
50.2438409637
 30
0.0
 10
87.3980059736
 20
49.8466589056
 30
0.0
 10
87.42105211
 20
49.5575776568
 30
0.0
 10
87.42105211
 20
49.4055725375
 30
0.0
  0
SPLINE
  5
29F
100
AcDbEntity
  8
0
100
AcDbSpline
 62
7
  6
BYLAYER
 70
0
 71
3
 72
14
 73
10
 74
0
 42
0.0000001
 43
0.0000001
 44
0.0000000001
 40
0.0
 40
0.0
 40
0.0
 40
0.0
 40
0.1080466701
 40
0.2181306607
 40
0.3321112976
 40
0.4515005321
 40
0.5774446247
 40
0.7107279069
 40
1.0
 40
1.0
 40
1.0
 40
1.0
 10
80.7788452631
 20
15.1860019279
 30
0.0
 10
81.0247765539
 20
15.3279895735
 30
0.0
 10
81.4975527036
 20
15.6580077544
 30
0.0
 10
82.1224554869
 20
16.2727673634
 30
0.0
 10
82.659622137
 20
17.0026623818
 30
0.0
 10
83.1046440508
 20
17.8389841934
 30
0.0
 10
83.4536406448
 20
18.7737259325
 30
0.0
 10
83.7967595351
 20
20.1764342213
 30
0.0
 10
83.885532924
 20
21.292489674
 30
0.0
 10
83.885532924
 20
22.0527768371
 30
0.0
  0
SPLINE
  5
2A0
100
AcDbEntity
  8
0
100
AcDbSpline
 62
7
  6
BYLAYER
 70
0
 71
3
 72
14
 73
10
 74
0
 42
0.0000001
 43
0.0000001
 44
0.0000000001
 40
0.0
 40
0.0
 40
0.0
 40
0.0
 40
0.1080471782
 40
0.2181315987
 40
0.3321125239
 40
0.4515018634
 40
0.5774458686
 40
0.7107288814
 40
1.0
 40
1.0
 40
1.0
 40
1.0
 10
79.3646375887
 20
14.3695136201
 30
0.0
 10
79.1187117203
 20
14.2275291264
 30
0.0
 10
78.5965306135
 20
13.9831092851
 30
0.0
 10
77.7517015163
 20
13.7493125619
 30
0.0
 10
76.8510329968
 20
13.6490595286
 30
0.0
 10
75.9042705591
 20
13.6818139168
 30
0.0
 10
74.9202880367
 20
13.846933162
 30
0.0
 10
73.5339847359
 20
14.2511141885
 30
0.0
 10
72.523091237
 20
14.7322379225
 30
0.0
 10
71.8646793723
 20
15.1123635902
 30
0.0
  0
SPLINE
  5
2A1
100
AcDbEntity
  8
0
100
AcDbSpline
 62
7
  6
BYLAYER
 70
0
 71
3
 72
11
 73
7
 74
0
 42
0.0000001
 43
0.0000001
 44
0.0000000001
 40
0.0
 40
0.0
 40
0.0
 40
0.0
 40
0.2372518718
 40
0.4999985497
 40
0.7627460178
 40
1.0
 40
1.0
 40
1.0
 40
1.0
 10
66.2077839073
 20
126.9730585784
 30
0.0
 10
66.1073899408
 20
126.9150964408
 30
0.0
 10
65.9174034072
 20
126.755219531
 30
0.0
 10
65.6957481626
 20
126.452187613
 30
0.0
 10
65.5441439069
 20
126.1087108031
 30
0.0
 10
65.5006800701
 20
125.8642378328
 30
0.0
 10
65.5006800701
 20
125.7483120074
 30
0.0
  0
SPLINE
  5
2A2
100
AcDbEntity
  8
0
100
AcDbSpline
 62
7
  6
BYLAYER
 70
0
 71
3
 72
11
 73
7
 74
0
 42
0.0000001
 43
0.0000001
 44
0.0000000001
 40
0.0
 40
0.0
 40
0.0
 40
0.0
 40
0.2895401978
 40
0.5491171512
 40
0.782255066
 40
1.0
 40
1.0
 40
1.0
 40
1.0
 10
54.8940165291
 20
148.2019191416
 30
0.0
 10
54.8940165291
 20
148.3031963879
 30
0.0
 10
54.9094806288
 20
148.4959094248
 30
0.0
 10
54.9873867672
 20
148.7607311092
 30
0.0
 10
55.1187996981
 20
148.9756934835
 30
0.0
 10
55.2423361419
 20
149.0793121761
 30
0.0
 10
55.3082964084
 20
149.1173941109
 30
0.0
  0
SPLINE
  5
2A3
100
AcDbEntity
  8
0
100
AcDbSpline
 62
7
  6
BYLAYER
 70
0
 71
3
 72
11
 73
7
 74
0
 42
0.0000001
 43
0.0000001
 44
0.0000000001
 40
0.0
 40
0.0
 40
0.0
 40
0.0
 40
0.289702329
 40
0.5490881649
 40
0.7822156415
 40
1.0
 40
1.0
 40
1.0
 40
1.0
 10
64.7935526812
 20
140.6494181397
 30
0.0
 10
64.6509465029
 20
140.7317499925
 30
0.0
 10
64.3672568303
 20
140.8667067315
 30
0.0
 10
63.9312201585
 20
140.9720017754
 30
0.0
 10
63.5220901974
 20
140.961642679
 30
0.0
 10
63.2757721159
 20
140.8722519397
 30
0.0
 10
63.1685680646
 20
140.8103580021
 30
0.0
  0
SPLINE
  5
2A4
100
AcDbEntity
  8
0
100
AcDbSpline
 62
7
  6
BYLAYER
 70
0
 71
3
 72
11
 73
7
 74
0
 42
0.0000001
 43
0.0000001
 44
0.0000000001
 40
0.0
 40
0.0
 40
0.0
 40
0.0
 40
0.2895391946
 40
0.5491157945
 40
0.7822541179
 40
1.0
 40
1.0
 40
1.0
 40
1.0
 10
57.7224554297
 20
143.7928479052
 30
0.0
 10
57.6303635883
 20
143.8460159518
 30
0.0
 10
57.4470103661
 20
143.9331240756
 30
0.0
 10
57.1653075765
 20
144.001309117
 30
0.0
 10
56.900851613
 20
143.9946658618
 30
0.0
 10
56.7417755901
 20
143.9367323061
 30
0.0
 10
56.6725188815
 20
143.8967471324
 30
0.0
  0
SPLINE
  5
2A5
100
AcDbEntity
  8
0
100
AcDbSpline
 62
7
  6
BYLAYER
 70
0
 71
3
 72
11
 73
7
 74
0
 42
0.0000001
 43
0.0000001
 44
0.0000000001
 40
0.0
 40
0.0
 40
0.0
 40
0.0
 40
0.2372539654
 40
0.5000012591
 40
0.7627478695
 40
1.0
 40
1.0
 40
1.0
 40
1.0
 10
59.2073858525
 20
141.2208872448
 30
0.0
 10
59.2073858525
 20
141.4643315994
 30
0.0
 10
59.1161108947
 20
141.9777249509
 30
0.0
 10
58.7977388087
 20
142.6990251777
 30
0.0
 10
58.3322586086
 20
143.3353898564
 30
0.0
 10
57.933283987
 20
143.6711287346
 30
0.0
 10
57.7224554297
 20
143.7928479052
 30
0.0
  0
SPLINE
  5
2A6
100
AcDbEntity
  8
0
100
AcDbSpline
 62
7
  6
BYLAYER
 70
0
 71
3
 72
11
 73
7
 74
0
 42
0.0000001
 43
0.0000001
 44
0.0000000001
 40
0.0
 40
0.0
 40
0.0
 40
0.0
 40
0.2372542275
 40
0.5000017852
 40
0.7627483734
 40
1.0
 40
1.0
 40
1.0
 40
1.0
 10
54.8940165291
 20
137.5873877189
 30
0.0
 10
54.8940165291
 20
137.4714617737
 30
0.0
 10
54.8505526213
 20
137.2269886398
 30
0.0
 10
54.6989482316
 20
136.8835117581
 30
0.0
 10
54.4772929822
 20
136.580479992
 30
0.0
 10
54.2873065547
 20
136.4206032256
 30
0.0
 10
54.1869126919
 20
136.3626411479
 30
0.0
  0
SPLINE
  5
2A7
100
AcDbEntity
  8
0
100
AcDbSpline
 62
7
  6
BYLAYER
 70
0
 71
3
 72
13
 73
9
 74
0
 42
0.0000001
 43
0.0000001
 44
0.0000000001
 40
0.0
 40
0.0
 40
0.0
 40
0.0
 40
0.1142247162
 40
0.2375579183
 40
0.4999983243
 40
0.7624396433
 40
0.8857739388
 40
1.0
 40
1.0
 40
1.0
 40
1.0
 10
53.4798088547
 20
135.954396994
 30
0.0
 10
53.3346285307
 20
135.8705775952
 30
0.0
 10
53.0477685127
 20
135.6694454522
 30
0.0
 10
52.5106804588
 20
135.1668521321
 30
0.0
 10
51.943424776
 20
134.3919449013
 30
0.0
 10
51.5559671621
 20
133.5132301543
 30
0.0
 10
51.3892533245
 20
132.7967964312
 30
0.0
 10
51.3584973431
 20
132.4477988031
 30
0.0
 10
51.3584973431
 20
132.280157281
 30
0.0
  0
SPLINE
  5
2A8
100
AcDbEntity
  8
0
100
AcDbSpline
 62
7
  6
BYLAYER
 70
0
 71
3
 72
11
 73
7
 74
0
 42
0.0000001
 43
0.0000001
 44
0.0000000001
 40
0.0
 40
0.0
 40
0.0
 40
0.0
 40
0.2372523758
 40
0.4999990758
 40
0.7627462798
 40
1.0
 40
1.0
 40
1.0
 40
1.0
 10
59.1366631041
 20
141.180026061
 30
0.0
 10
58.9258343289
 20
141.3017453575
 30
0.0
 10
58.5268594846
 20
141.6374845367
 30
0.0
 10
58.0613792945
 20
142.2738495345
 30
0.0
 10
57.7430074899
 20
142.9951496104
 30
0.0
 10
57.6517326813
 20
143.5085426186
 30
0.0
 10
57.6517326813
 20
143.7519867215
 30
0.0
  0
SPLINE
  5
2A9
100
AcDbEntity
  8
0
100
AcDbSpline
 62
7
  6
BYLAYER
 70
0
 71
3
 72
9
 73
5
 74
0
 42
0.0000001
 43
0.0000001
 44
0.0000000001
 40
0.0
 40
0.0
 40
0.0
 40
0.0
 40
0.266730068
 40
1.0
 40
1.0
 40
1.0
 40
1.0
 10
63.9096537489
 20
140.139056044
 30
0.0
 10
63.9096537489
 20
140.2080147041
 30
0.0
 10
63.9184639367
 20
140.4662814484
 30
0.0
 10
63.9640742082
 20
140.724728577
 30
0.0
 10
64.0255000325
 20
140.90407598
 30
0.0
  0
SPLINE
  5
2AA
100
AcDbEntity
  8
0
100
AcDbSpline
 62
7
  6
BYLAYER
 70
0
 71
3
 72
13
 73
9
 74
0
 42
0.0000001
 43
0.0000001
 44
0.0000000001
 40
0.0
 40
0.0
 40
0.0
 40
0.0
 40
0.1142250362
 40
0.2375584228
 40
0.4999988469
 40
0.762439898
 40
0.8857740437
 40
1.0
 40
1.0
 40
1.0
 40
1.0
 10
66.2077603556
 20
136.1586407361
 30
0.0
 10
66.0504804839
 20
136.2494442582
 30
0.0
 10
65.739713039
 20
136.4673357541
 30
0.0
 10
65.1578629861
 20
137.0118087947
 30
0.0
 10
64.5433307272
 20
137.8512885527
 30
0.0
 10
64.1235811862
 20
138.8032280302
 30
0.0
 10
63.9429729899
 20
139.5793638677
 30
0.0
 10
63.9096537489
 20
139.9574444556
 30
0.0
 10
63.9096537489
 20
140.139056044
 30
0.0
  0
SPLINE
  5
2AB
100
AcDbEntity
  8
0
100
AcDbSpline
 62
7
  6
BYLAYER
 70
0
 71
3
 72
11
 73
7
 74
0
 42
0.0000001
 43
0.0000001
 44
0.0000000001
 40
0.0
 40
0.0
 40
0.0
 40
0.0
 40
0.2895391946
 40
0.5491157945
 40
0.7822541179
 40
1.0
 40
1.0
 40
1.0
 40
1.0
 10
57.7224436539
 20
149.8349307745
 30
0.0
 10
57.6347371382
 20
149.8855670094
 30
0.0
 10
57.4601150219
 20
149.9685271273
 30
0.0
 10
57.1918266508
 20
150.0334652619
 30
0.0
 10
56.9399638284
 20
150.0271383522
 30
0.0
 10
56.7884628542
 20
149.9719635373
 30
0.0
 10
56.7225040842
 20
149.9338824195
 30
0.0
  0
SPLINE
  5
2AC
100
AcDbEntity
  8
0
100
AcDbSpline
 62
7
  6
BYLAYER
 70
0
 71
3
 72
9
 73
5
 74
0
 42
0.0000001
 43
0.0000001
 44
0.0000000001
 40
0.0
 40
0.0
 40
0.0
 40
0.0
 40
0.2402536282
 40
1.0
 40
1.0
 40
1.0
 40
1.0
 10
59.6670248377
 20
37.2597763051
 30
0.0
 10
59.6670248377
 20
37.2309654927
 30
0.0
 10
59.6701679562
 20
37.1110539199
 30
0.0
 10
59.6852364989
 20
36.991570692
 30
0.0
 10
59.7020451136
 20
36.9020271319
 30
0.0
  0
SPLINE
  5
2AD
100
AcDbEntity
  8
0
100
AcDbSpline
 62
7
  6
BYLAYER
 70
0
 71
3
 72
11
 73
7
 74
0
 42
0.0000001
 43
0.0000001
 44
0.0000000001
 40
0.0
 40
0.0
 40
0.0
 40
0.0
 40
0.2615186684
 40
0.5332522061
 40
0.7867529007
 40
1.0
 40
1.0
 40
1.0
 40
1.0
 10
59.7020451136
 20
36.9020271319
 30
0.0
 10
59.7434719221
 20
36.6813364932
 30
0.0
 10
59.8935544505
 20
36.2427399099
 30
0.0
 10
60.2531147946
 20
35.6643351644
 30
0.0
 10
60.7053765901
 20
35.2123448988
 30
0.0
 10
61.0692093664
 20
35.0180530769
 30
0.0
 10
61.2470612024
 20
34.9745365184
 30
0.0
  0
SPLINE
  5
2AE
100
AcDbEntity
  8
0
100
AcDbSpline
 62
7
  6
BYLAYER
 70
0
 71
3
 72
9
 73
5
 74
0
 42
0.0000001
 43
0.0000001
 44
0.0000000001
 40
0.0
 40
0.0
 40
0.0
 40
0.0
 40
0.2640439823
 40
1.0
 40
1.0
 40
1.0
 40
1.0
 10
61.2470612024
 20
34.9745365184
 30
0.0
 10
61.2726051142
 20
34.9682864669
 30
0.0
 10
61.3701515635
 20
34.9483127797
 30
0.0
 10
61.4714110297
 20
34.9441987538
 30
0.0
 10
61.5441892585
 20
34.9529076206
 30
0.0
  0
SPLINE
  5
2AF
100
AcDbEntity
  8
0
100
AcDbSpline
 62
7
  6
BYLAYER
 70
0
 71
3
 72
11
 73
7
 74
0
 42
0.0000001
 43
0.0000001
 44
0.0000000001
 40
0.0
 40
0.0
 40
0.0
 40
0.0
 40
0.2177660095
 40
0.4508968553
 40
0.7103699668
 40
1.0
 40
1.0
 40
1.0
 40
1.0
 10
66.8291690755
 20
91.603805807
 30
0.0
 10
66.7302402064
 20
91.5466371288
 30
0.0
 10
66.5449906928
 20
91.3911347856
 30
0.0
 10
66.347903497
 20
91.0687421571
 30
0.0
 10
66.2309013553
 20
90.6715496391
 30
0.0
 10
66.2078015711
 20
90.3824678028
 30
0.0
 10
66.2078015711
 20
90.2305023338
 30
0.0
  0
SPLINE
  5
2B0
100
AcDbEntity
  8
0
100
AcDbSpline
 62
7
  6
BYLAYER
 70
0
 71
3
 72
11
 73
7
 74
0
 42
0.0000001
 43
0.0000001
 44
0.0000000001
 40
0.0
 40
0.0
 40
0.0
 40
0.0
 40
0.2177833598
 40
0.4509104088
 40
0.7102966711
 40
1.0
 40
1.0
 40
1.0
 40
1.0
 10
50.0656260017
 20
154.1155616196
 30
0.0
 10
49.9336796323
 20
154.0393827788
 30
0.0
 10
49.6868133984
 20
153.8318428285
 30
0.0
 10
49.423995034
 20
153.4021228357
 30
0.0
 10
49.2678963813
 20
152.8725480474
 30
0.0
 10
49.2371681676
 20
152.4871077161
 30
0.0
 10
49.2371681676
 20
152.2844351385
 30
0.0
  0
SPLINE
  5
2B1
100
AcDbEntity
  8
0
100
AcDbSpline
 62
7
  6
BYLAYER
 70
0
 71
3
 72
11
 73
7
 74
0
 42
0.0000001
 43
0.0000001
 44
0.0000000001
 40
0.0
 40
0.0
 40
0.0
 40
0.0
 40
0.2177239861
 40
0.4508730345
 40
0.7104683317
 40
1.0
 40
1.0
 40
1.0
 40
1.0
 10
70.81470038
 20
54.0817125482
 30
0.0
 10
70.7454469828
 20
54.0417328742
 30
0.0
 10
70.6157619887
 20
53.9329041918
 30
0.0
 10
70.4777572911
 20
53.7072084191
 30
0.0
 10
70.395958802
 20
53.4291314738
 30
0.0
 10
70.3797195098
 20
53.2267799674
 30
0.0
 10
70.3797195098
 20
53.1204416104
 30
0.0
  0
SPLINE
  5
2B2
100
AcDbEntity
  8
0
100
AcDbSpline
 62
7
  6
BYLAYER
 70
0
 71
3
 72
9
 73
5
 74
0
 42
0.0000001
 43
0.0000001
 44
0.0000000001
 40
0.0
 40
0.0
 40
0.0
 40
0.0
 40
0.2402536282
 40
1.0
 40
1.0
 40
1.0
 40
1.0
 10
59.6670248377
 20
29.5030033424
 30
0.0
 10
59.6670248377
 20
29.4741925299
 30
0.0
 10
59.6701679562
 20
29.3542809572
 30
0.0
 10
59.6852364989
 20
29.2347977292
 30
0.0
 10
59.7020451136
 20
29.1452541692
 30
0.0
  0
SPLINE
  5
2B3
100
AcDbEntity
  8
0
100
AcDbSpline
 62
7
  6
BYLAYER
 70
0
 71
3
 72
11
 73
7
 74
0
 42
0.0000001
 43
0.0000001
 44
0.0000000001
 40
0.0
 40
0.0
 40
0.0
 40
0.0
 40
0.2615186684
 40
0.533252206
 40
0.7867529007
 40
1.0
 40
1.0
 40
1.0
 40
1.0
 10
59.7020451136
 20
29.1452541692
 30
0.0
 10
59.7434719221
 20
28.9245635306
 30
0.0
 10
59.8935544504
 20
28.4859669474
 30
0.0
 10
60.2531147943
 20
27.9075622021
 30
0.0
 10
60.7053765895
 20
27.4555719366
 30
0.0
 10
61.0692093657
 20
27.2612801145
 30
0.0
 10
61.2470612016
 20
27.2177635559
 30
0.0
  0
SPLINE
  5
2B4
100
AcDbEntity
  8
0
100
AcDbSpline
 62
7
  6
BYLAYER
 70
0
 71
3
 72
9
 73
5
 74
0
 42
0.0000001
 43
0.0000001
 44
0.0000000001
 40
0.0
 40
0.0
 40
0.0
 40
0.0
 40
0.2640439823
 40
1.0
 40
1.0
 40
1.0
 40
1.0
 10
61.2470612016
 20
27.2177635559
 30
0.0
 10
61.2726051135
 20
27.2115135044
 30
0.0
 10
61.3701515631
 20
27.191539817
 30
0.0
 10
61.4714110296
 20
27.187425791
 30
0.0
 10
61.5441892586
 20
27.1961346579
 30
0.0
  0
SPLINE
  5
2B5
100
AcDbEntity
  8
0
100
AcDbSpline
 62
7
  6
BYLAYER
 70
0
 71
3
 72
11
 73
7
 74
0
 42
0.0000001
 43
0.0000001
 44
0.0000000001
 40
0.0
 40
0.0
 40
0.0
 40
0.0
 40
0.289702809
 40
0.549088757
 40
0.7822160314
 40
1.0
 40
1.0
 40
1.0
 40
1.0
 10
85.2997405984
 20
50.6303473272
 30
0.0
 10
85.4313752024
 20
50.7063461476
 30
0.0
 10
85.6932388406
 20
50.8309222849
 30
0.0
 10
86.0957288975
 20
50.9281199899
 30
0.0
 10
86.4733827464
 20
50.9185610907
 30
0.0
 10
86.7007509962
 20
50.836049394
 30
0.0
 10
86.7997076632
 20
50.7789180168
 30
0.0
  0
SPLINE
  5
2B6
100
AcDbEntity
  8
0
100
AcDbSpline
 62
7
  6
BYLAYER
 70
0
 71
3
 72
11
 73
7
 74
0
 42
0.0000001
 43
0.0000001
 44
0.0000000001
 40
0.0
 40
0.0
 40
0.0
 40
0.0
 40
0.2177460211
 40
0.4508843679
 40
0.7104607696
 40
1.0
 40
1.0
 40
1.0
 40
1.0
 10
55.3082964084
 20
149.1173941109
 30
0.0
 10
55.3742552419
 20
149.1554752185
 30
0.0
 10
55.5257562507
 20
149.2106501117
 30
0.0
 10
55.7776190714
 20
149.2169768961
 30
0.0
 10
56.0459074248
 20
149.1520389143
 30
0.0
 10
56.2205294516
 20
149.0690787087
 30
0.0
 10
56.3082359794
 20
149.0184424668
 30
0.0
  0
SPLINE
  5
2B7
100
AcDbEntity
  8
0
100
AcDbSpline
 62
7
  6
BYLAYER
 70
0
 71
3
 72
9
 73
5
 74
0
 42
0.0000001
 43
0.0000001
 44
0.0000000001
 40
0.0
 40
0.0
 40
0.0
 40
0.0
 40
0.2235607559
 40
1.0
 40
1.0
 40
1.0
 40
1.0
 10
73.1086475683
 20
134.7601402227
 30
0.0
 10
73.0779753247
 20
134.7202368014
 30
0.0
 10
72.9606277495
 20
134.526206683
 30
0.0
 10
72.9253321843
 20
134.2923691506
 30
0.0
 10
72.9253321842
 20
134.1175715504
 30
0.0
  0
SPLINE
  5
2B8
100
AcDbEntity
  8
0
100
AcDbSpline
 62
7
  6
BYLAYER
 70
0
 71
3
 72
11
 73
7
 74
0
 42
0.0000001
 43
0.0000001
 44
0.0000000001
 40
0.0
 40
0.0
 40
0.0
 40
0.0
 40
0.2177660095
 40
0.4508968553
 40
0.7103699668
 40
1.0
 40
1.0
 40
1.0
 40
1.0
 10
49.0263997012
 20
67.324886543
 30
0.0
 10
48.9192267598
 20
67.2629538083
 30
0.0
 10
48.7185397867
 20
67.0944929366
 30
0.0
 10
48.5050286579
 20
66.7452342557
 30
0.0
 10
48.3782763377
 20
66.3149423611
 30
0.0
 10
48.3532515715
 20
66.0017703718
 30
0.0
 10
48.3532515715
 20
65.8371411137
 30
0.0
  0
SPLINE
  5
2B9
100
AcDbEntity
  8
0
100
AcDbSpline
 62
7
  6
BYLAYER
 70
0
 71
3
 72
11
 73
7
 74
0
 42
0.0000001
 43
0.0000001
 44
0.0000000001
 40
0.0
 40
0.0
 40
0.0
 40
0.0
 40
0.2177660095
 40
0.4508968553
 40
0.7103699668
 40
1.0
 40
1.0
 40
1.0
 40
1.0
 10
77.3107887071
 20
50.9952563622
 30
0.0
 10
77.2036157656
 20
50.9333236275
 30
0.0
 10
77.0029287925
 20
50.7648627558
 30
0.0
 10
76.7894176638
 20
50.4156040749
 30
0.0
 10
76.6626653436
 20
49.9853121803
 30
0.0
 10
76.6376405774
 20
49.672140191
 30
0.0
 10
76.6376405774
 20
49.5075109329
 30
0.0
  0
SPLINE
  5
2BA
100
AcDbEntity
  8
0
100
AcDbSpline
 62
7
  6
BYLAYER
 70
0
 71
3
 72
15
 73
11
 74
0
 42
0.0000001
 43
0.0000001
 44
0.0000000001
 40
0.0
 40
0.0
 40
0.0
 40
0.0
 40
0.1141546703
 40
0.2373261017
 40
0.3669753162
 40
0.4999989361
 40
0.6330227034
 40
0.7626723508
 40
0.8858444607
 40
1.0
 40
1.0
 40
1.0
 40
1.0
 10
75.4002279981
 20
146.1610538097
 30
0.0
 10
75.8843012069
 20
145.8815803349
 30
0.0
 10
76.8404327058
 20
145.2113492514
 30
0.0
 10
78.1560183684
 20
143.9805288632
 30
0.0
 10
79.3684016357
 20
142.5256056329
 30
0.0
 10
80.4319174571
 20
140.9011583943
 30
0.0
 10
81.3069812478
 20
139.1679053013
 30
0.0
 10
81.9608014813
 20
137.3904866515
 30
0.0
 10
82.3689436694
 20
135.6357390621
 30
0.0
 10
82.4713252495
 20
134.4725827822
 30
0.0
 10
82.4713252495
 20
133.9136220932
 30
0.0
  0
SPLINE
  5
2BB
100
AcDbEntity
  8
0
100
AcDbSpline
 62
7
  6
BYLAYER
 70
0
 71
3
 72
11
 73
7
 74
0
 42
0.0000001
 43
0.0000001
 44
0.0000000001
 40
0.0
 40
0.0
 40
0.0
 40
0.0
 40
0.217745073
 40
0.4508830113
 40
0.7104597664
 40
1.0
 40
1.0
 40
1.0
 40
1.0
 10
56.6725188815
 20
143.8967471324
 30
0.0
 10
56.6032605778
 20
143.8567610378
 30
0.0
 10
56.4735472223
 20
143.74796142
 30
0.0
 10
56.3355637598
 20
143.5222508629
 30
0.0
 10
56.2537621848
 20
143.2441881906
 30
0.0
 10
56.2375250069
 20
143.0418395373
 30
0.0
 10
56.2375250069
 20
142.9354984138
 30
0.0
  0
SPLINE
  5
2BC
100
AcDbEntity
  8
0
100
AcDbSpline
 62
7
  6
BYLAYER
 70
0
 71
3
 72
9
 73
5
 74
0
 42
0.0000001
 43
0.0000001
 44
0.0000000001
 40
0.0
 40
0.0
 40
0.0
 40
0.0
 40
0.2402536282
 40
1.0
 40
1.0
 40
1.0
 40
1.0
 10
46.4087174912
 20
149.4265998449
 30
0.0
 10
46.4087174912
 20
149.3977890325
 30
0.0
 10
46.4118606097
 20
149.2778774598
 30
0.0
 10
46.4269291524
 20
149.1583942318
 30
0.0
 10
46.4437377671
 20
149.0688506718
 30
0.0
  0
SPLINE
  5
2BD
100
AcDbEntity
  8
0
100
AcDbSpline
 62
7
  6
BYLAYER
 70
0
 71
3
 72
11
 73
7
 74
0
 42
0.0000001
 43
0.0000001
 44
0.0000000001
 40
0.0
 40
0.0
 40
0.0
 40
0.0
 40
0.2615186684
 40
0.5332522061
 40
0.7867529007
 40
1.0
 40
1.0
 40
1.0
 40
1.0
 10
46.4437377671
 20
149.0688506718
 30
0.0
 10
46.4851645756
 20
148.8481600331
 30
0.0
 10
46.635247104
 20
148.4095634497
 30
0.0
 10
46.9948074481
 20
147.8311587043
 30
0.0
 10
47.4470692436
 20
147.3791684387
 30
0.0
 10
47.8109020199
 20
147.1848766168
 30
0.0
 10
47.9887538559
 20
147.1413600583
 30
0.0
  0
SPLINE
  5
2BE
100
AcDbEntity
  8
0
100
AcDbSpline
 62
7
  6
BYLAYER
 70
0
 71
3
 72
9
 73
5
 74
0
 42
0.0000001
 43
0.0000001
 44
0.0000000001
 40
0.0
 40
0.0
 40
0.0
 40
0.0
 40
0.2640439823
 40
1.0
 40
1.0
 40
1.0
 40
1.0
 10
47.9887538559
 20
147.1413600583
 30
0.0
 10
48.0142977677
 20
147.1351100068
 30
0.0
 10
48.111844217
 20
147.1151363195
 30
0.0
 10
48.2131036832
 20
147.1110222936
 30
0.0
 10
48.2858819119
 20
147.1197311604
 30
0.0
  0
SPLINE
  5
2BF
100
AcDbEntity
  8
0
100
AcDbSpline
 62
7
  6
BYLAYER
 70
0
 71
3
 72
9
 73
5
 74
0
 42
0.0000001
 43
0.0000001
 44
0.0000000001
 40
0.0
 40
0.0
 40
0.0
 40
0.0
 40
0.2235607559
 40
1.0
 40
1.0
 40
1.0
 40
1.0
 10
59.8503402217
 20
30.1455720145
 30
0.0
 10
59.8196679782
 20
30.1056685933
 30
0.0
 10
59.702320403
 20
29.9116384749
 30
0.0
 10
59.6670248377
 20
29.6778009425
 30
0.0
 10
59.6670248377
 20
29.5030033424
 30
0.0
  0
SPLINE
  5
2C0
100
AcDbEntity
  8
0
100
AcDbSpline
 62
7
  6
BYLAYER
 70
0
 71
3
 72
21
 73
17
 74
0
 42
0.0000001
 43
0.0000001
 44
0.0000000001
 40
0.0
 40
0.0
 40
0.0
 40
0.0
 40
0.0666035237
 40
0.1385185211
 40
0.2915458157
 40
0.4445765566
 40
0.5164587784
 40
0.5830795329
 40
0.643488175
 40
0.6975286538
 40
0.7461366817
 40
0.7915341721
 40
0.8369347016
 40
0.8855348297
 40
0.9396088866
 40
1.0
 40
1.0
 40
1.0
 40
1.0
 10
43.5803094062
 20
149.4265820539
 30
0.0
 10
43.580309406
 20
149.2170326607
 30
0.0
 10
43.6187530702
 20
148.7807882176
 30
0.0
 10
43.827140102
 20
147.8852540258
 30
0.0
 10
44.311478111
 20
146.7868107509
 30
0.0
 10
45.0204964535
 20
145.818405826
 30
0.0
 10
45.6919175767
 20
145.1899604955
 30
0.0
 10
46.2063633075
 20
144.8292965606
 30
0.0
 10
46.7236927974
 20
144.5831177626
 30
0.0
 10
47.2268544919
 20
144.4616810669
 30
0.0
 10
47.6991555732
 20
144.4736471837
 30
0.0
 10
48.1196202501
 20
144.626032669
 30
0.0
 10
48.4617911212
 20
144.9139345247
 30
0.0
 10
48.7085180647
 20
145.3169920542
 30
0.0
 10
48.8547606042
 20
145.8134246947
 30
0.0
 10
48.8835942651
 20
146.174794601
 30
0.0
 10
48.8835942653
 20
146.3647983797
 30
0.0
  0
SPLINE
  5
2C1
100
AcDbEntity
  8
0
100
AcDbSpline
 62
7
  6
BYLAYER
 70
0
 71
3
 72
11
 73
7
 74
0
 42
0.0000001
 43
0.0000001
 44
0.0000000001
 40
0.0
 40
0.0
 40
0.0
 40
0.0
 40
0.2319839873
 40
0.4884075889
 40
0.7510226214
 40
1.0
 40
1.0
 40
1.0
 40
1.0
 10
48.8835942653
 20
146.3647983797
 30
0.0
 10
48.8835942656
 20
146.7381262598
 30
0.0
 10
48.7624664376
 20
147.5248979369
 30
0.0
 10
48.3243195174
 20
148.6589771269
 30
0.0
 10
47.6644590187
 20
149.7124573343
 30
0.0
 10
47.0937965837
 20
150.316698565
 30
0.0
 10
46.7844470966
 20
150.5713422273
 30
0.0
  0
SPLINE
  5
2C2
100
AcDbEntity
  8
0
100
AcDbSpline
 62
7
  6
BYLAYER
 70
0
 71
3
 72
17
 73
13
 74
0
 42
0.0000001
 43
0.0000001
 44
0.0000000001
 40
0.0
 40
0.0
 40
0.0
 40
0.0
 40
0.1546143088
 40
0.2259404973
 40
0.293027778
 40
0.4147522003
 40
0.5237879589
 40
0.5761672323
 40
0.6286240241
 40
0.7381949034
 40
0.8608428083
 40
1.0
 40
1.0
 40
1.0
 40
1.0
 10
46.7844470966
 20
150.5713422273
 30
0.0
 10
46.601047058
 20
150.7223095295
 30
0.0
 10
46.3153899875
 20
150.9237158932
 30
0.0
 10
45.9123584905
 20
151.1260321815
 30
0.0
 10
45.5372464398
 20
151.2655399273
 30
0.0
 10
45.0808374491
 20
151.3476785848
 30
0.0
 10
44.640440433
 20
151.2831608719
 30
0.0
 10
44.341066561
 20
151.1430232777
 30
0.0
 10
44.0736449786
 20
150.9473738871
 30
0.0
 10
43.8032831841
 20
150.5908692882
 30
0.0
 10
43.6164673721
 20
150.0444885081
 30
0.0
 10
43.5803094064
 20
149.6403774262
 30
0.0
 10
43.5803094062
 20
149.4265820539
 30
0.0
  0
SPLINE
  5
2C3
100
AcDbEntity
  8
0
100
AcDbSpline
 62
7
  6
BYLAYER
 70
0
 71
3
 72
21
 73
17
 74
0
 42
0.0000001
 43
0.0000001
 44
0.0000000001
 40
0.0
 40
0.0
 40
0.0
 40
0.0
 40
0.0666035237
 40
0.1385185211
 40
0.2915458157
 40
0.4445765566
 40
0.5164587784
 40
0.5830795329
 40
0.643488175
 40
0.6975286538
 40
0.7461366817
 40
0.7915341721
 40
0.8369347016
 40
0.8855348297
 40
0.9396088866
 40
1.0
 40
1.0
 40
1.0
 40
1.0
 10
70.0969240992
 20
134.1175537594
 30
0.0
 10
70.096924099
 20
133.9080043661
 30
0.0
 10
70.1353677632
 20
133.4717599231
 30
0.0
 10
70.343754795
 20
132.5762257313
 30
0.0
 10
70.828092804
 20
131.4777824564
 30
0.0
 10
71.5371111465
 20
130.5093775315
 30
0.0
 10
72.2085322698
 20
129.8809322009
 30
0.0
 10
72.7229780005
 20
129.5202682661
 30
0.0
 10
73.2403074905
 20
129.2740894681
 30
0.0
 10
73.7434691849
 20
129.1526527724
 30
0.0
 10
74.2157702662
 20
129.1646188892
 30
0.0
 10
74.6362349431
 20
129.3170043745
 30
0.0
 10
74.9784058142
 20
129.6049062301
 30
0.0
 10
75.2251327577
 20
130.0079637596
 30
0.0
 10
75.3713752972
 20
130.5043964002
 30
0.0
 10
75.4002089581
 20
130.8657663065
 30
0.0
 10
75.4002089583
 20
131.0557700852
 30
0.0
  0
SPLINE
  5
2C4
100
AcDbEntity
  8
0
100
AcDbSpline
 62
7
  6
BYLAYER
 70
0
 71
3
 72
11
 73
7
 74
0
 42
0.0000001
 43
0.0000001
 44
0.0000000001
 40
0.0
 40
0.0
 40
0.0
 40
0.0
 40
0.2319839873
 40
0.4884075889
 40
0.7510226214
 40
1.0
 40
1.0
 40
1.0
 40
1.0
 10
75.4002089583
 20
131.0557700852
 30
0.0
 10
75.4002089587
 20
131.4290979653
 30
0.0
 10
75.2790811306
 20
132.2158696424
 30
0.0
 10
74.8409342104
 20
133.3499488324
 30
0.0
 10
74.1810737117
 20
134.4034290398
 30
0.0
 10
73.6104112767
 20
135.0076702704
 30
0.0
 10
73.3010617896
 20
135.2623139328
 30
0.0
  0
SPLINE
  5
2C5
100
AcDbEntity
  8
0
100
AcDbSpline
 62
7
  6
BYLAYER
 70
0
 71
3
 72
17
 73
13
 74
0
 42
0.0000001
 43
0.0000001
 44
0.0000000001
 40
0.0
 40
0.0
 40
0.0
 40
0.0
 40
0.1546143088
 40
0.2259404973
 40
0.293027778
 40
0.4147522003
 40
0.5237879589
 40
0.5761672323
 40
0.6286240241
 40
0.7381949034
 40
0.8608428083
 40
1.0
 40
1.0
 40
1.0
 40
1.0
 10
73.3010617896
 20
135.2623139328
 30
0.0
 10
73.117661751
 20
135.4132812349
 30
0.0
 10
72.8320046805
 20
135.6146875987
 30
0.0
 10
72.4289731835
 20
135.817003887
 30
0.0
 10
72.0538611328
 20
135.9565116328
 30
0.0
 10
71.5974521421
 20
136.0386502903
 30
0.0
 10
71.157055126
 20
135.9741325774
 30
0.0
 10
70.857681254
 20
135.8339949832
 30
0.0
 10
70.5902596716
 20
135.6383455926
 30
0.0
 10
70.3198978771
 20
135.2818409937
 30
0.0
 10
70.1330820651
 20
134.7354602136
 30
0.0
 10
70.0969240994
 20
134.3313491316
 30
0.0
 10
70.0969240992
 20
134.1175537594
 30
0.0
  0
SPLINE
  5
2C6
100
AcDbEntity
  8
0
100
AcDbSpline
 62
7
  6
BYLAYER
 70
0
 71
3
 72
9
 73
5
 74
0
 42
0.0000001
 43
0.0000001
 44
0.0000000001
 40
0.0
 40
0.0
 40
0.0
 40
0.0
 40
0.2402536282
 40
1.0
 40
1.0
 40
1.0
 40
1.0
 10
72.9253321842
 20
134.1175715504
 30
0.0
 10
72.9253321842
 20
134.088760738
 30
0.0
 10
72.9284753027
 20
133.9688491652
 30
0.0
 10
72.9435438454
 20
133.8493659373
 30
0.0
 10
72.9603524601
 20
133.7598223773
 30
0.0
  0
SPLINE
  5
2C7
100
AcDbEntity
  8
0
100
AcDbSpline
 62
7
  6
BYLAYER
 70
0
 71
3
 72
11
 73
7
 74
0
 42
0.0000001
 43
0.0000001
 44
0.0000000001
 40
0.0
 40
0.0
 40
0.0
 40
0.0
 40
0.2615186684
 40
0.5332522061
 40
0.7867529007
 40
1.0
 40
1.0
 40
1.0
 40
1.0
 10
72.9603524601
 20
133.7598223773
 30
0.0
 10
73.0017792686
 20
133.5391317385
 30
0.0
 10
73.151861797
 20
133.1005351552
 30
0.0
 10
73.5114221411
 20
132.5221304098
 30
0.0
 10
73.9636839366
 20
132.0701401442
 30
0.0
 10
74.3275167129
 20
131.8758483223
 30
0.0
 10
74.5053685489
 20
131.8323317638
 30
0.0
  0
SPLINE
  5
2C8
100
AcDbEntity
  8
0
100
AcDbSpline
 62
7
  6
BYLAYER
 70
0
 71
3
 72
9
 73
5
 74
0
 42
0.0000001
 43
0.0000001
 44
0.0000000001
 40
0.0
 40
0.0
 40
0.0
 40
0.0
 40
0.2640439823
 40
1.0
 40
1.0
 40
1.0
 40
1.0
 10
74.5053685489
 20
131.8323317638
 30
0.0
 10
74.5309124607
 20
131.8260817123
 30
0.0
 10
74.62845891
 20
131.806108025
 30
0.0
 10
74.7297183762
 20
131.8019939991
 30
0.0
 10
74.802496605
 20
131.8107028659
 30
0.0
  0
SPLINE
  5
2C9
100
AcDbEntity
  8
0
100
AcDbSpline
 62
7
  6
BYLAYER
 70
0
 71
3
 72
21
 73
17
 74
0
 42
0.0000001
 43
0.0000001
 44
0.0000000001
 40
0.0
 40
0.0
 40
0.0
 40
0.0
 40
0.0666035237
 40
0.1385185211
 40
0.2915458157
 40
0.4445765566
 40
0.5164587784
 40
0.5830795329
 40
0.643488175
 40
0.6975286538
 40
0.7461366817
 40
0.7915341721
 40
0.8369347016
 40
0.8855348297
 40
0.9396088866
 40
1.0
 40
1.0
 40
1.0
 40
1.0
 10
41.635757662
 20
81.9630410899
 30
0.0
 10
41.6357576618
 20
81.7534916967
 30
0.0
 10
41.6742013261
 20
81.3172472536
 30
0.0
 10
41.8825883578
 20
80.4217130619
 30
0.0
 10
42.3669263668
 20
79.3232697869
 30
0.0
 10
43.0759447093
 20
78.354864862
 30
0.0
 10
43.7473658326
 20
77.7264195315
 30
0.0
 10
44.2618115634
 20
77.3657555966
 30
0.0
 10
44.7791410533
 20
77.1195767986
 30
0.0
 10
45.2823027477
 20
76.998140103
 30
0.0
 10
45.7546038291
 20
77.0101062198
 30
0.0
 10
46.1750685059
 20
77.1624917051
 30
0.0
 10
46.517239377
 20
77.4503935607
 30
0.0
 10
46.7639663206
 20
77.8534510902
 30
0.0
 10
46.91020886
 20
78.3498837307
 30
0.0
 10
46.939042521
 20
78.7112536371
 30
0.0
 10
46.9390425212
 20
78.9012574157
 30
0.0
  0
SPLINE
  5
2CA
100
AcDbEntity
  8
0
100
AcDbSpline
 62
7
  6
BYLAYER
 70
0
 71
3
 72
11
 73
7
 74
0
 42
0.0000001
 43
0.0000001
 44
0.0000000001
 40
0.0
 40
0.0
 40
0.0
 40
0.0
 40
0.2319839873
 40
0.4884075889
 40
0.7510226214
 40
1.0
 40
1.0
 40
1.0
 40
1.0
 10
46.9390425212
 20
78.9012574157
 30
0.0
 10
46.9390425215
 20
79.2745852959
 30
0.0
 10
46.8179146935
 20
80.0613569729
 30
0.0
 10
46.3797677733
 20
81.1954361629
 30
0.0
 10
45.7199072746
 20
82.2489163704
 30
0.0
 10
45.1492448396
 20
82.853157601
 30
0.0
 10
44.8398953524
 20
83.1078012633
 30
0.0
  0
SPLINE
  5
2CB
100
AcDbEntity
  8
0
100
AcDbSpline
 62
7
  6
BYLAYER
 70
0
 71
3
 72
17
 73
13
 74
0
 42
0.0000001
 43
0.0000001
 44
0.0000000001
 40
0.0
 40
0.0
 40
0.0
 40
0.0
 40
0.1546143088
 40
0.2259404973
 40
0.293027778
 40
0.4147522003
 40
0.5237879589
 40
0.5761672323
 40
0.6286240241
 40
0.7381949034
 40
0.8608428083
 40
1.0
 40
1.0
 40
1.0
 40
1.0
 10
44.8398953524
 20
83.1078012633
 30
0.0
 10
44.6564953138
 20
83.2587685655
 30
0.0
 10
44.3708382433
 20
83.4601749292
 30
0.0
 10
43.9678067463
 20
83.6624912175
 30
0.0
 10
43.5926946957
 20
83.8019989633
 30
0.0
 10
43.1362857049
 20
83.8841376208
 30
0.0
 10
42.6958886888
 20
83.8196199079
 30
0.0
 10
42.3965148168
 20
83.6794823138
 30
0.0
 10
42.1290932345
 20
83.4838329231
 30
0.0
 10
41.8587314399
 20
83.1273283243
 30
0.0
 10
41.6719156279
 20
82.5809475442
 30
0.0
 10
41.6357576622
 20
82.1768364622
 30
0.0
 10
41.635757662
 20
81.9630410899
 30
0.0
  0
SPLINE
  5
2CC
100
AcDbEntity
  8
0
100
AcDbSpline
 62
7
  6
BYLAYER
 70
0
 71
3
 72
21
 73
17
 74
0
 42
0.0000001
 43
0.0000001
 44
0.0000000001
 40
0.0
 40
0.0
 40
0.0
 40
0.0
 40
0.0666035237
 40
0.1385185211
 40
0.2915458157
 40
0.4445765566
 40
0.5164587784
 40
0.5830795329
 40
0.643488175
 40
0.6975286538
 40
0.7461366817
 40
0.7915341721
 40
0.8369347016
 40
0.8855348297
 40
0.9396088866
 40
1.0
 40
1.0
 40
1.0
 40
1.0
 10
59.490278222
 20
71.6549620383
 30
0.0
 10
59.4902782218
 20
71.4454126451
 30
0.0
 10
59.528721886
 20
71.009168202
 30
0.0
 10
59.7371089178
 20
70.1136340102
 30
0.0
 10
60.2214469268
 20
69.0151907353
 30
0.0
 10
60.9304652693
 20
68.0467858104
 30
0.0
 10
61.6018863926
 20
67.4183404799
 30
0.0
 10
62.1163321233
 20
67.057676545
 30
0.0
 10
62.6336616132
 20
66.811497747
 30
0.0
 10
63.1368233077
 20
66.6900610513
 30
0.0
 10
63.609124389
 20
66.7020271681
 30
0.0
 10
64.0295890659
 20
66.8544126534
 30
0.0
 10
64.371759937
 20
67.1423145091
 30
0.0
 10
64.6184868805
 20
67.5453720386
 30
0.0
 10
64.76472942
 20
68.0418046791
 30
0.0
 10
64.7935630809
 20
68.4031745854
 30
0.0
 10
64.7935630811
 20
68.5931783641
 30
0.0
  0
SPLINE
  5
2CD
100
AcDbEntity
  8
0
100
AcDbSpline
 62
7
  6
BYLAYER
 70
0
 71
3
 72
11
 73
7
 74
0
 42
0.0000001
 43
0.0000001
 44
0.0000000001
 40
0.0
 40
0.0
 40
0.0
 40
0.0
 40
0.2319839873
 40
0.4884075889
 40
0.7510226214
 40
1.0
 40
1.0
 40
1.0
 40
1.0
 10
64.7935630811
 20
68.5931783641
 30
0.0
 10
64.7935630814
 20
68.9665062442
 30
0.0
 10
64.6724352534
 20
69.7532779213
 30
0.0
 10
64.2342883332
 20
70.8873571113
 30
0.0
 10
63.5744278345
 20
71.9408373187
 30
0.0
 10
63.0037653995
 20
72.5450785494
 30
0.0
 10
62.6944159124
 20
72.7997222117
 30
0.0
  0
SPLINE
  5
2CE
100
AcDbEntity
  8
0
100
AcDbSpline
 62
7
  6
BYLAYER
 70
0
 71
3
 72
17
 73
13
 74
0
 42
0.0000001
 43
0.0000001
 44
0.0000000001
 40
0.0
 40
0.0
 40
0.0
 40
0.0
 40
0.1546143088
 40
0.2259404973
 40
0.293027778
 40
0.4147522003
 40
0.5237879589
 40
0.5761672323
 40
0.6286240241
 40
0.7381949034
 40
0.8608428083
 40
1.0
 40
1.0
 40
1.0
 40
1.0
 10
62.6944159124
 20
72.7997222117
 30
0.0
 10
62.5110158738
 20
72.9506895139
 30
0.0
 10
62.2253588033
 20
73.1520958776
 30
0.0
 10
61.8223273063
 20
73.3544121659
 30
0.0
 10
61.4472152556
 20
73.4939199117
 30
0.0
 10
60.9908062649
 20
73.5760585692
 30
0.0
 10
60.5504092488
 20
73.5115408563
 30
0.0
 10
60.2510353768
 20
73.3714032621
 30
0.0
 10
59.9836137944
 20
73.1757538715
 30
0.0
 10
59.7132519999
 20
72.8192492726
 30
0.0
 10
59.5264361879
 20
72.2728684926
 30
0.0
 10
59.4902782222
 20
71.8687574106
 30
0.0
 10
59.490278222
 20
71.6549620383
 30
0.0
  0
SPLINE
  5
2CF
100
AcDbEntity
  8
0
100
AcDbSpline
 62
7
  6
BYLAYER
 70
0
 71
3
 72
21
 73
17
 74
0
 42
0.0000001
 43
0.0000001
 44
0.0000000001
 40
0.0
 40
0.0
 40
0.0
 40
0.0
 40
0.0666035237
 40
0.1385185211
 40
0.2915458157
 40
0.4445765566
 40
0.5164587784
 40
0.5830795329
 40
0.643488175
 40
0.6975286538
 40
0.7461366817
 40
0.7915341721
 40
0.8369347016
 40
0.8855348297
 40
0.9396088866
 40
1.0
 40
1.0
 40
1.0
 40
1.0
 10
66.3845980422
 20
112.5822476238
 30
0.0
 10
66.384598042
 20
112.3726982306
 30
0.0
 10
66.4230417062
 20
111.9364537875
 30
0.0
 10
66.6314287379
 20
111.0409195958
 30
0.0
 10
67.115766747
 20
109.9424763208
 30
0.0
 10
67.8247850895
 20
108.974071396
 30
0.0
 10
68.4962062127
 20
108.3456260654
 30
0.0
 10
69.0106519435
 20
107.9849621305
 30
0.0
 10
69.5279814334
 20
107.7387833325
 30
0.0
 10
70.0311431279
 20
107.6173466369
 30
0.0
 10
70.5034442092
 20
107.6293127537
 30
0.0
 10
70.923908886
 20
107.781698239
 30
0.0
 10
71.2660797571
 20
108.0696000946
 30
0.0
 10
71.5128067007
 20
108.4726576241
 30
0.0
 10
71.6590492402
 20
108.9690902646
 30
0.0
 10
71.6878829011
 20
109.330460171
 30
0.0
 10
71.6878829013
 20
109.5204639496
 30
0.0
  0
SPLINE
  5
2D0
100
AcDbEntity
  8
0
100
AcDbSpline
 62
7
  6
BYLAYER
 70
0
 71
3
 72
9
 73
5
 74
0
 42
0.0000001
 43
0.0000001
 44
0.0000000001
 40
0.0
 40
0.0
 40
0.0
 40
0.0
 40
0.2235607559
 40
1.0
 40
1.0
 40
1.0
 40
1.0
 10
59.8503402217
 20
37.9023449772
 30
0.0
 10
59.8196679782
 20
37.862441556
 30
0.0
 10
59.702320403
 20
37.6684114376
 30
0.0
 10
59.6670248377
 20
37.4345739053
 30
0.0
 10
59.6670248377
 20
37.2597763051
 30
0.0
  0
SPLINE
  5
2D1
100
AcDbEntity
  8
0
100
AcDbSpline
 62
7
  6
BYLAYER
 70
0
 71
3
 72
9
 73
5
 74
0
 42
0.0000001
 43
0.0000001
 44
0.0000000001
 40
0.0
 40
0.0
 40
0.0
 40
0.0
 40
0.2402536282
 40
1.0
 40
1.0
 40
1.0
 40
1.0
 10
44.464165747
 20
81.963058881
 30
0.0
 10
44.464165747
 20
81.9342480685
 30
0.0
 10
44.4673088656
 20
81.8143364958
 30
0.0
 10
44.4823774083
 20
81.6948532678
 30
0.0
 10
44.499186023
 20
81.6053097078
 30
0.0
  0
SPLINE
  5
2D2
100
AcDbEntity
  8
0
100
AcDbSpline
 62
7
  6
BYLAYER
 70
0
 71
3
 72
11
 73
7
 74
0
 42
0.0000001
 43
0.0000001
 44
0.0000000001
 40
0.0
 40
0.0
 40
0.0
 40
0.0
 40
0.2615186684
 40
0.5332522061
 40
0.7867529007
 40
1.0
 40
1.0
 40
1.0
 40
1.0
 10
44.499186023
 20
81.6053097078
 30
0.0
 10
44.5406128315
 20
81.3846190691
 30
0.0
 10
44.6906953599
 20
80.9460224857
 30
0.0
 10
45.0502557039
 20
80.3676177403
 30
0.0
 10
45.5025174994
 20
79.9156274747
 30
0.0
 10
45.8663502758
 20
79.7213356528
 30
0.0
 10
46.0442021118
 20
79.6778190943
 30
0.0
  0
SPLINE
  5
2D3
100
AcDbEntity
  8
0
100
AcDbSpline
 62
7
  6
BYLAYER
 70
0
 71
3
 72
9
 73
5
 74
0
 42
0.0000001
 43
0.0000001
 44
0.0000000001
 40
0.0
 40
0.0
 40
0.0
 40
0.0
 40
0.2640439823
 40
1.0
 40
1.0
 40
1.0
 40
1.0
 10
46.0442021118
 20
79.6778190943
 30
0.0
 10
46.0697460236
 20
79.6715690428
 30
0.0
 10
46.1672924728
 20
79.6515953556
 30
0.0
 10
46.2685519391
 20
79.6474813297
 30
0.0
 10
46.3413301678
 20
79.6561901965
 30
0.0
  0
SPLINE
  5
2D4
100
AcDbEntity
  8
0
100
AcDbSpline
 62
7
  6
BYLAYER
 70
0
 71
3
 72
11
 73
7
 74
0
 42
0.0000001
 43
0.0000001
 44
0.0000000001
 40
0.0
 40
0.0
 40
0.0
 40
0.0
 40
0.2319839873
 40
0.4884075889
 40
0.7510226214
 40
1.0
 40
1.0
 40
1.0
 40
1.0
 10
71.6878829013
 20
109.5204639496
 30
0.0
 10
71.6878829016
 20
109.8937918298
 30
0.0
 10
71.5667550736
 20
110.6805635068
 30
0.0
 10
71.1286081534
 20
111.8146426968
 30
0.0
 10
70.4687476547
 20
112.8681229043
 30
0.0
 10
69.8980852197
 20
113.4723641349
 30
0.0
 10
69.5887357326
 20
113.7270077972
 30
0.0
  0
SPLINE
  5
2D5
100
AcDbEntity
  8
0
100
AcDbSpline
 62
7
  6
BYLAYER
 70
0
 71
3
 72
17
 73
13
 74
0
 42
0.0000001
 43
0.0000001
 44
0.0000000001
 40
0.0
 40
0.0
 40
0.0
 40
0.0
 40
0.1546143088
 40
0.2259404973
 40
0.293027778
 40
0.4147522003
 40
0.5237879589
 40
0.5761672323
 40
0.6286240241
 40
0.7381949034
 40
0.8608428083
 40
1.0
 40
1.0
 40
1.0
 40
1.0
 10
69.5887357326
 20
113.7270077972
 30
0.0
 10
69.405335694
 20
113.8779750994
 30
0.0
 10
69.1196786235
 20
114.0793814632
 30
0.0
 10
68.7166471264
 20
114.2816977514
 30
0.0
 10
68.3415350758
 20
114.4212054972
 30
0.0
 10
67.8851260851
 20
114.5033441547
 30
0.0
 10
67.444729069
 20
114.4388264418
 30
0.0
 10
67.145355197
 20
114.2986888477
 30
0.0
 10
66.8779336146
 20
114.103039457
 30
0.0
 10
66.6075718201
 20
113.7465348582
 30
0.0
 10
66.4207560081
 20
113.2001540781
 30
0.0
 10
66.3845980424
 20
112.7960429961
 30
0.0
 10
66.3845980422
 20
112.5822476238
 30
0.0
  0
SPLINE
  5
2D6
100
AcDbEntity
  8
0
100
AcDbSpline
 62
7
  6
BYLAYER
 70
0
 71
3
 72
13
 73
9
 74
0
 42
0.0000001
 43
0.0000001
 44
0.0000000001
 40
0.0
 40
0.0
 40
0.0
 40
0.0
 40
0.1142260229
 40
0.2375602528
 40
0.5000015383
 40
0.7624419778
 40
0.8857752456
 40
1.0
 40
1.0
 40
1.0
 40
1.0
 10
82.4713252495
 20
26.1353030321
 30
0.0
 10
82.4713252495
 20
26.3029444981
 30
0.0
 10
82.5020811656
 20
26.6519419777
 30
0.0
 10
82.6687949633
 20
27.3683755049
 30
0.0
 10
83.0562524215
 20
28.2470902004
 30
0.0
 10
83.6235080711
 20
29.0219975918
 30
0.0
 10
84.1605962747
 20
29.5245910445
 30
0.0
 10
84.4474563885
 20
29.7257233182
 30
0.0
 10
84.5926367612
 20
29.8095427451
 30
0.0
  0
SPLINE
  5
2D7
100
AcDbEntity
  8
0
100
AcDbSpline
 62
7
  6
BYLAYER
 70
0
 71
3
 72
16
 73
12
 74
0
 42
0.0000001
 43
0.0000001
 44
0.0000000001
 40
0.0
 40
0.0
 40
0.0
 40
0.0
 40
0.1287203135
 40
0.2704441977
 40
0.41762403
 40
0.5620215213
 40
0.6957456648
 40
0.8130698337
 40
0.9124776918
 40
0.9571201009
 40
1.0
 40
1.0
 40
1.0
 40
1.0
 10
49.2371681676
 20
133.096628336
 30
0.0
 10
49.2371681676
 20
132.9684416784
 30
0.0
 10
49.2731230402
 20
132.6988258127
 30
0.0
 10
49.4068855241
 20
132.3029605297
 30
0.0
 10
49.6133273553
 20
131.9216781049
 30
0.0
 10
49.8752315382
 20
131.5861957778
 30
0.0
 10
50.1722511836
 20
131.3235025051
 30
0.0
 10
50.4812164591
 20
131.154006982
 30
0.0
 10
50.7435252025
 20
131.1027149931
 30
0.0
 10
50.9293064586
 20
131.1300680767
 30
0.0
 10
51.0108069434
 20
131.1639477194
 30
0.0
 10
51.0478027561
 20
131.1852733226
 30
0.0
  0
SPLINE
  5
2D8
100
AcDbEntity
  8
0
100
AcDbSpline
 62
7
  6
BYLAYER
 70
0
 71
3
 72
11
 73
7
 74
0
 42
0.0000001
 43
0.0000001
 44
0.0000000001
 40
0.0
 40
0.0
 40
0.0
 40
0.0
 40
0.2372518718
 40
0.4999985497
 40
0.7627460178
 40
1.0
 40
1.0
 40
1.0
 40
1.0
 10
85.2997405984
 20
30.217786899
 30
0.0
 10
85.4001345649
 20
30.2757490366
 30
0.0
 10
85.5901210985
 20
30.4356259464
 30
0.0
 10
85.8117763432
 20
30.7386578643
 30
0.0
 10
85.9633805988
 20
31.0821346743
 30
0.0
 10
86.0068444356
 20
31.3266076446
 30
0.0
 10
86.0068444356
 20
31.44253347
 30
0.0
  0
SPLINE
  5
2D9
100
AcDbEntity
  8
0
100
AcDbSpline
 62
7
  6
BYLAYER
 70
0
 71
3
 72
11
 73
7
 74
0
 42
0.0000001
 43
0.0000001
 44
0.0000000001
 40
0.0
 40
0.0
 40
0.0
 40
0.0
 40
0.2177825102
 40
0.4509091639
 40
0.7102957096
 40
1.0
 40
1.0
 40
1.0
 40
1.0
 10
83.0926696964
 20
48.4405276495
 30
0.0
 10
82.9937097724
 20
48.4976609072
 30
0.0
 10
82.808559566
 20
48.6533148672
 30
0.0
 10
82.611445489
 20
48.9756047027
 30
0.0
 10
82.494371386
 20
49.3727867607
 30
0.0
 10
82.4713252495
 20
49.6618680096
 30
0.0
 10
82.4713252495
 20
49.8138731289
 30
0.0
  0
SPLINE
  5
2DA
100
AcDbEntity
  8
0
100
AcDbSpline
 62
7
  6
BYLAYER
 70
0
 71
3
 72
16
 73
12
 74
0
 42
0.0000001
 43
0.0000001
 44
0.0000000001
 40
0.0
 40
0.0
 40
0.0
 40
0.0
 40
0.1287203135
 40
0.2704441977
 40
0.41762403
 40
0.5620215213
 40
0.6957456648
 40
0.8130698337
 40
0.9124776918
 40
0.9571201009
 40
1.0
 40
1.0
 40
1.0
 40
1.0
 10
64.0864723957
 20
124.5235724911
 30
0.0
 10
64.0864723957
 20
124.3953858335
 30
0.0
 10
64.1224272683
 20
124.1257699677
 30
0.0
 10
64.2561897521
 20
123.7299046847
 30
0.0
 10
64.4626315834
 20
123.34862226
 30
0.0
 10
64.7245357663
 20
123.0131399329
 30
0.0
 10
65.0215554117
 20
122.7504466602
 30
0.0
 10
65.3305206872
 20
122.5809511371
 30
0.0
 10
65.5928294306
 20
122.5296591482
 30
0.0
 10
65.7786106866
 20
122.5570122318
 30
0.0
 10
65.8601111715
 20
122.5908918745
 30
0.0
 10
65.8971069842
 20
122.6122174777
 30
0.0
  0
SPLINE
  5
2DB
100
AcDbEntity
  8
0
100
AcDbSpline
 62
7
  6
BYLAYER
 70
0
 71
3
 72
11
 73
7
 74
0
 42
0.0000001
 43
0.0000001
 44
0.0000000001
 40
0.0
 40
0.0
 40
0.0
 40
0.0
 40
0.2895411595
 40
0.5491183966
 40
0.7822559144
 40
1.0
 40
1.0
 40
1.0
 40
1.0
 10
86.0068444356
 20
48.5890842297
 30
0.0
 10
86.0068444356
 20
48.6397230816
 30
0.0
 10
85.9991123941
 20
48.7360799339
 30
0.0
 10
85.960159286
 20
48.8684910972
 30
0.0
 10
85.8944527214
 20
48.9759722341
 30
0.0
 10
85.8326843198
 20
49.0277812408
 30
0.0
 10
85.7997041392
 20
49.0468219204
 30
0.0
  0
SPLINE
  5
2DC
100
AcDbEntity
  8
0
100
AcDbSpline
 62
7
  6
BYLAYER
 70
0
 71
3
 72
12
 73
8
 74
0
 42
0.0000001
 43
0.0000001
 44
0.0000000001
 40
0.0
 40
0.0
 40
0.0
 40
0.0
 40
0.108162245
 40
0.2183640921
 40
0.4513666551
 40
0.7104197903
 40
1.0
 40
1.0
 40
1.0
 40
1.0
 10
42.1158699126
 20
162.9859119958
 30
0.0
 10
42.2798202824
 20
163.080568221
 30
0.0
 10
42.6279848733
 20
163.2434910782
 30
0.0
 10
43.3923633359
 20
163.4552222587
 30
0.0
 10
44.4630667255
 20
163.4836022451
 30
0.0
 10
45.8039072743
 20
163.1594385859
 30
0.0
 10
46.6768967334
 20
162.7441016887
 30
0.0
 10
47.1158389922
 20
162.4906839905
 30
0.0
  0
SPLINE
  5
2DD
100
AcDbEntity
  8
0
100
AcDbSpline
 62
7
  6
BYLAYER
 70
0
 71
3
 72
9
 73
5
 74
0
 42
0.0000001
 43
0.0000001
 44
0.0000000001
 40
0.0
 40
0.0
 40
0.0
 40
0.0
 40
0.2402536282
 40
1.0
 40
1.0
 40
1.0
 40
1.0
 10
62.318686307
 20
71.6549798293
 30
0.0
 10
62.318686307
 20
71.6261690169
 30
0.0
 10
62.3218294255
 20
71.5062574442
 30
0.0
 10
62.3368979682
 20
71.3867742162
 30
0.0
 10
62.3537065829
 20
71.2972306562
 30
0.0
  0
SPLINE
  5
2DE
100
AcDbEntity
  8
0
100
AcDbSpline
 62
7
  6
BYLAYER
 70
0
 71
3
 72
11
 73
7
 74
0
 42
0.0000001
 43
0.0000001
 44
0.0000000001
 40
0.0
 40
0.0
 40
0.0
 40
0.0
 40
0.2615186684
 40
0.5332522061
 40
0.7867529007
 40
1.0
 40
1.0
 40
1.0
 40
1.0
 10
62.3537065829
 20
71.2972306562
 30
0.0
 10
62.3951333914
 20
71.0765400174
 30
0.0
 10
62.5452159198
 20
70.6379434341
 30
0.0
 10
62.9047762639
 20
70.0595386887
 30
0.0
 10
63.3570380594
 20
69.6075484231
 30
0.0
 10
63.7208708357
 20
69.4132566012
 30
0.0
 10
63.8987226717
 20
69.3697400427
 30
0.0
  0
SPLINE
  5
2DF
100
AcDbEntity
  8
0
100
AcDbSpline
 62
7
  6
BYLAYER
 70
0
 71
3
 72
9
 73
5
 74
0
 42
0.0000001
 43
0.0000001
 44
0.0000000001
 40
0.0
 40
0.0
 40
0.0
 40
0.0
 40
0.2640439823
 40
1.0
 40
1.0
 40
1.0
 40
1.0
 10
63.8987226717
 20
69.3697400427
 30
0.0
 10
63.9242665835
 20
69.3634899912
 30
0.0
 10
64.0218130328
 20
69.3435163039
 30
0.0
 10
64.123072499
 20
69.339402278
 30
0.0
 10
64.1958507278
 20
69.3481111448
 30
0.0
  0
SPLINE
  5
2E0
100
AcDbEntity
  8
0
100
AcDbSpline
 62
7
  6
BYLAYER
 70
0
 71
3
 72
9
 73
5
 74
0
 42
0.0000001
 43
0.0000001
 44
0.0000000001
 40
0.0
 40
0.0
 40
0.0
 40
0.0
 40
0.2235607559
 40
1.0
 40
1.0
 40
1.0
 40
1.0
 10
62.5020016911
 20
72.2975485016
 30
0.0
 10
62.4713294475
 20
72.2576450804
 30
0.0
 10
62.3539818723
 20
72.0636149619
 30
0.0
 10
62.3186863071
 20
71.8297774295
 30
0.0
 10
62.318686307
 20
71.6549798293
 30
0.0
  0
SPLINE
  5
2E1
100
AcDbEntity
  8
0
100
AcDbSpline
 62
7
  6
BYLAYER
 70
0
 71
3
 72
11
 73
7
 74
0
 42
0.0000001
 43
0.0000001
 44
0.0000000001
 40
0.0
 40
0.0
 40
0.0
 40
0.0
 40
0.2177456295
 40
0.4508837762
 40
0.7104602913
 40
1.0
 40
1.0
 40
1.0
 40
1.0
 10
84.0926732204
 20
50.1726237459
 30
0.0
 10
84.1256523289
 20
50.1535836853
 30
0.0
 10
84.2014020745
 20
50.1259971874
 30
0.0
 10
84.3273319578
 20
50.1228349073
 30
0.0
 10
84.461474357
 20
50.1553046587
 30
0.0
 10
84.5487841198
 20
50.1967849902
 30
0.0
 10
84.5926367612
 20
50.2221031734
 30
0.0
  0
SPLINE
  5
2E2
100
AcDbEntity
  8
0
100
AcDbSpline
 62
7
  6
BYLAYER
 70
0
 71
3
 72
17
 73
13
 74
0
 42
0.0000001
 43
0.0000001
 44
0.0000000001
 40
0.0
 40
0.0
 40
0.0
 40
0.0
 40
0.128688864
 40
0.2702797703
 40
0.4174318348
 40
0.5617733576
 40
0.6954455149
 40
0.8127096012
 40
0.8646749146
 40
0.9125085807
 40
0.9571389861
 40
1.0
 40
1.0
 40
1.0
 40
1.0
 10
66.2078015711
 20
90.2305023338
 30
0.0
 10
66.2078015711
 20
89.9740776026
 30
0.0
 10
66.2795405736
 20
89.4349056498
 30
0.0
 10
66.547281438
 20
88.6432512191
 30
0.0
 10
66.9598697766
 20
87.880643607
 30
0.0
 10
67.4841207363
 20
87.2096079845
 30
0.0
 10
68.077204941
 20
86.6843455352
 30
0.0
 10
68.6140285462
 20
86.3908101683
 30
0.0
 10
69.033958427
 20
86.2791120357
 30
0.0
 10
69.3229737254
 20
86.2578305463
 30
0.0
 10
69.5920947708
 20
86.2972724527
 30
0.0
 10
69.7551467027
 20
86.3650228352
 30
0.0
 10
69.8290924177
 20
86.4077543334
 30
0.0
  0
SPLINE
  5
2E3
100
AcDbEntity
  8
0
100
AcDbSpline
 62
7
  6
BYLAYER
 70
0
 71
3
 72
9
 73
5
 74
0
 42
0.0000001
 43
0.0000001
 44
0.0000000001
 40
0.0
 40
0.0
 40
0.0
 40
0.0
 40
0.2402536282
 40
1.0
 40
1.0
 40
1.0
 40
1.0
 10
69.2130061272
 20
112.5822654149
 30
0.0
 10
69.2130061271
 20
112.5534546025
 30
0.0
 10
69.2161492457
 20
112.4335430297
 30
0.0
 10
69.2312177884
 20
112.3140598018
 30
0.0
 10
69.2480264031
 20
112.2245162418
 30
0.0
  0
SPLINE
  5
2E4
100
AcDbEntity
  8
0
100
AcDbSpline
 62
7
  6
BYLAYER
 70
0
 71
3
 72
11
 73
7
 74
0
 42
0.0000001
 43
0.0000001
 44
0.0000000001
 40
0.0
 40
0.0
 40
0.0
 40
0.0
 40
0.2615186684
 40
0.5332522061
 40
0.7867529007
 40
1.0
 40
1.0
 40
1.0
 40
1.0
 10
69.2480264031
 20
112.2245162418
 30
0.0
 10
69.2894532116
 20
112.003825603
 30
0.0
 10
69.43953574
 20
111.5652290197
 30
0.0
 10
69.7990960841
 20
110.9868242742
 30
0.0
 10
70.2513578796
 20
110.5348340086
 30
0.0
 10
70.6151906559
 20
110.3405421867
 30
0.0
 10
70.7930424919
 20
110.2970256282
 30
0.0
  0
SPLINE
  5
2E5
100
AcDbEntity
  8
0
100
AcDbSpline
 62
7
  6
BYLAYER
 70
0
 71
3
 72
9
 73
5
 74
0
 42
0.0000001
 43
0.0000001
 44
0.0000000001
 40
0.0
 40
0.0
 40
0.0
 40
0.0
 40
0.2640439823
 40
1.0
 40
1.0
 40
1.0
 40
1.0
 10
70.7930424919
 20
110.2970256282
 30
0.0
 10
70.8185864037
 20
110.2907755767
 30
0.0
 10
70.916132853
 20
110.2708018895
 30
0.0
 10
71.0173923192
 20
110.2666878636
 30
0.0
 10
71.0901705479
 20
110.2753967304
 30
0.0
  0
SPLINE
  5
2E6
100
AcDbEntity
  8
0
100
AcDbSpline
 62
7
  6
BYLAYER
 70
0
 71
3
 72
17
 73
13
 74
0
 42
0.0000001
 43
0.0000001
 44
0.0000000001
 40
0.0
 40
0.0
 40
0.0
 40
0.0
 40
0.128688864
 40
0.2702797703
 40
0.4174318348
 40
0.5617733576
 40
0.6954455149
 40
0.8127096012
 40
0.8646749146
 40
0.9125085807
 40
0.9571389861
 40
1.0
 40
1.0
 40
1.0
 40
1.0
 10
76.6376405774
 20
41.3424867616
 30
0.0
 10
76.6376405774
 20
41.0646933029
 30
0.0
 10
76.7153578301
 20
40.480590354
 30
0.0
 10
77.0054104331
 20
39.6229647207
 30
0.0
 10
77.4523811334
 20
38.7968064742
 30
0.0
 10
78.0203196729
 20
38.0698512165
 30
0.0
 10
78.6628275614
 20
37.5008168965
 30
0.0
 10
79.244386467
 20
37.182820249
 30
0.0
 10
79.6993105046
 20
37.0618139387
 30
0.0
 10
80.0124104112
 20
37.0387589918
 30
0.0
 10
80.3039582103
 20
37.0814877238
 30
0.0
 10
80.4805978033
 20
37.1548839715
 30
0.0
 10
80.5607056612
 20
37.2011764279
 30
0.0
  0
SPLINE
  5
2E7
100
AcDbEntity
  8
0
100
AcDbSpline
 62
7
  6
BYLAYER
 70
0
 71
3
 72
17
 73
13
 74
0
 42
0.0000001
 43
0.0000001
 44
0.0000000001
 40
0.0
 40
0.0
 40
0.0
 40
0.0
 40
0.128688864
 40
0.2702797703
 40
0.4174318348
 40
0.5617733576
 40
0.6954455149
 40
0.8127096012
 40
0.8646749146
 40
0.9125085807
 40
0.9571389861
 40
1.0
 40
1.0
 40
1.0
 40
1.0
 10
48.3532515715
 20
57.6721169424
 30
0.0
 10
48.3532515715
 20
57.3943234837
 30
0.0
 10
48.4309688242
 20
56.8102205348
 30
0.0
 10
48.7210214272
 20
55.9525949015
 30
0.0
 10
49.1679921275
 20
55.126436655
 30
0.0
 10
49.7359306671
 20
54.3994813974
 30
0.0
 10
50.3784385555
 20
53.8304470773
 30
0.0
 10
50.9599974612
 20
53.5124504298
 30
0.0
 10
51.4149214987
 20
53.3914441195
 30
0.0
 10
51.7280214053
 20
53.3683891726
 30
0.0
 10
52.0195692045
 20
53.4111179046
 30
0.0
 10
52.1962087974
 20
53.4845141523
 30
0.0
 10
52.2763166553
 20
53.5308066087
 30
0.0
  0
SPLINE
  5
2E8
100
AcDbEntity
  8
0
100
AcDbSpline
 62
7
  6
BYLAYER
 70
0
 71
3
 72
9
 73
5
 74
0
 42
0.0000001
 43
0.0000001
 44
0.0000000001
 40
0.0
 40
0.0
 40
0.0
 40
0.0
 40
0.2235607559
 40
1.0
 40
1.0
 40
1.0
 40
1.0
 10
69.3963215112
 20
113.224834087
 30
0.0
 10
69.3656492677
 20
113.1849306658
 30
0.0
 10
69.2483016925
 20
112.9909005474
 30
0.0
 10
69.2130061272
 20
112.7570630151
 30
0.0
 10
69.2130061272
 20
112.5822654149
 30
0.0
  0
SPLINE
  5
2E9
100
AcDbEntity
  8
0
100
AcDbSpline
 62
7
  6
BYLAYER
 70
0
 71
3
 72
13
 73
9
 74
0
 42
0.0000001
 43
0.0000001
 44
0.0000000001
 40
0.0
 40
0.0
 40
0.0
 40
0.0
 40
0.1142260229
 40
0.2375602528
 40
0.5000015383
 40
0.7624419778
 40
0.8857752456
 40
1.0
 40
1.0
 40
1.0
 40
1.0
 10
64.0864723957
 20
124.9318236996
 30
0.0
 10
64.0864723957
 20
125.0994651656
 30
0.0
 10
64.1172283118
 20
125.4484626453
 30
0.0
 10
64.2839421095
 20
126.1648961724
 30
0.0
 10
64.6713995677
 20
127.0436108679
 30
0.0
 10
65.2386552172
 20
127.8185182593
 30
0.0
 10
65.7757434209
 20
128.321111712
 30
0.0
 10
66.0626035347
 20
128.5222439858
 30
0.0
 10
66.2077839073
 20
128.6060634126
 30
0.0
  0
SPLINE
  5
2EA
100
AcDbEntity
  8
0
100
AcDbSpline
 62
7
  6
BYLAYER
 70
0
 71
3
 72
17
 73
13
 74
0
 42
0.0000001
 43
0.0000001
 44
0.0000000001
 40
0.0
 40
0.0
 40
0.0
 40
0.0
 40
0.1286846513
 40
0.2703032228
 40
0.4174430309
 40
0.5617811216
 40
0.695448235
 40
0.8127121431
 40
0.8646788239
 40
0.9125086207
 40
0.9571391214
 40
1.0
 40
1.0
 40
1.0
 40
1.0
 10
70.3797195098
 20
44.9554174391
 30
0.0
 10
70.3797195098
 20
44.7759272955
 30
0.0
 10
70.4299719316
 20
44.3984831233
 30
0.0
 10
70.6173489969
 20
43.8442982261
 30
0.0
 10
70.9062237358
 20
43.3104894887
 30
0.0
 10
71.2731613087
 20
42.8407868706
 30
0.0
 10
71.688321782
 20
42.4731042525
 30
0.0
 10
72.0641037374
 20
42.2677105772
 30
0.0
 10
72.3580283664
 20
42.1893977892
 30
0.0
 10
72.5603338107
 20
42.1746186487
 30
0.0
 10
72.7487397178
 20
42.2021004303
 30
0.0
 10
72.8628249921
 20
42.2496461507
 30
0.0
 10
72.9145994853
 20
42.2795353323
 30
0.0
  0
SPLINE
  5
2EB
100
AcDbEntity
  8
0
100
AcDbSpline
 62
7
  6
BYLAYER
 70
0
 71
3
 72
11
 73
7
 74
0
 42
0.0000001
 43
0.0000001
 44
0.0000000001
 40
0.0
 40
0.0
 40
0.0
 40
0.0
 40
0.2177833598
 40
0.4509104088
 40
0.7102966711
 40
1.0
 40
1.0
 40
1.0
 40
1.0
 10
63.1685680646
 20
140.8103580021
 30
0.0
 10
63.0613616395
 20
140.748462694
 30
0.0
 10
62.8607828245
 20
140.5798364843
 30
0.0
 10
62.6472429034
 20
140.2306889902
 30
0.0
 10
62.520412748
 20
139.8004094747
 30
0.0
 10
62.4954460745
 20
139.4872392055
 30
0.0
 10
62.4954460745
 20
139.3225677363
 30
0.0
  0
SPLINE
  5
2EC
100
AcDbEntity
  8
0
100
AcDbSpline
 62
7
  6
BYLAYER
 70
0
 71
3
 72
13
 73
9
 74
0
 42
0.0000001
 43
0.0000001
 44
0.0000000001
 40
0.0
 40
0.0
 40
0.0
 40
0.0
 40
0.1142259181
 40
0.2375599982
 40
0.5000010158
 40
0.7624414734
 40
0.8857749255
 40
1.0
 40
1.0
 40
1.0
 40
1.0
 10
62.4954460745
 20
139.3225677363
 30
0.0
 10
62.4954460745
 20
139.1409562087
 30
0.0
 10
62.5287652446
 20
138.7628757815
 30
0.0
 10
62.7093733977
 20
137.9867401563
 30
0.0
 10
63.1291227701
 20
137.0348007346
 30
0.0
 10
63.743654993
 20
136.1953208027
 30
0.0
 10
64.3255052081
 20
135.6508476185
 30
0.0
 10
64.6362727568
 20
135.4329559809
 30
0.0
 10
64.7935526812
 20
135.3421524284
 30
0.0
  0
SPLINE
  5
2ED
100
AcDbEntity
  8
0
100
AcDbSpline
 62
7
  6
BYLAYER
 70
0
 71
3
 72
11
 73
7
 74
0
 42
0.0000001
 43
0.0000001
 44
0.0000000001
 40
0.0
 40
0.0
 40
0.0
 40
0.0
 40
0.2372539654
 40
0.5000012591
 40
0.7627478695
 40
1.0
 40
1.0
 40
1.0
 40
1.0
 10
56.2375250069
 20
142.9354984138
 30
0.0
 10
56.2375250069
 20
142.6920540592
 30
0.0
 10
56.3287999647
 20
142.1786607077
 30
0.0
 10
56.6471720507
 20
141.4573604809
 30
0.0
 10
57.1126522508
 20
140.8209958022
 30
0.0
 10
57.5116268724
 20
140.485256924
 30
0.0
 10
57.7224554297
 20
140.3635377533
 30
0.0
  0
SPLINE
  5
2EE
100
AcDbEntity
  8
0
100
AcDbSpline
 62
7
  6
BYLAYER
 70
0
 71
3
 72
11
 73
7
 74
0
 42
0.0000001
 43
0.0000001
 44
0.0000000001
 40
0.0
 40
0.0
 40
0.0
 40
0.0
 40
0.2895391946
 40
0.5491157945
 40
0.7822541179
 40
1.0
 40
1.0
 40
1.0
 40
1.0
 10
57.7224554297
 20
140.3635377533
 30
0.0
 10
57.8145472711
 20
140.3103697067
 30
0.0
 10
57.9979004933
 20
140.2232615829
 30
0.0
 10
58.2796032829
 20
140.1550765416
 30
0.0
 10
58.5440592465
 20
140.1617197967
 30
0.0
 10
58.7031352693
 20
140.2196533524
 30
0.0
 10
58.7723919779
 20
140.2596385261
 30
0.0
  0
SPLINE
  5
2EF
100
AcDbEntity
  8
0
100
AcDbSpline
 62
7
  6
BYLAYER
 70
0
 71
3
 72
9
 73
5
 74
0
 42
0.0000001
 43
0.0000001
 44
0.0000000001
 40
0.0
 40
0.0
 40
0.0
 40
0.0
 40
0.2235607559
 40
1.0
 40
1.0
 40
1.0
 40
1.0
 10
44.6474811312
 20
82.6056275532
 30
0.0
 10
44.6168088876
 20
82.565724132
 30
0.0
 10
44.4994613124
 20
82.3716940136
 30
0.0
 10
44.4641657471
 20
82.1378564812
 30
0.0
 10
44.464165747
 20
81.963058881
 30
0.0
  0
SPLINE
  5
2F0
100
AcDbEntity
  8
0
100
AcDbSpline
 62
7
  6
BYLAYER
 70
0
 71
3
 72
11
 73
7
 74
0
 42
0.0000001
 43
0.0000001
 44
0.0000000001
 40
0.0
 40
0.0
 40
0.0
 40
0.0
 40
0.2319839873
 40
0.4884075889
 40
0.7510226214
 40
1.0
 40
1.0
 40
1.0
 40
1.0
 10
62.1419016118
 20
34.1979748398
 30
0.0
 10
62.1419016121
 20
34.57130272
 30
0.0
 10
62.0207737841
 20
35.358074397
 30
0.0
 10
61.5826268639
 20
36.492153587
 30
0.0
 10
60.9227663652
 20
37.5456337945
 30
0.0
 10
60.3521039302
 20
38.1498750251
 30
0.0
 10
60.0427544431
 20
38.4045186874
 30
0.0
  0
SPLINE
  5
2F1
100
AcDbEntity
  8
0
100
AcDbSpline
 62
7
  6
BYLAYER
 70
0
 71
3
 72
17
 73
13
 74
0
 42
0.0000001
 43
0.0000001
 44
0.0000000001
 40
0.0
 40
0.0
 40
0.0
 40
0.0
 40
0.1546143088
 40
0.2259404973
 40
0.293027778
 40
0.4147522003
 40
0.5237879589
 40
0.5761672323
 40
0.6286240241
 40
0.7381949034
 40
0.8608428083
 40
1.0
 40
1.0
 40
1.0
 40
1.0
 10
60.0427544431
 20
38.4045186874
 30
0.0
 10
59.8593544045
 20
38.5554859896
 30
0.0
 10
59.573697334
 20
38.7568923534
 30
0.0
 10
59.170665837
 20
38.9592086416
 30
0.0
 10
58.7955537863
 20
39.0987163874
 30
0.0
 10
58.3391447956
 20
39.1808550449
 30
0.0
 10
57.8987477795
 20
39.116337332
 30
0.0
 10
57.5993739075
 20
38.9761997379
 30
0.0
 10
57.3319523251
 20
38.7805503472
 30
0.0
 10
57.0615905306
 20
38.4240457484
 30
0.0
 10
56.8747747186
 20
37.8776649683
 30
0.0
 10
56.8386167529
 20
37.4735538863
 30
0.0
 10
56.8386167527
 20
37.259758514
 30
0.0
  0
SPLINE
  5
2F2
100
AcDbEntity
  8
0
100
AcDbSpline
 62
7
  6
BYLAYER
 70
0
 71
3
 72
21
 73
17
 74
0
 42
0.0000001
 43
0.0000001
 44
0.0000000001
 40
0.0
 40
0.0
 40
0.0
 40
0.0
 40
0.0666035237
 40
0.1385185211
 40
0.2915458157
 40
0.4445765566
 40
0.5164587784
 40
0.5830795329
 40
0.643488175
 40
0.6975286538
 40
0.7461366817
 40
0.7915341721
 40
0.8369347016
 40
0.8855348297
 40
0.9396088866
 40
1.0
 40
1.0
 40
1.0
 40
1.0
 10
56.8386167527
 20
37.259758514
 30
0.0
 10
56.8386167525
 20
37.0502091208
 30
0.0
 10
56.8770604167
 20
36.6139646777
 30
0.0
 10
57.0854474485
 20
35.718430486
 30
0.0
 10
57.5697854575
 20
34.619987211
 30
0.0
 10
58.2788038
 20
33.6515822862
 30
0.0
 10
58.9502249233
 20
33.0231369556
 30
0.0
 10
59.464670654
 20
32.6624730207
 30
0.0
 10
59.9820001439
 20
32.4162942227
 30
0.0
 10
60.4851618384
 20
32.2948575271
 30
0.0
 10
60.9574629197
 20
32.3068236439
 30
0.0
 10
61.3779275966
 20
32.4592091292
 30
0.0
 10
61.7200984677
 20
32.7471109848
 30
0.0
 10
61.9668254112
 20
33.1501685143
 30
0.0
 10
62.1130679507
 20
33.6466011548
 30
0.0
 10
62.1419016116
 20
34.0079710612
 30
0.0
 10
62.1419016118
 20
34.1979748398
 30
0.0
  0
SPLINE
  5
2F3
100
AcDbEntity
  8
0
100
AcDbSpline
 62
7
  6
BYLAYER
 70
0
 71
3
 72
11
 73
7
 74
0
 42
0.0000001
 43
0.0000001
 44
0.0000000001
 40
0.0
 40
0.0
 40
0.0
 40
0.0
 40
0.2319839873
 40
0.4884075889
 40
0.7510226214
 40
1.0
 40
1.0
 40
1.0
 40
1.0
 10
62.1419016118
 20
26.4412018771
 30
0.0
 10
62.1419016121
 20
26.8145297573
 30
0.0
 10
62.0207737841
 20
27.6013014343
 30
0.0
 10
61.5826268639
 20
28.7353806243
 30
0.0
 10
60.9227663652
 20
29.7888608317
 30
0.0
 10
60.3521039302
 20
30.3931020624
 30
0.0
 10
60.0427544431
 20
30.6477457247
 30
0.0
  0
SPLINE
  5
2F4
100
AcDbEntity
  8
0
100
AcDbSpline
 62
7
  6
BYLAYER
 70
0
 71
3
 72
17
 73
13
 74
0
 42
0.0000001
 43
0.0000001
 44
0.0000000001
 40
0.0
 40
0.0
 40
0.0
 40
0.0
 40
0.1546143088
 40
0.2259404973
 40
0.293027778
 40
0.4147522003
 40
0.5237879589
 40
0.5761672323
 40
0.6286240241
 40
0.7381949034
 40
0.8608428083
 40
1.0
 40
1.0
 40
1.0
 40
1.0
 10
60.0427544431
 20
30.6477457247
 30
0.0
 10
59.8593544045
 20
30.7987130269
 30
0.0
 10
59.573697334
 20
31.0001193906
 30
0.0
 10
59.170665837
 20
31.2024356789
 30
0.0
 10
58.7955537863
 20
31.3419434247
 30
0.0
 10
58.3391447956
 20
31.4240820822
 30
0.0
 10
57.8987477795
 20
31.3595643693
 30
0.0
 10
57.5993739075
 20
31.2194267752
 30
0.0
 10
57.3319523251
 20
31.0237773845
 30
0.0
 10
57.0615905306
 20
30.6672727856
 30
0.0
 10
56.8747747186
 20
30.1208920056
 30
0.0
 10
56.8386167529
 20
29.7167809236
 30
0.0
 10
56.8386167527
 20
29.5029855513
 30
0.0
  0
SPLINE
  5
2F5
100
AcDbEntity
  8
0
100
AcDbSpline
 62
7
  6
BYLAYER
 70
0
 71
3
 72
21
 73
17
 74
0
 42
0.0000001
 43
0.0000001
 44
0.0000000001
 40
0.0
 40
0.0
 40
0.0
 40
0.0
 40
0.0666035237
 40
0.1385185211
 40
0.2915458157
 40
0.4445765566
 40
0.5164587784
 40
0.5830795329
 40
0.643488175
 40
0.6975286538
 40
0.7461366817
 40
0.7915341721
 40
0.8369347016
 40
0.8855348297
 40
0.9396088866
 40
1.0
 40
1.0
 40
1.0
 40
1.0
 10
56.8386167527
 20
29.5029855513
 30
0.0
 10
56.8386167525
 20
29.2934361581
 30
0.0
 10
56.8770604167
 20
28.857191715
 30
0.0
 10
57.0854474485
 20
27.9616575233
 30
0.0
 10
57.5697854575
 20
26.8632142483
 30
0.0
 10
58.2788038
 20
25.8948093234
 30
0.0
 10
58.9502249233
 20
25.2663639929
 30
0.0
 10
59.464670654
 20
24.905700058
 30
0.0
 10
59.9820001439
 20
24.65952126
 30
0.0
 10
60.4851618384
 20
24.5380845644
 30
0.0
 10
60.9574629197
 20
24.5500506811
 30
0.0
 10
61.3779275966
 20
24.7024361665
 30
0.0
 10
61.7200984677
 20
24.9903380221
 30
0.0
 10
61.9668254112
 20
25.3933955516
 30
0.0
 10
62.1130679507
 20
25.8898281921
 30
0.0
 10
62.1419016116
 20
26.2511980985
 30
0.0
 10
62.1419016118
 20
26.4412018771
 30
0.0
  0
SPLINE
  5
2F6
100
AcDbEntity
  8
0
100
AcDbSpline
 62
7
  6
BYLAYER
 70
0
 71
3
 72
9
 73
5
 74
0
 42
0.0000001
 43
0.0000001
 44
0.0000000001
 40
0.0
 40
0.0
 40
0.0
 40
0.0
 40
0.2235607559
 40
1.0
 40
1.0
 40
1.0
 40
1.0
 10
46.5920328753
 20
150.0691685172
 30
0.0
 10
46.5613606317
 20
150.029265096
 30
0.0
 10
46.4440130565
 20
149.8352349775
 30
0.0
 10
46.4087174912
 20
149.6013974451
 30
0.0
 10
46.4087174912
 20
149.4265998449
 30
0.0
  0
ENDSEC
  0
SECTION
  2
OBJECTS
  0
DICTIONARY
  5
C
100
AcDbDictionary
280
0
281
1
  3
ACAD_GROUP
350
D
  3
ACAD_MLINESTYLE
350
17
  3
ACAD_LAYOUT
350
1A
  3
ACAD_PLOTSETTINGS
350
19
  3
ACAD_PLOTSTYLENAME
350
E
  0
DICTIONARY
  5
D
102
{ACAD_REACTORS
330
C
102
}
100
AcDbDictionary
280
0
281
1
  0
ACDBDICTIONARYWDFLT
  5
E
102
{ACAD_REACTORS
330
C
102
}
100
AcDbDictionary
281
1
  3
Normal
350
F
100
AcDbDictionaryWithDefault
340
F
  0
DICTIONARY
  5
17
102
{ACAD_REACTORS
330
C
102
}
100
AcDbDictionary
280
0
281
1
  3
Standard
350
18
  0
DICTIONARY
  5
19
102
{ACAD_REACTORS
330
C
102
}
100
AcDbDictionary
281
1
  0
DICTIONARY
  5
1A
102
{ACAD_REACTORS
330
C
102
}
100
AcDbDictionary
281
1
  3
Model
350
2F7
  3
Layout1
350
2F8
  0
ACDBPLACEHOLDER
  5
F
102
{ACAD_REACTORS
330
E
102
}
  0
MLINESTYLE
  5
18
102
{ACAD_REACTORS
330
17
102
}
100
AcDbMlineStyle
  2
STANDARD
 70
0
  3

 62
256
 51
90.0
 52
90.0
 71
2
 49
0.5
 62
256
  6
BYLAYER
 49
-0.5
 62
256
  6
BYLAYER
  0
LAYOUT
  5
2F7
102
{ACAD_REACTORS
330
1A
102
}
100
AcDbPlotSettings
  1

  2
none_device
  4

  6

 40
0.0
 41
0.0
 42
0.0
 43
0.0
 44
210.0
 45
297.0
 46
0.0
 47
0.0
 48
0.0
 49
0.0
140
0.0
141
0.0
142
1.0
143
1.0
 70
1024
 72
1
 73
0
 74
0
  7

 75
0
147
1.0
148
0.0
149
0.0
100
AcDbLayout
  1
Model
 70
0
 71
0
 10
0.0
 20
0.0
 11
210.0
 21
297.0
 12
0.0
 22
0.0
 32
0.0
 14
0.0
 24
0.0
 34
0.0
 15
0.0
 25
0.0
 35
0.0
146
0.0
 13
0.0
 23
0.0
 33
0.0
 16
1.0
 26
0.0
 36
0.0
 17
0.0
 27
1.0
 37
0.0
 76
0
330
210
345
0
346
0
  0
LAYOUT
  5
2F8
102
{ACAD_REACTORS
330
1A
102
}
100
AcDbPlotSettings
  1

  2
none_device
  4

  6

 40
0.0
 41
0.0
 42
0.0
 43
0.0
 44
210.0
 45
297.0
 46
0.0
 47
0.0
 48
0.0
 49
0.0
140
0.0
141
0.0
142
1.0
143
1.0
 70
0
 72
1
 73
0
 74
0
  7

 75
0
147
1.0
148
0.0
149
0.0
100
AcDbLayout
  1
Layout1
 70
0
 71
1
 10
0.0
 20
0.0
 11
210.0
 21
297.0
 12
0.0
 22
0.0
 32
0.0
 14
0.0
 24
0.0
 34
0.0
 15
0.0
 25
0.0
 35
0.0
146
0.0
 13
0.0
 23
0.0
 33
0.0
 16
1.0
 26
0.0
 36
0.0
 17
0.0
 27
1.0
 37
0.0
 76
0
330
211
345
0
346
0
  0
ENDSEC
  0
EOF
