999
DXF file: C:\Users\sesa63760\OneDrive - Schneider Electric\Documents\7-Dev\_Creo\CAD\MCADUE0000484_3D-CAD\drw0001_1.dxf
999
Pro/ENGINEER 2019471 by Parametric Technology Corporation
  0
SECTION
  2
HEADER
  9
$ACADVER
  1
AC1024
  9
$DWGCODEPAGE
  3
ANSI_1252
  9
$EXTMAX
 10
1528.8434565895
 20
2162.2214600338
 30
0.0
  9
$EXTMIN
 10
0.0
 20
0.0
 30
0.0
  9
$LIMMIN
 10
0.0
 20
0.0
  9
$LIMMAX
 10
1528.8434565895
 20
2162.2214600338
  9
$VIEWCTR
 10
764.4217282948
 20
1081.1107300169
  9
$VIEWSIZE
 40
2162.2214600338
  9
$CLAYER
  8
0
  9
$LTSCALE
 40
140.9448062837
  9
$CELTYPE
  6
BYLAYER
  9
$DIMSCALE
 40
1.0
  9
$DIMASZ
 40
18.2005173404
  9
$DIMEXO
 40
1.0
  9
$DIMDLI
 40
97.3800479778
  9
$DIMEXE
 40
1.0
  9
$DIMCEN
 40
23.0636955737
  9
$DIMLFAC
 40
1.0
  9
$DIMBLK
  1
_FILLED
  9
$DIMALT
 70
0
  9
$DIMALTF
 40
0.0393700787
  9
$DIMTXT
 40
25.4807242765
  9
$DIMTOL
 70
1
  9
$DIMLIM
 70
0
  9
$DIMTFAC
 40
1.0
  9
$DIMTP
 40
0.01
  9
$DIMTM
 40
0.01
  9
$DIMGAP
 40
0.625
  9
$DIMDSEP
 70
46
  9
$AUNITS
 70
0
  9
$PDMODE
 70
3
  9
$PDSIZE
 40
0.3125
  9
$HANDSEED
  5
35A
  9
$TILEMODE
 70
1
  9
$MEASUREMENT
 70
1
  9
$INSUNITS
 70
4
  0
ENDSEC
  0
SECTION
  2
CLASSES
  0
CLASS
  1
ACDBDICTIONARYWDFLT
  2
AcDbDictionaryWithDefault
  3
AutoCAD 2000
 90
0
 91
1
280
0
281
0
  0
CLASS
  1
ACDBPLACEHOLDER
  2
AcDbPlaceHolder
  3
AutoCAD 2000
 90
0
 91
1
280
0
281
0
  0
CLASS
  1
LAYOUT
  2
AcDbLayout
  3
AutoCAD 2000
 90
0
 91
0
280
0
281
0
  0
ENDSEC
  0
SECTION
  2
TABLES
  0
TABLE
  2
VPORT
  5
8
100
AcDbSymbolTable
 70
2
  0
VPORT
  5
1F4
100
AcDbSymbolTableRecord
100
AcDbViewportTableRecord
  2
*ACTIVE
 70
0
 10
0.0
 20
0.0
 11
1.0
 21
1.0
 12
764.4217282948
 22
1081.1107300169
 13
0.0
 23
0.0
 14
1.0
 24
1.0
 15
0.0
 25
0.0
 16
0.0
 26
0.0
 36
1.0
 17
0.0
 27
0.0
 37
0.0
 40
2162.2214600338
 41
0.7070707071
 42
50.0
 43
0.0
 44
0.0
 50
0.0
 51
0.0
 71
0
 72
100
 73
1
 74
1
 75
0
 76
0
 77
0
 78
0
  0
ENDTAB
  0
TABLE
  2
LTYPE
  5
5
100
AcDbSymbolTable
 70
6
  0
LTYPE
  5
14
100
AcDbSymbolTableRecord
100
AcDbLinetypeTableRecord
  2
BYBLOCK
 70
0
  3

 72
65
 73
0
 40
0.0
  0
LTYPE
  5
15
100
AcDbSymbolTableRecord
100
AcDbLinetypeTableRecord
  2
BYLAYER
 70
0
  3

 72
65
 73
0
 40
0.0
  0
LTYPE
  5
16
100
AcDbSymbolTableRecord
100
AcDbLinetypeTableRecord
  2
CONTINUOUS
 70
64
  3
Solid line
 72
65
 73
0
 40
0.0
  0
LTYPE
  5
1F5
100
AcDbSymbolTableRecord
100
AcDbLinetypeTableRecord
  2
CENTER
 70
64
  3
____ _ ____ _ ____ _ ____ _ ____ _ ____ _ ____
 72
65
 73
4
 40
0.6
 49
0.375
 74
0
 49
-0.075
 74
0
 49
0.075
 74
0
 49
-0.075
 74
0
  0
LTYPE
  5
1F6
100
AcDbSymbolTableRecord
100
AcDbLinetypeTableRecord
  2
HIDDEN
 70
64
  3
- - - - - - - - - - - - - - - - - - - -
 72
65
 73
2
 40
0.2
 49
0.1
 74
0
 49
-0.1
 74
0
  0
LTYPE
  5
1F7
100
AcDbSymbolTableRecord
100
AcDbLinetypeTableRecord
  2
PHANTOM
 70
64
  3
_____ _ _ _____ _ _ _____ _ _ _____
 72
65
 73
6
 40
0.8
 49
0.45
 74
0
 49
-0.05
 74
0
 49
0.1
 74
0
 49
-0.05
 74
0
 49
0.1
 74
0
 49
-0.05
 74
0
  0
LTYPE
  5
1F8
100
AcDbSymbolTableRecord
100
AcDbLinetypeTableRecord
  2
DOT
 70
64
  3
. . . . . . . . . . . . . . . . . . . .
 72
65
 73
2
 40
0.2
 49
0.1
 74
0
 49
-0.1
 74
0
  0
LTYPE
  5
1F9
100
AcDbSymbolTableRecord
100
AcDbLinetypeTableRecord
  2
DASHED
 70
64
  3
- - - - - - - - - - - - - - - - - - - -
 72
65
 73
2
 40
0.2
 49
0.1
 74
0
 49
-0.1
 74
0
  0
ENDTAB
  0
TABLE
  2
LAYER
  5
2
100
AcDbSymbolTable
 70
36
  0
LAYER
  5
10
100
AcDbSymbolTableRecord
100
AcDbLayerTableRecord
  2
0
 70
0
 62
7
  6
CONTINUOUS
370
-3
390
F
  0
LAYER
  5
1FA
100
AcDbSymbolTableRecord
100
AcDbLayerTableRecord
  2
DEFAULT_1
 70
0
 62
7
  6
CENTER
370
-3
390
F
  0
LAYER
  5
1FB
100
AcDbSymbolTableRecord
100
AcDbLayerTableRecord
  2
DEFAULT_2
 70
0
 62
8
  6
HIDDEN
370
-3
390
F
  0
LAYER
  5
1FC
100
AcDbSymbolTableRecord
100
AcDbLayerTableRecord
  2
DEFAULT_3
 70
0
 62
7
  6
PHANTOM
370
-3
390
F
  0
LAYER
  5
1FD
100
AcDbSymbolTableRecord
100
AcDbLayerTableRecord
  2
00_COMPONENTS
 70
0
 62
7
  6
CONTINUOUS
370
-3
390
F
  0
LAYER
  5
1FE
100
AcDbSymbolTableRecord
100
AcDbLayerTableRecord
  2
01_1_DEFAULT_DATUMS
 70
0
 62
7
  6
CONTINUOUS
370
-3
390
F
  0
LAYER
  5
1FF
100
AcDbSymbolTableRecord
100
AcDbLayerTableRecord
  2
01_PLANES
 70
0
 62
7
  6
CONTINUOUS
370
-3
390
F
  0
LAYER
  5
200
100
AcDbSymbolTableRecord
100
AcDbLayerTableRecord
  2
02_COORD_SYS
 70
0
 62
7
  6
CONTINUOUS
370
-3
390
F
  0
LAYER
  5
201
100
AcDbSymbolTableRecord
100
AcDbLayerTableRecord
  2
03_AXES
 70
0
 62
7
  6
CONTINUOUS
370
-3
390
F
  0
LAYER
  5
202
100
AcDbSymbolTableRecord
100
AcDbLayerTableRecord
  2
04_POINTS
 70
0
 62
7
  6
CONTINUOUS
370
-3
390
F
  0
LAYER
  5
203
100
AcDbSymbolTableRecord
100
AcDbLayerTableRecord
  2
05_CURVES
 70
0
 62
7
  6
CONTINUOUS
370
-3
390
F
  0
LAYER
  5
204
100
AcDbSymbolTableRecord
100
AcDbLayerTableRecord
  2
06_SURFS
 70
0
 62
7
  6
CONTINUOUS
370
-3
390
F
  0
LAYER
  5
205
100
AcDbSymbolTableRecord
100
AcDbLayerTableRecord
  2
07_COSMETICS
 70
0
 62
7
  6
CONTINUOUS
370
-3
390
F
  0
LAYER
  5
206
100
AcDbSymbolTableRecord
100
AcDbLayerTableRecord
  2
10_NOTES
 70
0
 62
7
  6
CONTINUOUS
370
-3
390
F
  0
LAYER
  5
207
100
AcDbSymbolTableRecord
100
AcDbLayerTableRecord
  2
11_NOTES_PUB
 70
0
 62
7
  6
CONTINUOUS
370
-3
390
F
  0
LAYER
  5
208
100
AcDbSymbolTableRecord
100
AcDbLayerTableRecord
  2
13_REF_GTOL
 70
0
 62
7
  6
CONTINUOUS
370
-3
390
F
  0
LAYER
  5
209
100
AcDbSymbolTableRecord
100
AcDbLayerTableRecord
  2
16_MISC
 70
0
 62
7
  6
CONTINUOUS
370
-3
390
F
  0
LAYER
  5
20A
100
AcDbSymbolTableRecord
100
AcDbLayerTableRecord
  2
17_NO_PRINT
 70
0
 62
7
  6
CONTINUOUS
370
-3
390
F
  0
LAYER
  5
20B
100
AcDbSymbolTableRecord
100
AcDbLayerTableRecord
  2
18_DATUM_CAMS_JOINTS
 70
0
 62
7
  6
CONTINUOUS
370
-3
390
F
  0
LAYER
  5
20C
100
AcDbSymbolTableRecord
100
AcDbLayerTableRecord
  2
19_DATUM_FUNCTIONAL
 70
0
 62
7
  6
CONTINUOUS
370
-3
390
F
  0
LAYER
  5
20D
100
AcDbSymbolTableRecord
100
AcDbLayerTableRecord
  2
20_DATUM_KINEMATIC_SCHEME
 70
0
 62
7
  6
CONTINUOUS
370
-3
390
F
  0
ENDTAB
  0
TABLE
  2
STYLE
  5
3
100
AcDbSymbolTable
 70
1
  0
STYLE
  5
11
100
AcDbSymbolTableRecord
100
AcDbTextStyleTableRecord
  2
STANDARD
 70
0
 40
0.0
 41
0.8
 50
0.0
 71
0
 42
0.2
  3
txt
  4

  0
STYLE
  5
20E
100
AcDbSymbolTableRecord
100
AcDbTextStyleTableRecord
  2
TEXTSTYLE_1
 70
0
 40
0.0
 41
0.8
 50
0.0
 71
0
 42
0.2
  3
gdt
  4

  0
ENDTAB
  0
TABLE
  2
VIEW
  5
6
100
AcDbSymbolTable
 70
0
  0
ENDTAB
  0
TABLE
  2
UCS
  5
7
100
AcDbSymbolTable
 70
0
  0
ENDTAB
  0
TABLE
  2
APPID
  5
9
100
AcDbSymbolTable
 70
1
  0
APPID
  5
20F
100
AcDbSymbolTableRecord
100
AcDbRegAppTableRecord
  2
ACAD
 70
0
  0
ENDTAB
  0
TABLE
  2
BLOCK_RECORD
  5
1
100
AcDbSymbolTable
 70
0
  0
BLOCK_RECORD
  5
210
100
AcDbSymbolTableRecord
100
AcDbBlockTableRecord
  2
*Model_Space
  0
BLOCK_RECORD
  5
211
100
AcDbSymbolTableRecord
100
AcDbBlockTableRecord
  2
*Paper_Space
  0
BLOCK_RECORD
  5
212
100
AcDbSymbolTableRecord
100
AcDbBlockTableRecord
  2
_FILLED
  0
ENDTAB
  0
TABLE
  2
DIMSTYLE
  5
A
100
AcDbSymbolTable
 70
1
100
AcDbDimStyleTable
 71
0
  0
DIMSTYLE
105
213
100
AcDbSymbolTableRecord
100
AcDbDimStyleTableRecord
  2
STANDARD
 70
0
  3

  4

 40
1.0
 41
18.2005173404
 42
1.0
 43
0.38
 44
1.0
 45
0.0
 46
0.0
 47
0.01
 48
0.01
140
25.4807242765
141
0.09
142
0.0
143
25.4
144
1.0
145
0.0
146
1.0
147
0.625
 71
1
 72
0
 73
0
 74
0
 75
0
 76
0
 77
1
 78
8
 79
2
170
0
171
1
172
0
173
0
174
0
175
0
176
0
177
0
178
0
270
2
179
2
271
2
272
2
273
2
274
2
275
0
280
0
281
0
282
0
283
1
284
8
285
0
286
0
287
3
288
0
340
11
278
46
341
212
342
212
343
212
344
212
  0
ENDTAB
  0
ENDSEC
  0
SECTION
  2
BLOCKS
  0
BLOCK
  5
20
100
AcDbEntity
  8
0
100
AcDbBlockBegin
  2
*Model_Space
 70
0
 10
0.0
 20
0.0
 30
0.0
  3
*Model_Space
  1

  0
ENDBLK
  5
21
100
AcDbEntity
  8
0
100
AcDbBlockEnd
  0
BLOCK
  5
1C
100
AcDbEntity
  8
0
100
AcDbBlockBegin
  2
*Paper_Space
 70
0
 10
0.0
 20
0.0
 30
0.0
  3
*Paper_Space
  1

  0
ENDBLK
  5
1D
100
AcDbEntity
  8
0
100
AcDbBlockEnd
  0
BLOCK
  5
214
100
AcDbEntity
  8
0
100
AcDbBlockBegin
  2
_FILLED
 70
64
 10
0.0
 20
0.0
  3
_FILLED
  1

  0
SOLID
  5
215
100
AcDbEntity
  8
0
  6
BYBLOCK
 62
0
100
AcDbTrace
 10
0.0
 20
0.0
 11
-1.0
 21
0.25
 12
-1.0
 22
-0.25
 13
-1.0
 23
-0.25
  0
ENDBLK
  5
216
100
AcDbEntity
  8
0
  6
BYBLOCK
 62
0
100
AcDbBlockEnd
  0
ENDSEC
  0
SECTION
  2
ENTITIES
  0
LINE
  5
217
100
AcDbEntity
  8
0
100
AcDbLine
 62
7
  6
CONTINUOUS
 10
541.9144808511
 20
2000.6155241862
 11
524.5638024102
 21
1990.598051708
  0
LINE
  5
218
100
AcDbEntity
  8
0
100
AcDbLine
 62
7
  6
CONTINUOUS
 10
526.3315767231
 20
1989.5774498217
 11
527.2369094812
 21
1990.1001408132
  0
LINE
  5
219
100
AcDbEntity
  8
0
100
AcDbLine
 62
7
  6
CONTINUOUS
 10
1008.2788122995
 20
167.1290969455
 11
1011.0287059857
 21
167.4013969835
  0
LINE
  5
21A
100
AcDbEntity
  8
0
100
AcDbLine
 62
7
  6
CONTINUOUS
 10
1007.2313555888
 20
167.7336949106
 11
527.4973141964
 21
444.7020069875
  0
LINE
  5
21B
100
AcDbEntity
  8
0
100
AcDbLine
 62
7
  6
CONTINUOUS
 10
1007.139634881
 20
169.6468174314
 11
526.3581964324
 21
447.2198308005
  0
LINE
  5
21C
100
AcDbEntity
  8
0
100
AcDbLine
 62
7
  6
CONTINUOUS
 10
1011.0287059857
 20
169.4426530263
 11
1009.9680501732
 21
170.0550090918
  0
LINE
  5
21D
100
AcDbEntity
  8
0
100
AcDbLine
 62
7
  6
CONTINUOUS
 10
524.5638347938
 20
450.3277390728
 11
526.3581964324
 21
449.2917873342
  0
LINE
  5
21E
100
AcDbEntity
  8
0
100
AcDbLine
 62
7
  6
CONTINUOUS
 10
1007.139634881
 20
171.7187739651
 11
1008.9339965195
 21
170.6828222264
  0
LINE
  5
21F
100
AcDbEntity
  8
0
100
AcDbLine
 62
7
  6
CONTINUOUS
 10
541.9144808511
 20
453.7516949342
 11
544.421151107
 21
452.3045009271
  0
LINE
  5
220
100
AcDbEntity
  8
0
100
AcDbLine
 62
7
  6
CONTINUOUS
 10
990.9886029905
 20
194.4844950387
 11
1003.9708368231
 21
186.9893684032
  0
LINE
  5
221
100
AcDbEntity
  8
0
100
AcDbLine
 62
7
  6
CONTINUOUS
 10
1020.9547941358
 20
222.9082528001
 11
1019.1870198229
 21
223.9288546864
  0
LINE
  5
222
100
AcDbEntity
  8
0
100
AcDbLine
 62
7
  6
CONTINUOUS
 10
1022.0154351718
 20
225.5618313019
 11
1023.7832094847
 21
224.5412294156
  0
LINE
  5
223
100
AcDbEntity
  8
0
100
AcDbLine
 62
7
  6
CONTINUOUS
 10
524.5638347938
 20
450.3277390728
 11
522.9530252097
 21
452.5730819191
  0
LINE
  5
224
100
AcDbEntity
  8
0
100
AcDbLine
 62
7
  6
CONTINUOUS
 10
527.4973738509
 20
444.7021103146
 11
526.3581964324
 21
447.2198308005
  0
LINE
  5
225
100
AcDbEntity
  8
0
100
AcDbLine
 62
7
  6
CONTINUOUS
 10
1011.0287059857
 20
1716.3064822783
 11
1022.6959192997
 21
1723.0425108172
  0
LINE
  5
226
100
AcDbEntity
  8
0
100
AcDbLine
 62
7
  6
CONTINUOUS
 10
1011.0287059857
 20
1714.2652262355
 11
1022.6959192997
 21
1721.0012547743
  0
LINE
  5
227
100
AcDbEntity
  8
0
100
AcDbLine
 62
7
  6
CONTINUOUS
 10
1012.1158313085
 20
1710.7793803535
 11
1010.3480717155
 21
1709.7587699688
  0
LINE
  5
228
100
AcDbEntity
  8
0
100
AcDbLine
 62
7
  6
CONTINUOUS
 10
1007.139634881
 20
1707.4984196041
 11
1008.907394474
 21
1708.5190299887
  0
LINE
  5
229
100
AcDbEntity
  8
0
100
AcDbLine
 62
7
  6
CONTINUOUS
 10
1026.2580581951
 20
1714.0149949101
 11
1014.9443967997
 21
1707.4830884481
  0
LINE
  5
22A
100
AcDbEntity
  8
0
100
AcDbLine
 62
7
  6
CONTINUOUS
 10
1016.7121711125
 20
1706.4624865618
 11
1028.0258325079
 21
1712.9943930238
  0
LINE
  5
22B
100
AcDbEntity
  8
0
100
AcDbLine
 62
7
  6
CONTINUOUS
 10
1023.7832094847
 20
1660.7689811465
 11
1020.9547941358
 21
1659.136004531
  0
LINE
  5
22C
100
AcDbEntity
  8
0
100
AcDbLine
 62
7
  6
CONTINUOUS
 10
1022.0154351718
 20
1654.4410612787
 11
1019.1870198229
 21
1652.8080846632
  0
LINE
  5
22D
100
AcDbEntity
  8
0
100
AcDbLine
 62
7
  6
CONTINUOUS
 10
1020.9547941358
 20
1651.7874827769
 11
1023.7832094847
 21
1653.4204593924
  0
LINE
  5
22E
100
AcDbEntity
  8
0
100
AcDbLine
 62
7
  6
CONTINUOUS
 10
522.9529058985
 20
452.5730819191
 11
522.9529058985
 21
1988.3527275581
  0
LINE
  5
22F
100
AcDbEntity
  8
0
100
AcDbLine
 62
7
  6
CONTINUOUS
 10
524.5638347938
 20
450.3277390728
 11
524.5638347938
 21
1986.1073847118
  0
LINE
  5
230
100
AcDbEntity
  8
0
100
AcDbLine
 62
7
  6
CONTINUOUS
 10
526.3315767231
 20
1988.3527276266
 11
526.3315767231
 21
1989.5774498217
  0
LINE
  5
231
100
AcDbEntity
  8
0
100
AcDbLine
 62
7
  6
CONTINUOUS
 10
526.3581964324
 20
447.2198308005
 11
526.3581964324
 21
449.2917873342
  0
LINE
  5
232
100
AcDbEntity
  8
0
100
AcDbLine
 62
7
  6
CONTINUOUS
 10
526.3581964324
 20
1985.0714329731
 11
526.3581964324
 21
1987.1433895068
  0
LINE
  5
233
100
AcDbEntity
  8
0
100
AcDbLine
 62
7
  6
CONTINUOUS
 10
537.6452381185
 20
1974.563211211
 11
537.6452381185
 21
1959.4850415958
  0
LINE
  5
234
100
AcDbEntity
  8
0
100
AcDbLine
 62
7
  6
CONTINUOUS
 10
537.6452381185
 20
1928.6792173923
 11
537.6452381185
 21
1923.8799591127
  0
LINE
  5
235
100
AcDbEntity
  8
0
100
AcDbLine
 62
7
  6
CONTINUOUS
 10
537.6452381185
 20
499.7999874155
 11
537.6452381185
 21
495.0007291359
  0
LINE
  5
236
100
AcDbEntity
  8
0
100
AcDbLine
 62
7
  6
CONTINUOUS
 10
537.6452381185
 20
464.0337395212
 11
537.6452381185
 21
460.3297106446
  0
LINE
  5
237
100
AcDbEntity
  8
0
100
AcDbLine
 62
7
  6
CONTINUOUS
 10
541.8878788056
 20
1956.811884286
 11
541.8878788056
 21
1970.1139152371
  0
LINE
  5
238
100
AcDbEntity
  8
0
100
AcDbLine
 62
7
  6
CONTINUOUS
 10
1028.0258325079
 20
1712.9943930238
 11
1029.6366097085
 21
1715.2397171737
  0
LINE
  5
239
100
AcDbEntity
  8
0
100
AcDbLine
 62
7
  6
CONTINUOUS
 10
1007.139634881
 20
169.6468174314
 11
1008.2788122995
 21
167.1290969455
  0
LINE
  5
23A
100
AcDbEntity
  8
0
100
AcDbLine
 62
7
  6
CONTINUOUS
 10
1025.5509690777
 20
901.217589975
 11
1023.7831947648
 21
902.2381918613
  0
LINE
  5
23B
100
AcDbEntity
  8
0
100
AcDbLine
 62
7
  6
CONTINUOUS
 10
1023.7831947648
 20
905.5042015298
 11
1025.5509690777
 21
904.4835996435
  0
LINE
  5
23C
100
AcDbEntity
  8
0
100
AcDbLine
 62
7
  6
CONTINUOUS
 10
1020.9547941358
 20
978.172988645
 11
1019.1870198229
 21
979.1935905313
  0
LINE
  5
23D
100
AcDbEntity
  8
0
100
AcDbLine
 62
7
  6
CONTINUOUS
 10
1022.0154351718
 20
980.8265671467
 11
1023.7832094847
 21
979.8059652604
  0
LINE
  5
23E
100
AcDbEntity
  8
0
100
AcDbLine
 62
7
  6
CONTINUOUS
 10
1007.139634881
 20
1709.5703761378
 11
1007.139634881
 21
1707.4984196041
  0
LINE
  5
23F
100
AcDbEntity
  8
0
100
AcDbLine
 62
7
  6
CONTINUOUS
 10
1007.139634881
 20
171.7187739651
 11
1007.139634881
 21
169.6468174314
  0
LINE
  5
240
100
AcDbEntity
  8
0
100
AcDbLine
 62
7
  6
CONTINUOUS
 10
1008.907394474
 20
1708.5190299887
 11
1008.907394474
 21
1710.5909865224
  0
LINE
  5
241
100
AcDbEntity
  8
0
100
AcDbLine
 62
7
  6
CONTINUOUS
 10
1008.9339965195
 20
1706.4624678654
 11
1008.9339965195
 21
170.6828222264
  0
LINE
  5
242
100
AcDbEntity
  8
0
100
AcDbLine
 62
7
  6
CONTINUOUS
 10
1010.3480717155
 20
1713.6607234627
 11
1010.3480717155
 21
1709.7587699688
  0
LINE
  5
243
100
AcDbEntity
  8
0
100
AcDbLine
 62
7
  6
CONTINUOUS
 10
1012.1158313085
 20
1710.7793803535
 11
1012.1158313085
 21
1714.8928745867
  0
LINE
  5
244
100
AcDbEntity
  8
0
100
AcDbLine
 62
7
  6
CONTINUOUS
 10
1016.7121711125
 20
170.6828409229
 11
1016.7121711125
 21
1706.4624865618
  0
LINE
  5
245
100
AcDbEntity
  8
0
100
AcDbLine
 62
7
  6
CONTINUOUS
 10
1017.4191689669
 20
1708.9118902963
 11
1017.4191689669
 21
1712.2083817606
  0
LINE
  5
246
100
AcDbEntity
  8
0
100
AcDbLine
 62
7
  6
CONTINUOUS
 10
1019.1870345428
 20
900.8094022587
 11
1019.1870345428
 21
897.5433925901
  0
LINE
  5
247
100
AcDbEntity
  8
0
100
AcDbLine
 62
7
  6
CONTINUOUS
 10
1022.6959192997
 20
1721.0012547743
 11
1022.6959192997
 21
1723.0425108172
  0
LINE
  5
248
100
AcDbEntity
  8
0
100
AcDbLine
 62
7
  6
CONTINUOUS
 10
1023.7831947648
 20
905.5042015298
 11
1023.7831947648
 21
902.2381918613
  0
LINE
  5
249
100
AcDbEntity
  8
0
100
AcDbLine
 62
7
  6
CONTINUOUS
 10
1025.5509690777
 20
901.217589975
 11
1025.5509690777
 21
904.4835996435
  0
LINE
  5
24A
100
AcDbEntity
  8
0
100
AcDbLine
 62
7
  6
CONTINUOUS
 10
1026.2580405313
 20
1716.4644496352
 11
1026.2580405313
 21
1714.0149949101
  0
LINE
  5
24B
100
AcDbEntity
  8
0
100
AcDbLine
 62
7
  6
CONTINUOUS
 10
1028.0258325079
 20
1712.9943930238
 11
1028.0258325079
 21
177.2147473848
  0
LINE
  5
24C
100
AcDbEntity
  8
0
100
AcDbLine
 62
7
  6
CONTINUOUS
 10
1029.6367290196
 20
179.4600715347
 11
1029.6367290196
 21
1715.2397171736
  0
LINE
  5
24D
100
AcDbEntity
  8
0
100
AcDbLine
 62
7
  6
CONTINUOUS
 10
1023.7832094847
 20
987.1544870146
 11
1020.9547941358
 21
985.5215103991
  0
LINE
  5
24E
100
AcDbEntity
  8
0
100
AcDbLine
 62
7
  6
CONTINUOUS
 10
1022.0154351718
 20
980.8265671467
 11
1019.1870198229
 21
979.1935905313
  0
LINE
  5
24F
100
AcDbEntity
  8
0
100
AcDbLine
 62
7
  6
CONTINUOUS
 10
1020.9547941358
 20
978.172988645
 11
1023.7832094847
 21
979.8059652604
  0
LINE
  5
250
100
AcDbEntity
  8
0
100
AcDbLine
 62
7
  6
CONTINUOUS
 10
522.9530252097
 20
1988.3527275581
 11
524.5638347938
 21
1986.1073847118
  0
LINE
  5
251
100
AcDbEntity
  8
0
100
AcDbLine
 62
7
  6
CONTINUOUS
 10
532.1626789152
 20
457.1643725073
 11
537.6452381185
 21
460.3297106446
  0
LINE
  5
252
100
AcDbEntity
  8
0
100
AcDbLine
 62
7
  6
CONTINUOUS
 10
536.2200001165
 20
450.4640045741
 11
541.9144808511
 21
453.7516949342
  0
LINE
  5
253
100
AcDbEntity
  8
0
100
AcDbLine
 62
7
  6
CONTINUOUS
 10
1029.6366097085
 20
1715.2397171737
 11
1028.0258001243
 21
1717.4850600199
  0
LINE
  5
254
100
AcDbEntity
  8
0
100
AcDbLine
 62
7
  6
CONTINUOUS
 10
1020.9547941358
 20
1651.7874827769
 11
1019.1870198229
 21
1652.8080846632
  0
LINE
  5
255
100
AcDbEntity
  8
0
100
AcDbLine
 62
7
  6
CONTINUOUS
 10
1022.0154351718
 20
1654.4410612787
 11
1023.7832094847
 21
1653.4204593924
  0
LINE
  5
256
100
AcDbEntity
  8
0
100
AcDbLine
 62
7
  6
CONTINUOUS
 10
524.5638347938
 20
1986.1073847118
 11
526.3581964324
 21
1985.0714329731
  0
LINE
  5
257
100
AcDbEntity
  8
0
100
AcDbLine
 62
7
  6
CONTINUOUS
 10
1007.139634881
 20
1707.4984196041
 11
1008.9339965195
 21
1706.4624678654
  0
LINE
  5
258
100
AcDbEntity
  8
0
100
AcDbLine
 62
7
  6
CONTINUOUS
 10
1010.7017561126
 20
1707.4830782501
 11
1008.907394474
 21
1708.5190299887
  0
LINE
  5
259
100
AcDbEntity
  8
0
100
AcDbLine
 62
7
  6
CONTINUOUS
 10
526.3581964324
 20
1987.1433895068
 11
1007.139634881
 21
1709.5703761378
  0
LINE
  5
25A
100
AcDbEntity
  8
0
100
AcDbLine
 62
7
  6
CONTINUOUS
 10
1011.0287059857
 20
1716.3064822783
 11
530.2472675371
 21
1993.8794956473
  0
LINE
  5
25B
100
AcDbEntity
  8
0
100
AcDbLine
 62
7
  6
CONTINUOUS
 10
1020.7380675625
 20
1719.6513354177
 11
1026.2580405313
 21
1716.4644496352
  0
LINE
  5
25C
100
AcDbEntity
  8
0
100
AcDbLine
 62
7
  6
CONTINUOUS
 10
1028.0258001243
 20
1717.4850600199
 11
1022.5058045216
 21
1720.6719588698
  0
LINE
  5
25D
100
AcDbEntity
  8
0
100
AcDbLine
 62
7
  6
CONTINUOUS
 10
541.9144808511
 20
2000.6155241862
 11
1022.6959192997
 21
1723.0425108172
  0
LINE
  5
25E
100
AcDbEntity
  8
0
100
AcDbLine
 62
7
  6
CONTINUOUS
 10
1029.6366097085
 20
179.4600715347
 11
1028.0258325079
 21
177.2147473848
  0
LINE
  5
25F
100
AcDbEntity
  8
0
100
AcDbLine
 62
7
  6
CONTINUOUS
 10
1023.7832094847
 20
231.8897511698
 11
1020.9547941358
 21
230.2567745543
  0
LINE
  5
260
100
AcDbEntity
  8
0
100
AcDbLine
 62
7
  6
CONTINUOUS
 10
1022.0154351718
 20
225.5618313019
 11
1019.1870198229
 21
223.9288546864
  0
LINE
  5
261
100
AcDbEntity
  8
0
100
AcDbLine
 62
7
  6
CONTINUOUS
 10
1020.9547941358
 20
222.9082528001
 11
1023.7832094847
 21
224.5412294156
  0
LINE
  5
262
100
AcDbEntity
  8
0
100
AcDbLine
 62
7
  6
CONTINUOUS
 10
1011.0287059857
 20
169.4426530263
 11
1011.934162468
 21
169.9654154496
  0
LINE
  5
263
100
AcDbEntity
  8
0
100
AcDbLine
 62
7
  6
CONTINUOUS
 10
1011.0287059857
 20
167.4013969835
 11
1028.0258325079
 21
177.2147473848
  0
ARC
  5
264
100
AcDbEntity
  8
0
100
AcDbCircle
 62
7
  6
CONTINUOUS
 10
526.0553263989
 20
449.5223278944
 40
18.9189206858
100
AcDbArc
 50
30.2149989873
 51
34.1752632228
  0
ARC
  5
265
100
AcDbEntity
  8
0
100
AcDbCircle
 62
7
  6
CONTINUOUS
 10
1001.0581311196
 20
1706.4954209461
 40
10.5090024875
100
AcDbArc
 50
180.014001816
 51
182.1279637923
  0
ARC
  5
266
100
AcDbEntity
  8
0
100
AcDbCircle
 62
7
  6
CONTINUOUS
 10
1001.0581311196
 20
195.9659492563
 40
10.5090024876
100
AcDbArc
 50
180.014001816
 51
182.1279637923
  0
ARC
  5
267
100
AcDbEntity
  8
0
100
AcDbCircle
 62
7
  6
CONTINUOUS
 10
541.4368097728
 20
1971.8519113842
 40
10.5090024862
100
AcDbArc
 50
180.0140018159
 51
182.1279637924
  0
ARC
  5
268
100
AcDbEntity
  8
0
100
AcDbCircle
 62
7
  6
CONTINUOUS
 10
541.4368097737
 20
461.3224396945
 40
10.5090024871
100
AcDbArc
 50
180.0140018159
 51
182.1279637923
  0
ARC
  5
269
100
AcDbEntity
  8
0
100
AcDbCircle
 62
7
  6
CONTINUOUS
 10
1020.5781195778
 20
1711.5840344128
 40
8.5763320723
100
AcDbArc
 50
203.9571354873
 51
212.3875969117
  0
ARC
  5
26A
100
AcDbEntity
  8
0
100
AcDbCircle
 62
7
  6
CONTINUOUS
 10
1016.1442686836
 20
902.9744764619
 40
7.74455881
100
AcDbArc
 50
329.9987566328
 51
334.4669555108
  0
ARC
  5
26B
100
AcDbEntity
  8
0
100
AcDbCircle
 62
7
  6
CONTINUOUS
 10
1017.5582979512
 20
987.0738834174
 40
7.744549366
100
AcDbArc
 50
325.5348335571
 51
330.0015174403
  0
ARC
  5
26C
100
AcDbEntity
  8
0
100
AcDbCircle
 62
7
  6
CONTINUOUS
 10
1017.5582979513
 20
1660.6883775493
 40
7.7445493659
100
AcDbArc
 50
325.5348335571
 51
330.0015174404
  0
ARC
  5
26D
100
AcDbEntity
  8
0
100
AcDbCircle
 62
7
  6
CONTINUOUS
 10
1017.5582979512
 20
231.8091475725
 40
7.744549366
100
AcDbArc
 50
325.5348335571
 51
330.0015174403
  0
ARC
  5
26E
100
AcDbEntity
  8
0
100
AcDbCircle
 62
7
  6
CONTINUOUS
 10
1017.1210680612
 20
1710.7851231215
 40
5.0052400472
100
AcDbArc
 50
180.0657383942
 51
184.6473970109
  0
ARC
  5
26F
100
AcDbEntity
  8
0
100
AcDbCircle
 62
7
  6
CONTINUOUS
 10
533.4083897474
 20
1972.2348548392
 40
4.1413697812
100
AcDbArc
 50
97.9834942695
 51
103.3164765453
  0
ARC
  5
270
100
AcDbEntity
  8
0
100
AcDbCircle
 62
7
  6
CONTINUOUS
 10
993.029711093
 20
196.3488927113
 40
4.1413697812
100
AcDbArc
 50
97.9834942696
 51
103.3164765454
  0
ARC
  5
271
100
AcDbEntity
  8
0
100
AcDbCircle
 62
7
  6
CONTINUOUS
 10
993.0297110929
 20
1706.8783644012
 40
4.141369781
100
AcDbArc
 50
97.9834942695
 51
103.3164765456
  0
ARC
  5
272
100
AcDbEntity
  8
0
100
AcDbCircle
 62
7
  6
CONTINUOUS
 10
533.4083897474
 20
461.7053831495
 40
4.1413697812
100
AcDbArc
 50
97.9834942696
 51
103.3164765454
  0
ARC
  5
273
100
AcDbEntity
  8
0
100
AcDbCircle
 62
7
  6
CONTINUOUS
 10
999.9164405786
 20
1694.9627134682
 40
4.1218097175
100
AcDbArc
 50
316.6804802384
 51
321.9591622694
  0
ARC
  5
274
100
AcDbEntity
  8
0
100
AcDbCircle
 62
7
  6
CONTINUOUS
 10
999.9164405784
 20
184.4332417786
 40
4.1218097178
100
AcDbArc
 50
316.6804802387
 51
321.9591622692
  0
ARC
  5
275
100
AcDbEntity
  8
0
100
AcDbCircle
 62
7
  6
CONTINUOUS
 10
540.295119233
 20
1960.3192039064
 40
4.1218097176
100
AcDbArc
 50
316.6804802385
 51
321.9591622693
  0
ARC
  5
276
100
AcDbEntity
  8
0
100
AcDbCircle
 62
7
  6
CONTINUOUS
 10
540.295119233
 20
449.7897322167
 40
4.1218097175
100
AcDbArc
 50
316.6804802385
 51
321.9591622693
  0
SPLINE
  5
277
100
AcDbEntity
  8
0
100
AcDbSpline
 62
7
  6
CONTINUOUS
 70
0
 71
3
 72
8
 73
4
 74
0
 42
0.0000001
 43
0.0000001
 44
0.0000000001
 40
0.0
 40
0.0
 40
0.0
 40
0.0
 40
1.0
 40
1.0
 40
1.0
 40
1.0
 10
999.7415700926
 20
1658.3193898431
 30
0.0
 10
999.7415700926
 20
1657.928866234
 30
0.0
 10
999.6866865077
 20
1657.5284299043
 30
0.0
 10
999.5454036178
 20
1657.1643587104
 30
0.0
  0
SPLINE
  5
278
100
AcDbEntity
  8
0
100
AcDbSpline
 62
7
  6
CONTINUOUS
 70
0
 71
3
 72
9
 73
5
 74
0
 42
0.0000001
 43
0.0000001
 44
0.0000000001
 40
0.0
 40
0.0
 40
0.0
 40
0.0
 40
0.5071661211
 40
1.0
 40
1.0
 40
1.0
 40
1.0
 10
999.5454036178
 20
1657.1643587104
 30
0.0
 10
999.5268579749
 20
1657.1165685332
 30
0.0
 10
999.4872391856
 20
1657.0234882692
 30
0.0
 10
999.4411859873
 20
1656.9333983362
 30
0.0
 10
999.4168379043
 20
1656.8899404422
 30
0.0
  0
SPLINE
  5
279
100
AcDbEntity
  8
0
100
AcDbSpline
 62
7
  6
CONTINUOUS
 70
0
 71
3
 72
8
 73
4
 74
0
 42
0.0000001
 43
0.0000001
 44
0.0000000001
 40
0.0
 40
0.0
 40
0.0
 40
0.0
 40
1.0
 40
1.0
 40
1.0
 40
1.0
 10
999.4168379043
 20
1656.8899404422
 30
0.0
 10
999.2742074748
 20
1656.6353652429
 30
0.0
 10
999.0621806573
 20
1656.4054197387
 30
0.0
 10
998.8095019744
 20
1656.2594558571
 30
0.0
  0
SPLINE
  5
27A
100
AcDbEntity
  8
0
100
AcDbSpline
 62
7
  6
CONTINUOUS
 70
0
 71
3
 72
8
 73
4
 74
0
 42
0.0000001
 43
0.0000001
 44
0.0000000001
 40
0.0
 40
0.0
 40
0.0
 40
0.0
 40
1.0
 40
1.0
 40
1.0
 40
1.0
 10
999.7415700926
 20
229.4401598663
 30
0.0
 10
999.7415700926
 20
229.0496362572
 30
0.0
 10
999.6866865077
 20
228.6491999276
 30
0.0
 10
999.5454036178
 20
228.2851287336
 30
0.0
  0
SPLINE
  5
27B
100
AcDbEntity
  8
0
100
AcDbSpline
 62
7
  6
CONTINUOUS
 70
0
 71
3
 72
9
 73
5
 74
0
 42
0.0000001
 43
0.0000001
 44
0.0000000001
 40
0.0
 40
0.0
 40
0.0
 40
0.0
 40
0.5071661211
 40
1.0
 40
1.0
 40
1.0
 40
1.0
 10
999.5454036178
 20
228.2851287336
 30
0.0
 10
999.5268579749
 20
228.2373385564
 30
0.0
 10
999.4872391856
 20
228.1442582925
 30
0.0
 10
999.4411859873
 20
228.0541683594
 30
0.0
 10
999.4168379043
 20
228.0107104655
 30
0.0
  0
SPLINE
  5
27C
100
AcDbEntity
  8
0
100
AcDbSpline
 62
7
  6
CONTINUOUS
 70
0
 71
3
 72
8
 73
4
 74
0
 42
0.0000001
 43
0.0000001
 44
0.0000000001
 40
0.0
 40
0.0
 40
0.0
 40
0.0
 40
1.0
 40
1.0
 40
1.0
 40
1.0
 10
999.4168379043
 20
228.0107104655
 30
0.0
 10
999.2742074748
 20
227.7561352661
 30
0.0
 10
999.0621806573
 20
227.526189762
 30
0.0
 10
998.8095019744
 20
227.3802258803
 30
0.0
  0
SPLINE
  5
27D
100
AcDbEntity
  8
0
100
AcDbSpline
 62
7
  6
CONTINUOUS
 70
0
 71
3
 72
8
 73
4
 74
0
 42
0.0000001
 43
0.0000001
 44
0.0000000001
 40
0.0
 40
0.0
 40
0.0
 40
0.0
 40
1.0
 40
1.0
 40
1.0
 40
1.0
 10
540.1202487471
 20
1923.6758802812
 30
0.0
 10
540.1202487471
 20
1923.2853566722
 30
0.0
 10
540.0653651621
 20
1922.8849203425
 30
0.0
 10
539.9240822722
 20
1922.5208491486
 30
0.0
  0
SPLINE
  5
27E
100
AcDbEntity
  8
0
100
AcDbSpline
 62
7
  6
CONTINUOUS
 70
0
 71
3
 72
9
 73
5
 74
0
 42
0.0000001
 43
0.0000001
 44
0.0000000001
 40
0.0
 40
0.0
 40
0.0
 40
0.0
 40
0.5071661211
 40
1.0
 40
1.0
 40
1.0
 40
1.0
 10
539.9240822722
 20
1922.5208491486
 30
0.0
 10
539.9055366294
 20
1922.4730589714
 30
0.0
 10
539.86591784
 20
1922.3799787074
 30
0.0
 10
539.8198646417
 20
1922.2898887744
 30
0.0
 10
539.7955165588
 20
1922.2464308804
 30
0.0
  0
SPLINE
  5
27F
100
AcDbEntity
  8
0
100
AcDbSpline
 62
7
  6
CONTINUOUS
 70
0
 71
3
 72
8
 73
4
 74
0
 42
0.0000001
 43
0.0000001
 44
0.0000000001
 40
0.0
 40
0.0
 40
0.0
 40
0.0
 40
1.0
 40
1.0
 40
1.0
 40
1.0
 10
539.7955165588
 20
1922.2464308804
 30
0.0
 10
539.6528861293
 20
1921.9918556811
 30
0.0
 10
539.4408593118
 20
1921.7619101769
 30
0.0
 10
539.1881806288
 20
1921.6159462953
 30
0.0
  0
SPLINE
  5
280
100
AcDbEntity
  8
0
100
AcDbSpline
 62
7
  6
CONTINUOUS
 70
0
 71
3
 72
8
 73
4
 74
0
 42
0.0000001
 43
0.0000001
 44
0.0000000001
 40
0.0
 40
0.0
 40
0.0
 40
0.0
 40
1.0
 40
1.0
 40
1.0
 40
1.0
 10
540.1202487471
 20
494.7966503045
 30
0.0
 10
540.1202487471
 20
494.4061266954
 30
0.0
 10
540.0653651621
 20
494.0056903658
 30
0.0
 10
539.9240822722
 20
493.6416191718
 30
0.0
  0
SPLINE
  5
281
100
AcDbEntity
  8
0
100
AcDbSpline
 62
7
  6
CONTINUOUS
 70
0
 71
3
 72
9
 73
5
 74
0
 42
0.0000001
 43
0.0000001
 44
0.0000000001
 40
0.0
 40
0.0
 40
0.0
 40
0.0
 40
0.5071661211
 40
1.0
 40
1.0
 40
1.0
 40
1.0
 10
539.9240822722
 20
493.6416191718
 30
0.0
 10
539.9055366294
 20
493.5938289946
 30
0.0
 10
539.86591784
 20
493.5007487307
 30
0.0
 10
539.8198646417
 20
493.4106587976
 30
0.0
 10
539.7955165588
 20
493.3672009037
 30
0.0
  0
SPLINE
  5
282
100
AcDbEntity
  8
0
100
AcDbSpline
 62
7
  6
CONTINUOUS
 70
0
 71
3
 72
8
 73
4
 74
0
 42
0.0000001
 43
0.0000001
 44
0.0000000001
 40
0.0
 40
0.0
 40
0.0
 40
0.0
 40
1.0
 40
1.0
 40
1.0
 40
1.0
 10
539.7955165588
 20
493.3672009037
 30
0.0
 10
539.6528861293
 20
493.1126257043
 30
0.0
 10
539.4408593118
 20
492.8826802002
 30
0.0
 10
539.1881806288
 20
492.7367163185
 30
0.0
  0
SPLINE
  5
283
100
AcDbEntity
  8
0
100
AcDbSpline
 62
7
  6
CONTINUOUS
 70
0
 71
3
 72
9
 73
5
 74
0
 42
0.0000001
 43
0.0000001
 44
0.0000000001
 40
0.0
 40
0.0
 40
0.0
 40
0.0
 40
0.2809694952
 40
1.0
 40
1.0
 40
1.0
 40
1.0
 10
1004.3377833061
 20
1696.4909457951
 30
0.0
 10
1004.3377833061
 20
1696.0906601245
 30
0.0
 10
1004.2566948166
 20
1694.6742749299
 30
0.0
 10
1003.7942881518
 20
1693.2292260074
 30
0.0
 10
1003.1626614256
 20
1692.4227596183
 30
0.0
  0
SPLINE
  5
284
100
AcDbEntity
  8
0
100
AcDbSpline
 62
7
  6
CONTINUOUS
 70
0
 71
3
 72
8
 73
4
 74
0
 42
0.0000001
 43
0.0000001
 44
0.0000000001
 40
0.0
 40
0.0
 40
0.0
 40
0.0
 40
1.0
 40
1.0
 40
1.0
 40
1.0
 10
1002.915218179
 20
1692.1348789167
 30
0.0
 10
1002.6652120719
 20
1691.870003734
 30
0.0
 10
1002.3750134805
 20
1691.6373600845
 30
0.0
 10
1002.0594973251
 20
1691.4553945064
 30
0.0
  0
SPLINE
  5
285
100
AcDbEntity
  8
0
100
AcDbSpline
 62
7
  6
CONTINUOUS
 70
0
 71
3
 72
9
 73
5
 74
0
 42
0.0000001
 43
0.0000001
 44
0.0000000001
 40
0.0
 40
0.0
 40
0.0
 40
0.0
 40
0.2809694952
 40
1.0
 40
1.0
 40
1.0
 40
1.0
 10
1004.3377833061
 20
185.9614741054
 30
0.0
 10
1004.3377833061
 20
185.5611884348
 30
0.0
 10
1004.2566948166
 20
184.1448032402
 30
0.0
 10
1003.7942881518
 20
182.6997543177
 30
0.0
 10
1003.1626614256
 20
181.8932879286
 30
0.0
  0
SPLINE
  5
286
100
AcDbEntity
  8
0
100
AcDbSpline
 62
7
  6
CONTINUOUS
 70
0
 71
3
 72
8
 73
4
 74
0
 42
0.0000001
 43
0.0000001
 44
0.0000000001
 40
0.0
 40
0.0
 40
0.0
 40
0.0
 40
1.0
 40
1.0
 40
1.0
 40
1.0
 10
1002.915218179
 20
181.605407227
 30
0.0
 10
1002.6652120719
 20
181.3405320443
 30
0.0
 10
1002.3750134805
 20
181.1078883947
 30
0.0
 10
1002.0594973251
 20
180.9259228167
 30
0.0
  0
SPLINE
  5
287
100
AcDbEntity
  8
0
100
AcDbSpline
 62
7
  6
CONTINUOUS
 70
0
 71
3
 72
9
 73
5
 74
0
 42
0.0000001
 43
0.0000001
 44
0.0000000001
 40
0.0
 40
0.0
 40
0.0
 40
0.0
 40
0.2809694952
 40
1.0
 40
1.0
 40
1.0
 40
1.0
 10
544.7164619605
 20
1961.8474362333
 30
0.0
 10
544.7164619605
 20
1961.4471505627
 30
0.0
 10
544.6353734711
 20
1960.0307653681
 30
0.0
 10
544.1729668063
 20
1958.5857164456
 30
0.0
 10
543.5413400801
 20
1957.7792500565
 30
0.0
  0
SPLINE
  5
288
100
AcDbEntity
  8
0
100
AcDbSpline
 62
7
  6
CONTINUOUS
 70
0
 71
3
 72
8
 73
4
 74
0
 42
0.0000001
 43
0.0000001
 44
0.0000000001
 40
0.0
 40
0.0
 40
0.0
 40
0.0
 40
1.0
 40
1.0
 40
1.0
 40
1.0
 10
543.2938968334
 20
1957.4913693549
 30
0.0
 10
543.0438907264
 20
1957.2264941722
 30
0.0
 10
542.753692135
 20
1956.9938505227
 30
0.0
 10
542.4381759795
 20
1956.8118849446
 30
0.0
  0
SPLINE
  5
289
100
AcDbEntity
  8
0
100
AcDbSpline
 62
7
  6
CONTINUOUS
 70
0
 71
3
 72
9
 73
5
 74
0
 42
0.0000001
 43
0.0000001
 44
0.0000000001
 40
0.0
 40
0.0
 40
0.0
 40
0.0
 40
0.2809694952
 40
1.0
 40
1.0
 40
1.0
 40
1.0
 10
544.7164619605
 20
451.3179645436
 30
0.0
 10
544.7164619605
 20
450.917678873
 30
0.0
 10
544.6353734711
 20
449.5012936784
 30
0.0
 10
544.1729668063
 20
448.0562447559
 30
0.0
 10
543.5413400801
 20
447.2497783668
 30
0.0
  0
SPLINE
  5
28A
100
AcDbEntity
  8
0
100
AcDbSpline
 62
7
  6
CONTINUOUS
 70
0
 71
3
 72
8
 73
4
 74
0
 42
0.0000001
 43
0.0000001
 44
0.0000000001
 40
0.0
 40
0.0
 40
0.0
 40
0.0
 40
1.0
 40
1.0
 40
1.0
 40
1.0
 10
543.2938968334
 20
446.9618976652
 30
0.0
 10
543.0438907264
 20
446.6970224825
 30
0.0
 10
542.753692135
 20
446.4643788329
 30
0.0
 10
542.4381759795
 20
446.2824132549
 30
0.0
  0
SPLINE
  5
28B
100
AcDbEntity
  8
0
100
AcDbSpline
 62
7
  6
CONTINUOUS
 70
0
 71
3
 72
8
 73
4
 74
0
 42
0.0000001
 43
0.0000001
 44
0.0000000001
 40
0.0
 40
0.0
 40
0.0
 40
0.0
 40
1.0
 40
1.0
 40
1.0
 40
1.0
 10
1014.9443967997
 20
1707.4830884481
 30
0.0
 10
1013.7196501006
 20
1706.7759848326
 30
0.0
 10
1011.9265079106
 20
1706.7759834664
 30
0.0
 10
1010.7017561126
 20
1707.4830782501
 30
0.0
  0
SPLINE
  5
28C
100
AcDbEntity
  8
0
100
AcDbSpline
 62
7
  6
CONTINUOUS
 70
0
 71
3
 72
8
 73
4
 74
0
 42
0.0000001
 43
0.0000001
 44
0.0000000001
 40
0.0
 40
0.0
 40
0.0
 40
0.0
 40
1.0
 40
1.0
 40
1.0
 40
1.0
 10
1008.907394474
 20
1710.5909865224
 30
0.0
 10
1008.907394474
 20
1712.0052000847
 30
0.0
 10
1009.8039592867
 20
1713.5581226199
 30
0.0
 10
1011.0287059857
 20
1714.2652262355
 30
0.0
  0
SPLINE
  5
28D
100
AcDbEntity
  8
0
100
AcDbSpline
 62
7
  6
CONTINUOUS
 70
0
 71
3
 72
9
 73
5
 74
0
 42
0.0000001
 43
0.0000001
 44
0.0000000001
 40
0.0
 40
0.0
 40
0.0
 40
0.0
 40
0.2407206058
 40
1.0
 40
1.0
 40
1.0
 40
1.0
 10
526.3581964324
 20
1987.1433895068
 30
0.0
 10
526.3581964324
 20
1987.7809562147
 30
0.0
 10
526.8279149134
 20
1990.3987901426
 30
0.0
 10
528.5056802044
 20
1992.8739957341
 30
0.0
 10
530.2472675371
 20
1993.8794956473
 30
0.0
  0
SPLINE
  5
28E
100
AcDbEntity
  8
0
100
AcDbSpline
 62
7
  6
CONTINUOUS
 70
0
 71
3
 72
9
 73
5
 74
0
 42
0.0000001
 43
0.0000001
 44
0.0000000001
 40
0.0
 40
0.0
 40
0.0
 40
0.0
 40
0.2777037622
 40
1.0
 40
1.0
 40
1.0
 40
1.0
 10
524.5638024102
 20
1990.598051708
 30
0.0
 10
524.4057966448
 20
1990.5068275813
 30
0.0
 10
523.856670516
 20
1990.1497078588
 30
0.0
 10
523.3772879596
 20
1989.6535430322
 30
0.0
 10
523.1663182985
 20
1989.2284753659
 30
0.0
  0
SPLINE
  5
28F
100
AcDbEntity
  8
0
100
AcDbSpline
 62
7
  6
CONTINUOUS
 70
0
 71
3
 72
8
 73
4
 74
0
 42
0.0000001
 43
0.0000001
 44
0.0000000001
 40
0.0
 40
0.0
 40
0.0
 40
0.0
 40
1.0
 40
1.0
 40
1.0
 40
1.0
 10
523.1663182985
 20
1989.2284753659
 30
0.0
 10
523.0327461252
 20
1988.9593503566
 30
0.0
 10
522.9530252272
 20
1988.6531768817
 30
0.0
 10
522.9530252097
 20
1988.3527275581
 30
0.0
  0
SPLINE
  5
290
100
AcDbEntity
  8
0
100
AcDbSpline
 62
7
  6
CONTINUOUS
 70
0
 71
3
 72
8
 73
4
 74
0
 42
0.0000001
 43
0.0000001
 44
0.0000000001
 40
0.0
 40
0.0
 40
0.0
 40
0.0
 40
1.0
 40
1.0
 40
1.0
 40
1.0
 10
526.3315943869
 20
1987.1279950965
 30
0.0
 10
526.0136943519
 20
1987.3115306151
 30
0.0
 10
525.7084812603
 20
1987.5746920352
 30
0.0
 10
525.5538205004
 20
1987.907597079
 30
0.0
  0
SPLINE
  5
291
100
AcDbEntity
  8
0
100
AcDbSpline
 62
7
  6
CONTINUOUS
 70
0
 71
3
 72
9
 73
5
 74
0
 42
0.0000001
 43
0.0000001
 44
0.0000000001
 40
0.0
 40
0.0
 40
0.0
 40
0.0
 40
0.5083753656
 40
1.0
 40
1.0
 40
1.0
 40
1.0
 10
525.5538205004
 20
1987.907597079
 30
0.0
 10
525.5210322417
 20
1987.9781733306
 30
0.0
 10
525.4701647664
 20
1988.1239223667
 30
0.0
 10
525.4526290603
 20
1988.2774709833
 30
0.0
 10
525.4526290222
 20
1988.352727626
 30
0.0
  0
SPLINE
  5
292
100
AcDbEntity
  8
0
100
AcDbSpline
 62
7
  6
CONTINUOUS
 70
0
 71
3
 72
9
 73
5
 74
0
 42
0.0000001
 43
0.0000001
 44
0.0000000001
 40
0.0
 40
0.0
 40
0.0
 40
0.0
 40
0.7699073373
 40
1.0
 40
1.0
 40
1.0
 40
1.0
 10
540.8737786297
 20
460.714052538
 30
0.0
 10
540.0508156953
 20
460.904211505
 30
0.0
 10
538.8846407439
 20
460.8746473848
 30
0.0
 10
537.8638485066
 20
460.4559246577
 30
0.0
 10
537.6452381185
 20
460.3297106446
 30
0.0
  0
SPLINE
  5
293
100
AcDbEntity
  8
0
100
AcDbSpline
 62
7
  6
CONTINUOUS
 70
0
 71
3
 72
8
 73
4
 74
0
 42
0.0000001
 43
0.0000001
 44
0.0000000001
 40
0.0
 40
0.0
 40
0.0
 40
0.0
 40
1.0
 40
1.0
 40
1.0
 40
1.0
 10
1018.7048811198
 20
222.6854618599
 30
0.0
 10
1018.4592445494
 20
222.827276933
 30
0.0
 10
1018.2522960412
 20
223.0485399336
 30
0.0
 10
1018.1100800575
 20
223.2939446069
 30
0.0
  0
SPLINE
  5
294
100
AcDbEntity
  8
0
100
AcDbSpline
 62
7
  6
CONTINUOUS
 70
0
 71
3
 72
9
 73
5
 74
0
 42
0.0000001
 43
0.0000001
 44
0.0000000001
 40
0.0
 40
0.0
 40
0.0
 40
0.0
 40
0.4917556208
 40
1.0
 40
1.0
 40
1.0
 40
1.0
 10
1018.1100800575
 20
223.2939446069
 30
0.0
 10
1018.0816360029
 20
223.343027022
 30
0.0
 10
1018.0281121205
 20
223.4453922135
 30
0.0
 10
1017.9830989554
 20
223.5517488797
 30
0.0
 10
1017.9622579763
 20
223.6065506218
 30
0.0
  0
SPLINE
  5
295
100
AcDbEntity
  8
0
100
AcDbSpline
 62
7
  6
CONTINUOUS
 70
0
 71
3
 72
9
 73
5
 74
0
 42
0.0000001
 43
0.0000001
 44
0.0000000001
 40
0.0
 40
0.0
 40
0.0
 40
0.0
 40
0.4897193371
 40
1.0
 40
1.0
 40
1.0
 40
1.0
 10
1017.9622579763
 20
223.6065506218
 30
0.0
 10
1017.9356567063
 20
223.6764991557
 30
0.0
 10
1017.88804888
 20
223.821948147
 30
0.0
 10
1017.8528097715
 20
223.9708270462
 30
0.0
 10
1017.8377181559
 20
224.0473307639
 30
0.0
  0
SPLINE
  5
296
100
AcDbEntity
  8
0
100
AcDbSpline
 62
7
  6
CONTINUOUS
 70
0
 71
3
 72
8
 73
4
 74
0
 42
0.0000001
 43
0.0000001
 44
0.0000000001
 40
0.0
 40
0.0
 40
0.0
 40
0.0
 40
1.0
 40
1.0
 40
1.0
 40
1.0
 10
1017.8377181559
 20
224.0473307639
 30
0.0
 10
1017.7924890259
 20
224.2766101643
 30
0.0
 10
1017.7728268683
 20
224.5117170652
 30
0.0
 10
1017.7728268683
 20
224.7454149848
 30
0.0
  0
SPLINE
  5
297
100
AcDbEntity
  8
0
100
AcDbSpline
 62
7
  6
CONTINUOUS
 70
0
 71
3
 72
9
 73
5
 74
0
 42
0.0000001
 43
0.0000001
 44
0.0000000001
 40
0.0
 40
0.0
 40
0.0
 40
0.0
 40
0.4897197913
 40
1.0
 40
1.0
 40
1.0
 40
1.0
 10
1018.1061499537
 20
223.5235073681
 30
0.0
 10
1018.1800258204
 20
223.5354467799
 30
0.0
 10
1018.3297878946
 20
223.5669462357
 30
0.0
 10
1018.4763358094
 20
223.6108713273
 30
0.0
 10
1018.5501333717
 20
223.6360550877
 30
0.0
  0
SPLINE
  5
298
100
AcDbEntity
  8
0
100
AcDbSpline
 62
7
  6
CONTINUOUS
 70
0
 71
3
 72
8
 73
4
 74
0
 42
0.0000001
 43
0.0000001
 44
0.0000000001
 40
0.0
 40
0.0
 40
0.0
 40
0.0
 40
1.0
 40
1.0
 40
1.0
 40
1.0
 10
1018.5501333717
 20
223.6360550877
 30
0.0
 10
1018.7712677676
 20
223.711518226
 30
0.0
 10
1018.9846675263
 20
223.8120272309
 30
0.0
 10
1019.1870198229
 20
223.9288546864
 30
0.0
  0
SPLINE
  5
299
100
AcDbEntity
  8
0
100
AcDbSpline
 62
7
  6
CONTINUOUS
 70
0
 71
3
 72
8
 73
4
 74
0
 42
0.0000001
 43
0.0000001
 44
0.0000000001
 40
0.0
 40
0.0
 40
0.0
 40
0.0
 40
1.0
 40
1.0
 40
1.0
 40
1.0
 10
1018.7048811198
 20
1651.5646918367
 30
0.0
 10
1018.4592445494
 20
1651.7065069098
 30
0.0
 10
1018.2522960412
 20
1651.9277699104
 30
0.0
 10
1018.1100800575
 20
1652.1731745836
 30
0.0
  0
SPLINE
  5
29A
100
AcDbEntity
  8
0
100
AcDbSpline
 62
7
  6
CONTINUOUS
 70
0
 71
3
 72
9
 73
5
 74
0
 42
0.0000001
 43
0.0000001
 44
0.0000000001
 40
0.0
 40
0.0
 40
0.0
 40
0.0
 40
0.4917556208
 40
1.0
 40
1.0
 40
1.0
 40
1.0
 10
1018.1100800575
 20
1652.1731745836
 30
0.0
 10
1018.0816360029
 20
1652.2222569987
 30
0.0
 10
1018.0281121205
 20
1652.3246221903
 30
0.0
 10
1017.9830989554
 20
1652.4309788565
 30
0.0
 10
1017.9622579763
 20
1652.4857805985
 30
0.0
  0
SPLINE
  5
29B
100
AcDbEntity
  8
0
100
AcDbSpline
 62
7
  6
CONTINUOUS
 70
0
 71
3
 72
9
 73
5
 74
0
 42
0.0000001
 43
0.0000001
 44
0.0000000001
 40
0.0
 40
0.0
 40
0.0
 40
0.0
 40
0.4897193371
 40
1.0
 40
1.0
 40
1.0
 40
1.0
 10
1017.9622579763
 20
1652.4857805985
 30
0.0
 10
1017.9356567063
 20
1652.5557291324
 30
0.0
 10
1017.88804888
 20
1652.7011781237
 30
0.0
 10
1017.8528097715
 20
1652.850057023
 30
0.0
 10
1017.8377181559
 20
1652.9265607407
 30
0.0
  0
SPLINE
  5
29C
100
AcDbEntity
  8
0
100
AcDbSpline
 62
7
  6
CONTINUOUS
 70
0
 71
3
 72
8
 73
4
 74
0
 42
0.0000001
 43
0.0000001
 44
0.0000000001
 40
0.0
 40
0.0
 40
0.0
 40
0.0
 40
1.0
 40
1.0
 40
1.0
 40
1.0
 10
1017.8377181559
 20
1652.9265607407
 30
0.0
 10
1017.7924890259
 20
1653.155840141
 30
0.0
 10
1017.7728268683
 20
1653.3909470419
 30
0.0
 10
1017.7728268683
 20
1653.6246449615
 30
0.0
  0
SPLINE
  5
29D
100
AcDbEntity
  8
0
100
AcDbSpline
 62
7
  6
CONTINUOUS
 70
0
 71
3
 72
9
 73
5
 74
0
 42
0.0000001
 43
0.0000001
 44
0.0000000001
 40
0.0
 40
0.0
 40
0.0
 40
0.0
 40
0.4897197913
 40
1.0
 40
1.0
 40
1.0
 40
1.0
 10
1018.1061499537
 20
1652.4027373448
 30
0.0
 10
1018.1800258204
 20
1652.4146767566
 30
0.0
 10
1018.3297878946
 20
1652.4461762124
 30
0.0
 10
1018.4763358094
 20
1652.4901013041
 30
0.0
 10
1018.5501333717
 20
1652.5152850645
 30
0.0
  0
SPLINE
  5
29E
100
AcDbEntity
  8
0
100
AcDbSpline
 62
7
  6
CONTINUOUS
 70
0
 71
3
 72
8
 73
4
 74
0
 42
0.0000001
 43
0.0000001
 44
0.0000000001
 40
0.0
 40
0.0
 40
0.0
 40
0.0
 40
1.0
 40
1.0
 40
1.0
 40
1.0
 10
1018.5501333717
 20
1652.5152850645
 30
0.0
 10
1018.7712677676
 20
1652.5907482028
 30
0.0
 10
1018.9846675263
 20
1652.6912572076
 30
0.0
 10
1019.1870198229
 20
1652.8080846632
 30
0.0
  0
SPLINE
  5
29F
100
AcDbEntity
  8
0
100
AcDbSpline
 62
7
  6
CONTINUOUS
 70
0
 71
3
 72
8
 73
4
 74
0
 42
0.0000001
 43
0.0000001
 44
0.0000000001
 40
0.0
 40
0.0
 40
0.0
 40
0.0
 40
1.0
 40
1.0
 40
1.0
 40
1.0
 10
1020.1190887943
 20
895.4834394653
 30
0.0
 10
1019.8734522239
 20
895.6252545384
 30
0.0
 10
1019.6665037156
 20
895.846517539
 30
0.0
 10
1019.524287732
 20
896.0919222123
 30
0.0
  0
SPLINE
  5
2A0
100
AcDbEntity
  8
0
100
AcDbSpline
 62
7
  6
CONTINUOUS
 70
0
 71
3
 72
9
 73
5
 74
0
 42
0.0000001
 43
0.0000001
 44
0.0000000001
 40
0.0
 40
0.0
 40
0.0
 40
0.0
 40
0.4917556208
 40
1.0
 40
1.0
 40
1.0
 40
1.0
 10
1019.524287732
 20
896.0919222123
 30
0.0
 10
1019.4958436773
 20
896.1410046273
 30
0.0
 10
1019.442319795
 20
896.2433698189
 30
0.0
 10
1019.3973066298
 20
896.3497264851
 30
0.0
 10
1019.3764656507
 20
896.4045282272
 30
0.0
  0
SPLINE
  5
2A1
100
AcDbEntity
  8
0
100
AcDbSpline
 62
7
  6
CONTINUOUS
 70
0
 71
3
 72
9
 73
5
 74
0
 42
0.0000001
 43
0.0000001
 44
0.0000000001
 40
0.0
 40
0.0
 40
0.0
 40
0.0
 40
0.4897193371
 40
1.0
 40
1.0
 40
1.0
 40
1.0
 10
1019.3764656507
 20
896.4045282272
 30
0.0
 10
1019.3498643807
 20
896.474476761
 30
0.0
 10
1019.3022565545
 20
896.6199257524
 30
0.0
 10
1019.267017446
 20
896.7688046516
 30
0.0
 10
1019.2519258303
 20
896.8453083693
 30
0.0
  0
SPLINE
  5
2A2
100
AcDbEntity
  8
0
100
AcDbSpline
 62
7
  6
CONTINUOUS
 70
0
 71
3
 72
8
 73
4
 74
0
 42
0.0000001
 43
0.0000001
 44
0.0000000001
 40
0.0
 40
0.0
 40
0.0
 40
0.0
 40
1.0
 40
1.0
 40
1.0
 40
1.0
 10
1019.2519258303
 20
896.8453083693
 30
0.0
 10
1019.2066967004
 20
897.0745877696
 30
0.0
 10
1019.1870345428
 20
897.3096946705
 30
0.0
 10
1019.1870345428
 20
897.5433925901
 30
0.0
  0
SPLINE
  5
2A3
100
AcDbEntity
  8
0
100
AcDbSpline
 62
7
  6
CONTINUOUS
 70
0
 71
3
 72
9
 73
5
 74
0
 42
0.0000001
 43
0.0000001
 44
0.0000000001
 40
0.0
 40
0.0
 40
0.0
 40
0.0
 40
0.4897197913
 40
1.0
 40
1.0
 40
1.0
 40
1.0
 10
1019.5203576281
 20
896.3214849735
 30
0.0
 10
1019.5942334948
 20
896.3334243853
 30
0.0
 10
1019.743995569
 20
896.364923841
 30
0.0
 10
1019.8905434839
 20
896.4088489327
 30
0.0
 10
1019.9643410461
 20
896.4340326931
 30
0.0
  0
SPLINE
  5
2A4
100
AcDbEntity
  8
0
100
AcDbSpline
 62
7
  6
CONTINUOUS
 70
0
 71
3
 72
8
 73
4
 74
0
 42
0.0000001
 43
0.0000001
 44
0.0000000001
 40
0.0
 40
0.0
 40
0.0
 40
0.0
 40
1.0
 40
1.0
 40
1.0
 40
1.0
 10
1019.9643410461
 20
896.4340326931
 30
0.0
 10
1020.185475442
 20
896.5094958314
 30
0.0
 10
1020.3988752008
 20
896.6100048362
 30
0.0
 10
1020.6012274974
 20
896.7268322918
 30
0.0
  0
SPLINE
  5
2A5
100
AcDbEntity
  8
0
100
AcDbSpline
 62
7
  6
CONTINUOUS
 70
0
 71
3
 72
8
 73
4
 74
0
 42
0.0000001
 43
0.0000001
 44
0.0000000001
 40
0.0
 40
0.0
 40
0.0
 40
0.0
 40
1.0
 40
1.0
 40
1.0
 40
1.0
 10
1018.7048811198
 20
977.9501977048
 30
0.0
 10
1018.4592445494
 20
978.0920127779
 30
0.0
 10
1018.2522960412
 20
978.3132757785
 30
0.0
 10
1018.1100800575
 20
978.5586804517
 30
0.0
  0
SPLINE
  5
2A6
100
AcDbEntity
  8
0
100
AcDbSpline
 62
7
  6
CONTINUOUS
 70
0
 71
3
 72
9
 73
5
 74
0
 42
0.0000001
 43
0.0000001
 44
0.0000000001
 40
0.0
 40
0.0
 40
0.0
 40
0.0
 40
0.4917556208
 40
1.0
 40
1.0
 40
1.0
 40
1.0
 10
1018.1100800575
 20
978.5586804517
 30
0.0
 10
1018.0816360029
 20
978.6077628668
 30
0.0
 10
1018.0281121205
 20
978.7101280584
 30
0.0
 10
1017.9830989554
 20
978.8164847246
 30
0.0
 10
1017.9622579763
 20
978.8712864666
 30
0.0
  0
SPLINE
  5
2A7
100
AcDbEntity
  8
0
100
AcDbSpline
 62
7
  6
CONTINUOUS
 70
0
 71
3
 72
9
 73
5
 74
0
 42
0.0000001
 43
0.0000001
 44
0.0000000001
 40
0.0
 40
0.0
 40
0.0
 40
0.0
 40
0.4897193371
 40
1.0
 40
1.0
 40
1.0
 40
1.0
 10
1017.9622579763
 20
978.8712864666
 30
0.0
 10
1017.9356567063
 20
978.9412350005
 30
0.0
 10
1017.88804888
 20
979.0866839918
 30
0.0
 10
1017.8528097715
 20
979.2355628911
 30
0.0
 10
1017.8377181559
 20
979.3120666088
 30
0.0
  0
SPLINE
  5
2A8
100
AcDbEntity
  8
0
100
AcDbSpline
 62
7
  6
CONTINUOUS
 70
0
 71
3
 72
8
 73
4
 74
0
 42
0.0000001
 43
0.0000001
 44
0.0000000001
 40
0.0
 40
0.0
 40
0.0
 40
0.0
 40
1.0
 40
1.0
 40
1.0
 40
1.0
 10
1017.8377181559
 20
979.3120666088
 30
0.0
 10
1017.7924890259
 20
979.5413460091
 30
0.0
 10
1017.7728268683
 20
979.77645291
 30
0.0
 10
1017.7728268683
 20
980.0101508296
 30
0.0
  0
SPLINE
  5
2A9
100
AcDbEntity
  8
0
100
AcDbSpline
 62
7
  6
CONTINUOUS
 70
0
 71
3
 72
9
 73
5
 74
0
 42
0.0000001
 43
0.0000001
 44
0.0000000001
 40
0.0
 40
0.0
 40
0.0
 40
0.0
 40
0.4897197913
 40
1.0
 40
1.0
 40
1.0
 40
1.0
 10
1018.1061499537
 20
978.7882432129
 30
0.0
 10
1018.1800258204
 20
978.8001826247
 30
0.0
 10
1018.3297878946
 20
978.8316820805
 30
0.0
 10
1018.4763358094
 20
978.8756071721
 30
0.0
 10
1018.5501333717
 20
978.9007909326
 30
0.0
  0
SPLINE
  5
2AA
100
AcDbEntity
  8
0
100
AcDbSpline
 62
7
  6
CONTINUOUS
 70
0
 71
3
 72
8
 73
4
 74
0
 42
0.0000001
 43
0.0000001
 44
0.0000000001
 40
0.0
 40
0.0
 40
0.0
 40
0.0
 40
1.0
 40
1.0
 40
1.0
 40
1.0
 10
1018.5501333717
 20
978.9007909326
 30
0.0
 10
1018.7712677676
 20
978.9762540709
 30
0.0
 10
1018.9846675263
 20
979.0767630757
 30
0.0
 10
1019.1870198229
 20
979.1935905313
 30
0.0
  0
SPLINE
  5
2AB
100
AcDbEntity
  8
0
100
AcDbSpline
 62
7
  6
CONTINUOUS
 70
0
 71
3
 72
9
 73
5
 74
0
 42
0.0000001
 43
0.0000001
 44
0.0000000001
 40
0.0
 40
0.0
 40
0.0
 40
0.0
 40
0.2407186296
 40
1.0
 40
1.0
 40
1.0
 40
1.0
 10
1016.7121711125
 20
170.6828409229
 30
0.0
 10
1016.1600261909
 20
170.3640618066
 30
0.0
 10
1013.6580519096
 20
169.4619446536
 30
0.0
 10
1010.6755945789
 20
169.6773328652
 30
0.0
 10
1008.9339965195
 20
170.6828222264
 30
0.0
  0
SPLINE
  5
2AC
100
AcDbEntity
  8
0
100
AcDbSpline
 62
7
  6
CONTINUOUS
 70
0
 71
3
 72
8
 73
4
 74
0
 42
0.0000001
 43
0.0000001
 44
0.0000000001
 40
0.0
 40
0.0
 40
0.0
 40
0.0
 40
1.0
 40
1.0
 40
1.0
 40
1.0
 10
531.4383339883
 20
1975.8642841215
 30
0.0
 10
531.7537349628
 20
1976.046183272
 30
0.0
 10
532.1002439539
 20
1976.1808456466
 30
0.0
 10
532.4545097657
 20
1976.2648742741
 30
0.0
  0
SPLINE
  5
2AD
100
AcDbEntity
  8
0
100
AcDbSpline
 62
7
  6
CONTINUOUS
 70
0
 71
3
 72
10
 73
6
 74
0
 42
0.0000001
 43
0.0000001
 44
0.0000000001
 40
0.0
 40
0.0
 40
0.0
 40
0.0
 40
0.4484206866
 40
0.7365010241
 40
1.0
 40
1.0
 40
1.0
 40
1.0
 10
532.8332039291
 20
1976.3360869638
 30
0.0
 10
535.8021803721
 20
1976.7539520294
 30
0.0
 10
540.5610361504
 20
1972.9664397321
 30
0.0
 10
543.7994999211
 20
1967.3265764835
 30
0.0
 10
544.7164619605
 20
1963.6092476755
 30
0.0
 10
544.7164619605
 20
1961.8474362333
 30
0.0
  0
SPLINE
  5
2AE
100
AcDbEntity
  8
0
100
AcDbSpline
 62
7
  6
CONTINUOUS
 70
0
 71
3
 72
9
 73
5
 74
0
 42
0.0000001
 43
0.0000001
 44
0.0000000001
 40
0.0
 40
0.0
 40
0.0
 40
0.0
 40
0.2234927795
 40
1.0
 40
1.0
 40
1.0
 40
1.0
 10
532.1029988575
 20
1975.917596472
 30
0.0
 10
531.9063249412
 20
1975.666501112
 30
0.0
 10
531.1537567161
 20
1974.4413478983
 30
0.0
 10
530.9278076003
 20
1972.9575108885
 30
0.0
 10
530.9278076003
 20
1971.8493432175
 30
0.0
  0
SPLINE
  5
2AF
100
AcDbEntity
  8
0
100
AcDbSpline
 62
7
  6
CONTINUOUS
 70
0
 71
3
 72
8
 73
4
 74
0
 42
0.0000001
 43
0.0000001
 44
0.0000000001
 40
0.0
 40
0.0
 40
0.0
 40
0.0
 40
1.0
 40
1.0
 40
1.0
 40
1.0
 10
991.0596553339
 20
199.9783219936
 30
0.0
 10
991.3750563083
 20
200.1602211441
 30
0.0
 10
991.7215652994
 20
200.2948835187
 30
0.0
 10
992.0758311112
 20
200.3789121462
 30
0.0
  0
SPLINE
  5
2B0
100
AcDbEntity
  8
0
100
AcDbSpline
 62
7
  6
CONTINUOUS
 70
0
 71
3
 72
10
 73
6
 74
0
 42
0.0000001
 43
0.0000001
 44
0.0000000001
 40
0.0
 40
0.0
 40
0.0
 40
0.0
 40
0.4484206866
 40
0.7365010241
 40
1.0
 40
1.0
 40
1.0
 40
1.0
 10
992.4545252747
 20
200.4501248358
 30
0.0
 10
995.4235017177
 20
200.8679899015
 30
0.0
 10
1000.1823574959
 20
197.0804776041
 30
0.0
 10
1003.4208212666
 20
191.4406143556
 30
0.0
 10
1004.3377833061
 20
187.7232855476
 30
0.0
 10
1004.3377833061
 20
185.9614741054
 30
0.0
  0
SPLINE
  5
2B1
100
AcDbEntity
  8
0
100
AcDbSpline
 62
7
  6
CONTINUOUS
 70
0
 71
3
 72
9
 73
5
 74
0
 42
0.0000001
 43
0.0000001
 44
0.0000000001
 40
0.0
 40
0.0
 40
0.0
 40
0.0
 40
0.2234927795
 40
1.0
 40
1.0
 40
1.0
 40
1.0
 10
991.7243202031
 20
200.0316343441
 30
0.0
 10
991.5276462868
 20
199.7805389841
 30
0.0
 10
990.7750780617
 20
198.5553857704
 30
0.0
 10
990.5491289459
 20
197.0715487606
 30
0.0
 10
990.5491289459
 20
195.9633810896
 30
0.0
  0
SPLINE
  5
2B2
100
AcDbEntity
  8
0
100
AcDbSpline
 62
7
  6
CONTINUOUS
 70
0
 71
3
 72
8
 73
4
 74
0
 42
0.0000001
 43
0.0000001
 44
0.0000000001
 40
0.0
 40
0.0
 40
0.0
 40
0.0
 40
1.0
 40
1.0
 40
1.0
 40
1.0
 10
1023.7832094847
 20
987.1544870146
 30
0.0
 10
1023.9855617813
 20
987.2713144702
 30
0.0
 10
1024.19896154
 20
987.371823475
 30
0.0
 10
1024.4200959359
 20
987.4472866133
 30
0.0
  0
SPLINE
  5
2B3
100
AcDbEntity
  8
0
100
AcDbSpline
 62
7
  6
CONTINUOUS
 70
0
 71
3
 72
9
 73
5
 74
0
 42
0.0000001
 43
0.0000001
 44
0.0000000001
 40
0.0
 40
0.0
 40
0.0
 40
0.0
 40
0.5102802087
 40
1.0
 40
1.0
 40
1.0
 40
1.0
 10
1024.4200959359
 20
987.4472866133
 30
0.0
 10
1024.4938934982
 20
987.4724703737
 30
0.0
 10
1024.640441413
 20
987.5163954654
 30
0.0
 10
1024.7902034872
 20
987.5478949211
 30
0.0
 10
1024.8640793539
 20
987.559834333
 30
0.0
  0
SPLINE
  5
2B4
100
AcDbEntity
  8
0
100
AcDbSpline
 62
7
  6
CONTINUOUS
 70
0
 71
3
 72
9
 73
5
 74
0
 42
0.0000001
 43
0.0000001
 44
0.0000000001
 40
0.0
 40
0.0
 40
0.0
 40
0.0
 40
0.508245401
 40
1.0
 40
1.0
 40
1.0
 40
1.0
 10
1024.8640793539
 20
987.559834333
 30
0.0
 10
1024.9219663119
 20
987.5691897052
 30
0.0
 10
1025.0365938707
 20
987.5833911566
 30
0.0
 10
1025.1520205439
 20
987.5882242257
 30
0.0
 10
1025.2087559359
 20
987.5881332837
 30
0.0
  0
SPLINE
  5
2B5
100
AcDbEntity
  8
0
100
AcDbSpline
 62
7
  6
CONTINUOUS
 70
0
 71
3
 72
8
 73
4
 74
0
 42
0.0000001
 43
0.0000001
 44
0.0000000001
 40
0.0
 40
0.0
 40
0.0
 40
0.0
 40
1.0
 40
1.0
 40
1.0
 40
1.0
 10
1025.2087559359
 20
987.5881332837
 30
0.0
 10
1025.4923907446
 20
987.5876786411
 30
0.0
 10
1025.7874858207
 20
987.5190930911
 30
0.0
 10
1026.0331225006
 20
987.3772779548
 30
0.0
  0
SPLINE
  5
2B6
100
AcDbEntity
  8
0
100
AcDbSpline
 62
7
  6
CONTINUOUS
 70
0
 71
3
 72
9
 73
5
 74
0
 42
0.0000001
 43
0.0000001
 44
0.0000000001
 40
0.0
 40
0.0
 40
0.0
 40
0.0
 40
0.2407206058
 40
1.0
 40
1.0
 40
1.0
 40
1.0
 10
1017.7728268683
 20
980.0101508296
 30
0.0
 10
1017.7728268683
 20
980.5317963178
 30
0.0
 10
1018.1571419892
 20
982.6736604407
 30
0.0
 10
1019.5298590455
 20
984.6988286519
 30
0.0
 10
1020.9547941358
 20
985.5215103991
 30
0.0
  0
SPLINE
  5
2B7
100
AcDbEntity
  8
0
100
AcDbSpline
 62
7
  6
CONTINUOUS
 70
0
 71
3
 72
8
 73
4
 74
0
 42
0.0000001
 43
0.0000001
 44
0.0000000001
 40
0.0
 40
0.0
 40
0.0
 40
0.0
 40
1.0
 40
1.0
 40
1.0
 40
1.0
 10
1022.3690018102
 20
906.3207618282
 30
0.0
 10
1022.5713541068
 20
906.4375892837
 30
0.0
 10
1022.7847538655
 20
906.5380982885
 30
0.0
 10
1023.0058882615
 20
906.6135614269
 30
0.0
  0
SPLINE
  5
2B8
100
AcDbEntity
  8
0
100
AcDbSpline
 62
7
  6
CONTINUOUS
 70
0
 71
3
 72
9
 73
5
 74
0
 42
0.0000001
 43
0.0000001
 44
0.0000000001
 40
0.0
 40
0.0
 40
0.0
 40
0.0
 40
0.5102802087
 40
1.0
 40
1.0
 40
1.0
 40
1.0
 10
1023.0058882615
 20
906.6135614269
 30
0.0
 10
1023.0796858237
 20
906.6387451873
 30
0.0
 10
1023.2262337386
 20
906.6826702789
 30
0.0
 10
1023.3759958128
 20
906.7141697347
 30
0.0
 10
1023.4498716794
 20
906.7261091465
 30
0.0
  0
SPLINE
  5
2B9
100
AcDbEntity
  8
0
100
AcDbSpline
 62
7
  6
CONTINUOUS
 70
0
 71
3
 72
9
 73
5
 74
0
 42
0.0000001
 43
0.0000001
 44
0.0000000001
 40
0.0
 40
0.0
 40
0.0
 40
0.0
 40
0.508245401
 40
1.0
 40
1.0
 40
1.0
 40
1.0
 10
1023.4498716794
 20
906.7261091465
 30
0.0
 10
1023.5077586375
 20
906.7354645187
 30
0.0
 10
1023.6223861962
 20
906.7496659702
 30
0.0
 10
1023.7378128694
 20
906.7544990393
 30
0.0
 10
1023.7945482615
 20
906.7544080972
 30
0.0
  0
SPLINE
  5
2BA
100
AcDbEntity
  8
0
100
AcDbSpline
 62
7
  6
CONTINUOUS
 70
0
 71
3
 72
8
 73
4
 74
0
 42
0.0000001
 43
0.0000001
 44
0.0000000001
 40
0.0
 40
0.0
 40
0.0
 40
0.0
 40
1.0
 40
1.0
 40
1.0
 40
1.0
 10
1023.7945482615
 20
906.7544080972
 30
0.0
 10
1024.0781830702
 20
906.7539534546
 30
0.0
 10
1024.3732781463
 20
906.6853679047
 30
0.0
 10
1024.6189148262
 20
906.5435527683
 30
0.0
  0
SPLINE
  5
2BB
100
AcDbEntity
  8
0
100
AcDbSpline
 62
7
  6
CONTINUOUS
 70
0
 71
3
 72
9
 73
5
 74
0
 42
0.0000001
 43
0.0000001
 44
0.0000000001
 40
0.0
 40
0.0
 40
0.0
 40
0.0
 40
0.2407206058
 40
1.0
 40
1.0
 40
1.0
 40
1.0
 10
1019.1870345428
 20
900.8094022587
 30
0.0
 10
1019.1870345428
 20
901.3310477469
 30
0.0
 10
1019.5713496636
 20
903.4729118698
 30
0.0
 10
1020.9440667199
 20
905.4980800809
 30
0.0
 10
1022.3690018102
 20
906.3207618282
 30
0.0
  0
SPLINE
  5
2BC
100
AcDbEntity
  8
0
100
AcDbSpline
 62
7
  6
CONTINUOUS
 70
0
 71
3
 72
8
 73
4
 74
0
 42
0.0000001
 43
0.0000001
 44
0.0000000001
 40
0.0
 40
0.0
 40
0.0
 40
0.0
 40
1.0
 40
1.0
 40
1.0
 40
1.0
 10
1023.7832094847
 20
1660.7689811465
 30
0.0
 10
1023.9855617813
 20
1660.8858086021
 30
0.0
 10
1024.19896154
 20
1660.9863176069
 30
0.0
 10
1024.4200959359
 20
1661.0617807452
 30
0.0
  0
SPLINE
  5
2BD
100
AcDbEntity
  8
0
100
AcDbSpline
 62
7
  6
CONTINUOUS
 70
0
 71
3
 72
9
 73
5
 74
0
 42
0.0000001
 43
0.0000001
 44
0.0000000001
 40
0.0
 40
0.0
 40
0.0
 40
0.0
 40
0.5102802087
 40
1.0
 40
1.0
 40
1.0
 40
1.0
 10
1024.4200959359
 20
1661.0617807452
 30
0.0
 10
1024.4938934982
 20
1661.0869645056
 30
0.0
 10
1024.640441413
 20
1661.1308895973
 30
0.0
 10
1024.7902034872
 20
1661.162389053
 30
0.0
 10
1024.8640793539
 20
1661.1743284649
 30
0.0
  0
SPLINE
  5
2BE
100
AcDbEntity
  8
0
100
AcDbSpline
 62
7
  6
CONTINUOUS
 70
0
 71
3
 72
9
 73
5
 74
0
 42
0.0000001
 43
0.0000001
 44
0.0000000001
 40
0.0
 40
0.0
 40
0.0
 40
0.0
 40
0.508245401
 40
1.0
 40
1.0
 40
1.0
 40
1.0
 10
1024.8640793539
 20
1661.1743284649
 30
0.0
 10
1024.9219663119
 20
1661.1836838371
 30
0.0
 10
1025.0365938707
 20
1661.1978852885
 30
0.0
 10
1025.1520205439
 20
1661.2027183576
 30
0.0
 10
1025.2087559359
 20
1661.2026274156
 30
0.0
  0
SPLINE
  5
2BF
100
AcDbEntity
  8
0
100
AcDbSpline
 62
7
  6
CONTINUOUS
 70
0
 71
3
 72
8
 73
4
 74
0
 42
0.0000001
 43
0.0000001
 44
0.0000000001
 40
0.0
 40
0.0
 40
0.0
 40
0.0
 40
1.0
 40
1.0
 40
1.0
 40
1.0
 10
1025.2087559359
 20
1661.2026274156
 30
0.0
 10
1025.4923907446
 20
1661.202172773
 30
0.0
 10
1025.7874858207
 20
1661.133587223
 30
0.0
 10
1026.0331225006
 20
1660.9917720867
 30
0.0
  0
SPLINE
  5
2C0
100
AcDbEntity
  8
0
100
AcDbSpline
 62
7
  6
CONTINUOUS
 70
0
 71
3
 72
9
 73
5
 74
0
 42
0.0000001
 43
0.0000001
 44
0.0000000001
 40
0.0
 40
0.0
 40
0.0
 40
0.0
 40
0.2407206058
 40
1.0
 40
1.0
 40
1.0
 40
1.0
 10
1017.7728268683
 20
1653.6246449615
 30
0.0
 10
1017.7728268683
 20
1654.1462904497
 30
0.0
 10
1018.1571419892
 20
1656.2881545726
 30
0.0
 10
1019.5298590455
 20
1658.3133227838
 30
0.0
 10
1020.9547941358
 20
1659.136004531
 30
0.0
  0
SPLINE
  5
2C1
100
AcDbEntity
  8
0
100
AcDbSpline
 62
7
  6
CONTINUOUS
 70
0
 71
3
 72
8
 73
4
 74
0
 42
0.0000001
 43
0.0000001
 44
0.0000000001
 40
0.0
 40
0.0
 40
0.0
 40
0.0
 40
1.0
 40
1.0
 40
1.0
 40
1.0
 10
1023.7832094847
 20
231.8897511698
 30
0.0
 10
1023.9855617813
 20
232.0065786253
 30
0.0
 10
1024.19896154
 20
232.1070876301
 30
0.0
 10
1024.4200959359
 20
232.1825507684
 30
0.0
  0
SPLINE
  5
2C2
100
AcDbEntity
  8
0
100
AcDbSpline
 62
7
  6
CONTINUOUS
 70
0
 71
3
 72
9
 73
5
 74
0
 42
0.0000001
 43
0.0000001
 44
0.0000000001
 40
0.0
 40
0.0
 40
0.0
 40
0.0
 40
0.5102802087
 40
1.0
 40
1.0
 40
1.0
 40
1.0
 10
1024.4200959359
 20
232.1825507684
 30
0.0
 10
1024.4938934982
 20
232.2077345289
 30
0.0
 10
1024.640441413
 20
232.2516596205
 30
0.0
 10
1024.7902034872
 20
232.2831590763
 30
0.0
 10
1024.8640793539
 20
232.2950984881
 30
0.0
  0
SPLINE
  5
2C3
100
AcDbEntity
  8
0
100
AcDbSpline
 62
7
  6
CONTINUOUS
 70
0
 71
3
 72
9
 73
5
 74
0
 42
0.0000001
 43
0.0000001
 44
0.0000000001
 40
0.0
 40
0.0
 40
0.0
 40
0.0
 40
0.508245401
 40
1.0
 40
1.0
 40
1.0
 40
1.0
 10
1024.8640793539
 20
232.2950984881
 30
0.0
 10
1024.9219663119
 20
232.3044538603
 30
0.0
 10
1025.0365938707
 20
232.3186553118
 30
0.0
 10
1025.1520205439
 20
232.3234883808
 30
0.0
 10
1025.2087559359
 20
232.3233974388
 30
0.0
  0
SPLINE
  5
2C4
100
AcDbEntity
  8
0
100
AcDbSpline
 62
7
  6
CONTINUOUS
 70
0
 71
3
 72
8
 73
4
 74
0
 42
0.0000001
 43
0.0000001
 44
0.0000000001
 40
0.0
 40
0.0
 40
0.0
 40
0.0
 40
1.0
 40
1.0
 40
1.0
 40
1.0
 10
1025.2087559359
 20
232.3233974388
 30
0.0
 10
1025.4923907446
 20
232.3229427962
 30
0.0
 10
1025.7874858207
 20
232.2543572462
 30
0.0
 10
1026.0331225006
 20
232.1125421099
 30
0.0
  0
SPLINE
  5
2C5
100
AcDbEntity
  8
0
100
AcDbSpline
 62
7
  6
CONTINUOUS
 70
0
 71
3
 72
9
 73
5
 74
0
 42
0.0000001
 43
0.0000001
 44
0.0000000001
 40
0.0
 40
0.0
 40
0.0
 40
0.0
 40
0.2407206058
 40
1.0
 40
1.0
 40
1.0
 40
1.0
 10
1017.7728268683
 20
224.7454149848
 30
0.0
 10
1017.7728268683
 20
225.267060473
 30
0.0
 10
1018.1571419892
 20
227.4089245958
 30
0.0
 10
1019.5298590455
 20
229.434092807
 30
0.0
 10
1020.9547941358
 20
230.2567745543
 30
0.0
  0
SPLINE
  5
2C6
100
AcDbEntity
  8
0
100
AcDbSpline
 62
7
  6
CONTINUOUS
 70
0
 71
3
 72
8
 73
4
 74
0
 42
0.0000001
 43
0.0000001
 44
0.0000000001
 40
0.0
 40
0.0
 40
0.0
 40
0.0
 40
1.0
 40
1.0
 40
1.0
 40
1.0
 10
991.0596553339
 20
1710.5077936833
 30
0.0
 10
991.3750563083
 20
1710.6896928338
 30
0.0
 10
991.7215652994
 20
1710.8243552084
 30
0.0
 10
992.0758311112
 20
1710.9083838359
 30
0.0
  0
SPLINE
  5
2C7
100
AcDbEntity
  8
0
100
AcDbSpline
 62
7
  6
CONTINUOUS
 70
0
 71
3
 72
10
 73
6
 74
0
 42
0.0000001
 43
0.0000001
 44
0.0000000001
 40
0.0
 40
0.0
 40
0.0
 40
0.0
 40
0.4484206866
 40
0.7365010241
 40
1.0
 40
1.0
 40
1.0
 40
1.0
 10
992.4545252747
 20
1710.9795965256
 30
0.0
 10
995.4235017177
 20
1711.3974615912
 30
0.0
 10
1000.1823574959
 20
1707.6099492939
 30
0.0
 10
1003.4208212666
 20
1701.9700860453
 30
0.0
 10
1004.3377833061
 20
1698.2527572373
 30
0.0
 10
1004.3377833061
 20
1696.4909457951
 30
0.0
  0
SPLINE
  5
2C8
100
AcDbEntity
  8
0
100
AcDbSpline
 62
7
  6
CONTINUOUS
 70
0
 71
3
 72
9
 73
5
 74
0
 42
0.0000001
 43
0.0000001
 44
0.0000000001
 40
0.0
 40
0.0
 40
0.0
 40
0.0
 40
0.2234927795
 40
1.0
 40
1.0
 40
1.0
 40
1.0
 10
991.7243202031
 20
1710.5611060338
 30
0.0
 10
991.5276462868
 20
1710.3100106738
 30
0.0
 10
990.7750780617
 20
1709.0848574601
 30
0.0
 10
990.5491289459
 20
1707.6010204503
 30
0.0
 10
990.5491289459
 20
1706.4928527793
 30
0.0
  0
SPLINE
  5
2C9
100
AcDbEntity
  8
0
100
AcDbSpline
 62
7
  6
CONTINUOUS
 70
0
 71
3
 72
8
 73
4
 74
0
 42
0.0000001
 43
0.0000001
 44
0.0000000001
 40
0.0
 40
0.0
 40
0.0
 40
0.0
 40
1.0
 40
1.0
 40
1.0
 40
1.0
 10
1012.1322842716
 20
1710.3795812244
 30
0.0
 10
1012.1951341834
 20
1709.5961556467
 30
0.0
 10
1012.421664469
 20
1708.8198908814
 30
0.0
 10
1012.7406428653
 20
1708.1015883477
 30
0.0
  0
SPLINE
  5
2CA
100
AcDbEntity
  8
0
100
AcDbSpline
 62
7
  6
CONTINUOUS
 70
0
 71
3
 72
8
 73
4
 74
0
 42
0.0000001
 43
0.0000001
 44
0.0000000001
 40
0.0
 40
0.0
 40
0.0
 40
0.0
 40
1.0
 40
1.0
 40
1.0
 40
1.0
 10
534.688329339
 20
500.5307510811
 30
0.0
 10
534.9971461485
 20
500.7091440492
 30
0.0
 10
535.3851518764
 20
500.7666469031
 30
0.0
 10
535.7397707949
 20
500.7287352231
 30
0.0
  0
SPLINE
  5
2CB
100
AcDbEntity
  8
0
100
AcDbSpline
 62
7
  6
CONTINUOUS
 70
0
 71
3
 72
9
 73
5
 74
0
 42
0.0000001
 43
0.0000001
 44
0.0000000001
 40
0.0
 40
0.0
 40
0.0
 40
0.0
 40
0.2210098098
 40
1.0
 40
1.0
 40
1.0
 40
1.0
 10
535.7397707949
 20
500.7287352231
 30
0.0
 10
535.8949891918
 20
500.7121410994
 30
0.0
 10
536.5896242792
 20
500.5627533741
 30
0.0
 10
537.210966196
 20
500.1708436888
 30
0.0
 10
537.6331257776
 20
499.8179748466
 30
0.0
  0
SPLINE
  5
2CC
100
AcDbEntity
  8
0
100
AcDbSpline
 62
7
  6
CONTINUOUS
 70
0
 71
3
 72
8
 73
4
 74
0
 42
0.0000001
 43
0.0000001
 44
0.0000000001
 40
0.0
 40
0.0
 40
0.0
 40
0.0
 40
1.0
 40
1.0
 40
1.0
 40
1.0
 10
537.6331257776
 20
499.8179748466
 30
0.0
 10
538.6214642673
 20
498.9918563032
 30
0.0
 10
539.3745850561
 20
497.8313362979
 30
0.0
 10
539.7915778806
 20
496.6125656869
 30
0.0
  0
SPLINE
  5
2CD
100
AcDbEntity
  8
0
100
AcDbSpline
 62
7
  6
CONTINUOUS
 70
0
 71
3
 72
8
 73
4
 74
0
 42
0.0000001
 43
0.0000001
 44
0.0000000001
 40
0.0
 40
0.0
 40
0.0
 40
0.0
 40
1.0
 40
1.0
 40
1.0
 40
1.0
 10
539.7915778806
 20
496.6125656869
 30
0.0
 10
539.9907102989
 20
496.0305491031
 30
0.0
 10
540.1202487471
 20
495.4117901454
 30
0.0
 10
540.1202487471
 20
494.7966503045
 30
0.0
  0
SPLINE
  5
2CE
100
AcDbEntity
  8
0
100
AcDbSpline
 62
7
  6
CONTINUOUS
 70
0
 71
3
 72
8
 73
4
 74
0
 42
0.0000001
 43
0.0000001
 44
0.0000000001
 40
0.0
 40
0.0
 40
0.0
 40
0.0
 40
1.0
 40
1.0
 40
1.0
 40
1.0
 10
535.6295858679
 20
500.365115776
 30
0.0
 10
535.5552105975
 20
500.0813533378
 30
0.0
 10
535.5240208138
 20
499.784775059
 30
0.0
 10
535.5240208138
 20
499.4914274798
 30
0.0
  0
SPLINE
  5
2CF
100
AcDbEntity
  8
0
100
AcDbSpline
 62
7
  6
CONTINUOUS
 70
0
 71
3
 72
8
 73
4
 74
0
 42
0.0000001
 43
0.0000001
 44
0.0000000001
 40
0.0
 40
0.0
 40
0.0
 40
0.0
 40
1.0
 40
1.0
 40
1.0
 40
1.0
 10
534.688329339
 20
1929.4099810579
 30
0.0
 10
534.9971461485
 20
1929.5883740259
 30
0.0
 10
535.3851518764
 20
1929.6458768799
 30
0.0
 10
535.7397707949
 20
1929.6079651999
 30
0.0
  0
SPLINE
  5
2D0
100
AcDbEntity
  8
0
100
AcDbSpline
 62
7
  6
CONTINUOUS
 70
0
 71
3
 72
9
 73
5
 74
0
 42
0.0000001
 43
0.0000001
 44
0.0000000001
 40
0.0
 40
0.0
 40
0.0
 40
0.0
 40
0.2210098098
 40
1.0
 40
1.0
 40
1.0
 40
1.0
 10
535.7397707949
 20
1929.6079651999
 30
0.0
 10
535.8949891918
 20
1929.5913710762
 30
0.0
 10
536.5896242792
 20
1929.4419833509
 30
0.0
 10
537.210966196
 20
1929.0500736656
 30
0.0
 10
537.6331257776
 20
1928.6972048234
 30
0.0
  0
SPLINE
  5
2D1
100
AcDbEntity
  8
0
100
AcDbSpline
 62
7
  6
CONTINUOUS
 70
0
 71
3
 72
8
 73
4
 74
0
 42
0.0000001
 43
0.0000001
 44
0.0000000001
 40
0.0
 40
0.0
 40
0.0
 40
0.0
 40
1.0
 40
1.0
 40
1.0
 40
1.0
 10
537.6331257776
 20
1928.6972048234
 30
0.0
 10
538.6214642673
 20
1927.87108628
 30
0.0
 10
539.3745850561
 20
1926.7105662747
 30
0.0
 10
539.7915778806
 20
1925.4917956636
 30
0.0
  0
SPLINE
  5
2D2
100
AcDbEntity
  8
0
100
AcDbSpline
 62
7
  6
CONTINUOUS
 70
0
 71
3
 72
8
 73
4
 74
0
 42
0.0000001
 43
0.0000001
 44
0.0000000001
 40
0.0
 40
0.0
 40
0.0
 40
0.0
 40
1.0
 40
1.0
 40
1.0
 40
1.0
 10
539.7915778806
 20
1925.4917956636
 30
0.0
 10
539.9907102989
 20
1924.9097790799
 30
0.0
 10
540.1202487471
 20
1924.2910201221
 30
0.0
 10
540.1202487471
 20
1923.6758802812
 30
0.0
  0
SPLINE
  5
2D3
100
AcDbEntity
  8
0
100
AcDbSpline
 62
7
  6
CONTINUOUS
 70
0
 71
3
 72
9
 73
5
 74
0
 42
0.0000001
 43
0.0000001
 44
0.0000000001
 40
0.0
 40
0.0
 40
0.0
 40
0.0
 40
0.2615620584
 40
1.0
 40
1.0
 40
1.0
 40
1.0
 10
1015.4821003984
 20
1716.9681231863
 30
0.0
 10
1015.7772201627
 20
1716.6249036315
 30
0.0
 10
1016.7860935695
 20
1715.2233736684
 30
0.0
 10
1017.4191689669
 20
1713.4863065516
 30
0.0
 10
1017.4191689669
 20
1712.2083817606
 30
0.0
  0
SPLINE
  5
2D4
100
AcDbEntity
  8
0
100
AcDbSpline
 62
7
  6
CONTINUOUS
 70
0
 71
3
 72
8
 73
4
 74
0
 42
0.0000001
 43
0.0000001
 44
0.0000000001
 40
0.0
 40
0.0
 40
0.0
 40
0.0
 40
1.0
 40
1.0
 40
1.0
 40
1.0
 10
535.6295858679
 20
1929.2443457528
 30
0.0
 10
535.5552105975
 20
1928.9605833146
 30
0.0
 10
535.5240208138
 20
1928.6640050357
 30
0.0
 10
535.5240208138
 20
1928.3706574566
 30
0.0
  0
SPLINE
  5
2D5
100
AcDbEntity
  8
0
100
AcDbSpline
 62
7
  6
CONTINUOUS
 70
0
 71
3
 72
8
 73
4
 74
0
 42
0.0000001
 43
0.0000001
 44
0.0000000001
 40
0.0
 40
0.0
 40
0.0
 40
0.0
 40
1.0
 40
1.0
 40
1.0
 40
1.0
 10
1025.1974024393
 20
986.3379267163
 30
0.0
 10
1025.1974024393
 20
986.5716246359
 30
0.0
 10
1025.1777402817
 20
986.8067315368
 30
0.0
 10
1025.1325111517
 20
987.0360109371
 30
0.0
  0
SPLINE
  5
2D6
100
AcDbEntity
  8
0
100
AcDbSpline
 62
7
  6
CONTINUOUS
 70
0
 71
3
 72
9
 73
5
 74
0
 42
0.0000001
 43
0.0000001
 44
0.0000000001
 40
0.0
 40
0.0
 40
0.0
 40
0.0
 40
0.5102806629
 40
1.0
 40
1.0
 40
1.0
 40
1.0
 10
1025.1325111517
 20
987.0360109371
 30
0.0
 10
1025.1174195361
 20
987.1125146548
 30
0.0
 10
1025.0821804275
 20
987.2613935541
 30
0.0
 10
1025.0345726013
 20
987.4068425454
 30
0.0
 10
1025.0079713313
 20
987.4767910792
 30
0.0
  0
SPLINE
  5
2D7
100
AcDbEntity
  8
0
100
AcDbSpline
 62
7
  6
CONTINUOUS
 70
0
 71
3
 72
9
 73
5
 74
0
 42
0.0000001
 43
0.0000001
 44
0.0000000001
 40
0.0
 40
0.0
 40
0.0
 40
0.0
 40
0.4930035944
 40
1.0
 40
1.0
 40
1.0
 40
1.0
 10
1022.0154351718
 20
980.8265671467
 30
0.0
 10
1022.0727525803
 20
980.8596591704
 30
0.0
 10
1022.1874174149
 20
980.9295782353
 30
0.0
 10
1022.2988754096
 20
981.0044886533
 30
0.0
 10
1022.3545729334
 20
981.0436081615
 30
0.0
  0
SPLINE
  5
2D8
100
AcDbEntity
  8
0
100
AcDbSpline
 62
7
  6
CONTINUOUS
 70
0
 71
3
 72
8
 73
4
 74
0
 42
0.0000001
 43
0.0000001
 44
0.0000000001
 40
0.0
 40
0.0
 40
0.0
 40
0.0
 40
1.0
 40
1.0
 40
1.0
 40
1.0
 10
1022.3545729334
 20
981.0436081615
 30
0.0
 10
1022.9789297896
 20
981.4821291495
 30
0.0
 10
1023.5116475784
 20
982.062181067
 30
0.0
 10
1023.9434495779
 20
982.6912034626
 30
0.0
  0
SPLINE
  5
2D9
100
AcDbEntity
  8
0
100
AcDbSpline
 62
7
  6
CONTINUOUS
 70
0
 71
3
 72
8
 73
4
 74
0
 42
0.0000001
 43
0.0000001
 44
0.0000000001
 40
0.0
 40
0.0
 40
0.0
 40
0.0
 40
1.0
 40
1.0
 40
1.0
 40
1.0
 10
1024.2653769952
 20
983.2017863656
 30
0.0
 10
1024.4899896019
 20
983.590828972
 30
0.0
 10
1024.6821509584
 20
984.0008307318
 30
0.0
 10
1024.8341795718
 20
984.4235508206
 30
0.0
  0
SPLINE
  5
2DA
100
AcDbEntity
  8
0
100
AcDbSpline
 62
7
  6
CONTINUOUS
 70
0
 71
3
 72
8
 73
4
 74
0
 42
0.0000001
 43
0.0000001
 44
0.0000000001
 40
0.0
 40
0.0
 40
0.0
 40
0.0
 40
1.0
 40
1.0
 40
1.0
 40
1.0
 10
1024.8341795718
 20
984.4235508206
 30
0.0
 10
1025.0091439895
 20
984.9100445966
 30
0.0
 10
1025.1332121423
 20
985.4207642555
 30
0.0
 10
1025.1790103333
 20
985.9357315042
 30
0.0
  0
SPLINE
  5
2DB
100
AcDbEntity
  8
0
100
AcDbSpline
 62
7
  6
CONTINUOUS
 70
0
 71
3
 72
9
 73
5
 74
0
 42
0.0000001
 43
0.0000001
 44
0.0000000001
 40
0.0
 40
0.0
 40
0.0
 40
0.0
 40
0.5069957197
 40
1.0
 40
1.0
 40
1.0
 40
1.0
 10
1025.1790103333
 20
985.9357315042
 30
0.0
 10
1025.1850392325
 20
986.0035220774
 30
0.0
 10
1025.1941833781
 20
986.1374936883
 30
0.0
 10
1025.1974024393
 20
986.2717467674
 30
0.0
 10
1025.1974024393
 20
986.3379267163
 30
0.0
  0
SPLINE
  5
2DC
100
AcDbEntity
  8
0
100
AcDbSpline
 62
7
  6
CONTINUOUS
 70
0
 71
3
 72
8
 73
4
 74
0
 42
0.0000001
 43
0.0000001
 44
0.0000000001
 40
0.0
 40
0.0
 40
0.0
 40
0.0
 40
1.0
 40
1.0
 40
1.0
 40
1.0
 10
994.3096506845
 20
235.1742606429
 30
0.0
 10
994.618467494
 20
235.352653611
 30
0.0
 10
995.0064732219
 20
235.4101564649
 30
0.0
 10
995.3610921404
 20
235.3722447849
 30
0.0
  0
SPLINE
  5
2DD
100
AcDbEntity
  8
0
100
AcDbSpline
 62
7
  6
CONTINUOUS
 70
0
 71
3
 72
9
 73
5
 74
0
 42
0.0000001
 43
0.0000001
 44
0.0000000001
 40
0.0
 40
0.0
 40
0.0
 40
0.0
 40
0.2210098098
 40
1.0
 40
1.0
 40
1.0
 40
1.0
 10
995.3610921404
 20
235.3722447849
 30
0.0
 10
995.5163105373
 20
235.3556506612
 30
0.0
 10
996.2109456247
 20
235.2062629359
 30
0.0
 10
996.8322875416
 20
234.8143532506
 30
0.0
 10
997.2544471231
 20
234.4614844084
 30
0.0
  0
SPLINE
  5
2DE
100
AcDbEntity
  8
0
100
AcDbSpline
 62
7
  6
CONTINUOUS
 70
0
 71
3
 72
8
 73
4
 74
0
 42
0.0000001
 43
0.0000001
 44
0.0000000001
 40
0.0
 40
0.0
 40
0.0
 40
0.0
 40
1.0
 40
1.0
 40
1.0
 40
1.0
 10
997.2544471231
 20
234.4614844084
 30
0.0
 10
998.2427856129
 20
233.635365865
 30
0.0
 10
998.9959064016
 20
232.4748458597
 30
0.0
 10
999.4128992261
 20
231.2560752487
 30
0.0
  0
SPLINE
  5
2DF
100
AcDbEntity
  8
0
100
AcDbSpline
 62
7
  6
CONTINUOUS
 70
0
 71
3
 72
8
 73
4
 74
0
 42
0.0000001
 43
0.0000001
 44
0.0000000001
 40
0.0
 40
0.0
 40
0.0
 40
0.0
 40
1.0
 40
1.0
 40
1.0
 40
1.0
 10
999.4128992261
 20
231.2560752487
 30
0.0
 10
999.6120316445
 20
230.6740586649
 30
0.0
 10
999.7415700926
 20
230.0552997072
 30
0.0
 10
999.7415700926
 20
229.4401598663
 30
0.0
  0
SPLINE
  5
2E0
100
AcDbEntity
  8
0
100
AcDbSpline
 62
7
  6
CONTINUOUS
 70
0
 71
3
 72
8
 73
4
 74
0
 42
0.0000001
 43
0.0000001
 44
0.0000000001
 40
0.0
 40
0.0
 40
0.0
 40
0.0
 40
1.0
 40
1.0
 40
1.0
 40
1.0
 10
995.2509072134
 20
235.0086253378
 30
0.0
 10
995.176531943
 20
234.7248628996
 30
0.0
 10
995.1453421593
 20
234.4282846208
 30
0.0
 10
995.1453421593
 20
234.1349370417
 30
0.0
  0
SPLINE
  5
2E1
100
AcDbEntity
  8
0
100
AcDbSpline
 62
7
  6
CONTINUOUS
 70
0
 71
3
 72
8
 73
4
 74
0
 42
0.0000001
 43
0.0000001
 44
0.0000000001
 40
0.0
 40
0.0
 40
0.0
 40
0.0
 40
1.0
 40
1.0
 40
1.0
 40
1.0
 10
1023.7831947648
 20
905.5042015298
 30
0.0
 10
1023.7831947648
 20
905.7378994494
 30
0.0
 10
1023.7635326072
 20
905.9730063503
 30
0.0
 10
1023.7183034773
 20
906.2022857507
 30
0.0
  0
SPLINE
  5
2E2
100
AcDbEntity
  8
0
100
AcDbSpline
 62
7
  6
CONTINUOUS
 70
0
 71
3
 72
9
 73
5
 74
0
 42
0.0000001
 43
0.0000001
 44
0.0000000001
 40
0.0
 40
0.0
 40
0.0
 40
0.0
 40
0.5102806629
 40
1.0
 40
1.0
 40
1.0
 40
1.0
 10
1023.7183034773
 20
906.2022857507
 30
0.0
 10
1023.7032118616
 20
906.2787894684
 30
0.0
 10
1023.6679727531
 20
906.4276683676
 30
0.0
 10
1023.6203649269
 20
906.5731173589
 30
0.0
 10
1023.5937636569
 20
906.6430658928
 30
0.0
  0
SPLINE
  5
2E3
100
AcDbEntity
  8
0
100
AcDbSpline
 62
7
  6
CONTINUOUS
 70
0
 71
3
 72
9
 73
5
 74
0
 42
0.0000001
 43
0.0000001
 44
0.0000000001
 40
0.0
 40
0.0
 40
0.0
 40
0.0
 40
0.4930035944
 40
1.0
 40
1.0
 40
1.0
 40
1.0
 10
1020.6012274974
 20
896.7268322918
 30
0.0
 10
1020.6585449058
 20
896.7599243155
 30
0.0
 10
1020.7732097405
 20
896.8298433803
 30
0.0
 10
1020.8846677352
 20
896.9047537983
 30
0.0
 10
1020.9403652589
 20
896.9438733065
 30
0.0
  0
SPLINE
  5
2E4
100
AcDbEntity
  8
0
100
AcDbSpline
 62
7
  6
CONTINUOUS
 70
0
 71
3
 72
8
 73
4
 74
0
 42
0.0000001
 43
0.0000001
 44
0.0000000001
 40
0.0
 40
0.0
 40
0.0
 40
0.0
 40
1.0
 40
1.0
 40
1.0
 40
1.0
 10
1020.9403652589
 20
896.9438733065
 30
0.0
 10
1021.3634830345
 20
897.241052753
 30
0.0
 10
1021.743777195
 20
897.6039069107
 30
0.0
 10
1022.0776325454
 20
897.9987295042
 30
0.0
  0
SPLINE
  5
2E5
100
AcDbEntity
  8
0
100
AcDbSpline
 62
7
  6
CONTINUOUS
 70
0
 71
3
 72
8
 73
4
 74
0
 42
0.0000001
 43
0.0000001
 44
0.0000000001
 40
0.0
 40
0.0
 40
0.0
 40
0.0
 40
1.0
 40
1.0
 40
1.0
 40
1.0
 10
1022.0776325454
 20
897.9987295042
 30
0.0
 10
1022.367647991
 20
898.3417063361
 30
0.0
 10
1022.6265917251
 20
898.7130695453
 30
0.0
 10
1022.8511693208
 20
899.1020515106
 30
0.0
  0
SPLINE
  5
2E6
100
AcDbEntity
  8
0
100
AcDbSpline
 62
7
  6
CONTINUOUS
 70
0
 71
3
 72
8
 73
4
 74
0
 42
0.0000001
 43
0.0000001
 44
0.0000000001
 40
0.0
 40
0.0
 40
0.0
 40
0.0
 40
1.0
 40
1.0
 40
1.0
 40
1.0
 10
1023.1324694335
 20
899.6363270585
 30
0.0
 10
1023.4612740649
 20
900.324753545
 30
0.0
 10
1023.697219931
 20
901.0760781748
 30
0.0
 10
1023.7648026589
 20
901.8359966492
 30
0.0
  0
SPLINE
  5
2E7
100
AcDbEntity
  8
0
100
AcDbSpline
 62
7
  6
CONTINUOUS
 70
0
 71
3
 72
9
 73
5
 74
0
 42
0.0000001
 43
0.0000001
 44
0.0000000001
 40
0.0
 40
0.0
 40
0.0
 40
0.0
 40
0.5069957197
 40
1.0
 40
1.0
 40
1.0
 40
1.0
 10
1023.7648026589
 20
901.8359966492
 30
0.0
 10
1023.7708315581
 20
901.9037872225
 30
0.0
 10
1023.7799757036
 20
902.0377588333
 30
0.0
 10
1023.7831947648
 20
902.1720119124
 30
0.0
 10
1023.7831947648
 20
902.2381918613
 30
0.0
  0
SPLINE
  5
2E8
100
AcDbEntity
  8
0
100
AcDbSpline
 62
7
  6
CONTINUOUS
 70
0
 71
3
 72
8
 73
4
 74
0
 42
0.0000001
 43
0.0000001
 44
0.0000000001
 40
0.0
 40
0.0
 40
0.0
 40
0.0
 40
1.0
 40
1.0
 40
1.0
 40
1.0
 10
994.3096506845
 20
1664.0534906197
 30
0.0
 10
994.618467494
 20
1664.2318835877
 30
0.0
 10
995.0064732219
 20
1664.2893864417
 30
0.0
 10
995.3610921404
 20
1664.2514747617
 30
0.0
  0
SPLINE
  5
2E9
100
AcDbEntity
  8
0
100
AcDbSpline
 62
7
  6
CONTINUOUS
 70
0
 71
3
 72
9
 73
5
 74
0
 42
0.0000001
 43
0.0000001
 44
0.0000000001
 40
0.0
 40
0.0
 40
0.0
 40
0.0
 40
0.2210098098
 40
1.0
 40
1.0
 40
1.0
 40
1.0
 10
995.3610921404
 20
1664.2514747617
 30
0.0
 10
995.5163105373
 20
1664.234880638
 30
0.0
 10
996.2109456247
 20
1664.0854929127
 30
0.0
 10
996.8322875416
 20
1663.6935832274
 30
0.0
 10
997.2544471231
 20
1663.3407143852
 30
0.0
  0
SPLINE
  5
2EA
100
AcDbEntity
  8
0
100
AcDbSpline
 62
7
  6
CONTINUOUS
 70
0
 71
3
 72
8
 73
4
 74
0
 42
0.0000001
 43
0.0000001
 44
0.0000000001
 40
0.0
 40
0.0
 40
0.0
 40
0.0
 40
1.0
 40
1.0
 40
1.0
 40
1.0
 10
997.2544471231
 20
1663.3407143852
 30
0.0
 10
998.2427856129
 20
1662.5145958418
 30
0.0
 10
998.9959064016
 20
1661.3540758365
 30
0.0
 10
999.4128992261
 20
1660.1353052254
 30
0.0
  0
SPLINE
  5
2EB
100
AcDbEntity
  8
0
100
AcDbSpline
 62
7
  6
CONTINUOUS
 70
0
 71
3
 72
8
 73
4
 74
0
 42
0.0000001
 43
0.0000001
 44
0.0000000001
 40
0.0
 40
0.0
 40
0.0
 40
0.0
 40
1.0
 40
1.0
 40
1.0
 40
1.0
 10
999.4128992261
 20
1660.1353052254
 30
0.0
 10
999.6120316445
 20
1659.5532886417
 30
0.0
 10
999.7415700926
 20
1658.9345296839
 30
0.0
 10
999.7415700926
 20
1658.3193898431
 30
0.0
  0
SPLINE
  5
2EC
100
AcDbEntity
  8
0
100
AcDbSpline
 62
7
  6
CONTINUOUS
 70
0
 71
3
 72
8
 73
4
 74
0
 42
0.0000001
 43
0.0000001
 44
0.0000000001
 40
0.0
 40
0.0
 40
0.0
 40
0.0
 40
1.0
 40
1.0
 40
1.0
 40
1.0
 10
1025.1974024393
 20
1659.9524208482
 30
0.0
 10
1025.1974024393
 20
1660.1861187678
 30
0.0
 10
1025.1777402817
 20
1660.4212256687
 30
0.0
 10
1025.1325111517
 20
1660.650505069
 30
0.0
  0
SPLINE
  5
2ED
100
AcDbEntity
  8
0
100
AcDbSpline
 62
7
  6
CONTINUOUS
 70
0
 71
3
 72
9
 73
5
 74
0
 42
0.0000001
 43
0.0000001
 44
0.0000000001
 40
0.0
 40
0.0
 40
0.0
 40
0.0
 40
0.5102806629
 40
1.0
 40
1.0
 40
1.0
 40
1.0
 10
1025.1325111517
 20
1660.650505069
 30
0.0
 10
1025.1174195361
 20
1660.7270087867
 30
0.0
 10
1025.0821804275
 20
1660.875887686
 30
0.0
 10
1025.0345726013
 20
1661.0213366773
 30
0.0
 10
1025.0079713313
 20
1661.0912852112
 30
0.0
  0
SPLINE
  5
2EE
100
AcDbEntity
  8
0
100
AcDbSpline
 62
7
  6
CONTINUOUS
 70
0
 71
3
 72
9
 73
5
 74
0
 42
0.0000001
 43
0.0000001
 44
0.0000000001
 40
0.0
 40
0.0
 40
0.0
 40
0.0
 40
0.4930035944
 40
1.0
 40
1.0
 40
1.0
 40
1.0
 10
1022.0154351718
 20
1654.4410612787
 30
0.0
 10
1022.0727525803
 20
1654.4741533023
 30
0.0
 10
1022.1874174149
 20
1654.5440723672
 30
0.0
 10
1022.2988754096
 20
1654.6189827852
 30
0.0
 10
1022.3545729334
 20
1654.6581022934
 30
0.0
  0
SPLINE
  5
2EF
100
AcDbEntity
  8
0
100
AcDbSpline
 62
7
  6
CONTINUOUS
 70
0
 71
3
 72
8
 73
4
 74
0
 42
0.0000001
 43
0.0000001
 44
0.0000000001
 40
0.0
 40
0.0
 40
0.0
 40
0.0
 40
1.0
 40
1.0
 40
1.0
 40
1.0
 10
1022.3545729334
 20
1654.6581022934
 30
0.0
 10
1022.9789297896
 20
1655.0966232814
 30
0.0
 10
1023.5116475784
 20
1655.6766751989
 30
0.0
 10
1023.9434495779
 20
1656.3056975945
 30
0.0
  0
SPLINE
  5
2F0
100
AcDbEntity
  8
0
100
AcDbSpline
 62
7
  6
CONTINUOUS
 70
0
 71
3
 72
8
 73
4
 74
0
 42
0.0000001
 43
0.0000001
 44
0.0000000001
 40
0.0
 40
0.0
 40
0.0
 40
0.0
 40
1.0
 40
1.0
 40
1.0
 40
1.0
 10
1024.2653769952
 20
1656.8162804975
 30
0.0
 10
1024.4899896019
 20
1657.2053231039
 30
0.0
 10
1024.6821509584
 20
1657.6153248637
 30
0.0
 10
1024.8341795718
 20
1658.0380449525
 30
0.0
  0
SPLINE
  5
2F1
100
AcDbEntity
  8
0
100
AcDbSpline
 62
7
  6
CONTINUOUS
 70
0
 71
3
 72
8
 73
4
 74
0
 42
0.0000001
 43
0.0000001
 44
0.0000000001
 40
0.0
 40
0.0
 40
0.0
 40
0.0
 40
1.0
 40
1.0
 40
1.0
 40
1.0
 10
1024.8341795718
 20
1658.0380449525
 30
0.0
 10
1025.0091439895
 20
1658.5245387285
 30
0.0
 10
1025.1332121423
 20
1659.0352583874
 30
0.0
 10
1025.1790103333
 20
1659.5502256361
 30
0.0
  0
SPLINE
  5
2F2
100
AcDbEntity
  8
0
100
AcDbSpline
 62
7
  6
CONTINUOUS
 70
0
 71
3
 72
9
 73
5
 74
0
 42
0.0000001
 43
0.0000001
 44
0.0000000001
 40
0.0
 40
0.0
 40
0.0
 40
0.0
 40
0.5069957197
 40
1.0
 40
1.0
 40
1.0
 40
1.0
 10
1025.1790103333
 20
1659.5502256361
 30
0.0
 10
1025.1850392325
 20
1659.6180162093
 30
0.0
 10
1025.1941833781
 20
1659.7519878202
 30
0.0
 10
1025.1974024393
 20
1659.8862408993
 30
0.0
 10
1025.1974024393
 20
1659.9524208482
 30
0.0
  0
SPLINE
  5
2F3
100
AcDbEntity
  8
0
100
AcDbSpline
 62
7
  6
CONTINUOUS
 70
0
 71
3
 72
8
 73
4
 74
0
 42
0.0000001
 43
0.0000001
 44
0.0000000001
 40
0.0
 40
0.0
 40
0.0
 40
0.0
 40
1.0
 40
1.0
 40
1.0
 40
1.0
 10
995.2509072134
 20
1663.8878553146
 30
0.0
 10
995.176531943
 20
1663.6040928764
 30
0.0
 10
995.1453421593
 20
1663.3075145975
 30
0.0
 10
995.1453421593
 20
1663.0141670184
 30
0.0
  0
SPLINE
  5
2F4
100
AcDbEntity
  8
0
100
AcDbSpline
 62
7
  6
CONTINUOUS
 70
0
 71
3
 72
8
 73
4
 74
0
 42
0.0000001
 43
0.0000001
 44
0.0000000001
 40
0.0
 40
0.0
 40
0.0
 40
0.0
 40
1.0
 40
1.0
 40
1.0
 40
1.0
 10
1025.1974024393
 20
231.0731908714
 30
0.0
 10
1025.1974024393
 20
231.306888791
 30
0.0
 10
1025.1777402817
 20
231.5419956919
 30
0.0
 10
1025.1325111517
 20
231.7712750923
 30
0.0
  0
SPLINE
  5
2F5
100
AcDbEntity
  8
0
100
AcDbSpline
 62
7
  6
CONTINUOUS
 70
0
 71
3
 72
9
 73
5
 74
0
 42
0.0000001
 43
0.0000001
 44
0.0000000001
 40
0.0
 40
0.0
 40
0.0
 40
0.0
 40
0.5102806629
 40
1.0
 40
1.0
 40
1.0
 40
1.0
 10
1025.1325111517
 20
231.7712750923
 30
0.0
 10
1025.1174195361
 20
231.84777881
 30
0.0
 10
1025.0821804276
 20
231.9966577092
 30
0.0
 10
1025.0345726013
 20
232.1421067005
 30
0.0
 10
1025.0079713313
 20
232.2120552344
 30
0.0
  0
SPLINE
  5
2F6
100
AcDbEntity
  8
0
100
AcDbSpline
 62
7
  6
CONTINUOUS
 70
0
 71
3
 72
9
 73
5
 74
0
 42
0.0000001
 43
0.0000001
 44
0.0000000001
 40
0.0
 40
0.0
 40
0.0
 40
0.0
 40
0.4930035944
 40
1.0
 40
1.0
 40
1.0
 40
1.0
 10
1022.0154351718
 20
225.5618313019
 30
0.0
 10
1022.0727525803
 20
225.5949233256
 30
0.0
 10
1022.1874174149
 20
225.6648423904
 30
0.0
 10
1022.2988754096
 20
225.7397528084
 30
0.0
 10
1022.3545729334
 20
225.7788723166
 30
0.0
  0
SPLINE
  5
2F7
100
AcDbEntity
  8
0
100
AcDbSpline
 62
7
  6
CONTINUOUS
 70
0
 71
3
 72
8
 73
4
 74
0
 42
0.0000001
 43
0.0000001
 44
0.0000000001
 40
0.0
 40
0.0
 40
0.0
 40
0.0
 40
1.0
 40
1.0
 40
1.0
 40
1.0
 10
1022.3545729334
 20
225.7788723166
 30
0.0
 10
1022.9789297896
 20
226.2173933046
 30
0.0
 10
1023.5116475784
 20
226.7974452222
 30
0.0
 10
1023.9434495779
 20
227.4264676177
 30
0.0
  0
SPLINE
  5
2F8
100
AcDbEntity
  8
0
100
AcDbSpline
 62
7
  6
CONTINUOUS
 70
0
 71
3
 72
8
 73
4
 74
0
 42
0.0000001
 43
0.0000001
 44
0.0000000001
 40
0.0
 40
0.0
 40
0.0
 40
0.0
 40
1.0
 40
1.0
 40
1.0
 40
1.0
 10
1024.2653769952
 20
227.9370505207
 30
0.0
 10
1024.4899896019
 20
228.3260931272
 30
0.0
 10
1024.6821509584
 20
228.7360948869
 30
0.0
 10
1024.8341795718
 20
229.1588149757
 30
0.0
  0
SPLINE
  5
2F9
100
AcDbEntity
  8
0
100
AcDbSpline
 62
7
  6
CONTINUOUS
 70
0
 71
3
 72
8
 73
4
 74
0
 42
0.0000001
 43
0.0000001
 44
0.0000000001
 40
0.0
 40
0.0
 40
0.0
 40
0.0
 40
1.0
 40
1.0
 40
1.0
 40
1.0
 10
1024.8341795718
 20
229.1588149757
 30
0.0
 10
1025.0091439895
 20
229.6453087517
 30
0.0
 10
1025.1332121423
 20
230.1560284106
 30
0.0
 10
1025.1790103333
 20
230.6709956593
 30
0.0
  0
SPLINE
  5
2FA
100
AcDbEntity
  8
0
100
AcDbSpline
 62
7
  6
CONTINUOUS
 70
0
 71
3
 72
9
 73
5
 74
0
 42
0.0000001
 43
0.0000001
 44
0.0000000001
 40
0.0
 40
0.0
 40
0.0
 40
0.0
 40
0.5069957197
 40
1.0
 40
1.0
 40
1.0
 40
1.0
 10
1025.1790103333
 20
230.6709956593
 30
0.0
 10
1025.1850392325
 20
230.7387862326
 30
0.0
 10
1025.1941833781
 20
230.8727578434
 30
0.0
 10
1025.1974024393
 20
231.0070109225
 30
0.0
 10
1025.1974024393
 20
231.0731908714
 30
0.0
  0
SPLINE
  5
2FB
100
AcDbEntity
  8
0
100
AcDbSpline
 62
7
  6
CONTINUOUS
 70
0
 71
3
 72
9
 73
5
 74
0
 42
0.0000001
 43
0.0000001
 44
0.0000000001
 40
0.0
 40
0.0
 40
0.0
 40
0.0
 40
0.4916353156
 40
1.0
 40
1.0
 40
1.0
 40
1.0
 10
1009.528592944
 20
169.2938296219
 30
0.0
 10
1009.463465817
 20
169.3314298913
 30
0.0
 10
1009.3393424262
 20
169.4233080828
 30
0.0
 10
1009.2386006947
 20
169.5401207057
 30
0.0
 10
1009.193889028
 20
169.6037415892
 30
0.0
  0
SPLINE
  5
2FC
100
AcDbEntity
  8
0
100
AcDbSpline
 62
7
  6
CONTINUOUS
 70
0
 71
3
 72
8
 73
4
 74
0
 42
0.0000001
 43
0.0000001
 44
0.0000000001
 40
0.0
 40
0.0
 40
0.0
 40
0.0
 40
1.0
 40
1.0
 40
1.0
 40
1.0
 10
1009.193889028
 20
169.6037415892
 30
0.0
 10
1009.0900676324
 20
169.7514705692
 30
0.0
 10
1009.0194131251
 20
169.9241680537
 30
0.0
 10
1008.9747305064
 20
170.0991143234
 30
0.0
  0
SPLINE
  5
2FD
100
AcDbEntity
  8
0
100
AcDbSpline
 62
7
  6
CONTINUOUS
 70
0
 71
3
 72
8
 73
4
 74
0
 42
0.0000001
 43
0.0000001
 44
0.0000000001
 40
0.0
 40
0.0
 40
0.0
 40
0.0
 40
1.0
 40
1.0
 40
1.0
 40
1.0
 10
1008.9747305064
 20
170.0991143234
 30
0.0
 10
1008.9275236009
 20
170.2839439566
 30
0.0
 10
1008.907394474
 20
170.4766649128
 30
0.0
 10
1008.907394474
 20
170.6674278161
 30
0.0
  0
SPLINE
  5
2FE
100
AcDbEntity
  8
0
100
AcDbSpline
 62
7
  6
CONTINUOUS
 70
0
 71
3
 72
8
 73
4
 74
0
 42
0.0000001
 43
0.0000001
 44
0.0000000001
 40
0.0
 40
0.0
 40
0.0
 40
0.0
 40
1.0
 40
1.0
 40
1.0
 40
1.0
 10
995.1453421593
 20
1663.0141670184
 30
0.0
 10
995.1453421593
 20
1662.4030347269
 30
0.0
 10
995.273250633
 20
1661.7883275451
 30
0.0
 10
995.4700743477
 20
1661.2097576677
 30
0.0
  0
SPLINE
  5
2FF
100
AcDbEntity
  8
0
100
AcDbSpline
 62
7
  6
CONTINUOUS
 70
0
 71
3
 72
8
 73
4
 74
0
 42
0.0000001
 43
0.0000001
 44
0.0000000001
 40
0.0
 40
0.0
 40
0.0
 40
0.0
 40
1.0
 40
1.0
 40
1.0
 40
1.0
 10
995.4700743477
 20
1661.2097576677
 30
0.0
 10
995.8827993446
 20
1659.996538766
 30
0.0
 10
996.6287707922
 20
1658.841571303
 30
0.0
 10
997.6072502627
 20
1658.0140328132
 30
0.0
  0
SPLINE
  5
300
100
AcDbEntity
  8
0
100
AcDbSpline
 62
7
  6
CONTINUOUS
 70
0
 71
3
 72
9
 73
5
 74
0
 42
0.0000001
 43
0.0000001
 44
0.0000000001
 40
0.0
 40
0.0
 40
0.0
 40
0.0
 40
0.2813958374
 40
1.0
 40
1.0
 40
1.0
 40
1.0
 10
997.6072502627
 20
1658.0140328132
 30
0.0
 10
997.7615403238
 20
1657.8835436532
 30
0.0
 10
998.3315579375
 20
1657.4513316011
 30
0.0
 10
999.0184856383
 20
1657.1350171347
 30
0.0
 10
999.531733489
 20
1657.0814824465
 30
0.0
  0
SPLINE
  5
301
100
AcDbEntity
  8
0
100
AcDbSpline
 62
7
  6
CONTINUOUS
 70
0
 71
3
 72
8
 73
4
 74
0
 42
0.0000001
 43
0.0000001
 44
0.0000000001
 40
0.0
 40
0.0
 40
0.0
 40
0.0
 40
1.0
 40
1.0
 40
1.0
 40
1.0
 10
995.1453421593
 20
234.1349370417
 30
0.0
 10
995.1453421593
 20
233.5238047502
 30
0.0
 10
995.273250633
 20
232.9090975683
 30
0.0
 10
995.4700743477
 20
232.3305276909
 30
0.0
  0
SPLINE
  5
302
100
AcDbEntity
  8
0
100
AcDbSpline
 62
7
  6
CONTINUOUS
 70
0
 71
3
 72
8
 73
4
 74
0
 42
0.0000001
 43
0.0000001
 44
0.0000000001
 40
0.0
 40
0.0
 40
0.0
 40
0.0
 40
1.0
 40
1.0
 40
1.0
 40
1.0
 10
995.4700743477
 20
232.3305276909
 30
0.0
 10
995.8827993446
 20
231.1173087893
 30
0.0
 10
996.6287707922
 20
229.9623413263
 30
0.0
 10
997.6072502627
 20
229.1348028364
 30
0.0
  0
SPLINE
  5
303
100
AcDbEntity
  8
0
100
AcDbSpline
 62
7
  6
CONTINUOUS
 70
0
 71
3
 72
9
 73
5
 74
0
 42
0.0000001
 43
0.0000001
 44
0.0000000001
 40
0.0
 40
0.0
 40
0.0
 40
0.0
 40
0.2813958374
 40
1.0
 40
1.0
 40
1.0
 40
1.0
 10
997.6072502627
 20
229.1348028364
 30
0.0
 10
997.7615403238
 20
229.0043136765
 30
0.0
 10
998.3315579375
 20
228.5721016244
 30
0.0
 10
999.0184856383
 20
228.2557871579
 30
0.0
 10
999.531733489
 20
228.2022524698
 30
0.0
  0
SPLINE
  5
304
100
AcDbEntity
  8
0
100
AcDbSpline
 62
7
  6
CONTINUOUS
 70
0
 71
3
 72
8
 73
4
 74
0
 42
0.0000001
 43
0.0000001
 44
0.0000000001
 40
0.0
 40
0.0
 40
0.0
 40
0.0
 40
1.0
 40
1.0
 40
1.0
 40
1.0
 10
535.5240208138
 20
1928.3706574566
 30
0.0
 10
535.5240208138
 20
1927.7595251651
 30
0.0
 10
535.6519292875
 20
1927.1448179833
 30
0.0
 10
535.8487530021
 20
1926.5662481058
 30
0.0
  0
SPLINE
  5
305
100
AcDbEntity
  8
0
100
AcDbSpline
 62
7
  6
CONTINUOUS
 70
0
 71
3
 72
8
 73
4
 74
0
 42
0.0000001
 43
0.0000001
 44
0.0000000001
 40
0.0
 40
0.0
 40
0.0
 40
0.0
 40
1.0
 40
1.0
 40
1.0
 40
1.0
 10
535.8487530021
 20
1926.5662481058
 30
0.0
 10
536.261477999
 20
1925.3530292042
 30
0.0
 10
537.0074494466
 20
1924.1980617412
 30
0.0
 10
537.9859289172
 20
1923.3705232514
 30
0.0
  0
SPLINE
  5
306
100
AcDbEntity
  8
0
100
AcDbSpline
 62
7
  6
CONTINUOUS
 70
0
 71
3
 72
9
 73
5
 74
0
 42
0.0000001
 43
0.0000001
 44
0.0000000001
 40
0.0
 40
0.0
 40
0.0
 40
0.0
 40
0.2813958374
 40
1.0
 40
1.0
 40
1.0
 40
1.0
 10
537.9859289172
 20
1923.3705232514
 30
0.0
 10
538.1402189783
 20
1923.2400340914
 30
0.0
 10
538.710236592
 20
1922.8078220393
 30
0.0
 10
539.3971642928
 20
1922.4915075728
 30
0.0
 10
539.9104121435
 20
1922.4379728847
 30
0.0
  0
SPLINE
  5
307
100
AcDbEntity
  8
0
100
AcDbSpline
 62
7
  6
CONTINUOUS
 70
0
 71
3
 72
8
 73
4
 74
0
 42
0.0000001
 43
0.0000001
 44
0.0000000001
 40
0.0
 40
0.0
 40
0.0
 40
0.0
 40
1.0
 40
1.0
 40
1.0
 40
1.0
 10
535.5240208138
 20
499.4914274798
 30
0.0
 10
535.5240208138
 20
498.8802951884
 30
0.0
 10
535.6519292875
 20
498.2655880065
 30
0.0
 10
535.8487530021
 20
497.6870181291
 30
0.0
  0
SPLINE
  5
308
100
AcDbEntity
  8
0
100
AcDbSpline
 62
7
  6
CONTINUOUS
 70
0
 71
3
 72
8
 73
4
 74
0
 42
0.0000001
 43
0.0000001
 44
0.0000000001
 40
0.0
 40
0.0
 40
0.0
 40
0.0
 40
1.0
 40
1.0
 40
1.0
 40
1.0
 10
535.8487530021
 20
497.6870181291
 30
0.0
 10
536.261477999
 20
496.4737992275
 30
0.0
 10
537.0074494466
 20
495.3188317645
 30
0.0
 10
537.9859289172
 20
494.4912932746
 30
0.0
  0
SPLINE
  5
309
100
AcDbEntity
  8
0
100
AcDbSpline
 62
7
  6
CONTINUOUS
 70
0
 71
3
 72
9
 73
5
 74
0
 42
0.0000001
 43
0.0000001
 44
0.0000000001
 40
0.0
 40
0.0
 40
0.0
 40
0.0
 40
0.2813958374
 40
1.0
 40
1.0
 40
1.0
 40
1.0
 10
537.9859289172
 20
494.4912932746
 30
0.0
 10
538.1402189783
 20
494.3608041147
 30
0.0
 10
538.710236592
 20
493.9285920626
 30
0.0
 10
539.3971642928
 20
493.6122775961
 30
0.0
 10
539.9104121435
 20
493.558742908
 30
0.0
  0
SPLINE
  5
30A
100
AcDbEntity
  8
0
100
AcDbSpline
 62
7
  6
CONTINUOUS
 70
0
 71
3
 72
9
 73
5
 74
0
 42
0.0000001
 43
0.0000001
 44
0.0000000001
 40
0.0
 40
0.0
 40
0.0
 40
0.0
 40
0.5025407212
 40
1.0
 40
1.0
 40
1.0
 40
1.0
 10
990.5563757409
 20
1706.1052065845
 30
0.0
 10
990.6527149915
 20
1703.4958546283
 30
0.0
 10
992.4861481354
 20
1698.412753283
 30
0.0
 10
996.0620987354
 20
1694.3390955097
 30
0.0
 10
998.2960415004
 20
1693.0389742648
 30
0.0
  0
SPLINE
  5
30B
100
AcDbEntity
  8
0
100
AcDbSpline
 62
7
  6
CONTINUOUS
 70
0
 71
3
 72
9
 73
5
 74
0
 42
0.0000001
 43
0.0000001
 44
0.0000000001
 40
0.0
 40
0.0
 40
0.0
 40
0.0
 40
0.2821913172
 40
1.0
 40
1.0
 40
1.0
 40
1.0
 10
998.2960415004
 20
1693.0389742648
 30
0.0
 10
998.6468099195
 20
1692.8348322962
 30
0.0
 10
999.9232823069
 20
1692.1855437172
 30
0.0
 10
1001.4212633625
 20
1691.8593974466
 30
0.0
 10
1002.4431851741
 20
1692.0057826403
 30
0.0
  0
SPLINE
  5
30C
100
AcDbEntity
  8
0
100
AcDbSpline
 62
7
  6
CONTINUOUS
 70
0
 71
3
 72
9
 73
5
 74
0
 42
0.0000001
 43
0.0000001
 44
0.0000000001
 40
0.0
 40
0.0
 40
0.0
 40
0.0
 40
0.5025407212
 40
1.0
 40
1.0
 40
1.0
 40
1.0
 10
990.5563757409
 20
195.5757348948
 30
0.0
 10
990.6527149915
 20
192.9663829385
 30
0.0
 10
992.4861481354
 20
187.8832815933
 30
0.0
 10
996.0620987354
 20
183.80962382
 30
0.0
 10
998.2960415004
 20
182.509502575
 30
0.0
  0
SPLINE
  5
30D
100
AcDbEntity
  8
0
100
AcDbSpline
 62
7
  6
CONTINUOUS
 70
0
 71
3
 72
9
 73
5
 74
0
 42
0.0000001
 43
0.0000001
 44
0.0000000001
 40
0.0
 40
0.0
 40
0.0
 40
0.0
 40
0.2821913172
 40
1.0
 40
1.0
 40
1.0
 40
1.0
 10
998.2960415004
 20
182.509502575
 30
0.0
 10
998.6468099195
 20
182.3053606065
 30
0.0
 10
999.9232823069
 20
181.6560720275
 30
0.0
 10
1001.4212633625
 20
181.3299257569
 30
0.0
 10
1002.4431851741
 20
181.4763109506
 30
0.0
  0
SPLINE
  5
30E
100
AcDbEntity
  8
0
100
AcDbSpline
 62
7
  6
CONTINUOUS
 70
0
 71
3
 72
9
 73
5
 74
0
 42
0.0000001
 43
0.0000001
 44
0.0000000001
 40
0.0
 40
0.0
 40
0.0
 40
0.0
 40
0.5025407212
 40
1.0
 40
1.0
 40
1.0
 40
1.0
 10
530.9350543953
 20
1971.4616970227
 30
0.0
 10
531.031393646
 20
1968.8523450665
 30
0.0
 10
532.8648267898
 20
1963.7692437212
 30
0.0
 10
536.4407773898
 20
1959.6955859479
 30
0.0
 10
538.6747201549
 20
1958.3954647029
 30
0.0
  0
SPLINE
  5
30F
100
AcDbEntity
  8
0
100
AcDbSpline
 62
7
  6
CONTINUOUS
 70
0
 71
3
 72
9
 73
5
 74
0
 42
0.0000001
 43
0.0000001
 44
0.0000000001
 40
0.0
 40
0.0
 40
0.0
 40
0.0
 40
0.2821913172
 40
1.0
 40
1.0
 40
1.0
 40
1.0
 10
538.6747201549
 20
1958.3954647029
 30
0.0
 10
539.025488574
 20
1958.1913227344
 30
0.0
 10
540.3019609614
 20
1957.5420341554
 30
0.0
 10
541.7999420169
 20
1957.2158878848
 30
0.0
 10
542.8218638286
 20
1957.3622730785
 30
0.0
  0
SPLINE
  5
310
100
AcDbEntity
  8
0
100
AcDbSpline
 62
7
  6
CONTINUOUS
 70
0
 71
3
 72
9
 73
5
 74
0
 42
0.0000001
 43
0.0000001
 44
0.0000000001
 40
0.0
 40
0.0
 40
0.0
 40
0.0
 40
0.2316667833
 40
1.0
 40
1.0
 40
1.0
 40
1.0
 10
530.9350543953
 20
460.932225333
 30
0.0
 10
530.9651226768
 20
460.1178248823
 30
0.0
 10
531.4784833174
 20
456.6223250615
 30
0.0
 10
533.1601925798
 20
453.3425215
 30
0.0
 10
534.8612020861
 20
451.2420721452
 30
0.0
  0
SPLINE
  5
311
100
AcDbEntity
  8
0
100
AcDbSpline
 62
7
  6
CONTINUOUS
 70
0
 71
3
 72
9
 73
5
 74
0
 42
0.0000001
 43
0.0000001
 44
0.0000000001
 40
0.0
 40
0.0
 40
0.0
 40
0.0
 40
0.2660459787
 40
1.0
 40
1.0
 40
1.0
 40
1.0
 10
534.8612020861
 20
451.2420721452
 30
0.0
 10
535.1462807919
 20
450.8900497835
 30
0.0
 10
536.2672394024
 20
449.6097248824
 30
0.0
 10
537.5946619958
 20
448.4945706923
 30
0.0
 10
538.6747201549
 20
447.8659930132
 30
0.0
  0
SPLINE
  5
312
100
AcDbEntity
  8
0
100
AcDbSpline
 62
7
  6
CONTINUOUS
 70
0
 71
3
 72
9
 73
5
 74
0
 42
0.0000001
 43
0.0000001
 44
0.0000000001
 40
0.0
 40
0.0
 40
0.0
 40
0.0
 40
0.2821913172
 40
1.0
 40
1.0
 40
1.0
 40
1.0
 10
538.6747201549
 20
447.8659930132
 30
0.0
 10
539.025488574
 20
447.6618510447
 30
0.0
 10
540.3019609614
 20
447.0125624657
 30
0.0
 10
541.7999420169
 20
446.6864161951
 30
0.0
 10
542.8218638286
 20
446.8328013888
 30
0.0
  0
SPLINE
  5
313
100
AcDbEntity
  8
0
100
AcDbSpline
 62
7
  6
CONTINUOUS
 70
0
 71
3
 72
9
 73
5
 74
0
 42
0.0000001
 43
0.0000001
 44
0.0000000001
 40
0.0
 40
0.0
 40
0.0
 40
0.0
 40
0.4916358998
 40
1.0
 40
1.0
 40
1.0
 40
1.0
 10
1027.137005896
 20
1715.2397171058
 30
0.0
 10
1027.137005934
 20
1715.1645214549
 30
0.0
 10
1027.1194996165
 20
1715.0111014565
 30
0.0
 10
1027.0687129392
 20
1714.8654622917
 30
0.0
 10
1027.0359749316
 20
1714.7949361074
 30
0.0
  0
SPLINE
  5
314
100
AcDbEntity
  8
0
100
AcDbSpline
 62
7
  6
CONTINUOUS
 70
0
 71
3
 72
8
 73
4
 74
0
 42
0.0000001
 43
0.0000001
 44
0.0000000001
 40
0.0
 40
0.0
 40
0.0
 40
0.0
 40
1.0
 40
1.0
 40
1.0
 40
1.0
 10
1027.0359749316
 20
1714.7949361074
 30
0.0
 10
1026.9599566006
 20
1714.631172848
 30
0.0
 10
1026.8457358727
 20
1714.4836463668
 30
0.0
 10
1026.7165826932
 20
1714.3574851683
 30
0.0
  0
SPLINE
  5
315
100
AcDbEntity
  8
0
100
AcDbSpline
 62
7
  6
CONTINUOUS
 70
0
 71
3
 72
8
 73
4
 74
0
 42
0.0000001
 43
0.0000001
 44
0.0000000001
 40
0.0
 40
0.0
 40
0.0
 40
0.0
 40
1.0
 40
1.0
 40
1.0
 40
1.0
 10
1026.7165826932
 20
1714.3574851683
 30
0.0
 10
1026.580115339
 20
1714.2241792364
 30
0.0
 10
1026.4232715092
 20
1714.1103802921
 30
0.0
 10
1026.2580581951
 20
1714.0149949101
 30
0.0
  0
SPLINE
  5
316
100
AcDbEntity
  8
0
100
AcDbSpline
 62
7
  6
CONTINUOUS
 70
0
 71
3
 72
8
 73
4
 74
0
 42
0.0000001
 43
0.0000001
 44
0.0000000001
 40
0.0
 40
0.0
 40
0.0
 40
0.0
 40
1.0
 40
1.0
 40
1.0
 40
1.0
 10
531.4383339883
 20
465.3348124318
 30
0.0
 10
531.7537349628
 20
465.5167115823
 30
0.0
 10
532.1002439539
 20
465.6513739569
 30
0.0
 10
532.4545097657
 20
465.7354025844
 30
0.0
  0
SPLINE
  5
317
100
AcDbEntity
  8
0
100
AcDbSpline
 62
7
  6
CONTINUOUS
 70
0
 71
3
 72
9
 73
5
 74
0
 42
0.0000001
 43
0.0000001
 44
0.0000000001
 40
0.0
 40
0.0
 40
0.0
 40
0.0
 40
0.2235949185
 40
1.0
 40
1.0
 40
1.0
 40
1.0
 10
532.8332039291
 20
465.806615274
 30
0.0
 10
533.1461470968
 20
465.8506600887
 30
0.0
 10
534.56938605
 20
465.890704949
 30
0.0
 10
535.9546981291
 20
465.3533285157
 30
0.0
 10
536.9069605619
 20
464.8079779267
 30
0.0
  0
SPLINE
  5
318
100
AcDbEntity
  8
0
100
AcDbSpline
 62
7
  6
CONTINUOUS
 70
0
 71
3
 72
9
 73
5
 74
0
 42
0.0000001
 43
0.0000001
 44
0.0000000001
 40
0.0
 40
0.0
 40
0.0
 40
0.0
 40
0.2301536295
 40
1.0
 40
1.0
 40
1.0
 40
1.0
 10
536.9069605619
 20
464.8079779267
 30
0.0
 10
537.3544557461
 20
464.5517021839
 30
0.0
 10
539.2141900125
 20
463.2918397175
 30
0.0
 10
540.7384424772
 20
461.5766413127
 30
0.0
 10
541.7073878347
 20
460.1495821365
 30
0.0
  0
SPLINE
  5
319
100
AcDbEntity
  8
0
100
AcDbSpline
 62
7
  6
CONTINUOUS
 70
0
 71
3
 72
8
 73
4
 74
0
 42
0.0000001
 43
0.0000001
 44
0.0000000001
 40
0.0
 40
0.0
 40
0.0
 40
0.0
 40
1.0
 40
1.0
 40
1.0
 40
1.0
 10
542.4039809972
 20
459.0432024731
 30
0.0
 10
543.2797673941
 20
457.5393138209
 30
0.0
 10
543.9655616397
 20
455.8977637182
 30
0.0
 10
544.361249715
 20
454.2030325189
 30
0.0
  0
SPLINE
  5
31A
100
AcDbEntity
  8
0
100
AcDbSpline
 62
7
  6
CONTINUOUS
 70
0
 71
3
 72
8
 73
4
 74
0
 42
0.0000001
 43
0.0000001
 44
0.0000000001
 40
0.0
 40
0.0
 40
0.0
 40
0.0
 40
1.0
 40
1.0
 40
1.0
 40
1.0
 10
544.361249715
 20
454.2030325189
 30
0.0
 10
544.5815564832
 20
453.2594590917
 30
0.0
 10
544.7164619605
 20
452.2869154632
 30
0.0
 10
544.7164619605
 20
451.3179645436
 30
0.0
  0
SPLINE
  5
31B
100
AcDbEntity
  8
0
100
AcDbSpline
 62
7
  6
CONTINUOUS
 70
0
 71
3
 72
9
 73
5
 74
0
 42
0.0000001
 43
0.0000001
 44
0.0000000001
 40
0.0
 40
0.0
 40
0.0
 40
0.0
 40
0.2234927795
 40
1.0
 40
1.0
 40
1.0
 40
1.0
 10
532.1029988575
 20
465.3881247823
 30
0.0
 10
531.9063249412
 20
465.1370294223
 30
0.0
 10
531.1537567161
 20
463.9118762086
 30
0.0
 10
530.9278076003
 20
462.4280391988
 30
0.0
 10
530.9278076003
 20
461.3198715278
 30
0.0
  0
SPLINE
  5
31C
100
AcDbEntity
  8
0
100
AcDbSpline
 62
7
  6
CONTINUOUS
 70
0
 71
3
 72
9
 73
5
 74
0
 42
0.0000001
 43
0.0000001
 44
0.0000000001
 40
0.0
 40
0.0
 40
0.0
 40
0.0
 40
0.2287872083
 40
1.0
 40
1.0
 40
1.0
 40
1.0
 10
1026.9651767521
 20
230.0525889851
 30
0.0
 10
1026.9651767521
 20
229.8014893841
 30
0.0
 10
1026.8667489653
 20
228.7046764765
 30
0.0
 10
1026.4563620713
 20
227.6494752477
 30
0.0
 10
1026.0331513081
 20
226.9164486344
 30
0.0
  0
SPLINE
  5
31D
100
AcDbEntity
  8
0
100
AcDbSpline
 62
7
  6
CONTINUOUS
 70
0
 71
3
 72
9
 73
5
 74
0
 42
0.0000001
 43
0.0000001
 44
0.0000000001
 40
0.0
 40
0.0
 40
0.0
 40
0.0
 40
0.2670409942
 40
1.0
 40
1.0
 40
1.0
 40
1.0
 10
1026.0331513081
 20
226.9164486344
 30
0.0
 10
1025.8866992081
 20
226.6627847482
 30
0.0
 10
1025.2862114939
 20
225.7469345236
 30
0.0
 10
1024.4794518341
 20
224.943202724
 30
0.0
 10
1023.7832094847
 20
224.5412294156
 30
0.0
  0
SPLINE
  5
31E
100
AcDbEntity
  8
0
100
AcDbSpline
 62
7
  6
CONTINUOUS
 70
0
 71
3
 72
8
 73
4
 74
0
 42
0.0000001
 43
0.0000001
 44
0.0000000001
 40
0.0
 40
0.0
 40
0.0
 40
0.0
 40
1.0
 40
1.0
 40
1.0
 40
1.0
 10
1026.0331225006
 20
232.1125421099
 30
0.0
 10
1026.1855619356
 20
232.0245331885
 30
0.0
 10
1026.3235878231
 20
231.9072928273
 30
0.0
 10
1026.4379711222
 20
231.7735026465
 30
0.0
  0
SPLINE
  5
31F
100
AcDbEntity
  8
0
100
AcDbSpline
 62
7
  6
CONTINUOUS
 70
0
 71
3
 72
9
 73
5
 74
0
 42
0.0000001
 43
0.0000001
 44
0.0000000001
 40
0.0
 40
0.0
 40
0.0
 40
0.0
 40
0.7172953053
 40
1.0
 40
1.0
 40
1.0
 40
1.0
 10
1026.4379711222
 20
231.7735026465
 30
0.0
 10
1026.7205714908
 20
231.4429547892
 30
0.0
 10
1026.9295239666
 20
230.8262357971
 30
0.0
 10
1026.9651767521
 20
230.2239884002
 30
0.0
 10
1026.9651767521
 20
230.0525889851
 30
0.0
  0
SPLINE
  5
320
100
AcDbEntity
  8
0
100
AcDbSpline
 62
7
  6
CONTINUOUS
 70
0
 71
3
 72
9
 73
5
 74
0
 42
0.0000001
 43
0.0000001
 44
0.0000000001
 40
0.0
 40
0.0
 40
0.0
 40
0.0
 40
0.2407181786
 40
1.0
 40
1.0
 40
1.0
 40
1.0
 10
1011.0287059857
 20
1716.3064822783
 30
0.0
 10
1010.476561678
 20
1715.9877035164
 30
0.0
 10
1008.4443112487
 20
1714.2719912208
 30
0.0
 10
1007.139634881
 20
1711.5813917075
 30
0.0
 10
1007.139634881
 20
1709.5703761378
 30
0.0
  0
SPLINE
  5
321
100
AcDbEntity
  8
0
100
AcDbSpline
 62
7
  6
CONTINUOUS
 70
0
 71
3
 72
12
 73
8
 74
0
 42
0.0000001
 43
0.0000001
 44
0.0000000001
 40
0.0
 40
0.0
 40
0.0
 40
0.0
 40
0.183390651
 40
0.4347336333
 40
0.5803243297
 40
0.7286902572
 40
1.0
 40
1.0
 40
1.0
 40
1.0
 10
1002.0594973251
 20
1691.4553945064
 30
0.0
 10
1000.9087099966
 20
1690.7917084232
 30
0.0
 10
997.3218675076
 20
1691.0006177279
 30
0.0
 10
993.9947581745
 20
1693.7486927197
 30
0.0
 10
991.5363692447
 20
1696.8530040482
 30
0.0
 10
989.5903318314
 20
1700.4642867459
 30
0.0
 10
988.7813693528
 20
1703.5069154886
 30
0.0
 10
988.7813693528
 20
1705.4722423946
 30
0.0
  0
SPLINE
  5
322
100
AcDbEntity
  8
0
100
AcDbSpline
 62
7
  6
CONTINUOUS
 70
0
 71
3
 72
8
 73
4
 74
0
 42
0.0000001
 43
0.0000001
 44
0.0000000001
 40
0.0
 40
0.0
 40
0.0
 40
0.0
 40
1.0
 40
1.0
 40
1.0
 40
1.0
 10
529.1600480073
 20
1970.8287328328
 30
0.0
 10
529.1600480073
 20
1971.471401793
 30
0.0
 10
529.2207662081
 20
1972.1193534722
 30
0.0
 10
529.3634726025
 20
1972.7459779828
 30
0.0
  0
SPLINE
  5
323
100
AcDbEntity
  8
0
100
AcDbSpline
 62
7
  6
CONTINUOUS
 70
0
 71
3
 72
9
 73
5
 74
0
 42
0.0000001
 43
0.0000001
 44
0.0000000001
 40
0.0
 40
0.0
 40
0.0
 40
0.0
 40
0.2790546337
 40
1.0
 40
1.0
 40
1.0
 40
1.0
 10
529.3634726025
 20
1972.7459779828
 30
0.0
 10
529.4420423174
 20
1973.0909780041
 30
0.0
 10
529.8029667403
 20
1974.3025154625
 30
0.0
 10
530.6464516562
 20
1975.40758698
 30
0.0
 10
531.4383339883
 20
1975.8642841215
 30
0.0
  0
SPLINE
  5
324
100
AcDbEntity
  8
0
100
AcDbSpline
 62
7
  6
CONTINUOUS
 70
0
 71
3
 72
8
 73
4
 74
0
 42
0.0000001
 43
0.0000001
 44
0.0000000001
 40
0.0
 40
0.0
 40
0.0
 40
0.0
 40
1.0
 40
1.0
 40
1.0
 40
1.0
 10
1026.0331225006
 20
1660.9917720867
 30
0.0
 10
1026.1855619356
 20
1660.9037631653
 30
0.0
 10
1026.3235878231
 20
1660.786522804
 30
0.0
 10
1026.4379711222
 20
1660.6527326232
 30
0.0
  0
SPLINE
  5
325
100
AcDbEntity
  8
0
100
AcDbSpline
 62
7
  6
CONTINUOUS
 70
0
 71
3
 72
9
 73
5
 74
0
 42
0.0000001
 43
0.0000001
 44
0.0000000001
 40
0.0
 40
0.0
 40
0.0
 40
0.0
 40
0.7172953053
 40
1.0
 40
1.0
 40
1.0
 40
1.0
 10
1026.4379711222
 20
1660.6527326232
 30
0.0
 10
1026.7205714908
 20
1660.3221847659
 30
0.0
 10
1026.9295239666
 20
1659.7054657739
 30
0.0
 10
1026.9651767521
 20
1659.1032183769
 30
0.0
 10
1026.9651767521
 20
1658.9318189619
 30
0.0
  0
SPLINE
  5
326
100
AcDbEntity
  8
0
100
AcDbSpline
 62
7
  6
CONTINUOUS
 70
0
 71
3
 72
9
 73
5
 74
0
 42
0.0000001
 43
0.0000001
 44
0.0000000001
 40
0.0
 40
0.0
 40
0.0
 40
0.0
 40
0.2945638788
 40
1.0
 40
1.0
 40
1.0
 40
1.0
 10
533.7562612208
 20
1927.3500470719
 30
0.0
 10
533.7562612208
 20
1927.5772726798
 30
0.0
 10
533.808107229
 20
1928.3382735677
 30
0.0
 10
534.2171277699
 20
1929.1377839368
 30
0.0
 10
534.688329339
 20
1929.4099810579
 30
0.0
  0
SPLINE
  5
327
100
AcDbEntity
  8
0
100
AcDbSpline
 62
7
  6
CONTINUOUS
 70
0
 71
3
 72
8
 73
4
 74
0
 42
0.0000001
 43
0.0000001
 44
0.0000000001
 40
0.0
 40
0.0
 40
0.0
 40
0.0
 40
1.0
 40
1.0
 40
1.0
 40
1.0
 10
529.1600480073
 20
460.2992611431
 30
0.0
 10
529.1600480073
 20
460.9419301032
 30
0.0
 10
529.2207662081
 20
461.5898817825
 30
0.0
 10
529.3634726025
 20
462.2165062931
 30
0.0
  0
SPLINE
  5
328
100
AcDbEntity
  8
0
100
AcDbSpline
 62
7
  6
CONTINUOUS
 70
0
 71
3
 72
9
 73
5
 74
0
 42
0.0000001
 43
0.0000001
 44
0.0000000001
 40
0.0
 40
0.0
 40
0.0
 40
0.0
 40
0.2790546337
 40
1.0
 40
1.0
 40
1.0
 40
1.0
 10
529.3634726025
 20
462.2165062931
 30
0.0
 10
529.4420423174
 20
462.5615063144
 30
0.0
 10
529.8029667403
 20
463.7730437727
 30
0.0
 10
530.6464516562
 20
464.8781152903
 30
0.0
 10
531.4383339883
 20
465.3348124318
 30
0.0
  0
SPLINE
  5
329
100
AcDbEntity
  8
0
100
AcDbSpline
 62
7
  6
CONTINUOUS
 70
0
 71
3
 72
9
 73
5
 74
0
 42
0.0000001
 43
0.0000001
 44
0.0000000001
 40
0.0
 40
0.0
 40
0.0
 40
0.0
 40
0.2099658218
 40
1.0
 40
1.0
 40
1.0
 40
1.0
 10
539.1881806288
 20
492.7367163185
 30
0.0
 10
538.9973202315
 20
492.6264627581
 30
0.0
 10
537.9543120955
 20
492.3169335347
 30
0.0
 10
536.8797210579
 20
492.9176001987
 30
0.0
 10
536.2433841902
 20
493.4494925531
 30
0.0
  0
SPLINE
  5
32A
100
AcDbEntity
  8
0
100
AcDbSpline
 62
7
  6
CONTINUOUS
 70
0
 71
3
 72
8
 73
4
 74
0
 42
0.0000001
 43
0.0000001
 44
0.0000000001
 40
0.0
 40
0.0
 40
0.0
 40
0.0
 40
1.0
 40
1.0
 40
1.0
 40
1.0
 10
536.2433841902
 20
493.4494925531
 30
0.0
 10
535.2550457005
 20
494.2756110964
 30
0.0
 10
534.5019249118
 20
495.4361311018
 30
0.0
 10
534.0849320873
 20
496.6549017128
 30
0.0
  0
SPLINE
  5
32B
100
AcDbEntity
  8
0
100
AcDbSpline
 62
7
  6
CONTINUOUS
 70
0
 71
3
 72
8
 73
4
 74
0
 42
0.0000001
 43
0.0000001
 44
0.0000000001
 40
0.0
 40
0.0
 40
0.0
 40
0.0
 40
1.0
 40
1.0
 40
1.0
 40
1.0
 10
534.0849320873
 20
496.6549017128
 30
0.0
 10
533.8857996689
 20
497.2369182966
 30
0.0
 10
533.7562612208
 20
497.8556772543
 30
0.0
 10
533.7562612208
 20
498.4708170952
 30
0.0
  0
SPLINE
  5
32C
100
AcDbEntity
  8
0
100
AcDbSpline
 62
7
  6
CONTINUOUS
 70
0
 71
3
 72
8
 73
4
 74
0
 42
0.0000001
 43
0.0000001
 44
0.0000000001
 40
0.0
 40
0.0
 40
0.0
 40
0.0
 40
1.0
 40
1.0
 40
1.0
 40
1.0
 10
1024.6189148262
 20
906.5435527683
 30
0.0
 10
1024.7713542612
 20
906.455543847
 30
0.0
 10
1024.9093801487
 20
906.3383034857
 30
0.0
 10
1025.0237634477
 20
906.2045133049
 30
0.0
  0
SPLINE
  5
32D
100
AcDbEntity
  8
0
100
AcDbSpline
 62
7
  6
CONTINUOUS
 70
0
 71
3
 72
9
 73
5
 74
0
 42
0.0000001
 43
0.0000001
 44
0.0000000001
 40
0.0
 40
0.0
 40
0.0
 40
0.0
 40
0.7172953053
 40
1.0
 40
1.0
 40
1.0
 40
1.0
 10
1025.0237634477
 20
906.2045133049
 30
0.0
 10
1025.3063638164
 20
905.8739654476
 30
0.0
 10
1025.5153162922
 20
905.2572464555
 30
0.0
 10
1025.5509690777
 20
904.6549990586
 30
0.0
 10
1025.5509690777
 20
904.4835996435
 30
0.0
  0
SPLINE
  5
32E
100
AcDbEntity
  8
0
100
AcDbSpline
 62
7
  6
CONTINUOUS
 70
0
 71
3
 72
9
 73
5
 74
0
 42
0.0000001
 43
0.0000001
 44
0.0000000001
 40
0.0
 40
0.0
 40
0.0
 40
0.0
 40
0.2945638788
 40
1.0
 40
1.0
 40
1.0
 40
1.0
 10
993.3775825663
 20
1661.9935566337
 30
0.0
 10
993.3775825663
 20
1662.2207822416
 30
0.0
 10
993.4294285746
 20
1662.9817831295
 30
0.0
 10
993.8384491155
 20
1663.7812934986
 30
0.0
 10
994.3096506845
 20
1664.0534906197
 30
0.0
  0
SPLINE
  5
32F
100
AcDbEntity
  8
0
100
AcDbSpline
 62
7
  6
CONTINUOUS
 70
0
 71
3
 72
9
 73
5
 74
0
 42
0.0000001
 43
0.0000001
 44
0.0000000001
 40
0.0
 40
0.0
 40
0.0
 40
0.0
 40
0.2945638788
 40
1.0
 40
1.0
 40
1.0
 40
1.0
 10
533.7562612208
 20
498.4708170952
 30
0.0
 10
533.7562612208
 20
498.698042703
 30
0.0
 10
533.808107229
 20
499.459043591
 30
0.0
 10
534.2171277699
 20
500.2585539601
 30
0.0
 10
534.688329339
 20
500.5307510811
 30
0.0
  0
SPLINE
  5
330
100
AcDbEntity
  8
0
100
AcDbSpline
 62
7
  6
CONTINUOUS
 70
0
 71
3
 72
8
 73
4
 74
0
 42
0.0000001
 43
0.0000001
 44
0.0000000001
 40
0.0
 40
0.0
 40
0.0
 40
0.0
 40
1.0
 40
1.0
 40
1.0
 40
1.0
 10
1010.7778736852
 20
1707.559881744
 30
0.0
 10
1010.5960708956
 20
1708.0504597001
 30
0.0
 10
1010.4611264134
 20
1708.5628702635
 30
0.0
 10
1010.3937408711
 20
1709.0816941007
 30
0.0
  0
SPLINE
  5
331
100
AcDbEntity
  8
0
100
AcDbSpline
 62
7
  6
CONTINUOUS
 70
0
 71
3
 72
8
 73
4
 74
0
 42
0.0000001
 43
0.0000001
 44
0.0000000001
 40
0.0
 40
0.0
 40
0.0
 40
0.0
 40
1.0
 40
1.0
 40
1.0
 40
1.0
 10
1010.3937408711
 20
1709.0816941007
 30
0.0
 10
1010.3646058031
 20
1709.3060147376
 30
0.0
 10
1010.3480717155
 20
1709.5325651936
 30
0.0
 10
1010.3480717155
 20
1709.7587699688
 30
0.0
  0
SPLINE
  5
332
100
AcDbEntity
  8
0
100
AcDbSpline
 62
7
  6
CONTINUOUS
 70
0
 71
3
 72
8
 73
4
 74
0
 42
0.0000001
 43
0.0000001
 44
0.0000000001
 40
0.0
 40
0.0
 40
0.0
 40
0.0
 40
1.0
 40
1.0
 40
1.0
 40
1.0
 10
1026.0331225006
 20
987.3772779548
 30
0.0
 10
1026.1855619356
 20
987.2892690334
 30
0.0
 10
1026.3235878231
 20
987.1720286721
 30
0.0
 10
1026.4379711222
 20
987.0382384913
 30
0.0
  0
SPLINE
  5
333
100
AcDbEntity
  8
0
100
AcDbSpline
 62
7
  6
CONTINUOUS
 70
0
 71
3
 72
9
 73
5
 74
0
 42
0.0000001
 43
0.0000001
 44
0.0000000001
 40
0.0
 40
0.0
 40
0.0
 40
0.0
 40
0.7172953053
 40
1.0
 40
1.0
 40
1.0
 40
1.0
 10
1026.4379711222
 20
987.0382384913
 30
0.0
 10
1026.7205714908
 20
986.707690634
 30
0.0
 10
1026.9295239666
 20
986.090971642
 30
0.0
 10
1026.9651767521
 20
985.488724245
 30
0.0
 10
1026.9651767521
 20
985.31732483
 30
0.0
  0
SPLINE
  5
334
100
AcDbEntity
  8
0
100
AcDbSpline
 62
7
  6
CONTINUOUS
 70
0
 71
3
 72
9
 73
5
 74
0
 42
0.0000001
 43
0.0000001
 44
0.0000000001
 40
0.0
 40
0.0
 40
0.0
 40
0.0
 40
0.4916358998
 40
1.0
 40
1.0
 40
1.0
 40
1.0
 10
525.4526290222
 20
1988.352727626
 30
0.0
 10
525.4526289841
 20
1988.4279232768
 30
0.0
 10
525.4701353017
 20
1988.5813432752
 30
0.0
 10
525.520921979
 20
1988.72698244
 30
0.0
 10
525.5536599865
 20
1988.7975086243
 30
0.0
  0
SPLINE
  5
335
100
AcDbEntity
  8
0
100
AcDbSpline
 62
7
  6
CONTINUOUS
 70
0
 71
3
 72
8
 73
4
 74
0
 42
0.0000001
 43
0.0000001
 44
0.0000000001
 40
0.0
 40
0.0
 40
0.0
 40
0.0
 40
1.0
 40
1.0
 40
1.0
 40
1.0
 10
525.5536599865
 20
1988.7975086243
 30
0.0
 10
525.7082637996
 20
1989.1305654545
 30
0.0
 10
526.0135795609
 20
1989.3938551704
 30
0.0
 10
526.3315767231
 20
1989.5774498217
 30
0.0
  0
SPLINE
  5
336
100
AcDbEntity
  8
0
100
AcDbSpline
 62
7
  6
CONTINUOUS
 70
0
 71
3
 72
9
 73
5
 74
0
 42
0.0000001
 43
0.0000001
 44
0.0000000001
 40
0.0
 40
0.0
 40
0.0
 40
0.0
 40
0.2099658218
 40
1.0
 40
1.0
 40
1.0
 40
1.0
 10
539.1881806288
 20
1921.6159462953
 30
0.0
 10
538.9973202315
 20
1921.5056927349
 30
0.0
 10
537.9543120955
 20
1921.1961635115
 30
0.0
 10
536.8797210579
 20
1921.7968301755
 30
0.0
 10
536.2433841902
 20
1922.3287225298
 30
0.0
  0
SPLINE
  5
337
100
AcDbEntity
  8
0
100
AcDbSpline
 62
7
  6
CONTINUOUS
 70
0
 71
3
 72
8
 73
4
 74
0
 42
0.0000001
 43
0.0000001
 44
0.0000000001
 40
0.0
 40
0.0
 40
0.0
 40
0.0
 40
1.0
 40
1.0
 40
1.0
 40
1.0
 10
536.2433841902
 20
1922.3287225298
 30
0.0
 10
535.2550457005
 20
1923.1548410732
 30
0.0
 10
534.5019249118
 20
1924.3153610785
 30
0.0
 10
534.0849320873
 20
1925.5341316896
 30
0.0
  0
SPLINE
  5
338
100
AcDbEntity
  8
0
100
AcDbSpline
 62
7
  6
CONTINUOUS
 70
0
 71
3
 72
8
 73
4
 74
0
 42
0.0000001
 43
0.0000001
 44
0.0000000001
 40
0.0
 40
0.0
 40
0.0
 40
0.0
 40
1.0
 40
1.0
 40
1.0
 40
1.0
 10
534.0849320873
 20
1925.5341316896
 30
0.0
 10
533.8857996689
 20
1926.1161482733
 30
0.0
 10
533.7562612208
 20
1926.7349072311
 30
0.0
 10
533.7562612208
 20
1927.3500470719
 30
0.0
  0
SPLINE
  5
339
100
AcDbEntity
  8
0
100
AcDbSpline
 62
7
  6
CONTINUOUS
 70
0
 71
3
 72
8
 73
4
 74
0
 42
0.0000001
 43
0.0000001
 44
0.0000000001
 40
0.0
 40
0.0
 40
0.0
 40
0.0
 40
1.0
 40
1.0
 40
1.0
 40
1.0
 10
988.7813693528
 20
1705.4722423946
 30
0.0
 10
988.7813693528
 20
1706.1149113548
 30
0.0
 10
988.8420875536
 20
1706.762863034
 30
0.0
 10
988.9847939481
 20
1707.3894875446
 30
0.0
  0
SPLINE
  5
33A
100
AcDbEntity
  8
0
100
AcDbSpline
 62
7
  6
CONTINUOUS
 70
0
 71
3
 72
9
 73
5
 74
0
 42
0.0000001
 43
0.0000001
 44
0.0000000001
 40
0.0
 40
0.0
 40
0.0
 40
0.0
 40
0.2790546337
 40
1.0
 40
1.0
 40
1.0
 40
1.0
 10
988.9847939481
 20
1707.3894875446
 30
0.0
 10
989.0633636629
 20
1707.7344875659
 30
0.0
 10
989.4242880858
 20
1708.9460250243
 30
0.0
 10
990.2677730017
 20
1710.0510965418
 30
0.0
 10
991.0596553339
 20
1710.5077936833
 30
0.0
  0
SPLINE
  5
33B
100
AcDbEntity
  8
0
100
AcDbSpline
 62
7
  6
CONTINUOUS
 70
0
 71
3
 72
9
 73
5
 74
0
 42
0.0000001
 43
0.0000001
 44
0.0000000001
 40
0.0
 40
0.0
 40
0.0
 40
0.0
 40
0.2939127527
 40
1.0
 40
1.0
 40
1.0
 40
1.0
 10
1026.2580405313
 20
1716.4644496352
 30
0.0
 10
1026.3889288038
 20
1716.3888829654
 30
0.0
 10
1026.8103164018
 20
1716.1045508257
 30
0.0
 10
1027.137005712
 20
1715.6028015022
 30
0.0
 10
1027.137005896
 20
1715.2397171058
 30
0.0
  0
SPLINE
  5
33C
100
AcDbEntity
  8
0
100
AcDbSpline
 62
7
  6
CONTINUOUS
 70
0
 71
3
 72
9
 73
5
 74
0
 42
0.0000001
 43
0.0000001
 44
0.0000000001
 40
0.0
 40
0.0
 40
0.0
 40
0.0
 40
0.293909939
 40
1.0
 40
1.0
 40
1.0
 40
1.0
 10
1011.0287059857
 20
169.4426530263
 30
0.0
 10
1010.8978213992
 20
169.3670872261
 30
0.0
 10
1010.4408914908
 20
169.1443301099
 30
0.0
 10
1009.8430318429
 20
169.1122925596
 30
0.0
 10
1009.528592944
 20
169.2938296219
 30
0.0
  0
SPLINE
  5
33D
100
AcDbEntity
  8
0
100
AcDbSpline
 62
7
  6
CONTINUOUS
 70
0
 71
3
 72
9
 73
5
 74
0
 42
0.0000001
 43
0.0000001
 44
0.0000000001
 40
0.0
 40
0.0
 40
0.0
 40
0.0
 40
0.2099658218
 40
1.0
 40
1.0
 40
1.0
 40
1.0
 10
998.8095019744
 20
227.3802258803
 30
0.0
 10
998.618641577
 20
227.2699723199
 30
0.0
 10
997.5756334411
 20
226.9604430965
 30
0.0
 10
996.5010424034
 20
227.5611097605
 30
0.0
 10
995.8647055358
 20
228.0930021149
 30
0.0
  0
SPLINE
  5
33E
100
AcDbEntity
  8
0
100
AcDbSpline
 62
7
  6
CONTINUOUS
 70
0
 71
3
 72
8
 73
4
 74
0
 42
0.0000001
 43
0.0000001
 44
0.0000000001
 40
0.0
 40
0.0
 40
0.0
 40
0.0
 40
1.0
 40
1.0
 40
1.0
 40
1.0
 10
995.8647055358
 20
228.0930021149
 30
0.0
 10
994.876367046
 20
228.9191206582
 30
0.0
 10
994.1232462573
 20
230.0796406636
 30
0.0
 10
993.7062534328
 20
231.2984112746
 30
0.0
  0
SPLINE
  5
33F
100
AcDbEntity
  8
0
100
AcDbSpline
 62
7
  6
CONTINUOUS
 70
0
 71
3
 72
8
 73
4
 74
0
 42
0.0000001
 43
0.0000001
 44
0.0000000001
 40
0.0
 40
0.0
 40
0.0
 40
0.0
 40
1.0
 40
1.0
 40
1.0
 40
1.0
 10
993.7062534328
 20
231.2984112746
 30
0.0
 10
993.5071210145
 20
231.8804278584
 30
0.0
 10
993.3775825663
 20
232.4991868161
 30
0.0
 10
993.3775825663
 20
233.114326657
 30
0.0
  0
SPLINE
  5
340
100
AcDbEntity
  8
0
100
AcDbSpline
 62
7
  6
CONTINUOUS
 70
0
 71
3
 72
9
 73
5
 74
0
 42
0.0000001
 43
0.0000001
 44
0.0000000001
 40
0.0
 40
0.0
 40
0.0
 40
0.0
 40
0.2945638788
 40
1.0
 40
1.0
 40
1.0
 40
1.0
 10
993.3775825663
 20
233.114326657
 30
0.0
 10
993.3775825663
 20
233.3415522648
 30
0.0
 10
993.4294285746
 20
234.1025531528
 30
0.0
 10
993.8384491155
 20
234.9020635219
 30
0.0
 10
994.3096506845
 20
235.1742606429
 30
0.0
  0
SPLINE
  5
341
100
AcDbEntity
  8
0
100
AcDbSpline
 62
7
  6
CONTINUOUS
 70
0
 71
3
 72
8
 73
4
 74
0
 42
0.0000001
 43
0.0000001
 44
0.0000000001
 40
0.0
 40
0.0
 40
0.0
 40
0.0
 40
1.0
 40
1.0
 40
1.0
 40
1.0
 10
988.7813693528
 20
194.9427707049
 30
0.0
 10
988.7813693528
 20
195.585439665
 30
0.0
 10
988.8420875536
 20
196.2333913443
 30
0.0
 10
988.9847939481
 20
196.8600158549
 30
0.0
  0
SPLINE
  5
342
100
AcDbEntity
  8
0
100
AcDbSpline
 62
7
  6
CONTINUOUS
 70
0
 71
3
 72
9
 73
5
 74
0
 42
0.0000001
 43
0.0000001
 44
0.0000000001
 40
0.0
 40
0.0
 40
0.0
 40
0.0
 40
0.2790546337
 40
1.0
 40
1.0
 40
1.0
 40
1.0
 10
988.9847939481
 20
196.8600158549
 30
0.0
 10
989.0633636629
 20
197.2050158762
 30
0.0
 10
989.4242880858
 20
198.4165533345
 30
0.0
 10
990.2677730017
 20
199.5216248521
 30
0.0
 10
991.0596553339
 20
199.9783219936
 30
0.0
  0
SPLINE
  5
343
100
AcDbEntity
  8
0
100
AcDbSpline
 62
7
  6
CONTINUOUS
 70
0
 71
3
 72
9
 73
5
 74
0
 42
0.0000001
 43
0.0000001
 44
0.0000000001
 40
0.0
 40
0.0
 40
0.0
 40
0.0
 40
0.2099658218
 40
1.0
 40
1.0
 40
1.0
 40
1.0
 10
998.8095019744
 20
1656.2594558571
 30
0.0
 10
998.618641577
 20
1656.1492022967
 30
0.0
 10
997.5756334411
 20
1655.8396730733
 30
0.0
 10
996.5010424034
 20
1656.4403397373
 30
0.0
 10
995.8647055358
 20
1656.9722320916
 30
0.0
  0
SPLINE
  5
344
100
AcDbEntity
  8
0
100
AcDbSpline
 62
7
  6
CONTINUOUS
 70
0
 71
3
 72
8
 73
4
 74
0
 42
0.0000001
 43
0.0000001
 44
0.0000000001
 40
0.0
 40
0.0
 40
0.0
 40
0.0
 40
1.0
 40
1.0
 40
1.0
 40
1.0
 10
995.8647055358
 20
1656.9722320916
 30
0.0
 10
994.876367046
 20
1657.798350635
 30
0.0
 10
994.1232462573
 20
1658.9588706403
 30
0.0
 10
993.7062534328
 20
1660.1776412514
 30
0.0
  0
SPLINE
  5
345
100
AcDbEntity
  8
0
100
AcDbSpline
 62
7
  6
CONTINUOUS
 70
0
 71
3
 72
8
 73
4
 74
0
 42
0.0000001
 43
0.0000001
 44
0.0000000001
 40
0.0
 40
0.0
 40
0.0
 40
0.0
 40
1.0
 40
1.0
 40
1.0
 40
1.0
 10
993.7062534328
 20
1660.1776412514
 30
0.0
 10
993.5071210145
 20
1660.7596578351
 30
0.0
 10
993.3775825663
 20
1661.3784167929
 30
0.0
 10
993.3775825663
 20
1661.9935566337
 30
0.0
  0
SPLINE
  5
346
100
AcDbEntity
  8
0
100
AcDbSpline
 62
7
  6
CONTINUOUS
 70
0
 71
3
 72
12
 73
8
 74
0
 42
0.0000001
 43
0.0000001
 44
0.0000000001
 40
0.0
 40
0.0
 40
0.0
 40
0.0
 40
0.183390651
 40
0.4347336333
 40
0.5803243297
 40
0.7286902572
 40
1.0
 40
1.0
 40
1.0
 40
1.0
 10
542.4381759795
 20
1956.8118849446
 30
0.0
 10
541.2873886511
 20
1956.1481988614
 30
0.0
 10
537.7005461621
 20
1956.3571081661
 30
0.0
 10
534.373436829
 20
1959.1051831579
 30
0.0
 10
531.9150478991
 20
1962.2094944864
 30
0.0
 10
529.9690104858
 20
1965.8207771841
 30
0.0
 10
529.1600480073
 20
1968.8634059268
 30
0.0
 10
529.1600480073
 20
1970.8287328328
 30
0.0
  0
SPLINE
  5
347
100
AcDbEntity
  8
0
100
AcDbSpline
 62
7
  6
CONTINUOUS
 70
0
 71
3
 72
9
 73
5
 74
0
 42
0.0000001
 43
0.0000001
 44
0.0000000001
 40
0.0
 40
0.0
 40
0.0
 40
0.0
 40
0.2407194189
 40
1.0
 40
1.0
 40
1.0
 40
1.0
 10
1008.9339965195
 20
1706.4624678654
 30
0.0
 10
1009.4861455225
 20
1706.1436917016
 30
0.0
 10
1011.9881236898
 20
1705.2415890323
 30
0.0
 10
1014.9705822021
 20
1705.4569857376
 30
0.0
 10
1016.7121711125
 20
1706.4624865618
 30
0.0
  0
SPLINE
  5
348
100
AcDbEntity
  8
0
100
AcDbSpline
 62
7
  6
CONTINUOUS
 70
0
 71
3
 72
12
 73
8
 74
0
 42
0.0000001
 43
0.0000001
 44
0.0000000001
 40
0.0
 40
0.0
 40
0.0
 40
0.0
 40
0.183390651
 40
0.4347336333
 40
0.5803243297
 40
0.7286902572
 40
1.0
 40
1.0
 40
1.0
 40
1.0
 10
1002.0594973251
 20
180.9259228167
 30
0.0
 10
1000.9087099966
 20
180.2622367335
 30
0.0
 10
997.3218675076
 20
180.4711460382
 30
0.0
 10
993.9947581745
 20
183.21922103
 30
0.0
 10
991.5363692447
 20
186.3235323585
 30
0.0
 10
989.5903318314
 20
189.9348150562
 30
0.0
 10
988.7813693528
 20
192.9774437989
 30
0.0
 10
988.7813693528
 20
194.9427707049
 30
0.0
  0
SPLINE
  5
349
100
AcDbEntity
  8
0
100
AcDbSpline
 62
7
  6
CONTINUOUS
 70
0
 71
3
 72
12
 73
8
 74
0
 42
0.0000001
 43
0.0000001
 44
0.0000000001
 40
0.0
 40
0.0
 40
0.0
 40
0.0
 40
0.183390651
 40
0.4347336333
 40
0.5803243297
 40
0.7286902572
 40
1.0
 40
1.0
 40
1.0
 40
1.0
 10
542.4381759795
 20
446.2824132549
 30
0.0
 10
541.2873886511
 20
445.6187271716
 30
0.0
 10
537.7005461621
 20
445.8276364764
 30
0.0
 10
534.373436829
 20
448.5757114682
 30
0.0
 10
531.9150478991
 20
451.6800227967
 30
0.0
 10
529.9690104858
 20
455.2913054944
 30
0.0
 10
529.1600480073
 20
458.3339342371
 30
0.0
 10
529.1600480073
 20
460.2992611431
 30
0.0
  0
SPLINE
  5
34A
100
AcDbEntity
  8
0
100
AcDbSpline
 62
7
  6
CONTINUOUS
 70
0
 71
3
 72
9
 73
5
 74
0
 42
0.0000001
 43
0.0000001
 44
0.0000000001
 40
0.0
 40
0.0
 40
0.0
 40
0.0
 40
0.2827054569
 40
1.0
 40
1.0
 40
1.0
 40
1.0
 10
1020.9547941358
 20
978.172988645
 30
0.0
 10
1020.8063572833
 20
978.0872890998
 30
0.0
 10
1020.2669684561
 20
977.8170440891
 30
0.0
 10
1019.6283911899
 20
977.6896544496
 30
0.0
 10
1019.2008316246
 20
977.7691354389
 30
0.0
  0
SPLINE
  5
34B
100
AcDbEntity
  8
0
100
AcDbSpline
 62
7
  6
CONTINUOUS
 70
0
 71
3
 72
8
 73
4
 74
0
 42
0.0000001
 43
0.0000001
 44
0.0000000001
 40
0.0
 40
0.0
 40
0.0
 40
0.0
 40
1.0
 40
1.0
 40
1.0
 40
1.0
 10
1019.2008316246
 20
977.7691354389
 30
0.0
 10
1019.0278064222
 20
977.8012998796
 30
0.0
 10
1018.8572932962
 20
977.8622045208
 30
0.0
 10
1018.7048811198
 20
977.9501977048
 30
0.0
  0
SPLINE
  5
34C
100
AcDbEntity
  8
0
100
AcDbSpline
 62
7
  6
CONTINUOUS
 70
0
 71
3
 72
9
 73
5
 74
0
 42
0.0000001
 43
0.0000001
 44
0.0000000001
 40
0.0
 40
0.0
 40
0.0
 40
0.0
 40
0.2287872083
 40
1.0
 40
1.0
 40
1.0
 40
1.0
 10
1026.9651767521
 20
985.31732483
 30
0.0
 10
1026.9651767521
 20
985.066225229
 30
0.0
 10
1026.8667489653
 20
983.9694123214
 30
0.0
 10
1026.4563620713
 20
982.9142110926
 30
0.0
 10
1026.0331513081
 20
982.1811844792
 30
0.0
  0
SPLINE
  5
34D
100
AcDbEntity
  8
0
100
AcDbSpline
 62
7
  6
CONTINUOUS
 70
0
 71
3
 72
9
 73
5
 74
0
 42
0.0000001
 43
0.0000001
 44
0.0000000001
 40
0.0
 40
0.0
 40
0.0
 40
0.0
 40
0.2670409942
 40
1.0
 40
1.0
 40
1.0
 40
1.0
 10
1026.0331513081
 20
982.1811844792
 30
0.0
 10
1025.8866992081
 20
981.9275205931
 30
0.0
 10
1025.2862114939
 20
981.0116703684
 30
0.0
 10
1024.4794518341
 20
980.2079385689
 30
0.0
 10
1023.7832094847
 20
979.8059652604
 30
0.0
  0
SPLINE
  5
34E
100
AcDbEntity
  8
0
100
AcDbSpline
 62
7
  6
CONTINUOUS
 70
0
 71
3
 72
9
 73
5
 74
0
 42
0.0000001
 43
0.0000001
 44
0.0000000001
 40
0.0
 40
0.0
 40
0.0
 40
0.0
 40
0.2287872083
 40
1.0
 40
1.0
 40
1.0
 40
1.0
 10
1025.5509690777
 20
901.217589975
 30
0.0
 10
1025.5509690777
 20
900.966490374
 30
0.0
 10
1025.4525412908
 20
899.8696774664
 30
0.0
 10
1025.0421543969
 20
898.8144762376
 30
0.0
 10
1024.6189436337
 20
898.0814496243
 30
0.0
  0
SPLINE
  5
34F
100
AcDbEntity
  8
0
100
AcDbSpline
 62
7
  6
CONTINUOUS
 70
0
 71
3
 72
9
 73
5
 74
0
 42
0.0000001
 43
0.0000001
 44
0.0000000001
 40
0.0
 40
0.0
 40
0.0
 40
0.0
 40
0.2670409942
 40
1.0
 40
1.0
 40
1.0
 40
1.0
 10
1024.6189436337
 20
898.0814496243
 30
0.0
 10
1024.4724915337
 20
897.8277857381
 30
0.0
 10
1023.8720038195
 20
896.9119355135
 30
0.0
 10
1023.0652441597
 20
896.1082037139
 30
0.0
 10
1022.3690018102
 20
895.7062304055
 30
0.0
  0
SPLINE
  5
350
100
AcDbEntity
  8
0
100
AcDbSpline
 62
7
  6
CONTINUOUS
 70
0
 71
3
 72
9
 73
5
 74
0
 42
0.0000001
 43
0.0000001
 44
0.0000000001
 40
0.0
 40
0.0
 40
0.0
 40
0.0
 40
0.2827054569
 40
1.0
 40
1.0
 40
1.0
 40
1.0
 10
1022.3690018102
 20
895.7062304055
 30
0.0
 10
1022.2205649577
 20
895.6205308603
 30
0.0
 10
1021.6811761305
 20
895.3502858496
 30
0.0
 10
1021.0425988643
 20
895.2228962101
 30
0.0
 10
1020.6150392991
 20
895.3023771994
 30
0.0
  0
SPLINE
  5
351
100
AcDbEntity
  8
0
100
AcDbSpline
 62
7
  6
CONTINUOUS
 70
0
 71
3
 72
8
 73
4
 74
0
 42
0.0000001
 43
0.0000001
 44
0.0000000001
 40
0.0
 40
0.0
 40
0.0
 40
0.0
 40
1.0
 40
1.0
 40
1.0
 40
1.0
 10
1020.6150392991
 20
895.3023771994
 30
0.0
 10
1020.4420140966
 20
895.3345416401
 30
0.0
 10
1020.2715009706
 20
895.3954462814
 30
0.0
 10
1020.1190887943
 20
895.4834394653
 30
0.0
  0
SPLINE
  5
352
100
AcDbEntity
  8
0
100
AcDbSpline
 62
7
  6
CONTINUOUS
 70
0
 71
3
 72
9
 73
5
 74
0
 42
0.0000001
 43
0.0000001
 44
0.0000000001
 40
0.0
 40
0.0
 40
0.0
 40
0.0
 40
0.2827054569
 40
1.0
 40
1.0
 40
1.0
 40
1.0
 10
1020.9547941358
 20
1651.7874827769
 30
0.0
 10
1020.8063572833
 20
1651.7017832317
 30
0.0
 10
1020.2669684561
 20
1651.431538221
 30
0.0
 10
1019.6283911899
 20
1651.3041485815
 30
0.0
 10
1019.2008316246
 20
1651.3836295708
 30
0.0
  0
SPLINE
  5
353
100
AcDbEntity
  8
0
100
AcDbSpline
 62
7
  6
CONTINUOUS
 70
0
 71
3
 72
8
 73
4
 74
0
 42
0.0000001
 43
0.0000001
 44
0.0000000001
 40
0.0
 40
0.0
 40
0.0
 40
0.0
 40
1.0
 40
1.0
 40
1.0
 40
1.0
 10
1019.2008316246
 20
1651.3836295708
 30
0.0
 10
1019.0278064222
 20
1651.4157940115
 30
0.0
 10
1018.8572932962
 20
1651.4766986527
 30
0.0
 10
1018.7048811198
 20
1651.5646918367
 30
0.0
  0
SPLINE
  5
354
100
AcDbEntity
  8
0
100
AcDbSpline
 62
7
  6
CONTINUOUS
 70
0
 71
3
 72
9
 73
5
 74
0
 42
0.0000001
 43
0.0000001
 44
0.0000000001
 40
0.0
 40
0.0
 40
0.0
 40
0.0
 40
0.2287872083
 40
1.0
 40
1.0
 40
1.0
 40
1.0
 10
1026.9651767521
 20
1658.9318189619
 30
0.0
 10
1026.9651767521
 20
1658.6807193609
 30
0.0
 10
1026.8667489653
 20
1657.5839064533
 30
0.0
 10
1026.4563620713
 20
1656.5287052245
 30
0.0
 10
1026.0331513081
 20
1655.7956786112
 30
0.0
  0
SPLINE
  5
355
100
AcDbEntity
  8
0
100
AcDbSpline
 62
7
  6
CONTINUOUS
 70
0
 71
3
 72
9
 73
5
 74
0
 42
0.0000001
 43
0.0000001
 44
0.0000000001
 40
0.0
 40
0.0
 40
0.0
 40
0.0
 40
0.2670409942
 40
1.0
 40
1.0
 40
1.0
 40
1.0
 10
1026.0331513081
 20
1655.7956786112
 30
0.0
 10
1025.8866992081
 20
1655.542014725
 30
0.0
 10
1025.2862114939
 20
1654.6261645003
 30
0.0
 10
1024.4794518341
 20
1653.8224327008
 30
0.0
 10
1023.7832094847
 20
1653.4204593923
 30
0.0
  0
SPLINE
  5
356
100
AcDbEntity
  8
0
100
AcDbSpline
 62
7
  6
CONTINUOUS
 70
0
 71
3
 72
9
 73
5
 74
0
 42
0.0000001
 43
0.0000001
 44
0.0000000001
 40
0.0
 40
0.0
 40
0.0
 40
0.0
 40
0.2827054569
 40
1.0
 40
1.0
 40
1.0
 40
1.0
 10
1020.9547941358
 20
222.9082528001
 30
0.0
 10
1020.8063572833
 20
222.8225532549
 30
0.0
 10
1020.2669684561
 20
222.5523082442
 30
0.0
 10
1019.6283911899
 20
222.4249186048
 30
0.0
 10
1019.2008316246
 20
222.504399594
 30
0.0
  0
SPLINE
  5
357
100
AcDbEntity
  8
0
100
AcDbSpline
 62
7
  6
CONTINUOUS
 70
0
 71
3
 72
8
 73
4
 74
0
 42
0.0000001
 43
0.0000001
 44
0.0000000001
 40
0.0
 40
0.0
 40
0.0
 40
0.0
 40
1.0
 40
1.0
 40
1.0
 40
1.0
 10
1019.2008316246
 20
222.504399594
 30
0.0
 10
1019.0278064222
 20
222.5365640347
 30
0.0
 10
1018.8572932962
 20
222.597468676
 30
0.0
 10
1018.7048811198
 20
222.6854618599
 30
0.0
  0
ENDSEC
  0
SECTION
  2
OBJECTS
  0
DICTIONARY
  5
C
100
AcDbDictionary
280
0
281
1
  3
ACAD_GROUP
350
D
  3
ACAD_MLINESTYLE
350
17
  3
ACAD_LAYOUT
350
1A
  3
ACAD_PLOTSETTINGS
350
19
  3
ACAD_PLOTSTYLENAME
350
E
  0
DICTIONARY
  5
D
102
{ACAD_REACTORS
330
C
102
}
100
AcDbDictionary
280
0
281
1
  0
ACDBDICTIONARYWDFLT
  5
E
102
{ACAD_REACTORS
330
C
102
}
100
AcDbDictionary
281
1
  3
Normal
350
F
100
AcDbDictionaryWithDefault
340
F
  0
DICTIONARY
  5
17
102
{ACAD_REACTORS
330
C
102
}
100
AcDbDictionary
280
0
281
1
  3
Standard
350
18
  0
DICTIONARY
  5
19
102
{ACAD_REACTORS
330
C
102
}
100
AcDbDictionary
281
1
  0
DICTIONARY
  5
1A
102
{ACAD_REACTORS
330
C
102
}
100
AcDbDictionary
281
1
  3
Model
350
358
  3
Layout1
350
359
  0
ACDBPLACEHOLDER
  5
F
102
{ACAD_REACTORS
330
E
102
}
  0
MLINESTYLE
  5
18
102
{ACAD_REACTORS
330
17
102
}
100
AcDbMlineStyle
  2
STANDARD
 70
0
  3

 62
256
 51
90.0
 52
90.0
 71
2
 49
0.5
 62
256
  6
BYLAYER
 49
-0.5
 62
256
  6
BYLAYER
  0
LAYOUT
  5
358
102
{ACAD_REACTORS
330
1A
102
}
100
AcDbPlotSettings
  1

  2
none_device
  4

  6

 40
0.0
 41
0.0
 42
0.0
 43
0.0
 44
210.0
 45
297.0
 46
0.0
 47
0.0
 48
0.0
 49
0.0
140
0.0
141
0.0
142
1.0
143
1.0
 70
1024
 72
1
 73
0
 74
0
  7

 75
0
147
1.0
148
0.0
149
0.0
100
AcDbLayout
  1
Model
 70
0
 71
0
 10
0.0
 20
0.0
 11
210.0
 21
297.0
 12
0.0
 22
0.0
 32
0.0
 14
0.0
 24
0.0
 34
0.0
 15
0.0
 25
0.0
 35
0.0
146
0.0
 13
0.0
 23
0.0
 33
0.0
 16
1.0
 26
0.0
 36
0.0
 17
0.0
 27
1.0
 37
0.0
 76
0
330
210
345
0
346
0
  0
LAYOUT
  5
359
102
{ACAD_REACTORS
330
1A
102
}
100
AcDbPlotSettings
  1

  2
none_device
  4

  6

 40
0.0
 41
0.0
 42
0.0
 43
0.0
 44
210.0
 45
297.0
 46
0.0
 47
0.0
 48
0.0
 49
0.0
140
0.0
141
0.0
142
1.0
143
1.0
 70
0
 72
1
 73
0
 74
0
  7

 75
0
147
1.0
148
0.0
149
0.0
100
AcDbLayout
  1
Layout1
 70
0
 71
1
 10
0.0
 20
0.0
 11
210.0
 21
297.0
 12
0.0
 22
0.0
 32
0.0
 14
0.0
 24
0.0
 34
0.0
 15
0.0
 25
0.0
 35
0.0
146
0.0
 13
0.0
 23
0.0
 33
0.0
 16
1.0
 26
0.0
 36
0.0
 17
0.0
 27
1.0
 37
0.0
 76
0
330
211
345
0
346
0
  0
ENDSEC
  0
EOF
