999
DXF file: C:\Users\sesa63760\Dev\_Creo\CAD\MCADFD0001775_3D-CAD\drw0001_1.dxf
999
Pro/ENGINEER 2019471 by Parametric Technology Corporation
  0
SECTION
  2
HEADER
  9
$ACADVER
  1
AC1024
  9
$DWGCODEPAGE
  3
ANSI_1252
  9
$EXTMAX
 10
30.0657350607
 20
42.5215395858
 30
0.0
  9
$EXTMIN
 10
0.0
 20
0.0
 30
0.0
  9
$LIMMIN
 10
0.0
 20
0.0
  9
$LIMMAX
 10
30.0657350607
 20
42.5215395858
  9
$VIEWCTR
 10
15.0328675303
 20
21.2607697929
  9
$VIEWSIZE
 40
42.5215395858
  9
$CLAYER
  8
0
  9
$LTSCALE
 40
2.7717744323
  9
$CELTYPE
  6
BYLAYER
  9
$DIMSCALE
 40
1.0
  9
$DIMASZ
 40
0.3579254174
  9
$DIMEXO
 40
1.0
  9
$DIMDLI
 40
1.9150441532
  9
$DIMEXE
 40
1.0
  9
$DIMCEN
 40
0.4535630889
  9
$DIMLFAC
 40
1.0
  9
$DIMBLK
  1
_FILLED
  9
$DIMALT
 70
0
  9
$DIMALTF
 40
0.0393700787
  9
$DIMTXT
 40
0.5010955843
  9
$DIMTOL
 70
1
  9
$DIMLIM
 70
0
  9
$DIMTFAC
 40
1.0
  9
$DIMTP
 40
0.01
  9
$DIMTM
 40
0.01
  9
$DIMGAP
 40
0.625
  9
$DIMDSEP
 70
46
  9
$AUNITS
 70
0
  9
$PDMODE
 70
3
  9
$PDSIZE
 40
0.3125
  9
$HANDSEED
  5
2D0
  9
$TILEMODE
 70
1
  9
$MEASUREMENT
 70
1
  9
$INSUNITS
 70
4
  0
ENDSEC
  0
SECTION
  2
CLASSES
  0
CLASS
  1
ACDBDICTIONARYWDFLT
  2
AcDbDictionaryWithDefault
  3
AutoCAD 2000
 90
0
 91
1
280
0
281
0
  0
CLASS
  1
ACDBPLACEHOLDER
  2
AcDbPlaceHolder
  3
AutoCAD 2000
 90
0
 91
1
280
0
281
0
  0
CLASS
  1
LAYOUT
  2
AcDbLayout
  3
AutoCAD 2000
 90
0
 91
0
280
0
281
0
  0
ENDSEC
  0
SECTION
  2
TABLES
  0
TABLE
  2
VPORT
  5
8
100
AcDbSymbolTable
 70
2
  0
VPORT
  5
1F4
100
AcDbSymbolTableRecord
100
AcDbViewportTableRecord
  2
*ACTIVE
 70
0
 10
0.0
 20
0.0
 11
1.0
 21
1.0
 12
15.0328675303
 22
21.2607697929
 13
0.0
 23
0.0
 14
1.0
 24
1.0
 15
0.0
 25
0.0
 16
0.0
 26
0.0
 36
1.0
 17
0.0
 27
0.0
 37
0.0
 40
42.5215395858
 41
0.7070707071
 42
50.0
 43
0.0
 44
0.0
 50
0.0
 51
0.0
 71
0
 72
100
 73
1
 74
1
 75
0
 76
0
 77
0
 78
0
  0
ENDTAB
  0
TABLE
  2
LTYPE
  5
5
100
AcDbSymbolTable
 70
6
  0
LTYPE
  5
14
100
AcDbSymbolTableRecord
100
AcDbLinetypeTableRecord
  2
BYBLOCK
 70
0
  3

 72
65
 73
0
 40
0.0
  0
LTYPE
  5
15
100
AcDbSymbolTableRecord
100
AcDbLinetypeTableRecord
  2
BYLAYER
 70
0
  3

 72
65
 73
0
 40
0.0
  0
LTYPE
  5
16
100
AcDbSymbolTableRecord
100
AcDbLinetypeTableRecord
  2
CONTINUOUS
 70
64
  3
Solid line
 72
65
 73
0
 40
0.0
  0
LTYPE
  5
1F5
100
AcDbSymbolTableRecord
100
AcDbLinetypeTableRecord
  2
CENTER
 70
64
  3
____ _ ____ _ ____ _ ____ _ ____ _ ____ _ ____
 72
65
 73
4
 40
0.6
 49
0.375
 74
0
 49
-0.075
 74
0
 49
0.075
 74
0
 49
-0.075
 74
0
  0
LTYPE
  5
1F6
100
AcDbSymbolTableRecord
100
AcDbLinetypeTableRecord
  2
HIDDEN
 70
64
  3
- - - - - - - - - - - - - - - - - - - -
 72
65
 73
2
 40
0.2
 49
0.1
 74
0
 49
-0.1
 74
0
  0
LTYPE
  5
1F7
100
AcDbSymbolTableRecord
100
AcDbLinetypeTableRecord
  2
PHANTOM
 70
64
  3
_____ _ _ _____ _ _ _____ _ _ _____
 72
65
 73
6
 40
0.8
 49
0.45
 74
0
 49
-0.05
 74
0
 49
0.1
 74
0
 49
-0.05
 74
0
 49
0.1
 74
0
 49
-0.05
 74
0
  0
LTYPE
  5
1F8
100
AcDbSymbolTableRecord
100
AcDbLinetypeTableRecord
  2
DOT
 70
64
  3
. . . . . . . . . . . . . . . . . . . .
 72
65
 73
2
 40
0.2
 49
0.1
 74
0
 49
-0.1
 74
0
  0
LTYPE
  5
1F9
100
AcDbSymbolTableRecord
100
AcDbLinetypeTableRecord
  2
DASHED
 70
64
  3
- - - - - - - - - - - - - - - - - - - -
 72
65
 73
2
 40
0.2
 49
0.1
 74
0
 49
-0.1
 74
0
  0
ENDTAB
  0
TABLE
  2
LAYER
  5
2
100
AcDbSymbolTable
 70
36
  0
LAYER
  5
10
100
AcDbSymbolTableRecord
100
AcDbLayerTableRecord
  2
0
 70
0
 62
7
  6
CONTINUOUS
370
-3
390
F
  0
LAYER
  5
1FA
100
AcDbSymbolTableRecord
100
AcDbLayerTableRecord
  2
DEFAULT_1
 70
0
 62
7
  6
CENTER
370
-3
390
F
  0
LAYER
  5
1FB
100
AcDbSymbolTableRecord
100
AcDbLayerTableRecord
  2
DEFAULT_2
 70
0
 62
8
  6
HIDDEN
370
-3
390
F
  0
LAYER
  5
1FC
100
AcDbSymbolTableRecord
100
AcDbLayerTableRecord
  2
DEFAULT_3
 70
0
 62
7
  6
PHANTOM
370
-3
390
F
  0
LAYER
  5
1FD
100
AcDbSymbolTableRecord
100
AcDbLayerTableRecord
  2
00_COMPONENTS
 70
0
 62
7
  6
CONTINUOUS
370
-3
390
F
  0
LAYER
  5
1FE
100
AcDbSymbolTableRecord
100
AcDbLayerTableRecord
  2
01_1_DEFAULT_DATUMS
 70
0
 62
7
  6
CONTINUOUS
370
-3
390
F
  0
LAYER
  5
1FF
100
AcDbSymbolTableRecord
100
AcDbLayerTableRecord
  2
01_PLANES
 70
0
 62
7
  6
CONTINUOUS
370
-3
390
F
  0
LAYER
  5
200
100
AcDbSymbolTableRecord
100
AcDbLayerTableRecord
  2
02_COORD_SYS
 70
0
 62
7
  6
CONTINUOUS
370
-3
390
F
  0
LAYER
  5
201
100
AcDbSymbolTableRecord
100
AcDbLayerTableRecord
  2
03_AXES
 70
0
 62
7
  6
CONTINUOUS
370
-3
390
F
  0
LAYER
  5
202
100
AcDbSymbolTableRecord
100
AcDbLayerTableRecord
  2
04_POINTS
 70
0
 62
7
  6
CONTINUOUS
370
-3
390
F
  0
LAYER
  5
203
100
AcDbSymbolTableRecord
100
AcDbLayerTableRecord
  2
05_CURVES
 70
0
 62
7
  6
CONTINUOUS
370
-3
390
F
  0
LAYER
  5
204
100
AcDbSymbolTableRecord
100
AcDbLayerTableRecord
  2
06_SURFS
 70
0
 62
7
  6
CONTINUOUS
370
-3
390
F
  0
LAYER
  5
205
100
AcDbSymbolTableRecord
100
AcDbLayerTableRecord
  2
07_COSMETICS
 70
0
 62
7
  6
CONTINUOUS
370
-3
390
F
  0
LAYER
  5
206
100
AcDbSymbolTableRecord
100
AcDbLayerTableRecord
  2
10_NOTES
 70
0
 62
7
  6
CONTINUOUS
370
-3
390
F
  0
LAYER
  5
207
100
AcDbSymbolTableRecord
100
AcDbLayerTableRecord
  2
11_NOTES_PUB
 70
0
 62
7
  6
CONTINUOUS
370
-3
390
F
  0
LAYER
  5
208
100
AcDbSymbolTableRecord
100
AcDbLayerTableRecord
  2
13_REF_GTOL
 70
0
 62
7
  6
CONTINUOUS
370
-3
390
F
  0
LAYER
  5
209
100
AcDbSymbolTableRecord
100
AcDbLayerTableRecord
  2
16_MISC
 70
0
 62
7
  6
CONTINUOUS
370
-3
390
F
  0
LAYER
  5
20A
100
AcDbSymbolTableRecord
100
AcDbLayerTableRecord
  2
17_NO_PRINT
 70
0
 62
7
  6
CONTINUOUS
370
-3
390
F
  0
LAYER
  5
20B
100
AcDbSymbolTableRecord
100
AcDbLayerTableRecord
  2
18_DATUM_CAMS_JOINTS
 70
0
 62
7
  6
CONTINUOUS
370
-3
390
F
  0
LAYER
  5
20C
100
AcDbSymbolTableRecord
100
AcDbLayerTableRecord
  2
19_DATUM_FUNCTIONAL
 70
0
 62
7
  6
CONTINUOUS
370
-3
390
F
  0
LAYER
  5
20D
100
AcDbSymbolTableRecord
100
AcDbLayerTableRecord
  2
20_DATUM_KINEMATIC_SCHEME
 70
0
 62
7
  6
CONTINUOUS
370
-3
390
F
  0
ENDTAB
  0
TABLE
  2
STYLE
  5
3
100
AcDbSymbolTable
 70
1
  0
STYLE
  5
11
100
AcDbSymbolTableRecord
100
AcDbTextStyleTableRecord
  2
STANDARD
 70
0
 40
0.0
 41
0.8
 50
0.0
 71
0
 42
0.2
  3
txt
  4

  0
STYLE
  5
20E
100
AcDbSymbolTableRecord
100
AcDbTextStyleTableRecord
  2
TEXTSTYLE_1
 70
0
 40
0.0
 41
0.8
 50
0.0
 71
0
 42
0.2
  3
gdt
  4

  0
ENDTAB
  0
TABLE
  2
VIEW
  5
6
100
AcDbSymbolTable
 70
0
  0
ENDTAB
  0
TABLE
  2
UCS
  5
7
100
AcDbSymbolTable
 70
0
  0
ENDTAB
  0
TABLE
  2
APPID
  5
9
100
AcDbSymbolTable
 70
1
  0
APPID
  5
20F
100
AcDbSymbolTableRecord
100
AcDbRegAppTableRecord
  2
ACAD
 70
0
  0
ENDTAB
  0
TABLE
  2
BLOCK_RECORD
  5
1
100
AcDbSymbolTable
 70
0
  0
BLOCK_RECORD
  5
210
100
AcDbSymbolTableRecord
100
AcDbBlockTableRecord
  2
*Model_Space
  0
BLOCK_RECORD
  5
211
100
AcDbSymbolTableRecord
100
AcDbBlockTableRecord
  2
*Paper_Space
  0
BLOCK_RECORD
  5
212
100
AcDbSymbolTableRecord
100
AcDbBlockTableRecord
  2
_FILLED
  0
ENDTAB
  0
TABLE
  2
DIMSTYLE
  5
A
100
AcDbSymbolTable
 70
1
100
AcDbDimStyleTable
 71
0
  0
DIMSTYLE
105
213
100
AcDbSymbolTableRecord
100
AcDbDimStyleTableRecord
  2
STANDARD
 70
0
  3

  4

 40
1.0
 41
0.3579254174
 42
1.0
 43
0.38
 44
1.0
 45
0.0
 46
0.0
 47
0.01
 48
0.01
140
0.5010955843
141
0.09
142
0.0
143
25.4
144
1.0
145
0.0
146
1.0
147
0.625
 71
1
 72
0
 73
0
 74
0
 75
0
 76
0
 77
1
 78
8
 79
2
170
0
171
1
172
0
173
0
174
0
175
0
176
0
177
0
178
0
270
2
179
2
271
2
272
2
273
2
274
2
275
0
280
0
281
0
282
0
283
1
284
8
285
0
286
0
287
3
288
0
340
11
278
46
341
212
342
212
343
212
344
212
  0
ENDTAB
  0
ENDSEC
  0
SECTION
  2
BLOCKS
  0
BLOCK
  5
20
100
AcDbEntity
  8
0
100
AcDbBlockBegin
  2
*Model_Space
 70
0
 10
0.0
 20
0.0
 30
0.0
  3
*Model_Space
  1

  0
ENDBLK
  5
21
100
AcDbEntity
  8
0
100
AcDbBlockEnd
  0
BLOCK
  5
1C
100
AcDbEntity
  8
0
100
AcDbBlockBegin
  2
*Paper_Space
 70
0
 10
0.0
 20
0.0
 30
0.0
  3
*Paper_Space
  1

  0
ENDBLK
  5
1D
100
AcDbEntity
  8
0
100
AcDbBlockEnd
  0
BLOCK
  5
214
100
AcDbEntity
  8
0
100
AcDbBlockBegin
  2
_FILLED
 70
64
 10
0.0
 20
0.0
  3
_FILLED
  1

  0
SOLID
  5
215
100
AcDbEntity
  8
0
  6
BYBLOCK
 62
0
100
AcDbTrace
 10
0.0
 20
0.0
 11
-1.0
 21
0.25
 12
-1.0
 22
-0.25
 13
-1.0
 23
-0.25
  0
ENDBLK
  5
216
100
AcDbEntity
  8
0
  6
BYBLOCK
 62
0
100
AcDbBlockEnd
  0
ENDSEC
  0
SECTION
  2
ENTITIES
  0
LINE
  5
217
100
AcDbEntity
  8
0
100
AcDbLine
 62
7
  6
CONTINUOUS
 10
6.392121284
 20
34.7115294631
 11
5.9325037898
 21
34.4461707631
  0
LINE
  5
218
100
AcDbEntity
  8
0
100
AcDbLine
 62
7
  6
CONTINUOUS
 10
4.094033813
 20
33.384735963
 11
3.6344163188
 21
33.119377263
  0
LINE
  5
219
100
AcDbEntity
  8
0
100
AcDbLine
 62
7
  6
CONTINUOUS
 10
6.0739275012
 20
34.1195771396
 11
4.6597198268
 21
33.3030888319
  0
LINE
  5
21A
100
AcDbEntity
  8
0
100
AcDbLine
 62
7
  6
CONTINUOUS
 10
4.6243693453
 20
32.6294886975
 11
7.2406535429
 21
34.1399920668
  0
LINE
  5
21B
100
AcDbEntity
  8
0
100
AcDbLine
 62
7
  6
CONTINUOUS
 10
7.2287089966
 20
33.3303856807
 11
6.7768405499
 21
33.0695008687
  0
LINE
  5
21C
100
AcDbEntity
  8
0
100
AcDbLine
 62
7
  6
CONTINUOUS
 10
5.6377253629
 20
32.4118363345
 11
5.3195467433
 21
32.2281369194
  0
LINE
  5
21D
100
AcDbEntity
  8
0
100
AcDbLine
 62
7
  6
CONTINUOUS
 10
7.4718382614
 20
32.477177443
 11
8.0891852131
 21
32.8336007443
  0
LINE
  5
21E
100
AcDbEntity
  8
0
100
AcDbLine
 62
7
  6
CONTINUOUS
 10
6.816413026
 20
30.8740514134
 11
7.2406753283
 21
31.1189979058
  0
LINE
  5
21F
100
AcDbEntity
  8
0
100
AcDbLine
 62
7
  6
CONTINUOUS
 10
9.856959526
 20
32.6295012751
 11
10.2812218283
 21
32.8744477674
  0
LINE
  5
220
100
AcDbEntity
  8
0
100
AcDbLine
 62
7
  6
CONTINUOUS
 10
8.2687574849
 20
30.9892815216
 11
8.8344405547
 21
31.3158768447
  0
LINE
  5
221
100
AcDbEntity
  8
0
100
AcDbLine
 62
7
  6
CONTINUOUS
 10
8.0697112816
 20
30.7770069405
 11
8.2695524741
 21
30.892384618
  0
LINE
  5
222
100
AcDbEntity
  8
0
100
AcDbLine
 62
7
  6
CONTINUOUS
 10
8.8352355438
 20
31.2189799411
 11
9.0350767363
 21
31.3343576186
  0
LINE
  5
223
100
AcDbEntity
  8
0
100
AcDbLine
 62
7
  6
CONTINUOUS
 10
9.0429322829
 20
30.5099998426
 11
8.8459663874
 21
30.3962822087
  0
LINE
  5
224
100
AcDbEntity
  8
0
100
AcDbLine
 62
7
  6
CONTINUOUS
 10
8.2802833177
 20
30.0696868856
 11
8.0833174222
 21
29.9559692516
  0
LINE
  5
225
100
AcDbEntity
  8
0
100
AcDbLine
 62
7
  6
CONTINUOUS
 10
8.8476390723
 20
30.3025072408
 11
8.2819560025
 21
29.9759119177
  0
LWPOLYLINE
  5
226
100
AcDbEntity
  8
0
100
AcDbPolyline
 62
7
  6
CONTINUOUS
 90
3
 70
0
 10
22.6509166451
 20
7.9305014351
 10
22.9697314362
 20
7.8321456105
 10
23.4179775189
 20
7.9053266405
  0
LWPOLYLINE
  5
227
100
AcDbEntity
  8
0
100
AcDbPolyline
 62
7
  6
CONTINUOUS
 90
4
 70
0
 10
4.494397125
 20
18.9733020952
 10
4.6370122489
 20
18.5218368343
 10
4.7643685768
 20
18.3308016595
 10
5.0375881666
 20
18.0990570871
  0
LINE
  5
228
100
AcDbEntity
  8
0
100
AcDbLine
 62
7
  6
CONTINUOUS
 10
4.4943882769
 20
18.9733160256
 11
4.4943898067
 21
18.9733050626
  0
LINE
  5
229
100
AcDbEntity
  8
0
100
AcDbLine
 62
7
  6
CONTINUOUS
 10
5.9352783148
 20
34.0395284724
 11
5.9325055562
 21
34.2012252905
  0
LINE
  5
22A
100
AcDbEntity
  8
0
100
AcDbLine
 62
7
  6
CONTINUOUS
 10
5.93264946
 20
34.0410399071
 11
5.9325055562
 21
34.2012252905
  0
LWPOLYLINE
  5
22B
100
AcDbEntity
  8
0
100
AcDbPolyline
 62
7
  6
CONTINUOUS
 90
3
 70
0
 10
7.5344341263
 20
25.1741973369
 10
7.4098023421
 20
26.5286200388
 10
7.2937475593
 20
30.2718340069
  0
LINE
  5
22C
100
AcDbEntity
  8
0
100
AcDbLine
 62
7
  6
CONTINUOUS
 10
7.5096432019
 20
30.9636918365
 11
7.5096432019
 21
30.1471894194
  0
LINE
  5
22D
100
AcDbEntity
  8
0
100
AcDbLine
 62
7
  6
CONTINUOUS
 10
8.0891852131
 20
32.8336007443
 11
8.0891852131
 21
32.0170983271
  0
LINE
  5
22E
100
AcDbEntity
  8
0
100
AcDbLine
 62
7
  6
CONTINUOUS
 10
6.9707943732
 20
25.423419728
 11
7.3950566756
 21
25.6683662203
  0
LINE
  5
22F
100
AcDbEntity
  8
0
100
AcDbLine
 62
7
  6
CONTINUOUS
 10
10.0113408733
 20
27.1788695896
 11
10.4356031756
 21
27.423816082
  0
LINE
  5
230
100
AcDbEntity
  8
0
100
AcDbLine
 62
7
  6
CONTINUOUS
 10
22.6529165322
 20
7.9291754477
 11
17.3801725217
 21
10.9733267536
  0
LINE
  5
231
100
AcDbEntity
  8
0
100
AcDbLine
 62
7
  6
CONTINUOUS
 10
5.0363366744
 20
18.0998824787
 11
10.3090752702
 21
15.0557342989
  0
LINE
  5
232
100
AcDbEntity
  8
0
100
AcDbLine
 62
7
  6
CONTINUOUS
 10
22.4318745608
 20
8.5641105649
 11
17.0695040406
 21
11.6600062598
  0
LINE
  5
233
100
AcDbEntity
  8
0
100
AcDbLine
 62
7
  6
CONTINUOUS
 10
9.9984067891
 20
15.742413368
 11
4.6360363998
 21
18.8383091936
  0
LINE
  5
234
100
AcDbEntity
  8
0
100
AcDbLine
 62
7
  6
CONTINUOUS
 10
10.384226241
 20
15.8240236844
 11
10.1398275566
 21
15.9651241384
  0
LINE
  5
235
100
AcDbEntity
  8
0
100
AcDbLine
 62
7
  6
CONTINUOUS
 10
10.8170154623
 20
15.1883396851
 11
10.3842277071
 21
15.8240241817
  0
LINE
  5
236
100
AcDbEntity
  8
0
100
AcDbLine
 62
7
  6
CONTINUOUS
 10
11.1411512099
 20
26.2542104106
 11
10.7168889076
 21
26.0092639183
  0
LINE
  5
237
100
AcDbEntity
  8
0
100
AcDbLine
 62
7
  6
CONTINUOUS
 10
8.1006047099
 20
24.498760549
 11
7.6763424076
 21
24.2538140566
  0
LINE
  5
238
100
AcDbEntity
  8
0
100
AcDbLine
 62
7
  6
CONTINUOUS
 10
9.9984067891
 20
15.742413368
 11
9.9984067891
 21
22.9131998896
  0
LINE
  5
239
100
AcDbEntity
  8
0
100
AcDbLine
 62
7
  6
CONTINUOUS
 10
10.1398275566
 20
22.9948487204
 11
10.1398275566
 21
15.7569877162
  0
LINE
  5
23A
100
AcDbEntity
  8
0
100
AcDbLine
 62
7
  6
CONTINUOUS
 10
10.1398275566
 20
17.9435224188
 11
12.0975942906
 21
16.8132308385
  0
LINE
  5
23B
100
AcDbEntity
  8
0
100
AcDbLine
 62
7
  6
CONTINUOUS
 10
12.6446069195
 20
16.2434938068
 11
12.0975946979
 21
16.8132311706
  0
LINE
  5
23C
100
AcDbEntity
  8
0
100
AcDbLine
 62
7
  6
CONTINUOUS
 10
9.9984067891
 20
22.9131998896
 11
10.1398275566
 21
22.9948487204
  0
LINE
  5
23D
100
AcDbEntity
  8
0
100
AcDbLine
 62
7
  6
CONTINUOUS
 10
13.321794824
 20
24.8319474128
 11
13.4632155915
 21
24.9135962436
  0
LINE
  5
23E
100
AcDbEntity
  8
0
100
AcDbLine
 62
7
  6
CONTINUOUS
 10
12.549053301
 20
17.7136262384
 11
13.321794824
 21
17.5940864086
  0
LINE
  5
23F
100
AcDbEntity
  8
0
100
AcDbLine
 62
7
  6
CONTINUOUS
 10
10.1398275566
 20
19.1045619033
 11
12.549053301
 21
17.7136262384
  0
LINE
  5
240
100
AcDbEntity
  8
0
100
AcDbLine
 62
7
  6
CONTINUOUS
 10
9.9327691033
 20
23.4409838733
 11
10.1398275566
 21
22.9948487204
  0
LINE
  5
241
100
AcDbEntity
  8
0
100
AcDbLine
 62
7
  6
CONTINUOUS
 10
12.549053301
 20
24.9514872427
 11
12.549053301
 21
17.7136262384
  0
LINE
  5
242
100
AcDbEntity
  8
0
100
AcDbLine
 62
7
  6
CONTINUOUS
 10
13.321794824
 20
17.5940864086
 11
13.321794824
 21
24.8319474128
  0
LINE
  5
243
100
AcDbEntity
  8
0
100
AcDbLine
 62
7
  6
CONTINUOUS
 10
13.4632155915
 20
24.9135962436
 11
13.4632155915
 21
17.7428098745
  0
LINE
  5
244
100
AcDbEntity
  8
0
100
AcDbLine
 62
7
  6
CONTINUOUS
 10
17.210924808
 20
18.9124411752
 11
17.9836663311
 21
18.7929013453
  0
LINE
  5
245
100
AcDbEntity
  8
0
100
AcDbLine
 62
7
  6
CONTINUOUS
 10
9.9984067891
 20
22.9131998896
 11
7.6763424076
 21
24.2538140566
  0
LINE
  5
246
100
AcDbEntity
  8
0
100
AcDbLine
 62
7
  6
CONTINUOUS
 10
17.0695040406
 20
18.8307923444
 11
19.3915684222
 21
17.4901781774
  0
LINE
  5
247
100
AcDbEntity
  8
0
100
AcDbLine
 62
7
  6
CONTINUOUS
 10
9.9327691033
 20
23.4409838733
 11
8.1006047099
 21
24.498760549
  0
LINE
  5
248
100
AcDbEntity
  8
0
100
AcDbLine
 62
7
  6
CONTINUOUS
 10
17.9836663311
 20
18.7929013453
 11
19.8158307245
 21
17.7351246697
  0
LINE
  5
249
100
AcDbEntity
  8
0
100
AcDbLine
 62
7
  6
CONTINUOUS
 10
23.7163066061
 20
25.1178734315
 11
23.2920443038
 21
24.8729269392
  0
LINE
  5
24A
100
AcDbEntity
  8
0
100
AcDbLine
 62
7
  6
CONTINUOUS
 10
20.6757601061
 20
23.3624235699
 11
20.2514978038
 21
23.1174770775
  0
LINE
  5
24B
100
AcDbEntity
  8
0
100
AcDbLine
 62
7
  6
CONTINUOUS
 10
17.0695040406
 20
18.8307923444
 11
17.0695040406
 21
11.6600059754
  0
LINE
  5
24C
100
AcDbEntity
  8
0
100
AcDbLine
 62
7
  6
CONTINUOUS
 10
22.2639621472
 20
23.5625143427
 11
21.6982790774
 21
23.2359190196
  0
LINE
  5
24D
100
AcDbEntity
  8
0
100
AcDbLine
 62
7
  6
CONTINUOUS
 10
22.4630083505
 20
23.5819130702
 11
22.3725378513
 21
23.529680215
  0
LINE
  5
24E
100
AcDbEntity
  8
0
100
AcDbLine
 62
7
  6
CONTINUOUS
 10
21.6974840882
 20
23.1399400696
 11
21.4976428958
 21
23.0245623921
  0
LINE
  5
24F
100
AcDbEntity
  8
0
100
AcDbLine
 62
7
  6
CONTINUOUS
 10
12.549053301
 20
24.9514872427
 11
10.7168889076
 21
26.0092639183
  0
LINE
  5
250
100
AcDbEntity
  8
0
100
AcDbLine
 62
7
  6
CONTINUOUS
 10
13.4632155915
 20
24.9135962436
 11
11.1411512099
 21
26.2542104106
  0
LINE
  5
251
100
AcDbEntity
  8
0
100
AcDbLine
 62
7
  6
CONTINUOUS
 10
17.210924808
 20
18.9124411752
 11
17.0695040406
 21
18.8307923444
  0
LINE
  5
252
100
AcDbEntity
  8
0
100
AcDbLine
 62
7
  6
CONTINUOUS
 10
25.0598186166
 20
23.0358226358
 11
24.6974484555
 21
22.8266093745
  0
LINE
  5
253
100
AcDbEntity
  8
0
100
AcDbLine
 62
7
  6
CONTINUOUS
 10
25.9083502868
 20
23.3624361475
 11
23.2920660891
 21
21.8519327781
  0
LINE
  5
254
100
AcDbEntity
  8
0
100
AcDbLine
 62
7
  6
CONTINUOUS
 10
13.321794824
 20
24.8319474128
 11
12.549053301
 21
24.9514872427
  0
LINE
  5
255
100
AcDbEntity
  8
0
100
AcDbLine
 62
7
  6
CONTINUOUS
 10
21.6982790774
 20
23.2359190196
 11
24.3173666531
 21
22.4438868013
  0
LINE
  5
256
100
AcDbEntity
  8
0
100
AcDbLine
 62
7
  6
CONTINUOUS
 10
5.6496699092
 20
33.2214427206
 11
8.2687574849
 21
30.9892815216
  0
LINE
  5
257
100
AcDbEntity
  8
0
100
AcDbLine
 62
7
  6
CONTINUOUS
 10
8.8344405547
 20
31.3158768447
 11
6.215352979
 21
33.5480380437
  0
LINE
  5
258
100
AcDbEntity
  8
0
100
AcDbLine
 62
7
  6
CONTINUOUS
 10
8.7117197251
 20
31.6577068981
 11
9.0350767363
 21
31.3343576186
  0
LINE
  5
259
100
AcDbEntity
  8
0
100
AcDbLine
 62
7
  6
CONTINUOUS
 10
24.4587921309
 20
21.8723477053
 11
25.8729998053
 21
22.6888360131
  0
LINE
  5
25A
100
AcDbEntity
  8
0
100
AcDbLine
 62
7
  6
CONTINUOUS
 10
24.1405983481
 20
21.2803953819
 11
24.6002158423
 21
21.5457540819
  0
LINE
  5
25B
100
AcDbEntity
  8
0
100
AcDbLine
 62
7
  6
CONTINUOUS
 10
26.438685819
 20
22.607188882
 11
26.8983033132
 21
22.872547582
  0
LINE
  5
25C
100
AcDbEntity
  8
0
100
AcDbLine
 62
7
  6
CONTINUOUS
 10
24.8830497229
 20
22.7704821244
 11
22.2639621472
 21
23.5625143427
  0
LINE
  5
25D
100
AcDbEntity
  8
0
100
AcDbLine
 62
7
  6
CONTINUOUS
 10
22.4630083505
 20
23.5819130702
 11
23.0230764302
 21
23.3952281742
  0
LINE
  5
25E
100
AcDbEntity
  8
0
100
AcDbLine
 62
7
  6
CONTINUOUS
 10
7.5096432019
 20
30.1471894194
 11
7.24850987
 21
30.2979514081
  0
LINE
  5
25F
100
AcDbEntity
  8
0
100
AcDbLine
 62
7
  6
CONTINUOUS
 10
6.816413026
 20
30.8740514134
 11
3.6344192628
 21
32.7111348088
  0
LINE
  5
260
100
AcDbEntity
  8
0
100
AcDbLine
 62
7
  6
CONTINUOUS
 10
20.2514978038
 20
23.1174770775
 11
23.4334915669
 21
21.2803936822
  0
LINE
  5
261
100
AcDbEntity
  8
0
100
AcDbLine
 62
7
  6
CONTINUOUS
 10
7.5096432019
 20
30.9636918365
 11
4.6243693452
 21
32.6294886975
  0
LINE
  5
262
100
AcDbEntity
  8
0
100
AcDbLine
 62
7
  6
CONTINUOUS
 10
20.6757601061
 20
23.3624235699
 11
23.2920660891
 21
21.8519327781
  0
LINE
  5
263
100
AcDbEntity
  8
0
100
AcDbLine
 62
7
  6
CONTINUOUS
 10
23.6102447087
 20
22.0356321933
 11
21.6974840883
 21
23.1399400696
  0
LINE
  5
264
100
AcDbEntity
  8
0
100
AcDbLine
 62
7
  6
CONTINUOUS
 10
5.6377253629
 20
32.4118363345
 11
8.2695524741
 21
30.892384618
  0
LINE
  5
265
100
AcDbEntity
  8
0
100
AcDbLine
 62
7
  6
CONTINUOUS
 10
19.3915684222
 20
17.4901781774
 11
19.8158307245
 21
17.7351246697
  0
LINE
  5
266
100
AcDbEntity
  8
0
100
AcDbLine
 62
7
  6
CONTINUOUS
 10
7.5096432019
 20
30.1471894194
 11
8.0833174222
 21
29.9559692516
  0
LINE
  5
267
100
AcDbEntity
  8
0
100
AcDbLine
 62
7
  6
CONTINUOUS
 10
4.6597198268
 20
33.3030888319
 11
4.5182978817
 21
33.3847369828
  0
LINE
  5
268
100
AcDbEntity
  8
0
100
AcDbLine
 62
7
  6
CONTINUOUS
 10
24.4587921309
 20
21.8723477053
 11
24.6002140759
 21
21.7906995544
  0
LINE
  5
269
100
AcDbEntity
  8
0
100
AcDbLine
 62
7
  6
CONTINUOUS
 10
7.848810666
 20
32.1558964051
 11
8.7117197251
 21
31.6577068981
  0
LINE
  5
26A
100
AcDbEntity
  8
0
100
AcDbLine
 62
7
  6
CONTINUOUS
 10
23.0230764302
 20
23.3952281742
 11
23.2495920358
 21
23.2644522869
  0
LINE
  5
26B
100
AcDbEntity
  8
0
100
AcDbLine
 62
7
  6
CONTINUOUS
 10
21.8209999069
 20
22.7012131126
 11
21.4976428958
 21
23.0245623921
  0
LINE
  5
26C
100
AcDbEntity
  8
0
100
AcDbLine
 62
7
  6
CONTINUOUS
 10
8.2819560025
 20
29.9759119177
 11
8.1742660891
 21
30.0084781755
  0
LINE
  5
26D
100
AcDbEntity
  8
0
100
AcDbLine
 62
7
  6
CONTINUOUS
 10
7.2831275963
 20
30.2779653067
 11
7.2486009496
 21
30.2884064301
  0
LINE
  5
26E
100
AcDbEntity
  8
0
100
AcDbLine
 62
7
  6
CONTINUOUS
 10
8.0697112816
 20
30.7770069405
 11
7.5096432019
 21
30.9636918365
  0
LINE
  5
26F
100
AcDbEntity
  8
0
100
AcDbLine
 62
7
  6
CONTINUOUS
 10
8.0891852131
 20
32.8336007443
 11
7.2287089966
 21
33.3303856807
  0
LINE
  5
270
100
AcDbEntity
  8
0
100
AcDbLine
 62
7
  6
CONTINUOUS
 10
25.0598186166
 20
23.0358226358
 11
25.2012283424
 21
22.9541815395
  0
LINE
  5
271
100
AcDbEntity
  8
0
100
AcDbLine
 62
7
  6
CONTINUOUS
 10
6.0739275012
 20
34.1195771396
 11
5.9325055562
 21
34.2012252905
  0
LINE
  5
272
100
AcDbEntity
  8
0
100
AcDbLine
 62
7
  6
CONTINUOUS
 10
25.8729998053
 20
22.6888360131
 11
26.0144217503
 21
22.6071878622
  0
LINE
  5
273
100
AcDbEntity
  8
0
100
AcDbLine
 62
7
  6
CONTINUOUS
 10
9.856959526
 20
32.6295012751
 11
7.2406535429
 21
34.1399920668
  0
LINE
  5
274
100
AcDbEntity
  8
0
100
AcDbLine
 62
7
  6
CONTINUOUS
 10
23.2920443038
 20
24.8729269392
 11
25.9083502868
 21
23.3624361475
  0
LWPOLYLINE
  5
275
100
AcDbEntity
  8
0
100
AcDbPolyline
 62
7
  6
CONTINUOUS
 90
4
 70
0
 10
23.4334915669
 20
21.2803936822
 10
23.2728945394
 20
16.0327943582
 10
23.072329202
 20
13.4864662024
 10
22.4318745608
 20
8.5641105649
  0
LINE
  5
276
100
AcDbEntity
  8
0
100
AcDbLine
 62
7
  6
CONTINUOUS
 10
10.2812218283
 20
32.8744477674
 11
7.0992280652
 21
34.7115311627
  0
LINE
  5
277
100
AcDbEntity
  8
0
100
AcDbLine
 62
7
  6
CONTINUOUS
 10
23.7163066061
 20
25.1178734315
 11
26.8983003693
 21
23.2807900362
  0
LINE
  5
278
100
AcDbEntity
  8
0
100
AcDbLine
 62
7
  6
CONTINUOUS
 10
23.5456359036
 20
8.1341871573
 11
23.6451310697
 21
8.6661848395
  0
LINE
  5
279
100
AcDbEntity
  8
0
100
AcDbLine
 62
7
  6
CONTINUOUS
 10
26.0363482245
 20
10.2783043263
 11
26.0363723135
 21
10.278449371
  0
LINE
  5
27A
100
AcDbEntity
  8
0
100
AcDbLine
 62
7
  6
CONTINUOUS
 10
25.1759703061
 20
8.9429326165
 11
25.1420061968
 21
8.8983777136
  0
LWPOLYLINE
  5
27B
100
AcDbEntity
  8
0
100
AcDbPolyline
 62
7
  6
CONTINUOUS
 90
4
 70
0
 10
23.4179616771
 20
7.9053204048
 10
23.9799735086
 20
8.1610860249
 10
24.5725545437
 20
8.5032479554
 10
25.1420061968
 20
8.8983777136
  0
LINE
  5
27C
100
AcDbEntity
  8
0
100
AcDbLine
 62
7
  6
CONTINUOUS
 10
23.4179775189
 20
7.9053266405
 11
23.4179602155
 21
7.9053198468
  0
LWPOLYLINE
  5
27D
100
AcDbEntity
  8
0
100
AcDbPolyline
 62
7
  6
CONTINUOUS
 90
4
 70
0
 10
25.1420030427
 20
8.8983777761
 10
25.5373956458
 20
9.276096747
 10
25.8594765479
 20
9.7608754751
 10
26.0363591137
 20
10.2784209219
  0
ARC
  5
27E
100
AcDbEntity
  8
0
100
AcDbCircle
 62
7
  6
CONTINUOUS
 10
-68.2744257311
 20
24.8668143395
 40
91.5664702389
100
AcDbArc
 50
358.9916889653
 51
0.0038248298
  0
ARC
  5
27F
100
AcDbEntity
  8
0
100
AcDbCircle
 62
7
  6
CONTINUOUS
 10
95.5446686008
 20
34.3239583518
 40
89.7000318939
100
AcDbArc
 50
180.0001659565
 51
180.2077627444
  0
ARC
  5
280
100
AcDbEntity
  8
0
100
AcDbCircle
 62
7
  6
CONTINUOUS
 10
93.7202321258
 20
31.5172003616
 40
88.0870499629
100
AcDbArc
 50
178.8914149442
 51
179.4180785174
  0
ARC
  5
281
100
AcDbEntity
  8
0
100
AcDbCircle
 62
7
  6
CONTINUOUS
 10
95.3112120169
 20
32.4357497642
 40
88.0870462199
100
AcDbArc
 50
178.8914149337
 51
179.4180785294
  0
ARC
  5
282
100
AcDbEntity
  8
0
100
AcDbCircle
 62
7
  6
CONTINUOUS
 10
19.2965672039
 20
16.9241421647
 40
9.9129757154
100
AcDbArc
 50
306.0632385115
 51
306.3774082299
  0
SPLINE
  5
283
100
AcDbEntity
  8
0
100
AcDbSpline
 62
7
  6
CONTINUOUS
 70
0
 71
3
 72
14
 73
10
 74
0
 42
0.0000001
 43
0.0000001
 44
0.0000000001
 40
0.0
 40
0.0
 40
0.0
 40
0.0
 40
0.1080686163
 40
0.2181676814
 40
0.3321316807
 40
0.4515178407
 40
0.7104657183
 40
0.8515296058
 40
1.0
 40
1.0
 40
1.0
 40
1.0
 10
3.4879736763
 20
32.9152568857
 30
0.0
 10
3.487973679
 20
32.9247229771
 30
0.0
 10
3.489627503
 20
32.9438707841
 30
0.0
 10
3.4969594825
 20
32.9721507133
 30
0.0
 10
3.5090622038
 20
32.9998248644
 30
0.0
 10
3.5319768107
 20
33.036502658
 30
0.0
 10
3.5636751388
 20
33.0698475886
 30
0.0
 10
3.6016991304
 20
33.0992625557
 30
0.0
 10
3.6231536259
 20
33.112874783
 30
0.0
 10
3.6344163188
 20
33.119377263
 30
0.0
  0
SPLINE
  5
284
100
AcDbEntity
  8
0
100
AcDbSpline
 62
7
  6
CONTINUOUS
 70
0
 71
3
 72
11
 73
7
 74
0
 42
0.0000001
 43
0.0000001
 44
0.0000000001
 40
0.0
 40
0.0
 40
0.0
 40
0.0
 40
0.2426363076
 40
0.4902873633
 40
0.7428014992
 40
1.0
 40
1.0
 40
1.0
 40
1.0
 10
3.4879711814
 20
32.9152568857
 30
0.0
 10
3.4879711814
 20
31.7838677944
 30
0.0
 10
3.5313500957
 20
29.4975066801
 30
0.0
 10
3.7216443917
 20
26.0384423259
 30
0.0
 10
4.03741755
 20
22.5204157463
 30
0.0
 10
4.3285841882
 20
20.1610793579
 30
0.0
 10
4.4943898067
 20
18.9733050626
 30
0.0
  0
SPLINE
  5
285
100
AcDbEntity
  8
0
100
AcDbSpline
 62
7
  6
CONTINUOUS
 70
0
 71
3
 72
13
 73
9
 74
0
 42
0.0000001
 43
0.0000001
 44
0.0000000001
 40
0.0
 40
0.0
 40
0.0
 40
0.0
 40
0.1081031538
 40
0.2182374053
 40
0.3322378261
 40
0.4516621405
 40
0.7106927748
 40
1.0
 40
1.0
 40
1.0
 40
1.0
 10
5.8446382043
 20
34.3236985367
 30
0.0
 10
5.8446382059
 20
34.3293781915
 30
0.0
 10
5.8456304758
 20
34.3408668428
 30
0.0
 10
5.8500297766
 20
34.3578349527
 30
0.0
 10
5.8572909721
 20
34.3744388538
 30
0.0
 10
5.8710421325
 20
34.3964487609
 30
0.0
 10
5.8954650331
 20
34.4221341119
 30
0.0
 10
5.9193402061
 20
34.4385708098
 30
0.0
 10
5.9325037898
 20
34.4461707631
 30
0.0
  0
SPLINE
  5
286
100
AcDbEntity
  8
0
100
AcDbSpline
 62
7
  6
CONTINUOUS
 70
0
 71
3
 72
15
 73
11
 74
0
 42
0.0000001
 43
0.0000001
 44
0.0000000001
 40
0.0
 40
0.0
 40
0.0
 40
0.0
 40
0.1141231812
 40
0.2373468278
 40
0.366971913
 40
0.4999994099
 40
0.6330269884
 40
0.76265231
 40
0.885876356
 40
1.0
 40
1.0
 40
1.0
 40
1.0
 10
4.094033813
 20
33.384735963
 30
0.0
 10
4.1085518555
 20
33.3931179087
 30
0.0
 10
4.1403121469
 20
33.407900325
 30
0.0
 10
4.1920200483
 20
33.4236265822
 30
0.0
 10
4.2480115068
 20
33.433294891
 30
0.0
 10
4.3061654604
 20
33.4365647571
 30
0.0
 10
4.3643194644
 20
33.4332951736
 30
0.0
 10
4.4203110761
 20
33.4236271347
 30
0.0
 10
4.4720192179
 20
33.4079011171
 30
0.0
 10
4.50377972
 20
33.3931188578
 30
0.0
 10
4.5182978817
 20
33.3847369828
 30
0.0
  0
SPLINE
  5
287
100
AcDbEntity
  8
0
100
AcDbSpline
 62
7
  6
CONTINUOUS
 70
0
 71
3
 72
15
 73
11
 74
0
 42
0.0000001
 43
0.0000001
 44
0.0000000001
 40
0.0
 40
0.0
 40
0.0
 40
0.0
 40
0.1141231812
 40
0.2373468278
 40
0.366971913
 40
0.4999994099
 40
0.6330269884
 40
0.76265231
 40
0.885876356
 40
1.0
 40
1.0
 40
1.0
 40
1.0
 10
6.392121284
 20
34.7115294631
 30
0.0
 10
6.4163180214
 20
34.7254993725
 30
0.0
 10
6.4692518403
 20
34.750136733
 30
0.0
 10
6.5554316761
 20
34.7763471618
 30
0.0
 10
6.6487507736
 20
34.7924610097
 30
0.0
 10
6.7456740296
 20
34.7979107865
 30
0.0
 10
6.8425973696
 20
34.7924614808
 30
0.0
 10
6.9359167224
 20
34.7763480826
 30
0.0
 10
7.0220969588
 20
34.7501380533
 30
0.0
 10
7.0750311289
 20
34.7255009544
 30
0.0
 10
7.0992280652
 20
34.7115311627
 30
0.0
  0
SPLINE
  5
288
100
AcDbEntity
  8
0
100
AcDbSpline
 62
7
  6
CONTINUOUS
 70
0
 71
3
 72
17
 73
13
 74
0
 42
0.0000001
 43
0.0000001
 44
0.0000000001
 40
0.0
 40
0.0
 40
0.0
 40
0.0
 40
0.0554868283
 40
0.1134357805
 40
0.2354966758
 40
0.3639380128
 40
0.4959986593
 40
0.6286109259
 40
0.7586669363
 40
0.8832853782
 40
0.9428017439
 40
1.0
 40
1.0
 40
1.0
 40
1.0
 10
8.1006047099
 20
24.498760549
 30
0.0
 10
8.0779534872
 20
24.5118379426
 30
0.0
 10
8.0327460982
 20
24.5405168086
 30
0.0
 10
7.9435906205
 20
24.6067839249
 30
0.0
 10
7.8362250624
 20
24.7054951794
 30
0.0
 10
7.7187874639
 20
24.8428392702
 30
0.0
 10
7.6144822835
 20
24.9964481218
 30
0.0
 10
7.5269324707
 20
25.1610432185
 30
0.0
 10
7.459127939
 20
25.3309342081
 30
0.0
 10
7.4204226862
 20
25.474324978
 30
0.0
 10
7.4017730161
 20
25.5866169314
 30
0.0
 10
7.3965586936
 20
25.6414461313
 30
0.0
 10
7.3950566756
 20
25.6683662203
 30
0.0
  0
SPLINE
  5
289
100
AcDbEntity
  8
0
100
AcDbSpline
 62
7
  6
CONTINUOUS
 70
0
 71
3
 72
9
 73
5
 74
0
 42
0.0000001
 43
0.0000001
 44
0.0000000001
 40
0.0
 40
0.0
 40
0.0
 40
0.0
 40
0.2530098707
 40
1.0
 40
1.0
 40
1.0
 40
1.0
 10
7.3950566756
 20
25.6683662203
 30
0.0
 10
7.3694359033
 20
26.1275574367
 30
0.0
 10
7.280374735
 20
27.9431254552
 30
0.0
 10
7.2406753283
 20
29.7611662539
 30
0.0
 10
7.2406753283
 20
31.1189979058
 30
0.0
  0
LINE
  5
28A
100
AcDbEntity
  8
0
100
AcDbLine
 62
7
  6
CONTINUOUS
 10
8.8352355438
 20
31.2189799411
 11
8.8344405547
 21
31.3158768447
  0
SPLINE
  5
28B
100
AcDbEntity
  8
0
100
AcDbSpline
 62
7
  6
CONTINUOUS
 70
0
 71
3
 72
17
 73
13
 74
0
 42
0.0000001
 43
0.0000001
 44
0.0000000001
 40
0.0
 40
0.0
 40
0.0
 40
0.0
 40
0.0554868283
 40
0.1134357805
 40
0.2354966758
 40
0.3639380127
 40
0.4959986593
 40
0.6286109259
 40
0.7586669363
 40
0.8832853782
 40
0.9428017439
 40
1.0
 40
1.0
 40
1.0
 40
1.0
 10
11.1411512099
 20
26.2542104106
 30
0.0
 10
11.1184999872
 20
26.2672878043
 30
0.0
 10
11.0732925982
 20
26.2959666702
 30
0.0
 10
10.9841371205
 20
26.3622337866
 30
0.0
 10
10.8767715624
 20
26.460945041
 30
0.0
 10
10.7593339639
 20
26.5982891318
 30
0.0
 10
10.6550287836
 20
26.7518979834
 30
0.0
 10
10.5674789707
 20
26.9164930802
 30
0.0
 10
10.499674439
 20
27.0863840697
 30
0.0
 10
10.4609691863
 20
27.2297748397
 30
0.0
 10
10.4423195161
 20
27.3420667931
 30
0.0
 10
10.4371051936
 20
27.396895993
 30
0.0
 10
10.4356031756
 20
27.423816082
 30
0.0
  0
SPLINE
  5
28C
100
AcDbEntity
  8
0
100
AcDbSpline
 62
7
  6
CONTINUOUS
 70
0
 71
3
 72
9
 73
5
 74
0
 42
0.0000001
 43
0.0000001
 44
0.0000000001
 40
0.0
 40
0.0
 40
0.0
 40
0.0
 40
0.2530098707
 40
1.0
 40
1.0
 40
1.0
 40
1.0
 10
10.4356031756
 20
27.423816082
 30
0.0
 10
10.4099824033
 20
27.8830072984
 30
0.0
 10
10.320921235
 20
29.6985753168
 30
0.0
 10
10.2812218283
 20
31.5166161156
 30
0.0
 10
10.2812218283
 20
32.8744477674
 30
0.0
  0
SPLINE
  5
28D
100
AcDbEntity
  8
0
100
AcDbSpline
 62
7
  6
CONTINUOUS
 70
0
 71
3
 72
10
 73
6
 74
0
 42
0.0000001
 43
0.0000001
 44
0.0000000001
 40
0.0
 40
0.0
 40
0.0
 40
0.0
 40
0.2693154868
 40
0.5259745433
 40
1.0
 40
1.0
 40
1.0
 40
1.0
 10
10.1398275566
 20
15.7569877162
 30
0.0
 10
10.1398275566
 20
15.7279096174
 30
0.0
 10
10.1420292756
 20
15.6710705825
 30
0.0
 10
10.1554715887
 20
15.5638913648
 30
0.0
 10
10.1763169242
 20
15.4869867582
 30
0.0
 10
10.195687636
 20
15.4396133366
 30
0.0
  0
SPLINE
  5
28E
100
AcDbEntity
  8
0
100
AcDbSpline
 62
7
  6
CONTINUOUS
 70
0
 71
3
 72
17
 73
13
 74
0
 42
0.0000001
 43
0.0000001
 44
0.0000000001
 40
0.0
 40
0.0
 40
0.0
 40
0.0
 40
0.0550108744
 40
0.1122793707
 40
0.2325844834
 40
0.3590953218
 40
0.4895589527
 40
0.6214392681
 40
0.7521125561
 40
0.8790649955
 40
0.9404492118
 40
1.0
 40
1.0
 40
1.0
 40
1.0
 10
13.4632155915
 20
17.7428098745
 30
0.0
 10
13.4632156029
 20
17.7067888955
 30
0.0
 10
13.4603977977
 20
17.6332455919
 30
0.0
 10
13.4441574507
 20
17.4817255642
 30
0.0
 10
13.4037491357
 20
17.2862069964
 30
0.0
 10
13.3267931553
 20
17.050981981
 30
0.0
 10
13.2228240728
 20
16.8180724748
 30
0.0
 10
13.0948545269
 20
16.5943095874
 30
0.0
 10
12.9466599205
 20
16.3862238577
 30
0.0
 10
12.8082973688
 20
16.2291321845
 30
0.0
 10
12.6910091336
 20
16.1168219103
 30
0.0
 10
12.6306373241
 20
16.0654839676
 30
0.0
 10
12.6001329666
 20
16.0411941952
 30
0.0
  0
SPLINE
  5
28F
100
AcDbEntity
  8
0
100
AcDbSpline
 62
7
  6
CONTINUOUS
 70
0
 71
3
 72
9
 73
5
 74
0
 42
0.0000001
 43
0.0000001
 44
0.0000000001
 40
0.0
 40
0.0
 40
0.0
 40
0.0
 40
0.5105186848
 40
1.0
 40
1.0
 40
1.0
 40
1.0
 10
12.6001329666
 20
16.0411941952
 30
0.0
 10
12.4597052977
 20
15.9293755434
 30
0.0
 10
12.177189912
 20
15.7194968972
 30
0.0
 10
11.8798642998
 20
15.5310311549
 30
0.0
 10
11.7308111903
 20
15.4449758157
 30
0.0
  0
SPLINE
  5
290
100
AcDbEntity
  8
0
100
AcDbSpline
 62
7
  6
CONTINUOUS
 70
0
 71
3
 72
9
 73
5
 74
0
 42
0.0000001
 43
0.0000001
 44
0.0000000001
 40
0.0
 40
0.0
 40
0.0
 40
0.0
 40
0.5126712597
 40
1.0
 40
1.0
 40
1.0
 40
1.0
 10
11.7308111903
 20
15.4449758157
 30
0.0
 10
11.5885741949
 20
15.3628557383
 30
0.0
 10
11.3046619152
 20
15.2135451864
 30
0.0
 10
11.0084565506
 20
15.090070037
 30
0.0
 10
10.8614894538
 20
15.0373938762
 30
0.0
  0
SPLINE
  5
291
100
AcDbEntity
  8
0
100
AcDbSpline
 62
7
  6
CONTINUOUS
 70
0
 71
3
 72
15
 73
11
 74
0
 42
0.0000001
 43
0.0000001
 44
0.0000000001
 40
0.0
 40
0.0
 40
0.0
 40
0.0
 40
0.1418388754
 40
0.2778558359
 40
0.4082422751
 40
0.5334507183
 40
0.6542369364
 40
0.7715252723
 40
0.8863883
 40
1.0
 40
1.0
 40
1.0
 40
1.0
 10
10.8614894538
 20
15.0373938762
 30
0.0
 10
10.8360987626
 20
15.028293305
 30
0.0
 10
10.7856366776
 20
15.0123929451
 30
0.0
 10
10.7097667231
 20
14.9954808003
 30
0.0
 10
10.6357625811
 20
14.9861468467
 30
0.0
 10
10.5640731523
 20
14.9845053294
 30
0.0
 10
10.4951046706
 20
14.9905462306
 30
0.0
 10
10.4292400957
 20
15.0042891762
 30
0.0
 10
10.3668785053
 20
15.0256470571
 30
0.0
 10
10.3277868261
 20
15.0449344329
 30
0.0
 10
10.3090764419
 20
15.0557363282
 30
0.0
  0
LINE
  5
292
100
AcDbEntity
  8
0
100
AcDbLine
 62
7
  6
CONTINUOUS
 10
8.8476390723
 20
30.3025072408
 11
8.8459663874
 21
30.3962822087
  0
SPLINE
  5
293
100
AcDbEntity
  8
0
100
AcDbSpline
 62
7
  6
CONTINUOUS
 70
0
 71
3
 72
17
 73
13
 74
0
 42
0.0000001
 43
0.0000001
 44
0.0000000001
 40
0.0
 40
0.0
 40
0.0
 40
0.0
 40
0.0571982561
 40
0.1167146218
 40
0.2413330637
 40
0.3713890741
 40
0.5040013407
 40
0.6360619873
 40
0.7645033242
 40
0.8865642195
 40
0.9445131717
 40
1.0
 40
1.0
 40
1.0
 40
1.0
 10
6.9707943732
 20
25.423419728
 30
0.0
 10
6.9722963912
 20
25.396499639
 30
0.0
 10
6.9775107137
 20
25.3416704391
 30
0.0
 10
6.996160384
 20
25.2293784857
 30
0.0
 10
7.0348656367
 20
25.0859877157
 30
0.0
 10
7.1026701684
 20
24.9160967262
 30
0.0
 10
7.1902199812
 20
24.7515016295
 30
0.0
 10
7.2945251616
 20
24.5978927778
 30
0.0
 10
7.41196276
 20
24.460548687
 30
0.0
 10
7.5193283182
 20
24.3618374326
 30
0.0
 10
7.6084837959
 20
24.2955703162
 30
0.0
 10
7.6536911849
 20
24.2668914503
 30
0.0
 10
7.6763424076
 20
24.2538140566
 30
0.0
  0
SPLINE
  5
294
100
AcDbEntity
  8
0
100
AcDbSpline
 62
7
  6
CONTINUOUS
 70
0
 71
3
 72
11
 73
7
 74
0
 42
0.0000001
 43
0.0000001
 44
0.0000000001
 40
0.0
 40
0.0
 40
0.0
 40
0.0
 40
0.2572789294
 40
0.5098232527
 40
0.7574492679
 40
1.0
 40
1.0
 40
1.0
 40
1.0
 10
4.6360363998
 20
18.8383091936
 30
0.0
 10
4.4710011215
 20
20.0205650374
 30
0.0
 10
4.1812065178
 20
22.3687140334
 30
0.0
 10
3.866940577
 20
25.8696944872
 30
0.0
 10
3.6775854368
 20
29.3112375181
 30
0.0
 10
3.6344192628
 20
31.585751296
 30
0.0
 10
3.6344192628
 20
32.7111348088
 30
0.0
  0
SPLINE
  5
295
100
AcDbEntity
  8
0
100
AcDbSpline
 62
7
  6
CONTINUOUS
 70
0
 71
3
 72
9
 73
5
 74
0
 42
0.0000001
 43
0.0000001
 44
0.0000000001
 40
0.0
 40
0.0
 40
0.0
 40
0.0
 40
0.2469928435
 40
1.0
 40
1.0
 40
1.0
 40
1.0
 10
6.816413026
 20
30.8740514134
 30
0.0
 10
6.816413026
 20
30.4250828405
 30
0.0
 10
6.8295481483
 20
28.6073611324
 30
0.0
 10
6.8945418249
 20
26.790064733
 30
0.0
 10
6.9707943732
 20
25.423419728
 30
0.0
  0
SPLINE
  5
296
100
AcDbEntity
  8
0
100
AcDbSpline
 62
7
  6
CONTINUOUS
 70
0
 71
3
 72
17
 73
13
 74
0
 42
0.0000001
 43
0.0000001
 44
0.0000000001
 40
0.0
 40
0.0
 40
0.0
 40
0.0
 40
0.0571982561
 40
0.1167146218
 40
0.2413330637
 40
0.3713890741
 40
0.5040013407
 40
0.6360619873
 40
0.7645033242
 40
0.8865642195
 40
0.9445131717
 40
1.0
 40
1.0
 40
1.0
 40
1.0
 10
10.0113408733
 20
27.1788695896
 30
0.0
 10
10.0128428913
 20
27.1519495007
 30
0.0
 10
10.0180572137
 20
27.0971203007
 30
0.0
 10
10.0367068839
 20
26.9848283474
 30
0.0
 10
10.0754121367
 20
26.8414375774
 30
0.0
 10
10.1432166685
 20
26.6715465879
 30
0.0
 10
10.2307664813
 20
26.5069514911
 30
0.0
 10
10.3350716616
 20
26.3533426395
 30
0.0
 10
10.4525092601
 20
26.2159985487
 30
0.0
 10
10.5598748182
 20
26.1172872942
 30
0.0
 10
10.6490302959
 20
26.0510201779
 30
0.0
 10
10.6942376849
 20
26.0223413119
 30
0.0
 10
10.7168889076
 20
26.0092639183
 30
0.0
  0
SPLINE
  5
297
100
AcDbEntity
  8
0
100
AcDbSpline
 62
7
  6
CONTINUOUS
 70
0
 71
3
 72
9
 73
5
 74
0
 42
0.0000001
 43
0.0000001
 44
0.0000000001
 40
0.0
 40
0.0
 40
0.0
 40
0.0
 40
0.2469928435
 40
1.0
 40
1.0
 40
1.0
 40
1.0
 10
9.856959526
 20
32.6295012751
 30
0.0
 10
9.856959526
 20
32.1805327021
 30
0.0
 10
9.8700946483
 20
30.362810994
 30
0.0
 10
9.9350883249
 20
28.5455145947
 30
0.0
 10
10.0113408733
 20
27.1788695896
 30
0.0
  0
SPLINE
  5
298
100
AcDbEntity
  8
0
100
AcDbSpline
 62
7
  6
CONTINUOUS
 70
0
 71
3
 72
14
 73
10
 74
0
 42
0.0000001
 43
0.0000001
 44
0.0000000001
 40
0.0
 40
0.0
 40
0.0
 40
0.0
 40
0.1080074622
 40
0.2184327012
 40
0.333484758
 40
0.4544881899
 40
0.5820547584
 40
0.716082529
 40
1.0
 40
1.0
 40
1.0
 40
1.0
 10
4.4943965772
 20
18.973306008
 30
0.0
 10
4.4954195624
 20
18.9659980025
 30
0.0
 10
4.4989911235
 20
18.9513868017
 30
0.0
 10
4.508673322
 20
18.9306215669
 30
0.0
 10
4.5223577255
 20
18.9111714648
 30
0.0
 10
4.5396595569
 20
18.8932274138
 30
0.0
 10
4.5601660003
 20
18.8769142419
 30
0.0
 10
4.5917130678
 20
18.8569732718
 30
0.0
 10
4.6178730737
 20
18.8451188385
 30
0.0
 10
4.6360363594
 20
18.8383094929
 30
0.0
  0
SPLINE
  5
299
100
AcDbEntity
  8
0
100
AcDbSpline
 62
7
  6
CONTINUOUS
 70
0
 71
3
 72
11
 73
7
 74
0
 42
0.0000001
 43
0.0000001
 44
0.0000000001
 40
0.0
 40
0.0
 40
0.0
 40
0.0
 40
0.229520401
 40
0.4700325433
 40
0.7260841972
 40
1.0
 40
1.0
 40
1.0
 40
1.0
 10
10.1393260143
 20
15.8176953496
 30
0.0
 10
10.1572201497
 20
15.811044348
 30
0.0
 10
10.1953967338
 20
15.8012763922
 30
0.0
 10
10.2560076205
 20
15.7977875041
 30
0.0
 10
10.3199394554
 20
15.8051616008
 30
0.0
 10
10.3626513618
 20
15.8167039282
 30
0.0
 10
10.384226241
 20
15.8240236843
 30
0.0
  0
SPLINE
  5
29A
100
AcDbEntity
  8
0
100
AcDbSpline
 62
7
  6
CONTINUOUS
 70
0
 71
3
 72
17
 73
13
 74
0
 42
0.0000001
 43
0.0000001
 44
0.0000000001
 40
0.0
 40
0.0
 40
0.0
 40
0.0
 40
0.1292975519
 40
0.2511707695
 40
0.3683595449
 40
0.4263334202
 40
0.4844402703
 40
0.54312438
 40
0.6028080847
 40
0.7265671826
 40
0.8584769914
 40
1.0
 40
1.0
 40
1.0
 40
1.0
 10
10.195687636
 20
15.4396133366
 30
0.0
 10
10.2079031667
 20
15.4097387767
 30
0.0
 10
10.2362850031
 20
15.353416075
 30
0.0
 10
10.2924616474
 20
15.2799127168
 30
0.0
 10
10.3491412468
 20
15.2311485706
 30
0.0
 10
10.3989744281
 20
15.2008383749
 30
0.0
 10
10.438567908
 20
15.1823126083
 30
0.0
 10
10.4803169683
 20
15.1679955778
 30
0.0
 10
10.5393121956
 20
15.1544309438
 30
0.0
 10
10.6183541289
 20
15.1486310249
 30
0.0
 10
10.7173651792
 20
15.1592363104
 30
0.0
 10
10.7835612451
 20
15.1769893501
 30
0.0
 10
10.8170154622
 20
15.1883396851
 30
0.0
  0
SPLINE
  5
29B
100
AcDbEntity
  8
0
100
AcDbSpline
 62
7
  6
CONTINUOUS
 70
0
 71
3
 72
14
 73
10
 74
0
 42
0.0000001
 43
0.0000001
 44
0.0000000001
 40
0.0
 40
0.0
 40
0.0
 40
0.0
 40
0.1484706784
 40
0.2895347551
 40
0.5484827258
 40
0.6678688404
 40
0.7818327218
 40
0.8919316064
 40
1.0
 40
1.0
 40
1.0
 40
1.0
 10
3.6344192628
 20
32.7111348088
 30
0.0
 10
3.623156356
 20
32.717637304
 30
0.0
 10
3.6017014501
 20
32.7312495747
 30
0.0
 10
3.5636767224
 20
32.7606646867
 30
0.0
 10
3.5319777591
 20
32.7940098676
 30
0.0
 10
3.5090626588
 20
32.8306880066
 30
0.0
 10
3.4969596835
 20
32.8583624414
 30
0.0
 10
3.4896275337
 20
32.8866426708
 30
0.0
 10
3.4879736737
 20
32.9057906916
 30
0.0
 10
3.4879736763
 20
32.9152568857
 30
0.0
  0
SPLINE
  5
29C
100
AcDbEntity
  8
0
100
AcDbSpline
 62
7
  6
CONTINUOUS
 70
0
 71
3
 72
15
 73
11
 74
0
 42
0.0000001
 43
0.0000001
 44
0.0000000001
 40
0.0
 40
0.0
 40
0.0
 40
0.0
 40
0.1080120334
 40
0.2180594242
 40
0.332002721
 40
0.4513520266
 40
0.5772549989
 40
0.7104976
 40
0.8514750731
 40
1.0
 40
1.0
 40
1.0
 40
1.0
 10
10.3090764419
 20
15.0557363282
 30
0.0
 10
10.2844830432
 20
15.0699346105
 30
0.0
 10
10.2372049418
 20
15.1029353314
 30
0.0
 10
10.1747170719
 20
15.1644131881
 30
0.0
 10
10.1210009596
 20
15.2374008228
 30
0.0
 10
10.0764958655
 20
15.321033188
 30
0.0
 10
10.0415997308
 20
15.4144984607
 30
0.0
 10
10.0165429812
 20
15.5168912839
 30
0.0
 10
10.0015703766
 20
15.6271993926
 30
0.0
 10
9.9984067951
 20
15.7033643969
 30
0.0
 10
9.9984067891
 20
15.742413368
 30
0.0
  0
SPLINE
  5
29D
100
AcDbEntity
  8
0
100
AcDbSpline
 62
7
  6
CONTINUOUS
 70
0
 71
3
 72
9
 73
5
 74
0
 42
0.0000001
 43
0.0000001
 44
0.0000000001
 40
0.0
 40
0.0
 40
0.0
 40
0.0
 40
0.4861776694
 40
1.0
 40
1.0
 40
1.0
 40
1.0
 10
10.8170154622
 20
15.1883396851
 30
0.0
 10
10.9715376908
 20
15.240765932
 30
0.0
 10
11.2834502412
 20
15.3665529634
 30
0.0
 10
11.5814632638
 20
15.5220507482
 30
0.0
 10
11.7308111903
 20
15.6082762991
 30
0.0
  0
SPLINE
  5
29E
100
AcDbEntity
  8
0
100
AcDbSpline
 62
7
  6
CONTINUOUS
 70
0
 71
3
 72
9
 73
5
 74
0
 42
0.0000001
 43
0.0000001
 44
0.0000000001
 40
0.0
 40
0.0
 40
0.0
 40
0.0
 40
0.4887036397
 40
1.0
 40
1.0
 40
1.0
 40
1.0
 10
11.7308111903
 20
15.6082762991
 30
0.0
 10
11.887939869
 20
15.6989940425
 30
0.0
 10
12.2012204706
 20
15.8991480683
 30
0.0
 10
12.4974918254
 20
16.1235340993
 30
0.0
 10
12.6446069184
 20
16.2434938058
 30
0.0
  0
SPLINE
  5
29F
100
AcDbEntity
  8
0
100
AcDbSpline
 62
7
  6
CONTINUOUS
 70
0
 71
3
 72
16
 73
12
 74
0
 42
0.0000001
 43
0.0000001
 44
0.0000000001
 40
0.0
 40
0.0
 40
0.0
 40
0.0
 40
0.1214114916
 40
0.2486489489
 40
0.3793942174
 40
0.5111833787
 40
0.6414546095
 40
0.7677378813
 40
0.8878424908
 40
0.9450368906
 40
1.0
 40
1.0
 40
1.0
 40
1.0
 10
12.6446069184
 20
16.2434938058
 30
0.0
 10
12.6933607001
 20
16.283248322
 30
0.0
 10
12.7881235686
 20
16.371040781
 30
0.0
 10
12.9171072397
 20
16.5198284455
 30
0.0
 10
13.0334094997
 20
16.6853493997
 30
0.0
 10
13.1336994146
 20
16.8628212614
 30
0.0
 10
13.2151033382
 20
17.047208546
 30
0.0
 10
13.2753104398
 20
17.2332176675
 30
0.0
 10
13.3069010472
 20
17.38773401
 30
0.0
 10
13.3195938577
 20
17.5074775377
 30
0.0
 10
13.321794824
 20
17.5656081202
 30
0.0
 10
13.321794824
 20
17.5940864086
 30
0.0
  0
SPLINE
  5
2A0
100
AcDbEntity
  8
0
100
AcDbSpline
 62
7
  6
CONTINUOUS
 70
0
 71
3
 72
13
 73
9
 74
0
 42
0.0000001
 43
0.0000001
 44
0.0000000001
 40
0.0
 40
0.0
 40
0.0
 40
0.0
 40
0.2893076972
 40
0.5483384252
 40
0.6677626945
 40
0.7817629977
 40
0.8918970688
 40
1.0
 40
1.0
 40
1.0
 40
1.0
 10
5.9325055562
 20
34.2012252905
 30
0.0
 10
5.9193417262
 20
34.2088252594
 30
0.0
 10
5.8954660996
 20
34.2252620132
 30
0.0
 10
5.8710427016
 20
34.250947565
 30
0.0
 10
5.8572912451
 20
34.2729576794
 30
0.0
 10
5.8500298972
 20
34.2895617506
 30
0.0
 10
5.8456304943
 20
34.3065300407
 30
0.0
 10
5.8446382027
 20
34.3180188202
 30
0.0
 10
5.8446382043
 20
34.3236985367
 30
0.0
  0
SPLINE
  5
2A1
100
AcDbEntity
  8
0
100
AcDbSpline
 62
7
  6
CONTINUOUS
 70
0
 71
3
 72
14
 73
10
 74
0
 42
0.0000001
 43
0.0000001
 44
0.0000000001
 40
0.0
 40
0.0
 40
0.0
 40
0.0
 40
0.1108995473
 40
0.2240688237
 40
0.3400134748
 40
0.460903851
 40
0.5876746361
 40
0.7193337238
 40
1.0
 40
1.0
 40
1.0
 40
1.0
 10
5.0362876702
 20
18.0998079824
 30
0.0
 10
5.008402179
 20
18.1159535294
 30
0.0
 10
4.9545148098
 20
18.1529930897
 30
0.0
 10
4.8817919897
 20
18.2203271083
 30
0.0
 10
4.8173662056
 20
18.2994262975
 30
0.0
 10
4.7617773872
 20
18.3895800394
 30
0.0
 10
4.715195354
 20
18.4897280073
 30
0.0
 10
4.6646635866
 20
18.6382357576
 30
0.0
 10
4.6437958658
 20
18.7571326708
 30
0.0
 10
4.6360326052
 20
18.8383111045
 30
0.0
  0
SPLINE
  5
2A2
100
AcDbEntity
  8
0
100
AcDbSpline
 62
7
  6
CONTINUOUS
 70
0
 71
3
 72
14
 73
10
 74
0
 42
0.0000001
 43
0.0000001
 44
0.0000000001
 40
0.0
 40
0.0
 40
0.0
 40
0.0
 40
0.1256643374
 40
0.2516420665
 40
0.3454763722
 40
0.438395736
 40
0.6236019088
 40
0.811383241
 40
1.0
 40
1.0
 40
1.0
 40
1.0
 10
8.2819560025
 20
29.9759119177
 30
0.0
 10
8.2818840153
 20
29.979840257
 30
0.0
 10
8.2816472574
 20
29.9877048217
 30
0.0
 10
8.2812750205
 20
29.9984999112
 30
0.0
 10
8.2810684936
 20
30.008276148
 30
0.0
 10
8.281062119
 20
30.0199061154
 30
0.0
 10
8.2812516805
 20
30.0344734204
 30
0.0
 10
8.2808094639
 20
30.0520295044
 30
0.0
 10
8.2803856143
 20
30.0637905149
 30
0.0
 10
8.2802833177
 20
30.0696868856
 30
0.0
  0
SPLINE
  5
2A3
100
AcDbEntity
  8
0
100
AcDbSpline
 62
7
  6
CONTINUOUS
 70
0
 71
3
 72
12
 73
8
 74
0
 42
0.0000001
 43
0.0000001
 44
0.0000000001
 40
0.0
 40
0.0
 40
0.0
 40
0.0
 40
0.2507878938
 40
0.4379546109
 40
0.624390014
 40
0.8120110188
 40
1.0
 40
1.0
 40
1.0
 40
1.0
 10
8.269552474
 20
30.892384618
 30
0.0
 10
8.2694818649
 20
30.9004849002
 30
0.0
 10
8.2691906534
 20
30.9146286054
 30
0.0
 10
8.2690931053
 20
30.934797082
 30
0.0
 10
8.2692135182
 20
30.9529249433
 30
0.0
 10
8.2690028535
 20
30.971078715
 30
0.0
 10
8.2688041893
 20
30.9832095514
 30
0.0
 10
8.2687574849
 20
30.9892815216
 30
0.0
  0
SPLINE
  5
2A4
100
AcDbEntity
  8
0
100
AcDbSpline
 62
7
  6
CONTINUOUS
 70
0
 71
3
 72
15
 73
11
 74
0
 42
0.0000001
 43
0.0000001
 44
0.0000000001
 40
0.0
 40
0.0
 40
0.0
 40
0.0
 40
0.1213988669
 40
0.2486727704
 40
0.379414851
 40
0.5112168617
 40
0.6415003581
 40
0.7677805951
 40
0.8879187432
 40
1.0
 40
1.0
 40
1.0
 40
1.0
 10
12.0975942907
 20
16.8132308384
 30
0.0
 10
12.1300913569
 20
16.8397293136
 30
0.0
 10
12.1932641912
 20
16.8982637259
 30
0.0
 10
12.279259853
 20
16.9974479907
 30
0.0
 10
12.356795817
 20
17.1078029435
 30
0.0
 10
12.4236598792
 20
17.2261154156
 30
0.0
 10
12.477922619
 20
17.3490360291
 30
0.0
 10
12.5180718864
 20
17.4730655359
 30
0.0
 10
12.5429111614
 20
17.5946412031
 30
0.0
 10
12.549053301
 20
17.6749133107
 30
0.0
 10
12.549053301
 20
17.7136262384
 30
0.0
  0
SPLINE
  5
2A5
100
AcDbEntity
  8
0
100
AcDbSpline
 62
7
  6
CONTINUOUS
 70
0
 71
3
 72
9
 73
5
 74
0
 42
0.0000001
 43
0.0000001
 44
0.0000000001
 40
0.0
 40
0.0
 40
0.0
 40
0.0
 40
0.4887036095
 40
1.0
 40
1.0
 40
1.0
 40
1.0
 10
11.2409112021
 20
16.2177147574
 30
0.0
 10
11.3882192561
 20
16.3027625944
 30
0.0
 10
11.6819197622
 20
16.4904067686
 30
0.0
 10
11.959673927
 20
16.7007686926
 30
0.0
 10
12.0975942906
 20
16.8132308385
 30
0.0
  0
SPLINE
  5
2A6
100
AcDbEntity
  8
0
100
AcDbSpline
 62
7
  6
CONTINUOUS
 70
0
 71
3
 72
9
 73
5
 74
0
 42
0.0000001
 43
0.0000001
 44
0.0000000001
 40
0.0
 40
0.0
 40
0.0
 40
0.0
 40
0.4861775952
 40
1.0
 40
1.0
 40
1.0
 40
1.0
 10
10.384226241
 20
15.8240236844
 30
0.0
 10
10.5290910903
 20
15.8731732347
 30
0.0
 10
10.8215096347
 20
15.9910986852
 30
0.0
 10
11.1008972705
 20
16.1368781588
 30
0.0
 10
11.2409112021
 20
16.2177147574
 30
0.0
  0
SPLINE
  5
2A7
100
AcDbEntity
  8
0
100
AcDbSpline
 62
7
  6
CONTINUOUS
 70
0
 71
3
 72
11
 73
7
 74
0
 42
0.0000001
 43
0.0000001
 44
0.0000000001
 40
0.0
 40
0.0
 40
0.0
 40
0.0
 40
0.2585945258
 40
0.5114927034
 40
0.7586344016
 40
1.0
 40
1.0
 40
1.0
 40
1.0
 10
27.0447484507
 20
23.0766679592
 30
0.0
 10
27.0447484507
 20
21.9688809817
 30
0.0
 10
27.0040400494
 20
19.7774578885
 30
0.0
 10
26.8161589968
 20
16.5321450958
 30
0.0
 10
26.5024007152
 20
13.3706942983
 30
0.0
 10
26.2060863479
 20
11.2982574628
 30
0.0
 10
26.0363482245
 20
10.2783043263
 30
0.0
  0
SPLINE
  5
2A8
100
AcDbEntity
  8
0
100
AcDbSpline
 62
7
  6
CONTINUOUS
 70
0
 71
3
 72
14
 73
10
 74
0
 42
0.0000001
 43
0.0000001
 44
0.0000000001
 40
0.0
 40
0.0
 40
0.0
 40
0.0
 40
0.1484706784
 40
0.2895347551
 40
0.5484827258
 40
0.6678688404
 40
0.7818327218
 40
0.8919316064
 40
1.0
 40
1.0
 40
1.0
 40
1.0
 10
26.8983003693
 20
23.2807900362
 30
0.0
 10
26.9095632761
 20
23.274287541
 30
0.0
 10
26.9310181819
 20
23.2606752702
 30
0.0
 10
26.9690429096
 20
23.2312601582
 30
0.0
 10
27.000741873
 20
23.1979149773
 30
0.0
 10
27.0236569732
 20
23.1612368383
 30
0.0
 10
27.0357599486
 20
23.1335624036
 30
0.0
 10
27.0430920983
 20
23.1052821742
 30
0.0
 10
27.0447459584
 20
23.0861341534
 30
0.0
 10
27.0447459557
 20
23.0766679592
 30
0.0
  0
SPLINE
  5
2A9
100
AcDbEntity
  8
0
100
AcDbSpline
 62
7
  6
CONTINUOUS
 70
0
 71
3
 72
13
 73
9
 74
0
 42
0.0000001
 43
0.0000001
 44
0.0000000001
 40
0.0
 40
0.0
 40
0.0
 40
0.0
 40
0.2893076972
 40
0.5483384252
 40
0.6677626945
 40
0.7817629977
 40
0.8918970688
 40
1.0
 40
1.0
 40
1.0
 40
1.0
 10
24.6002140759
 20
21.7906995544
 30
0.0
 10
24.6133779059
 20
21.7830995856
 30
0.0
 10
24.6372535325
 20
21.7666628317
 30
0.0
 10
24.6616769305
 20
21.74097728
 30
0.0
 10
24.675428387
 20
21.7189671656
 30
0.0
 10
24.6826897349
 20
21.7023630944
 30
0.0
 10
24.6870891378
 20
21.6853948042
 30
0.0
 10
24.6880814294
 20
21.6739060247
 30
0.0
 10
24.6880814278
 20
21.6682263083
 30
0.0
  0
SPLINE
  5
2AA
100
AcDbEntity
  8
0
100
AcDbSpline
 62
7
  6
CONTINUOUS
 70
0
 71
3
 72
11
 73
7
 74
0
 42
0.0000001
 43
0.0000001
 44
0.0000000001
 40
0.0
 40
0.0
 40
0.0
 40
0.0
 40
0.2411531274
 40
0.4882245119
 40
0.741194757
 40
1.0
 40
1.0
 40
1.0
 40
1.0
 10
23.6450551346
 20
8.6661463553
 30
0.0
 10
23.8206287546
 20
9.7010336716
 30
0.0
 10
24.1271432066
 20
11.8047869561
 30
0.0
 10
24.4516536438
 20
15.0155947076
 30
0.0
 10
24.6459934881
 20
18.3138289815
 30
0.0
 10
24.6880829247
 20
20.5417162481
 30
0.0
 10
24.6880829247
 20
21.6682263083
 30
0.0
  0
SPLINE
  5
2AB
100
AcDbEntity
  8
0
100
AcDbSpline
 62
7
  6
CONTINUOUS
 70
0
 71
3
 72
15
 73
11
 74
0
 42
0.0000001
 43
0.0000001
 44
0.0000000001
 40
0.0
 40
0.0
 40
0.0
 40
0.0
 40
0.1099847787
 40
0.2217195501
 40
0.3367961733
 40
0.4565855046
 40
0.5821912902
 40
0.7144315952
 40
0.8537158294
 40
1.0
 40
1.0
 40
1.0
 40
1.0
 10
19.8915635293
 20
17.4406585132
 30
0.0
 10
19.9065671101
 20
17.4493191223
 30
0.0
 10
19.9354934684
 20
17.4691842158
 30
0.0
 10
19.9742150771
 20
17.5057243335
 30
0.0
 10
20.0081479063
 20
17.5487277847
 30
0.0
 10
20.0369868317
 20
17.5978241518
 30
0.0
 10
20.0605569496
 20
17.6525883738
 30
0.0
 10
20.0786789204
 20
17.7125845145
 30
0.0
 10
20.0912305461
 20
17.7772852393
 30
0.0
 10
20.0957447635
 20
17.8221051183
 30
0.0
 10
20.0971164565
 20
17.8451055841
 30
0.0
  0
SPLINE
  5
2AC
100
AcDbEntity
  8
0
100
AcDbSpline
 62
7
  6
CONTINUOUS
 70
0
 71
3
 72
10
 73
6
 74
0
 42
0.0000001
 43
0.0000001
 44
0.0000000001
 40
0.0
 40
0.0
 40
0.0
 40
0.0
 40
0.4750668464
 40
0.7314953243
 40
1.0
 40
1.0
 40
1.0
 40
1.0
 10
20.0596797252
 20
17.6444296471
 30
0.0
 10
20.0187628684
 20
17.650694626
 30
0.0
 10
19.9567643474
 20
17.6678064941
 30
0.0
 10
19.8765920408
 20
17.7020253601
 30
0.0
 10
19.8360918962
 20
17.7234271414
 30
0.0
 10
19.8158307245
 20
17.7351246697
 30
0.0
  0
LINE
  5
2AD
100
AcDbEntity
  8
0
100
AcDbLine
 62
7
  6
CONTINUOUS
 10
21.6974840883
 20
23.1399400696
 11
21.6982790774
 21
23.2359190196
  0
SPLINE
  5
2AE
100
AcDbEntity
  8
0
100
AcDbSpline
 62
7
  6
CONTINUOUS
 70
0
 71
3
 72
9
 73
5
 74
0
 42
0.0000001
 43
0.0000001
 44
0.0000000001
 40
0.0
 40
0.0
 40
0.0
 40
0.0
 40
0.2467914205
 40
1.0
 40
1.0
 40
1.0
 40
1.0
 10
20.0971164565
 20
17.8451055841
 30
0.0
 10
20.1229501595
 20
18.2782835603
 30
0.0
 10
20.2140401773
 20
20.034314132
 30
0.0
 10
20.2514978038
 20
21.7930668863
 30
0.0
 10
20.2514978038
 20
23.1174770775
 30
0.0
  0
SPLINE
  5
2AF
100
AcDbEntity
  8
0
100
AcDbSpline
 62
7
  6
CONTINUOUS
 70
0
 71
3
 72
15
 73
11
 74
0
 42
0.0000001
 43
0.0000001
 44
0.0000000001
 40
0.0
 40
0.0
 40
0.0
 40
0.0
 40
0.1485249401
 40
0.2895024086
 40
0.4227450098
 40
0.5486479834
 40
0.6679972881
 40
0.7819405829
 40
0.8919879706
 40
1.0
 40
1.0
 40
1.0
 40
1.0
 10
17.0695040406
 20
11.6600059754
 30
0.0
 10
17.0695040282
 20
11.6209569932
 30
0.0
 10
17.0726675965
 20
11.5447919699
 30
0.0
 10
17.087640216
 20
11.4344838392
 30
0.0
 10
17.1126969633
 20
11.3320909958
 30
0.0
 10
17.14759309
 20
11.2386256993
 30
0.0
 10
17.1920981854
 20
11.154993314
 30
0.0
 10
17.2458143043
 20
11.0820056642
 30
0.0
 10
17.3083021823
 20
11.0205277948
 30
0.0
 10
17.3555802908
 20
10.9875270675
 30
0.0
 10
17.3801736934
 20
10.973328783
 30
0.0
  0
SPLINE
  5
2B0
100
AcDbEntity
  8
0
100
AcDbSpline
 62
7
  6
CONTINUOUS
 70
0
 71
3
 72
10
 73
6
 74
0
 42
0.0000001
 43
0.0000001
 44
0.0000000001
 40
0.0
 40
0.0
 40
0.0
 40
0.0
 40
0.5345962039
 40
0.7766548162
 40
1.0
 40
1.0
 40
1.0
 40
1.0
 10
25.1955014219
 20
9.0867317725
 30
0.0
 10
25.2171572329
 20
9.0895114621
 30
0.0
 10
25.2483964272
 20
9.0963325415
 30
0.0
 10
25.2866150044
 20
9.11085757
 30
0.0
 10
25.3036458478
 20
9.119400566
 30
0.0
 10
25.3115454452
 20
9.1239613734
 30
0.0
  0
SPLINE
  5
2B1
100
AcDbEntity
  8
0
100
AcDbSpline
 62
7
  6
CONTINUOUS
 70
0
 71
3
 72
18
 73
14
 74
0
 42
0.0000001
 43
0.0000001
 44
0.0000000001
 40
0.0
 40
0.0
 40
0.0
 40
0.0
 40
0.1731888538
 40
0.249932941
 40
0.3192390919
 40
0.4370806215
 40
0.4889934726
 40
0.5386313495
 40
0.5878975157
 40
0.6383094867
 40
0.7460888703
 40
0.8664095024
 40
1.0
 40
1.0
 40
1.0
 40
1.0
 10
25.2974572301
 20
9.0402295738
 30
0.0
 10
25.290468303
 20
9.0341740371
 30
0.0
 10
25.2796528897
 20
9.0261612771
 30
0.0
 10
25.2643464288
 20
9.0185468026
 30
0.0
 10
25.250980992
 20
9.0140357929
 30
0.0
 10
25.237892342
 20
9.0128446056
 30
0.0
 10
25.2264462064
 20
9.0157522875
 30
0.0
 10
25.2192257402
 20
9.0194695163
 30
0.0
 10
25.2130533227
 20
9.0246064923
 30
0.0
 10
25.2060374818
 20
9.0332543138
 30
0.0
 10
25.1997650262
 20
9.0469808168
 30
0.0
 10
25.1958878013
 20
9.0659980732
 30
0.0
 10
25.1953533392
 20
9.0796002505
 30
0.0
 10
25.1955014219
 20
9.0867317725
 30
0.0
  0
SPLINE
  5
2B2
100
AcDbEntity
  8
0
100
AcDbSpline
 62
7
  6
CONTINUOUS
 70
0
 71
3
 72
20
 73
16
 74
0
 42
0.0000001
 43
0.0000001
 44
0.0000000001
 40
0.0
 40
0.0
 40
0.0
 40
0.0
 40
0.0591267502
 40
0.089130014
 40
0.119326192
 40
0.1496810873
 40
0.1801789459
 40
0.2415418964
 40
0.3033222943
 40
0.3654535341
 40
0.4906005968
 40
0.6167528566
 40
0.7437651534
 40
0.8715388866
 40
1.0
 40
1.0
 40
1.0
 40
1.0
 10
25.1955014219
 20
9.0867317725
 30
0.0
 10
25.1973824287
 20
9.1769111099
 30
0.0
 10
25.2025732701
 20
9.3128029939
 30
0.0
 10
25.212105813
 20
9.4945862518
 30
0.0
 10
25.2201466281
 20
9.6324954858
 30
0.0
 10
25.2288660961
 20
9.7711186329
 30
0.0
 10
25.2413051377
 20
9.9571459495
 30
0.0
 10
25.2580137971
 20
10.1909332638
 30
0.0
 10
25.2793239232
 20
10.4727690262
 30
0.0
 10
25.3089884099
 20
10.8515531794
 30
0.0
 10
25.3475350173
 20
11.3281414827
 30
0.0
 10
25.3946789561
 20
11.9033339985
 30
0.0
 10
25.441930097
 20
12.4825383466
 30
0.0
 10
25.4886777818
 20
13.0653172861
 30
0.0
 10
25.5191216485
 20
13.4550214079
 30
0.0
 10
25.5341256638
 20
13.6504159965
 30
0.0
  0
SPLINE
  5
2B3
100
AcDbEntity
  8
0
100
AcDbSpline
 62
7
  6
CONTINUOUS
 70
0
 71
3
 72
11
 73
7
 74
0
 42
0.0000001
 43
0.0000001
 44
0.0000000001
 40
0.0
 40
0.0
 40
0.0
 40
0.0
 40
0.2592644717
 40
0.512391799
 40
0.7593111039
 40
1.0
 40
1.0
 40
1.0
 40
1.0
 10
26.438685819
 20
22.607188882
 30
0.0
 10
26.438685819
 20
21.4364813551
 30
0.0
 10
26.3932481764
 20
19.1224788788
 30
0.0
 10
26.1832350152
 20
15.6992356796
 30
0.0
 10
25.832607499
 20
12.3718041538
 30
0.0
 10
25.5013081297
 20
10.1940962521
 30
0.0
 10
25.3115454414
 20
9.1239613522
 30
0.0
  0
SPLINE
  5
2B4
100
AcDbEntity
  8
0
100
AcDbSpline
 62
7
  6
CONTINUOUS
 70
0
 71
3
 72
9
 73
5
 74
0
 42
0.0000001
 43
0.0000001
 44
0.0000000001
 40
0.0
 40
0.0
 40
0.0
 40
0.0
 40
0.5079146417
 40
1.0
 40
1.0
 40
1.0
 40
1.0
 10
26.0144217503
 20
22.6071878622
 30
0.0
 10
26.0144217503
 20
21.0880039822
 30
0.0
 10
25.9379961297
 20
18.0963882683
 30
0.0
 10
25.6966473954
 20
15.1132537218
 30
0.0
 10
25.5341256638
 20
13.6504159965
 30
0.0
  0
SPLINE
  5
2B5
100
AcDbEntity
  8
0
100
AcDbSpline
 62
7
  6
CONTINUOUS
 70
0
 71
3
 72
9
 73
5
 74
0
 42
0.0000001
 43
0.0000001
 44
0.0000000001
 40
0.0
 40
0.0
 40
0.0
 40
0.0
 40
0.494493542
 40
1.0
 40
1.0
 40
1.0
 40
1.0
 10
25.5341256638
 20
13.6504159965
 30
0.0
 10
25.6482911641
 20
15.137172743
 30
0.0
 10
25.8183229704
 20
18.1487314942
 30
0.0
 10
25.8729998053
 20
21.1644932344
 30
0.0
 10
25.8729998053
 20
22.6888360131
 30
0.0
  0
SPLINE
  5
2B6
100
AcDbEntity
  8
0
100
AcDbSpline
 62
7
  6
CONTINUOUS
 70
0
 71
3
 72
15
 73
11
 74
0
 42
0.0000001
 43
0.0000001
 44
0.0000000001
 40
0.0
 40
0.0
 40
0.0
 40
0.0
 40
0.1025559653
 40
0.2239716754
 40
0.3573180262
 40
0.4946212778
 40
0.6301036353
 40
0.7604678843
 40
0.8840488187
 40
1.0
 40
1.0
 40
1.0
 40
1.0
 10
23.4161428446
 20
7.9540739269
 30
0.0
 10
23.4237581078
 20
7.9560877913
 30
0.0
 10
23.4396214942
 20
7.9633745485
 30
0.0
 10
23.4615787221
 20
7.9800483859
 30
0.0
 10
23.4824645993
 20
8.0018882043
 30
0.0
 10
23.5010606201
 20
8.0270154825
 30
0.0
 10
23.5167763032
 20
8.0537551403
 30
0.0
 10
23.5294433232
 20
8.0808980022
 30
0.0
 10
23.539118827
 20
8.1076477828
 30
0.0
 10
23.5438051288
 20
8.1254714652
 30
0.0
 10
23.5456359036
 20
8.1341871573
 30
0.0
  0
SPLINE
  5
2B7
100
AcDbEntity
  8
0
100
AcDbSpline
 62
7
  6
CONTINUOUS
 70
0
 71
3
 72
14
 73
10
 74
0
 42
0.0000001
 43
0.0000001
 44
0.0000000001
 40
0.0
 40
0.0
 40
0.0
 40
0.0
 40
0.1485632991
 40
0.2896156807
 40
0.5484521796
 40
0.6678461464
 40
0.7818382019
 40
0.8919394154
 40
1.0
 40
1.0
 40
1.0
 40
1.0
 10
19.3915684222
 20
17.4901781774
 30
0.0
 10
19.4141084859
 20
17.4771649599
 30
0.0
 10
19.459150095
 20
17.4536029807
 30
0.0
 10
19.5481201014
 20
17.4171603331
 30
0.0
 10
19.6375595941
 20
17.3956179961
 30
0.0
 10
19.7239904137
 20
17.3926241898
 30
0.0
 10
19.7840344474
 20
17.3993198248
 30
0.0
 10
19.8403603981
 20
17.4148878021
 30
0.0
 10
19.8751678309
 20
17.4311943233
 30
0.0
 10
19.8915635293
 20
17.4406585132
 30
0.0
  0
SPLINE
  5
2B8
100
AcDbEntity
  8
0
100
AcDbSpline
 62
7
  6
CONTINUOUS
 70
0
 71
3
 72
13
 73
9
 74
0
 42
0.0000001
 43
0.0000001
 44
0.0000000001
 40
0.0
 40
0.0
 40
0.0
 40
0.0
 40
0.255710029
 40
0.5076068311
 40
0.6318399884
 40
0.7550783208
 40
0.8776153099
 40
1.0
 40
1.0
 40
1.0
 40
1.0
 10
25.8913747909
 20
10.0888316115
 30
0.0
 10
25.9095589507
 20
10.0993316913
 30
0.0
 10
25.9440757845
 20
10.1230844828
 30
0.0
 10
25.9810180037
 20
10.1600714935
 30
0.0
 10
26.0047478875
 20
10.1936217002
 30
0.0
 10
26.0191896165
 20
10.2204460509
 30
0.0
 10
26.0300488764
 20
10.2487485897
 30
0.0
 10
26.0346896757
 20
10.268392336
 30
0.0
 10
26.0363399635
 20
10.278305701
 30
0.0
  0
SPLINE
  5
2B9
100
AcDbEntity
  8
0
100
AcDbSpline
 62
7
  6
CONTINUOUS
 70
0
 71
3
 72
9
 73
5
 74
0
 42
0.0000001
 43
0.0000001
 44
0.0000000001
 40
0.0
 40
0.0
 40
0.0
 40
0.0
 40
0.2452299604
 40
1.0
 40
1.0
 40
1.0
 40
1.0
 10
25.1759676751
 20
8.9429306255
 30
0.0
 10
25.186213354
 20
8.9504775845
 30
0.0
 10
25.2276733229
 20
8.9816855746
 30
0.0
 10
25.2678489698
 20
9.0145917088
 30
0.0
 10
25.2974572301
 20
9.0402295738
 30
0.0
  0
SPLINE
  5
2BA
100
AcDbEntity
  8
0
100
AcDbSpline
 62
7
  6
CONTINUOUS
 70
0
 71
3
 72
11
 73
7
 74
0
 42
0.0000001
 43
0.0000001
 44
0.0000000001
 40
0.0
 40
0.0
 40
0.0
 40
0.0
 40
0.258725183
 40
0.511671229
 40
0.7587715475
 40
1.0
 40
1.0
 40
1.0
 40
1.0
 10
24.1405983481
 20
21.2803953819
 30
0.0
 10
24.1405983481
 20
20.1733194101
 30
0.0
 10
24.099935905
 20
17.9836447415
 30
0.0
 10
23.9122709205
 20
14.7414647937
 30
0.0
 10
23.5989648958
 20
11.5841914142
 30
0.0
 10
23.3031170262
 20
9.5148842657
 30
0.0
 10
23.1336698444
 20
8.4966793919
 30
0.0
  0
SPLINE
  5
2BB
100
AcDbEntity
  8
0
100
AcDbSpline
 62
7
  6
CONTINUOUS
 70
0
 71
3
 72
11
 73
7
 74
0
 42
0.0000001
 43
0.0000001
 44
0.0000000001
 40
0.0
 40
0.0
 40
0.0
 40
0.0
 40
0.2539674044
 40
0.5048698083
 40
0.7531790846
 40
1.0
 40
1.0
 40
1.0
 40
1.0
 10
23.5304722453
 20
7.992924616
 30
0.0
 10
23.5231485639
 20
7.9831455205
 30
0.0
 10
23.5073791082
 20
7.9645730901
 30
0.0
 10
23.4804160869
 20
7.9402049255
 30
0.0
 10
23.4505826511
 20
7.9200433988
 30
0.0
 10
23.4290297132
 20
7.9096664154
 30
0.0
 10
23.4179775189
 20
7.9053266405
 30
0.0
  0
SPLINE
  5
2BC
100
AcDbEntity
  8
0
100
AcDbSpline
 62
7
  6
CONTINUOUS
 70
0
 71
3
 72
16
 73
12
 74
0
 42
0.0000001
 43
0.0000001
 44
0.0000000001
 40
0.0
 40
0.0
 40
0.0
 40
0.0
 40
0.1122528853
 40
0.2370174062
 40
0.371455055
 40
0.5103349946
 40
0.6475915421
 40
0.7138194039
 40
0.7775423515
 40
0.8955678959
 40
1.0
 40
1.0
 40
1.0
 40
1.0
 10
22.4318744704
 20
8.5641100026
 30
0.0
 10
22.4537589193
 20
8.5470450385
 30
0.0
 10
22.5029678253
 20
8.5147735352
 30
0.0
 10
22.586299194
 20
8.4755269486
 30
0.0
 10
22.6806121858
 20
8.4462979895
 30
0.0
 10
22.7810355932
 20
8.4295778484
 30
0.0
 10
22.8659525166
 20
8.4272398196
 30
0.0
 10
22.9318461781
 20
8.4326054418
 30
0.0
 10
22.9924674362
 20
8.4420672069
 30
0.0
 10
23.0609753497
 20
8.4608519252
 30
0.0
 10
23.1113102653
 20
8.4837713938
 30
0.0
 10
23.1336698369
 20
8.4966794028
 30
0.0
  0
SPLINE
  5
2BD
100
AcDbEntity
  8
0
100
AcDbSpline
 62
7
  6
CONTINUOUS
 70
0
 71
3
 72
9
 73
5
 74
0
 42
0.0000001
 43
0.0000001
 44
0.0000000001
 40
0.0
 40
0.0
 40
0.0
 40
0.0
 40
0.2593978193
 40
1.0
 40
1.0
 40
1.0
 40
1.0
 10
23.4730743046
 20
8.0625261935
 30
0.0
 10
23.4696127689
 20
8.0524901008
 30
0.0
 10
23.4549449338
 20
8.0142913297
 30
0.0
 10
23.4346201396
 20
7.9780941609
 30
0.0
 10
23.4161426252
 20
7.9540671141
 30
0.0
  0
SPLINE
  5
2BE
100
AcDbEntity
  8
0
100
AcDbSpline
 62
7
  6
CONTINUOUS
 70
0
 71
3
 72
10
 73
6
 74
0
 42
0.0000001
 43
0.0000001
 44
0.0000000001
 40
0.0
 40
0.0
 40
0.0
 40
0.0
 40
0.2412705604
 40
0.4884320235
 40
1.0
 40
1.0
 40
1.0
 40
1.0
 10
23.4161428446
 20
7.9540739269
 30
0.0
 10
23.4255410545
 20
7.9565443259
 30
0.0
 10
23.444463089
 20
7.9619461308
 30
0.0
 10
23.4828036349
 20
7.9742964342
 30
0.0
 10
23.5114253484
 20
7.9850797901
 30
0.0
 10
23.5304815846
 20
7.9929147121
 30
0.0
  0
SPLINE
  5
2BF
100
AcDbEntity
  8
0
100
AcDbSpline
 62
7
  6
CONTINUOUS
 70
0
 71
3
 72
15
 73
11
 74
0
 42
0.0000001
 43
0.0000001
 44
0.0000000001
 40
0.0
 40
0.0
 40
0.0
 40
0.0
 40
0.1555094404
 40
0.3002959622
 40
0.4348719328
 40
0.5600585682
 40
0.6771449749
 40
0.7879799221
 40
0.8947293024
 40
1.0
 40
1.0
 40
1.0
 40
1.0
 10
22.43186795
 20
8.5641147206
 30
0.0
 10
22.427944908
 20
8.5276220829
 30
0.0
 10
22.4232065757
 20
8.4567975511
 30
0.0
 10
22.4259989684
 20
8.3540331979
 30
0.0
 10
22.4388059928
 20
8.2592037581
 30
0.0
 10
22.4615197139
 20
8.1729422604
 30
0.0
 10
22.494098306
 20
8.0958836393
 30
0.0
 10
22.5365039002
 20
8.0287708562
 30
0.0
 10
22.5885496649
 20
7.9725000706
 30
0.0
 10
22.6294503397
 20
7.9429967127
 30
0.0
 10
22.6509231551
 20
7.9304976456
 30
0.0
  0
SPLINE
  5
2C0
100
AcDbEntity
  8
0
100
AcDbSpline
 62
7
  6
CONTINUOUS
 70
0
 71
3
 72
10
 73
6
 74
0
 42
0.0000001
 43
0.0000001
 44
0.0000000001
 40
0.0
 40
0.0
 40
0.0
 40
0.0
 40
0.2300262548
 40
0.5985466549
 40
1.0
 40
1.0
 40
1.0
 40
1.0
 10
25.2974563231
 20
9.0402340132
 30
0.0
 10
25.3001682561
 20
9.0462082516
 30
0.0
 10
25.3060561893
 20
9.0623001608
 30
0.0
 10
25.3113676063
 20
9.0904788393
 30
0.0
 10
25.3119611276
 20
9.1125185375
 30
0.0
 10
25.3115456241
 20
9.1239615003
 30
0.0
  0
SPLINE
  5
2C1
100
AcDbEntity
  8
0
100
AcDbSpline
 62
7
  6
CONTINUOUS
 70
0
 71
3
 72
15
 73
11
 74
0
 42
0.0000001
 43
0.0000001
 44
0.0000000001
 40
0.0
 40
0.0
 40
0.0
 40
0.0
 40
0.104828364
 40
0.2189696708
 40
0.3410018474
 40
0.4692518034
 40
0.6016311371
 40
0.7357945804
 40
0.8694360676
 40
1.0
 40
1.0
 40
1.0
 40
1.0
 10
25.8913748085
 20
10.088831586
 30
0.0
 10
25.8848138853
 20
10.0494054099
 30
0.0
 10
25.8657045662
 20
9.9679087934
 30
0.0
 10
25.8230443437
 20
9.8449009984
 30
0.0
 10
25.7658660957
 20
9.7180795518
 30
0.0
 10
25.6953299839
 20
9.5901946301
 30
0.0
 10
25.612704092
 20
9.464215276
 30
0.0
 10
25.5202917641
 20
9.3426530376
 30
0.0
 10
25.4201871914
 20
9.2282663891
 30
0.0
 10
25.3484115917
 20
9.1574128243
 30
0.0
 10
25.3115454414
 20
9.1239613522
 30
0.0
  0
SPLINE
  5
2C2
100
AcDbEntity
  8
0
100
AcDbSpline
 62
7
  6
CONTINUOUS
 70
0
 71
3
 72
14
 73
10
 74
0
 42
0.0000001
 43
0.0000001
 44
0.0000000001
 40
0.0
 40
0.0
 40
0.0
 40
0.0
 40
0.1080686163
 40
0.2181676814
 40
0.3321316807
 40
0.4515178407
 40
0.7104657183
 40
0.8515296058
 40
1.0
 40
1.0
 40
1.0
 40
1.0
 10
27.0447459557
 20
23.0766679592
 30
0.0
 10
27.0447459531
 20
23.0672018678
 30
0.0
 10
27.0430921291
 20
23.0480540609
 30
0.0
 10
27.0357601495
 20
23.0197741316
 30
0.0
 10
27.0236574283
 20
22.9920999806
 30
0.0
 10
27.0007428214
 20
22.955422187
 30
0.0
 10
26.9690444933
 20
22.9220772564
 30
0.0
 10
26.9310205016
 20
22.8926622893
 30
0.0
 10
26.9095660062
 20
22.879050062
 30
0.0
 10
26.8983033132
 20
22.872547582
 30
0.0
  0
SPLINE
  5
2C3
100
AcDbEntity
  8
0
100
AcDbSpline
 62
7
  6
CONTINUOUS
 70
0
 71
3
 72
13
 73
9
 74
0
 42
0.0000001
 43
0.0000001
 44
0.0000000001
 40
0.0
 40
0.0
 40
0.0
 40
0.0
 40
0.1081031538
 40
0.2182374053
 40
0.3322378261
 40
0.4516621405
 40
0.7106927748
 40
1.0
 40
1.0
 40
1.0
 40
1.0
 10
24.6880814278
 20
21.6682263083
 30
0.0
 10
24.6880814262
 20
21.6625466534
 30
0.0
 10
24.6870891562
 20
21.6510580022
 30
0.0
 10
24.6826898555
 20
21.6340898922
 30
0.0
 10
24.67542866
 20
21.6174859912
 30
0.0
 10
24.6616774996
 20
21.5954760841
 30
0.0
 10
24.637254599
 20
21.5697907331
 30
0.0
 10
24.613379426
 20
21.5533540351
 30
0.0
 10
24.6002158423
 20
21.5457540819
 30
0.0
  0
SPLINE
  5
2C4
100
AcDbEntity
  8
0
100
AcDbSpline
 62
7
  6
CONTINUOUS
 70
0
 71
3
 72
11
 73
7
 74
0
 42
0.0000001
 43
0.0000001
 44
0.0000000001
 40
0.0
 40
0.0
 40
0.0
 40
0.0
 40
0.2412284524
 40
0.488328771
 40
0.7412748169
 40
1.0
 40
1.0
 40
1.0
 40
1.0
 10
25.8913748085
 20
10.088831586
 30
0.0
 10
26.0608219905
 20
11.1070364602
 30
0.0
 10
26.3566698604
 20
13.1763436097
 30
0.0
 10
26.6699758854
 20
16.3336169906
 30
0.0
 10
26.8576408701
 20
19.5757969399
 30
0.0
 10
26.8983033132
 20
21.7654716096
 30
0.0
 10
26.8983033132
 20
22.872547582
 30
0.0
  0
SPLINE
  5
2C5
100
AcDbEntity
  8
0
100
AcDbSpline
 62
7
  6
CONTINUOUS
 70
0
 71
3
 72
11
 73
7
 74
0
 42
0.0000001
 43
0.0000001
 44
0.0000000001
 40
0.0
 40
0.0
 40
0.0
 40
0.0
 40
0.2662846719
 40
0.5221982132
 40
0.7669822153
 40
1.0
 40
1.0
 40
1.0
 40
1.0
 10
25.1321161628
 20
8.9108122774
 30
0.0
 10
24.9993692128
 20
8.8141432642
 30
0.0
 10
24.7342648471
 20
8.6310145314
 30
0.0
 10
24.3309265688
 20
8.3834861761
 30
0.0
 10
23.9318234844
 20
8.1697299701
 30
0.0
 10
23.6633904165
 20
8.0475489328
 30
0.0
 10
23.5304815846
 20
7.9929147121
 30
0.0
  0
SPLINE
  5
2C6
100
AcDbEntity
  8
0
100
AcDbSpline
 62
7
  6
CONTINUOUS
 70
0
 71
3
 72
15
 73
11
 74
0
 42
0.0000001
 43
0.0000001
 44
0.0000000001
 40
0.0
 40
0.0
 40
0.0
 40
0.0
 40
0.1141231812
 40
0.2373468278
 40
0.366971913
 40
0.4999994099
 40
0.6330269884
 40
0.76265231
 40
0.885876356
 40
1.0
 40
1.0
 40
1.0
 40
1.0
 10
26.438685819
 20
22.607188882
 30
0.0
 10
26.4241677766
 20
22.5988069363
 30
0.0
 10
26.3924074852
 20
22.58402452
 30
0.0
 10
26.3406995838
 20
22.5682982628
 30
0.0
 10
26.2847081253
 20
22.558629954
 30
0.0
 10
26.2265541717
 20
22.5553600879
 30
0.0
 10
26.1684001677
 20
22.5586296713
 30
0.0
 10
26.112408556
 20
22.5682977102
 30
0.0
 10
26.0607004141
 20
22.5840237278
 30
0.0
 10
26.0289399121
 20
22.5988059872
 30
0.0
 10
26.0144217503
 20
22.6071878622
 30
0.0
  0
SPLINE
  5
2C7
100
AcDbEntity
  8
0
100
AcDbSpline
 62
7
  6
CONTINUOUS
 70
0
 71
3
 72
11
 73
7
 74
0
 42
0.0000001
 43
0.0000001
 44
0.0000000001
 40
0.0
 40
0.0
 40
0.0
 40
0.0
 40
0.2406888962
 40
0.4876082011
 40
0.7407355283
 40
1.0
 40
1.0
 40
1.0
 40
1.0
 10
23.4730754695
 20
8.0625265796
 30
0.0
 10
23.6628381572
 20
9.1326614775
 30
0.0
 10
23.9941375247
 20
11.310369375
 30
0.0
 10
24.3447650396
 20
14.6378008941
 30
0.0
 10
24.5547781999
 20
18.0610440862
 30
0.0
 10
24.6002158423
 20
20.3750465575
 30
0.0
 10
24.6002158423
 20
21.5457540819
 30
0.0
  0
SPLINE
  5
2C8
100
AcDbEntity
  8
0
100
AcDbSpline
 62
7
  6
CONTINUOUS
 70
0
 71
3
 72
21
 73
17
 74
0
 42
0.0000001
 43
0.0000001
 44
0.0000000001
 40
0.0
 40
0.0
 40
0.0
 40
0.0
 40
0.0683242349
 40
0.1323597153
 40
0.1924948422
 40
0.2493579
 40
0.3038003943
 40
0.3567610659
 40
0.4092301002
 40
0.4622849802
 40
0.5170266632
 40
0.5743677519
 40
0.6349895685
 40
0.6994004823
 40
0.8408365973
 40
1.0
 40
1.0
 40
1.0
 40
1.0
 10
23.4730754695
 20
8.0625265796
 30
0.0
 10
23.4578819877
 20
8.0595527855
 30
0.0
 10
23.4281613172
 20
8.055122925
 30
0.0
 10
23.3844961811
 20
8.0532491224
 30
0.0
 10
23.3434846679
 20
8.0563742697
 30
0.0
 10
23.3053616219
 20
8.0644660331
 30
0.0
 10
23.2703128287
 20
8.0773974127
 30
0.0
 10
23.2384972693
 20
8.0950272254
 30
0.0
 10
23.2101410912
 20
8.117320499
 30
0.0
 10
23.185537748
 20
8.1442522511
 30
0.0
 10
23.1649593609
 20
8.1756799769
 30
0.0
 10
23.1483949419
 20
8.2112662757
 30
0.0
 10
23.1358348532
 20
8.2507401197
 30
0.0
 10
23.1240717447
 20
8.3100720474
 30
0.0
 10
23.120415865
 20
8.3931686175
 30
0.0
 10
23.1277492066
 20
8.4611034214
 30
0.0
 10
23.1336698444
 20
8.4966793919
 30
0.0
  0
SPLINE
  5
2C9
100
AcDbEntity
  8
0
100
AcDbSpline
 62
7
  6
CONTINUOUS
 70
0
 71
3
 72
9
 73
5
 74
0
 42
0.0000001
 43
0.0000001
 44
0.0000000001
 40
0.0
 40
0.0
 40
0.0
 40
0.0
 40
0.5057521462
 40
1.0
 40
1.0
 40
1.0
 40
1.0
 10
23.4730754684
 20
8.0625265733
 30
0.0
 10
23.4881076177
 20
8.0712053378
 30
0.0
 10
23.5160553884
 20
8.091714745
 30
0.0
 10
23.5376766162
 20
8.1192076568
 30
0.0
 10
23.5456359036
 20
8.1341871573
 30
0.0
  0
SPLINE
  5
2CA
100
AcDbEntity
  8
0
100
AcDbSpline
 62
7
  6
CONTINUOUS
 70
0
 71
3
 72
15
 73
11
 74
0
 42
0.0000001
 43
0.0000001
 44
0.0000000001
 40
0.0
 40
0.0
 40
0.0
 40
0.0
 40
0.1141231812
 40
0.2373468278
 40
0.366971913
 40
0.4999994099
 40
0.6330269884
 40
0.76265231
 40
0.885876356
 40
1.0
 40
1.0
 40
1.0
 40
1.0
 10
24.1405983481
 20
21.2803953819
 30
0.0
 10
24.1164016107
 20
21.2664254724
 30
0.0
 10
24.0634677917
 20
21.2417881119
 30
0.0
 10
23.977287956
 20
21.2155776832
 30
0.0
 10
23.8839688585
 20
21.1994638353
 30
0.0
 10
23.7870456025
 20
21.1940140584
 30
0.0
 10
23.6901222625
 20
21.1994633642
 30
0.0
 10
23.5968029097
 20
21.2155767623
 30
0.0
 10
23.5106226733
 20
21.2417867916
 30
0.0
 10
23.4576885032
 20
21.2664238906
 30
0.0
 10
23.4334915669
 20
21.2803936822
 30
0.0
  0
ELLIPSE
  5
2CB
100
AcDbEntity
  8
0
100
AcDbEllipse
 62
7
  6
CONTINUOUS
 10
60.2040731983
 20
-19.016912944
 30
0.0
 11
-33.3028535874
 21
94.5847827585
 31
0.0
 40
0.4107605099
 41
0.8722652261
 42
0.882382234
  0
ELLIPSE
  5
2CC
100
AcDbEntity
  8
0
100
AcDbEllipse
 62
7
  6
CONTINUOUS
 10
96.6965868556
 20
2.0519238754
 30
0.0
 11
74.7075088882
 21
-68.332413501
 31
0.0
 40
0.6979086025
 41
-2.5633326206
 42
-2.5532156127
  0
ELLIPSE
  5
2CD
100
AcDbEntity
  8
0
100
AcDbEllipse
 62
7
  6
CONTINUOUS
 10
-29.6713535663
 20
75.008837789
 30
0.0
 11
-33.3028535874
 21
94.5847827585
 31
0.0
 40
0.4107605099
 41
-2.2912577509
 42
-2.2895593727
  0
ENDSEC
  0
SECTION
  2
OBJECTS
  0
DICTIONARY
  5
C
100
AcDbDictionary
280
0
281
1
  3
ACAD_GROUP
350
D
  3
ACAD_MLINESTYLE
350
17
  3
ACAD_LAYOUT
350
1A
  3
ACAD_PLOTSETTINGS
350
19
  3
ACAD_PLOTSTYLENAME
350
E
  0
DICTIONARY
  5
D
102
{ACAD_REACTORS
330
C
102
}
100
AcDbDictionary
280
0
281
1
  0
ACDBDICTIONARYWDFLT
  5
E
102
{ACAD_REACTORS
330
C
102
}
100
AcDbDictionary
281
1
  3
Normal
350
F
100
AcDbDictionaryWithDefault
340
F
  0
DICTIONARY
  5
17
102
{ACAD_REACTORS
330
C
102
}
100
AcDbDictionary
280
0
281
1
  3
Standard
350
18
  0
DICTIONARY
  5
19
102
{ACAD_REACTORS
330
C
102
}
100
AcDbDictionary
281
1
  0
DICTIONARY
  5
1A
102
{ACAD_REACTORS
330
C
102
}
100
AcDbDictionary
281
1
  3
Model
350
2CE
  3
Layout1
350
2CF
  0
ACDBPLACEHOLDER
  5
F
102
{ACAD_REACTORS
330
E
102
}
  0
MLINESTYLE
  5
18
102
{ACAD_REACTORS
330
17
102
}
100
AcDbMlineStyle
  2
STANDARD
 70
0
  3

 62
256
 51
90.0
 52
90.0
 71
2
 49
0.5
 62
256
  6
BYLAYER
 49
-0.5
 62
256
  6
BYLAYER
  0
LAYOUT
  5
2CE
102
{ACAD_REACTORS
330
1A
102
}
100
AcDbPlotSettings
  1

  2
none_device
  4

  6

 40
0.0
 41
0.0
 42
0.0
 43
0.0
 44
210.0
 45
297.0
 46
0.0
 47
0.0
 48
0.0
 49
0.0
140
0.0
141
0.0
142
1.0
143
1.0
 70
1024
 72
1
 73
0
 74
0
  7

 75
0
147
1.0
148
0.0
149
0.0
100
AcDbLayout
  1
Model
 70
0
 71
0
 10
0.0
 20
0.0
 11
210.0
 21
297.0
 12
0.0
 22
0.0
 32
0.0
 14
0.0
 24
0.0
 34
0.0
 15
0.0
 25
0.0
 35
0.0
146
0.0
 13
0.0
 23
0.0
 33
0.0
 16
1.0
 26
0.0
 36
0.0
 17
0.0
 27
1.0
 37
0.0
 76
0
330
210
345
0
346
0
  0
LAYOUT
  5
2CF
102
{ACAD_REACTORS
330
1A
102
}
100
AcDbPlotSettings
  1

  2
none_device
  4

  6

 40
0.0
 41
0.0
 42
0.0
 43
0.0
 44
210.0
 45
297.0
 46
0.0
 47
0.0
 48
0.0
 49
0.0
140
0.0
141
0.0
142
1.0
143
1.0
 70
0
 72
1
 73
0
 74
0
  7

 75
0
147
1.0
148
0.0
149
0.0
100
AcDbLayout
  1
Layout1
 70
0
 71
1
 10
0.0
 20
0.0
 11
210.0
 21
297.0
 12
0.0
 22
0.0
 32
0.0
 14
0.0
 24
0.0
 34
0.0
 15
0.0
 25
0.0
 35
0.0
146
0.0
 13
0.0
 23
0.0
 33
0.0
 16
1.0
 26
0.0
 36
0.0
 17
0.0
 27
1.0
 37
0.0
 76
0
330
211
345
0
346
0
  0
ENDSEC
  0
EOF
