999
DXF file: C:\Users\sesa63760\Dev\_Creo\CAD\MCADPD0004725_3D-CAD\drw0001_1.dxf
999
Pro/ENGINEER 2019471 by Parametric Technology Corporation
  0
SECTION
  2
HEADER
  9
$ACADVER
  1
AC1024
  9
$DWGCODEPAGE
  3
ANSI_1252
  9
$EXTMAX
 10
127.7016900631
 20
180.6066759463
 30
0.0
  9
$EXTMIN
 10
0.0
 20
0.0
 30
0.0
  9
$LIMMIN
 10
0.0
 20
0.0
  9
$LIMMAX
 10
127.7016900631
 20
180.6066759463
  9
$VIEWCTR
 10
63.8508450315
 20
90.3033379732
  9
$VIEWSIZE
 40
180.6066759463
  9
$CLAYER
  8
0
  9
$LTSCALE
 40
11.7728796172
  9
$CELTYPE
  6
BYLAYER
  9
$DIMSCALE
 40
1.0
  9
$DIMASZ
 40
1.520258215
  9
$DIMEXO
 40
1.0
  9
$DIMDLI
 40
8.1339895537
  9
$DIMEXE
 40
1.0
  9
$DIMCEN
 40
1.9264712101
  9
$DIMLFAC
 40
1.0
  9
$DIMBLK
  1
_FILLED
  9
$DIMALT
 70
0
  9
$DIMALTF
 40
0.0393700787
  9
$DIMTXT
 40
2.1283615011
  9
$DIMTOL
 70
1
  9
$DIMLIM
 70
0
  9
$DIMTFAC
 40
1.0
  9
$DIMTP
 40
0.01
  9
$DIMTM
 40
0.01
  9
$DIMGAP
 40
0.625
  9
$DIMDSEP
 70
46
  9
$AUNITS
 70
0
  9
$PDMODE
 70
3
  9
$PDSIZE
 40
0.3125
  9
$HANDSEED
  5
311
  9
$TILEMODE
 70
1
  9
$MEASUREMENT
 70
1
  9
$INSUNITS
 70
4
  0
ENDSEC
  0
SECTION
  2
CLASSES
  0
CLASS
  1
ACDBDICTIONARYWDFLT
  2
AcDbDictionaryWithDefault
  3
AutoCAD 2000
 90
0
 91
1
280
0
281
0
  0
CLASS
  1
ACDBPLACEHOLDER
  2
AcDbPlaceHolder
  3
AutoCAD 2000
 90
0
 91
1
280
0
281
0
  0
CLASS
  1
LAYOUT
  2
AcDbLayout
  3
AutoCAD 2000
 90
0
 91
0
280
0
281
0
  0
ENDSEC
  0
SECTION
  2
TABLES
  0
TABLE
  2
VPORT
  5
8
100
AcDbSymbolTable
 70
2
  0
VPORT
  5
1F4
100
AcDbSymbolTableRecord
100
AcDbViewportTableRecord
  2
*ACTIVE
 70
0
 10
0.0
 20
0.0
 11
1.0
 21
1.0
 12
63.8508450315
 22
90.3033379732
 13
0.0
 23
0.0
 14
1.0
 24
1.0
 15
0.0
 25
0.0
 16
0.0
 26
0.0
 36
1.0
 17
0.0
 27
0.0
 37
0.0
 40
180.6066759463
 41
0.7070707071
 42
50.0
 43
0.0
 44
0.0
 50
0.0
 51
0.0
 71
0
 72
100
 73
1
 74
1
 75
0
 76
0
 77
0
 78
0
  0
ENDTAB
  0
TABLE
  2
LTYPE
  5
5
100
AcDbSymbolTable
 70
6
  0
LTYPE
  5
14
100
AcDbSymbolTableRecord
100
AcDbLinetypeTableRecord
  2
BYBLOCK
 70
0
  3

 72
65
 73
0
 40
0.0
  0
LTYPE
  5
15
100
AcDbSymbolTableRecord
100
AcDbLinetypeTableRecord
  2
BYLAYER
 70
0
  3

 72
65
 73
0
 40
0.0
  0
LTYPE
  5
16
100
AcDbSymbolTableRecord
100
AcDbLinetypeTableRecord
  2
CONTINUOUS
 70
64
  3
Solid line
 72
65
 73
0
 40
0.0
  0
LTYPE
  5
1F5
100
AcDbSymbolTableRecord
100
AcDbLinetypeTableRecord
  2
CENTER
 70
64
  3
____ _ ____ _ ____ _ ____ _ ____ _ ____ _ ____
 72
65
 73
4
 40
0.6
 49
0.375
 74
0
 49
-0.075
 74
0
 49
0.075
 74
0
 49
-0.075
 74
0
  0
LTYPE
  5
1F6
100
AcDbSymbolTableRecord
100
AcDbLinetypeTableRecord
  2
HIDDEN
 70
64
  3
- - - - - - - - - - - - - - - - - - - -
 72
65
 73
2
 40
0.2
 49
0.1
 74
0
 49
-0.1
 74
0
  0
LTYPE
  5
1F7
100
AcDbSymbolTableRecord
100
AcDbLinetypeTableRecord
  2
PHANTOM
 70
64
  3
_____ _ _ _____ _ _ _____ _ _ _____
 72
65
 73
6
 40
0.8
 49
0.45
 74
0
 49
-0.05
 74
0
 49
0.1
 74
0
 49
-0.05
 74
0
 49
0.1
 74
0
 49
-0.05
 74
0
  0
LTYPE
  5
1F8
100
AcDbSymbolTableRecord
100
AcDbLinetypeTableRecord
  2
DOT
 70
64
  3
. . . . . . . . . . . . . . . . . . . .
 72
65
 73
2
 40
0.2
 49
0.1
 74
0
 49
-0.1
 74
0
  0
LTYPE
  5
1F9
100
AcDbSymbolTableRecord
100
AcDbLinetypeTableRecord
  2
DASHED
 70
64
  3
- - - - - - - - - - - - - - - - - - - -
 72
65
 73
2
 40
0.2
 49
0.1
 74
0
 49
-0.1
 74
0
  0
ENDTAB
  0
TABLE
  2
LAYER
  5
2
100
AcDbSymbolTable
 70
36
  0
LAYER
  5
10
100
AcDbSymbolTableRecord
100
AcDbLayerTableRecord
  2
0
 70
0
 62
7
  6
CONTINUOUS
370
-3
390
F
  0
LAYER
  5
1FA
100
AcDbSymbolTableRecord
100
AcDbLayerTableRecord
  2
DEFAULT_1
 70
0
 62
7
  6
CENTER
370
-3
390
F
  0
LAYER
  5
1FB
100
AcDbSymbolTableRecord
100
AcDbLayerTableRecord
  2
DEFAULT_2
 70
0
 62
7
  6
HIDDEN
370
-3
390
F
  0
LAYER
  5
1FC
100
AcDbSymbolTableRecord
100
AcDbLayerTableRecord
  2
DEFAULT_3
 70
0
 62
7
  6
PHANTOM
370
-3
390
F
  0
LAYER
  5
1FD
100
AcDbSymbolTableRecord
100
AcDbLayerTableRecord
  2
00_COMPONENTS
 70
0
 62
7
  6
CONTINUOUS
370
-3
390
F
  0
LAYER
  5
1FE
100
AcDbSymbolTableRecord
100
AcDbLayerTableRecord
  2
01_1_DEFAULT_DATUMS
 70
0
 62
7
  6
CONTINUOUS
370
-3
390
F
  0
LAYER
  5
1FF
100
AcDbSymbolTableRecord
100
AcDbLayerTableRecord
  2
01_PLANES
 70
0
 62
7
  6
CONTINUOUS
370
-3
390
F
  0
LAYER
  5
200
100
AcDbSymbolTableRecord
100
AcDbLayerTableRecord
  2
02_COORD_SYS
 70
0
 62
7
  6
CONTINUOUS
370
-3
390
F
  0
LAYER
  5
201
100
AcDbSymbolTableRecord
100
AcDbLayerTableRecord
  2
03_AXES
 70
0
 62
7
  6
CONTINUOUS
370
-3
390
F
  0
LAYER
  5
202
100
AcDbSymbolTableRecord
100
AcDbLayerTableRecord
  2
04_POINTS
 70
0
 62
7
  6
CONTINUOUS
370
-3
390
F
  0
LAYER
  5
203
100
AcDbSymbolTableRecord
100
AcDbLayerTableRecord
  2
05_CURVES
 70
0
 62
7
  6
CONTINUOUS
370
-3
390
F
  0
LAYER
  5
204
100
AcDbSymbolTableRecord
100
AcDbLayerTableRecord
  2
06_SURFS
 70
0
 62
7
  6
CONTINUOUS
370
-3
390
F
  0
LAYER
  5
205
100
AcDbSymbolTableRecord
100
AcDbLayerTableRecord
  2
07_COSMETICS
 70
0
 62
7
  6
CONTINUOUS
370
-3
390
F
  0
LAYER
  5
206
100
AcDbSymbolTableRecord
100
AcDbLayerTableRecord
  2
10_NOTES
 70
0
 62
7
  6
CONTINUOUS
370
-3
390
F
  0
LAYER
  5
207
100
AcDbSymbolTableRecord
100
AcDbLayerTableRecord
  2
11_NOTES_PUB
 70
0
 62
7
  6
CONTINUOUS
370
-3
390
F
  0
LAYER
  5
208
100
AcDbSymbolTableRecord
100
AcDbLayerTableRecord
  2
13_REF_GTOL
 70
0
 62
7
  6
CONTINUOUS
370
-3
390
F
  0
LAYER
  5
209
100
AcDbSymbolTableRecord
100
AcDbLayerTableRecord
  2
16_MISC
 70
0
 62
7
  6
CONTINUOUS
370
-3
390
F
  0
LAYER
  5
20A
100
AcDbSymbolTableRecord
100
AcDbLayerTableRecord
  2
17_NO_PRINT
 70
0
 62
7
  6
CONTINUOUS
370
-3
390
F
  0
LAYER
  5
20B
100
AcDbSymbolTableRecord
100
AcDbLayerTableRecord
  2
18_DATUM_CAMS_JOINTS
 70
0
 62
7
  6
CONTINUOUS
370
-3
390
F
  0
LAYER
  5
20C
100
AcDbSymbolTableRecord
100
AcDbLayerTableRecord
  2
19_DATUM_FUNCTIONAL
 70
0
 62
7
  6
CONTINUOUS
370
-3
390
F
  0
LAYER
  5
20D
100
AcDbSymbolTableRecord
100
AcDbLayerTableRecord
  2
20_DATUM_KINEMATIC_SCHEME
 70
0
 62
7
  6
CONTINUOUS
370
-3
390
F
  0
ENDTAB
  0
TABLE
  2
STYLE
  5
3
100
AcDbSymbolTable
 70
1
  0
STYLE
  5
11
100
AcDbSymbolTableRecord
100
AcDbTextStyleTableRecord
  2
STANDARD
 70
0
 40
0.0
 41
1.0
 50
0.0
 71
0
 42
0.2
  3
ARIAL.TTF
  4

  0
STYLE
  5
20E
100
AcDbSymbolTableRecord
100
AcDbTextStyleTableRecord
  2
TEXTSTYLE_1
 70
0
 40
0.0
 41
0.8
 50
0.0
 71
0
 42
0.2
  3
gdt
  4

  0
ENDTAB
  0
TABLE
  2
VIEW
  5
6
100
AcDbSymbolTable
 70
0
  0
ENDTAB
  0
TABLE
  2
UCS
  5
7
100
AcDbSymbolTable
 70
0
  0
ENDTAB
  0
TABLE
  2
APPID
  5
9
100
AcDbSymbolTable
 70
1
  0
APPID
  5
20F
100
AcDbSymbolTableRecord
100
AcDbRegAppTableRecord
  2
ACAD
 70
0
  0
ENDTAB
  0
TABLE
  2
BLOCK_RECORD
  5
1
100
AcDbSymbolTable
 70
0
  0
BLOCK_RECORD
  5
210
100
AcDbSymbolTableRecord
100
AcDbBlockTableRecord
  2
*Model_Space
  0
BLOCK_RECORD
  5
211
100
AcDbSymbolTableRecord
100
AcDbBlockTableRecord
  2
*Paper_Space
  0
BLOCK_RECORD
  5
212
100
AcDbSymbolTableRecord
100
AcDbBlockTableRecord
  2
_FILLED
  0
ENDTAB
  0
TABLE
  2
DIMSTYLE
  5
A
100
AcDbSymbolTable
 70
1
100
AcDbDimStyleTable
 71
0
  0
DIMSTYLE
105
213
100
AcDbSymbolTableRecord
100
AcDbDimStyleTableRecord
  2
STANDARD
 70
0
  3

  4

 40
1.0
 41
1.520258215
 42
1.0
 43
0.38
 44
1.0
 45
0.0
 46
0.0
 47
0.01
 48
0.01
140
2.1283615011
141
0.09
142
0.0
143
25.4
144
1.0
145
0.0
146
1.0
147
0.625
 71
1
 72
0
 73
0
 74
0
 75
0
 76
0
 77
1
 78
8
 79
2
170
0
171
1
172
0
173
0
174
0
175
0
176
0
177
0
178
0
270
2
179
2
271
2
272
2
273
2
274
2
275
0
280
0
281
0
282
0
283
1
284
8
285
0
286
0
287
3
288
0
340
11
278
46
341
212
342
212
343
212
344
212
  0
ENDTAB
  0
ENDSEC
  0
SECTION
  2
BLOCKS
  0
BLOCK
  5
20
100
AcDbEntity
  8
0
100
AcDbBlockBegin
  2
*Model_Space
 70
0
 10
0.0
 20
0.0
 30
0.0
  3
*Model_Space
  1

  0
ENDBLK
  5
21
100
AcDbEntity
  8
0
100
AcDbBlockEnd
  0
BLOCK
  5
1C
100
AcDbEntity
  8
0
100
AcDbBlockBegin
  2
*Paper_Space
 70
0
 10
0.0
 20
0.0
 30
0.0
  3
*Paper_Space
  1

  0
ENDBLK
  5
1D
100
AcDbEntity
  8
0
100
AcDbBlockEnd
  0
BLOCK
  5
214
100
AcDbEntity
  8
0
100
AcDbBlockBegin
  2
_FILLED
 70
64
 10
0.0
 20
0.0
  3
_FILLED
  1

  0
SOLID
  5
215
100
AcDbEntity
  8
0
  6
BYBLOCK
 62
0
100
AcDbTrace
 10
0.0
 20
0.0
 11
-1.0
 21
0.25
 12
-1.0
 22
-0.25
 13
-1.0
 23
-0.25
  0
ENDBLK
  5
216
100
AcDbEntity
  8
0
  6
BYBLOCK
 62
0
100
AcDbBlockEnd
  0
ENDSEC
  0
SECTION
  2
ENTITIES
  0
LINE
  5
217
100
AcDbEntity
  8
0
100
AcDbLine
 62
7
  6
BYLAYER
 10
14.8148652902
 20
70.9278100416
 11
14.8148652902
 21
81.1340902558
  0
LINE
  5
218
100
AcDbEntity
  8
0
100
AcDbLine
 62
7
  6
BYLAYER
 10
17.2897434402
 20
73.186018848
 11
17.2897434402
 21
75.4332605917
  0
LINE
  5
219
100
AcDbEntity
  8
0
100
AcDbLine
 62
7
  6
BYLAYER
 10
17.6432983028
 20
75.0414621227
 11
17.6432983028
 21
72.9818984707
  0
LINE
  5
21A
100
AcDbEntity
  8
0
100
AcDbLine
 62
7
  6
BYLAYER
 10
20.825292066
 20
71.1448150754
 11
20.825292066
 21
73.3920568191
  0
LINE
  5
21B
100
AcDbEntity
  8
0
100
AcDbLine
 62
7
  6
BYLAYER
 10
21.1788469285
 20
73.0002583501
 11
21.1788469285
 21
70.9406946981
  0
LINE
  5
21C
100
AcDbEntity
  8
0
100
AcDbLine
 62
7
  6
BYLAYER
 10
24.0072151739
 20
85.6247618389
 11
24.0072151739
 21
86.4412642561
  0
LINE
  5
21D
100
AcDbEntity
  8
0
100
AcDbLine
 62
7
  6
BYLAYER
 10
43.4528091586
 20
54.3940594836
 11
14.8148652902
 21
70.9278100416
  0
LINE
  5
21E
100
AcDbEntity
  8
0
100
AcDbLine
 62
7
  6
BYLAYER
 10
24.3608406917
 20
69.1036113028
 11
24.3608406917
 21
71.3508530465
  0
LINE
  5
21F
100
AcDbEntity
  8
0
100
AcDbLine
 62
7
  6
BYLAYER
 10
24.7143955543
 20
70.9590545775
 11
24.7143955543
 21
68.8994909255
  0
LINE
  5
220
100
AcDbEntity
  8
0
100
AcDbLine
 62
7
  6
BYLAYER
 10
27.1891706655
 20
88.2783561497
 11
27.1891706655
 21
92.5241405001
  0
LINE
  5
221
100
AcDbEntity
  8
0
100
AcDbLine
 62
7
  6
BYLAYER
 10
27.8963893174
 20
67.0624075302
 11
27.8963893174
 21
69.3096492739
  0
LINE
  5
222
100
AcDbEntity
  8
0
100
AcDbLine
 62
7
  6
BYLAYER
 10
28.24994418
 20
68.9178508049
 11
28.24994418
 21
66.8582871529
  0
LINE
  5
223
100
AcDbEntity
  8
0
100
AcDbLine
 62
7
  6
BYLAYER
 10
47.6954321819
 20
56.8435244068
 11
46.6852468892
 21
57.4267419633
  0
LINE
  5
224
100
AcDbEntity
  8
0
100
AcDbLine
 62
7
  6
BYLAYER
 10
31.4319379432
 20
65.0212037576
 11
31.4319379432
 21
67.2684455013
  0
LINE
  5
225
100
AcDbEntity
  8
0
100
AcDbLine
 62
7
  6
BYLAYER
 10
31.7854928057
 20
66.8766470323
 11
31.7854928057
 21
64.8170833803
  0
LINE
  5
226
100
AcDbEntity
  8
0
100
AcDbLine
 62
7
  6
BYLAYER
 10
14.8148652902
 20
81.1340902558
 11
43.4528091586
 21
64.6003396977
  0
LINE
  5
227
100
AcDbEntity
  8
0
100
AcDbLine
 62
7
  6
BYLAYER
 10
15.5219691274
 20
81.5423344096
 11
44.1599129958
 21
65.0085838515
  0
LINE
  5
228
100
AcDbEntity
  8
0
100
AcDbLine
 62
7
  6
BYLAYER
 10
34.9674865689
 20
62.979999985
 11
34.9674865689
 21
65.2272417287
  0
LINE
  5
229
100
AcDbEntity
  8
0
100
AcDbLine
 62
7
  6
BYLAYER
 10
35.3210414315
 20
64.8354432597
 11
35.3210414315
 21
62.7758796077
  0
LINE
  5
22A
100
AcDbEntity
  8
0
100
AcDbLine
 62
7
  6
BYLAYER
 10
54.199694664
 20
60.5987396861
 11
59.0091082971
 21
58.4764601378
  0
LINE
  5
22B
100
AcDbEntity
  8
0
100
AcDbLine
 62
7
  6
BYLAYER
 10
38.5030351946
 20
60.9387962123
 11
38.5030351946
 21
63.1860379561
  0
LINE
  5
22C
100
AcDbEntity
  8
0
100
AcDbLine
 62
7
  6
BYLAYER
 10
38.8565900572
 20
62.7942394871
 11
38.8565900572
 21
60.7346758351
  0
LINE
  5
22D
100
AcDbEntity
  8
0
100
AcDbLine
 62
7
  6
BYLAYER
 10
47.6954321819
 20
57.6600268239
 11
44.1599129958
 21
56.8435596803
  0
LINE
  5
22E
100
AcDbEntity
  8
0
100
AcDbLine
 62
7
  6
BYLAYER
 10
52.6451590424
 20
69.0910112809
 11
24.0072151739
 21
85.6247618389
  0
LINE
  5
22F
100
AcDbEntity
  8
0
100
AcDbLine
 62
7
  6
BYLAYER
 10
42.0385838204
 20
58.8975924397
 11
42.0385838204
 21
61.1448341835
  0
LINE
  5
230
100
AcDbEntity
  8
0
100
AcDbLine
 62
7
  6
BYLAYER
 10
42.392138683
 20
60.7530357145
 11
42.392138683
 21
58.6934720625
  0
LINE
  5
231
100
AcDbEntity
  8
0
100
AcDbLine
 62
7
  6
BYLAYER
 10
43.4528091586
 20
64.6003396977
 11
43.4528091586
 21
54.3940594836
  0
LINE
  5
232
100
AcDbEntity
  8
0
100
AcDbLine
 62
7
  6
BYLAYER
 10
44.1599129958
 20
56.8435596803
 11
44.1599129958
 21
54.8023036374
  0
LINE
  5
233
100
AcDbEntity
  8
0
100
AcDbLine
 62
7
  6
BYLAYER
 10
44.1599129958
 20
64.1920814344
 11
44.1599129958
 21
65.0085838515
  0
LINE
  5
234
100
AcDbEntity
  8
0
100
AcDbLine
 62
7
  6
BYLAYER
 10
85.171694149
 20
126.6533893144
 11
51.2307099627
 21
107.0576699285
  0
LINE
  5
235
100
AcDbEntity
  8
0
100
AcDbLine
 62
7
  6
BYLAYER
 10
50.170045375
 20
105.7920755009
 11
27.1891706655
 21
92.5241405001
  0
LINE
  5
236
100
AcDbEntity
  8
0
100
AcDbLine
 62
7
  6
BYLAYER
 10
24.0072151739
 20
86.4412642561
 11
52.6451590424
 21
69.907513698
  0
LINE
  5
237
100
AcDbEntity
  8
0
100
AcDbLine
 62
7
  6
BYLAYER
 10
47.6954321819
 20
57.6600268239
 11
47.6954321819
 21
56.8435244068
  0
LINE
  5
238
100
AcDbEntity
  8
0
100
AcDbLine
 62
7
  6
BYLAYER
 10
14.8148652902
 20
81.1340902558
 11
15.5219691274
 21
81.5423344096
  0
LINE
  5
239
100
AcDbEntity
  8
0
100
AcDbLine
 62
7
  6
BYLAYER
 10
24.0072151739
 20
86.4412642561
 11
28.2999863874
 21
88.9196820776
  0
LINE
  5
23A
100
AcDbEntity
  8
0
100
AcDbLine
 62
7
  6
BYLAYER
 10
16.2290910718
 20
81.1340866005
 11
24.0072151739
 21
85.6247618389
  0
LINE
  5
23B
100
AcDbEntity
  8
0
100
AcDbLine
 62
7
  6
BYLAYER
 10
51.2307099627
 20
107.0576699285
 11
51.2307099627
 21
105.1797143691
  0
LINE
  5
23C
100
AcDbEntity
  8
0
100
AcDbLine
 62
7
  6
BYLAYER
 10
52.6451590424
 20
69.0910112809
 11
52.6451590424
 21
69.907513698
  0
LINE
  5
23D
100
AcDbEntity
  8
0
100
AcDbLine
 62
7
  6
BYLAYER
 10
57.0609122428
 20
100.2161411833
 11
54.6955917754
 21
97.0556978591
  0
LINE
  5
23E
100
AcDbEntity
  8
0
100
AcDbLine
 62
7
  6
BYLAYER
 10
56.8666776222
 20
62.1385138237
 11
56.8666776222
 21
72.3447940379
  0
LINE
  5
23F
100
AcDbEntity
  8
0
100
AcDbLine
 62
7
  6
BYLAYER
 10
57.0997448219
 20
98.5466636868
 11
57.0997448219
 21
98.5253782239
  0
LINE
  5
240
100
AcDbEntity
  8
0
100
AcDbLine
 62
7
  6
BYLAYER
 10
55.5441234456
 20
96.5658089536
 11
57.909443913
 21
99.7262522779
  0
LINE
  5
241
100
AcDbEntity
  8
0
100
AcDbLine
 62
7
  6
BYLAYER
 10
57.8387335293
 20
99.5340698159
 11
55.7804829969
 21
96.7839206313
  0
LINE
  5
242
100
AcDbEntity
  8
0
100
AcDbLine
 62
7
  6
BYLAYER
 10
59.3236633633
 20
98.9097707688
 11
56.9583428959
 21
95.7493274446
  0
LINE
  5
243
100
AcDbEntity
  8
0
100
AcDbLine
 62
7
  6
BYLAYER
 10
57.8068745661
 20
95.2594385392
 11
60.1721950335
 21
98.4198818634
  0
LINE
  5
244
100
AcDbEntity
  8
0
100
AcDbLine
 62
7
  6
BYLAYER
 10
60.1014846498
 20
98.2276994015
 11
58.0432341173
 21
95.4775502169
  0
LINE
  5
245
100
AcDbEntity
  8
0
100
AcDbLine
 62
7
  6
BYLAYER
 10
57.0997448219
 20
98.5253782239
 11
57.0716937781
 21
98.5091830429
  0
LINE
  5
246
100
AcDbEntity
  8
0
100
AcDbLine
 62
7
  6
BYLAYER
 10
57.9482764921
 20
98.0354893185
 11
55.7804829969
 21
96.7839206313
  0
LINE
  5
247
100
AcDbEntity
  8
0
100
AcDbLine
 62
7
  6
BYLAYER
 10
58.0189868758
 20
97.9946634922
 11
55.5441234456
 21
96.5658089536
  0
LINE
  5
248
100
AcDbEntity
  8
0
100
AcDbLine
 62
7
  6
BYLAYER
 10
17.2897434402
 20
73.186018848
 11
17.6432953588
 21
73.3901409249
  0
LINE
  5
249
100
AcDbEntity
  8
0
100
AcDbLine
 62
7
  6
BYLAYER
 10
59.3624959424
 20
97.2190078095
 11
59.3344448986
 21
97.2028126284
  0
LINE
  5
24A
100
AcDbEntity
  8
0
100
AcDbLine
 62
7
  6
BYLAYER
 10
60.2110276126
 20
96.729118904
 11
58.0432341174
 21
95.4775502169
  0
LINE
  5
24B
100
AcDbEntity
  8
0
100
AcDbLine
 62
7
  6
BYLAYER
 10
57.9482764921
 20
99.5290785431
 11
57.9482764921
 21
98.0354893185
  0
LINE
  5
24C
100
AcDbEntity
  8
0
100
AcDbLine
 62
7
  6
BYLAYER
 10
58.0189868758
 20
99.721261005
 11
58.0189868758
 21
97.9946634922
  0
LINE
  5
24D
100
AcDbEntity
  8
0
100
AcDbLine
 62
7
  6
BYLAYER
 10
59.0091082971
 20
74.1533065467
 11
59.0091082971
 21
58.4764601378
  0
LINE
  5
24E
100
AcDbEntity
  8
0
100
AcDbLine
 62
7
  6
BYLAYER
 10
59.3624959424
 20
97.2402932724
 11
59.3624959424
 21
97.2190078095
  0
LINE
  5
24F
100
AcDbEntity
  8
0
100
AcDbLine
 62
7
  6
BYLAYER
 10
60.2110276126
 20
98.2227081286
 11
60.2110276126
 21
96.729118904
  0
LINE
  5
250
100
AcDbEntity
  8
0
100
AcDbLine
 62
7
  6
BYLAYER
 10
60.2817379963
 20
98.4148905906
 11
60.2817379963
 21
96.6882930777
  0
LINE
  5
251
100
AcDbEntity
  8
0
100
AcDbLine
 62
7
  6
BYLAYER
 10
61.5864144838
 20
97.6034003544
 11
59.2210940164
 21
94.4429570301
  0
LINE
  5
252
100
AcDbEntity
  8
0
100
AcDbLine
 62
7
  6
BYLAYER
 10
60.0696256865
 20
93.9530681247
 11
62.434946154
 21
97.1135114489
  0
LINE
  5
253
100
AcDbEntity
  8
0
100
AcDbLine
 62
7
  6
BYLAYER
 10
62.3642357702
 20
96.921328987
 11
60.3059852378
 21
94.1711798024
  0
LINE
  5
254
100
AcDbEntity
  8
0
100
AcDbLine
 62
7
  6
BYLAYER
 10
63.8491656043
 20
96.2970299399
 11
61.4838451368
 21
93.1365866157
  0
LINE
  5
255
100
AcDbEntity
  8
0
100
AcDbLine
 62
7
  6
BYLAYER
 10
60.2817379963
 20
96.6882930777
 11
57.8068745661
 21
95.2594385392
  0
LINE
  5
256
100
AcDbEntity
  8
0
100
AcDbLine
 62
7
  6
BYLAYER
 10
61.6252470629
 20
95.912637395
 11
61.597196019
 21
95.896442214
  0
LINE
  5
257
100
AcDbEntity
  8
0
100
AcDbLine
 62
7
  6
BYLAYER
 10
62.4737787331
 20
95.4227484896
 11
60.3059852378
 21
94.1711798024
  0
LINE
  5
258
100
AcDbEntity
  8
0
100
AcDbLine
 62
7
  6
BYLAYER
 10
62.5444891168
 20
95.3819226633
 11
60.0696256865
 21
93.9530681247
  0
LINE
  5
259
100
AcDbEntity
  8
0
100
AcDbLine
 62
7
  6
BYLAYER
 10
20.825292066
 20
71.1448150754
 11
21.1788439846
 21
71.3489371523
  0
LINE
  5
25A
100
AcDbEntity
  8
0
100
AcDbLine
 62
7
  6
BYLAYER
 10
63.8879981834
 20
94.6062669805
 11
63.8599471395
 21
94.5900717995
  0
LINE
  5
25B
100
AcDbEntity
  8
0
100
AcDbLine
 62
7
  6
BYLAYER
 10
61.6252470629
 20
95.9339228579
 11
61.6252470629
 21
95.912637395
  0
LINE
  5
25C
100
AcDbEntity
  8
0
100
AcDbLine
 62
7
  6
BYLAYER
 10
62.4737787331
 20
96.9163377142
 11
62.4737787331
 21
95.4227484896
  0
LINE
  5
25D
100
AcDbEntity
  8
0
100
AcDbLine
 62
7
  6
BYLAYER
 10
62.5444891168
 20
97.1085201761
 11
62.5444891168
 21
95.3819226633
  0
LINE
  5
25E
100
AcDbEntity
  8
0
100
AcDbLine
 62
7
  6
BYLAYER
 10
63.8879981834
 20
94.6275524434
 11
63.8879981834
 21
94.6062669805
  0
LINE
  5
25F
100
AcDbEntity
  8
0
100
AcDbLine
 62
7
  6
BYLAYER
 10
64.7365298535
 20
95.6099672997
 11
64.7365298535
 21
94.1163780751
  0
LINE
  5
260
100
AcDbEntity
  8
0
100
AcDbLine
 62
7
  6
BYLAYER
 10
64.8072402373
 20
95.8021497616
 11
64.8072402373
 21
94.0755522488
  0
LINE
  5
261
100
AcDbEntity
  8
0
100
AcDbLine
 62
7
  6
BYLAYER
 10
62.332376807
 20
92.6466977102
 11
64.6976972744
 21
95.8071410345
  0
LINE
  5
262
100
AcDbEntity
  8
0
100
AcDbLine
 62
7
  6
BYLAYER
 10
64.6269868907
 20
95.6149585726
 11
62.5687363583
 21
92.8648093879
  0
LINE
  5
263
100
AcDbEntity
  8
0
100
AcDbLine
 62
7
  6
BYLAYER
 10
66.1119167247
 20
94.9906595254
 11
63.7465962573
 21
91.8302162012
  0
LINE
  5
264
100
AcDbEntity
  8
0
100
AcDbLine
 62
7
  6
BYLAYER
 10
64.5951279275
 20
91.3403272958
 11
66.9604483949
 21
94.50077062
  0
LINE
  5
265
100
AcDbEntity
  8
0
100
AcDbLine
 62
7
  6
BYLAYER
 10
66.8897380112
 20
94.3085881581
 11
64.8314874788
 21
91.5584389735
  0
LINE
  5
266
100
AcDbEntity
  8
0
100
AcDbLine
 62
7
  6
BYLAYER
 10
64.7365298535
 20
94.1163780751
 11
62.5687363583
 21
92.8648093879
  0
LINE
  5
267
100
AcDbEntity
  8
0
100
AcDbLine
 62
7
  6
BYLAYER
 10
64.8072402373
 20
94.0755522488
 11
62.332376807
 21
92.6466977102
  0
LINE
  5
268
100
AcDbEntity
  8
0
100
AcDbLine
 62
7
  6
BYLAYER
 10
66.1507493038
 20
93.2998965661
 11
66.12269826
 21
93.283701385
  0
LINE
  5
269
100
AcDbEntity
  8
0
100
AcDbLine
 62
7
  6
BYLAYER
 10
24.3608406917
 20
69.1036113028
 11
24.7143926103
 21
69.3077333797
  0
LINE
  5
26A
100
AcDbEntity
  8
0
100
AcDbLine
 62
7
  6
BYLAYER
 10
66.999280974
 20
92.8100076606
 11
64.8314874788
 21
91.5584389735
  0
LINE
  5
26B
100
AcDbEntity
  8
0
100
AcDbLine
 62
7
  6
BYLAYER
 10
67.0699913577
 20
92.7691818343
 11
64.5951279275
 21
91.3403272958
  0
LINE
  5
26C
100
AcDbEntity
  8
0
100
AcDbLine
 62
7
  6
BYLAYER
 10
68.4135004243
 20
91.9935261516
 11
68.3854493805
 21
91.9773309706
  0
LINE
  5
26D
100
AcDbEntity
  8
0
100
AcDbLine
 62
7
  6
BYLAYER
 10
57.9482764921
 20
99.5290785431
 11
57.927512229
 21
99.574764821
  0
LINE
  5
26E
100
AcDbEntity
  8
0
100
AcDbLine
 62
7
  6
BYLAYER
 10
57.9982226127
 20
99.7669472829
 11
58.0189868758
 21
99.721261005
  0
LINE
  5
26F
100
AcDbEntity
  8
0
100
AcDbLine
 62
7
  6
BYLAYER
 10
60.2110276126
 20
98.2227081286
 11
60.1902633495
 21
98.2683944065
  0
LINE
  5
270
100
AcDbEntity
  8
0
100
AcDbLine
 62
7
  6
BYLAYER
 10
60.2609737332
 20
98.4605768685
 11
60.2817379963
 21
98.4148905906
  0
LINE
  5
271
100
AcDbEntity
  8
0
100
AcDbLine
 62
7
  6
BYLAYER
 10
62.4737787331
 20
96.9163377142
 11
62.45301447
 21
96.9620239921
  0
LINE
  5
272
100
AcDbEntity
  8
0
100
AcDbLine
 62
7
  6
BYLAYER
 10
66.1507493038
 20
93.321182029
 11
66.1507493038
 21
93.2998965661
  0
LINE
  5
273
100
AcDbEntity
  8
0
100
AcDbLine
 62
7
  6
BYLAYER
 10
66.999280974
 20
94.3035968852
 11
66.999280974
 21
92.8100076606
  0
LINE
  5
274
100
AcDbEntity
  8
0
100
AcDbLine
 62
7
  6
BYLAYER
 10
67.0699913577
 20
94.4957793472
 11
67.0699913577
 21
92.7691818343
  0
LINE
  5
275
100
AcDbEntity
  8
0
100
AcDbLine
 62
7
  6
BYLAYER
 10
68.4135004243
 20
92.0148116145
 11
68.4135004243
 21
91.9935261516
  0
LINE
  5
276
100
AcDbEntity
  8
0
100
AcDbLine
 62
7
  6
BYLAYER
 10
69.2620320945
 20
92.9972264708
 11
69.2620320945
 21
91.5036372462
  0
LINE
  5
277
100
AcDbEntity
  8
0
100
AcDbLine
 62
7
  6
BYLAYER
 10
69.3327424782
 20
93.1894089327
 11
69.3327424782
 21
91.4628114199
  0
LINE
  5
278
100
AcDbEntity
  8
0
100
AcDbLine
 62
7
  6
BYLAYER
 10
68.3746678452
 20
93.684289111
 11
66.0093473778
 21
90.5238457867
  0
LINE
  5
279
100
AcDbEntity
  8
0
100
AcDbLine
 62
7
  6
BYLAYER
 10
66.8578790479
 20
90.0339568813
 11
69.2231995154
 21
93.1944002056
  0
LINE
  5
27A
100
AcDbEntity
  8
0
100
AcDbLine
 62
7
  6
BYLAYER
 10
69.1524891317
 20
93.0022177436
 11
67.0942385992
 21
90.252068559
  0
LINE
  5
27B
100
AcDbEntity
  8
0
100
AcDbLine
 62
7
  6
BYLAYER
 10
69.2620320945
 20
91.5036372462
 11
67.0942385992
 21
90.252068559
  0
LINE
  5
27C
100
AcDbEntity
  8
0
100
AcDbLine
 62
7
  6
BYLAYER
 10
69.3327424782
 20
91.4628114199
 11
66.8578790479
 21
90.0339568813
  0
LINE
  5
27D
100
AcDbEntity
  8
0
100
AcDbLine
 62
7
  6
BYLAYER
 10
27.8963893174
 20
67.0624075302
 11
28.249941236
 21
67.2665296071
  0
LINE
  5
27E
100
AcDbEntity
  8
0
100
AcDbLine
 62
7
  6
BYLAYER
 10
66.8578790479
 20
90.0339568813
 11
66.0093473778
 21
90.5238457867
  0
LINE
  5
27F
100
AcDbEntity
  8
0
100
AcDbLine
 62
7
  6
BYLAYER
 10
64.5951279275
 20
91.3403272958
 11
63.7465962573
 21
91.8302162012
  0
LINE
  5
280
100
AcDbEntity
  8
0
100
AcDbLine
 62
7
  6
BYLAYER
 10
62.332376807
 20
92.6466977102
 11
61.4838451368
 21
93.1365866157
  0
LINE
  5
281
100
AcDbEntity
  8
0
100
AcDbLine
 62
7
  6
BYLAYER
 10
60.0696256865
 20
93.9530681247
 11
59.2210940164
 21
94.4429570301
  0
LINE
  5
282
100
AcDbEntity
  8
0
100
AcDbLine
 62
7
  6
BYLAYER
 10
57.8068745661
 20
95.2594385392
 11
56.9583428959
 21
95.7493274446
  0
LINE
  5
283
100
AcDbEntity
  8
0
100
AcDbLine
 62
7
  6
BYLAYER
 10
55.5441234456
 20
96.5658089536
 11
54.6955917754
 21
97.0556978591
  0
LINE
  5
284
100
AcDbEntity
  8
0
100
AcDbLine
 62
7
  6
BYLAYER
 10
57.0997448219
 20
98.5253782239
 11
57.9482764921
 21
98.0354893185
  0
LINE
  5
285
100
AcDbEntity
  8
0
100
AcDbLine
 62
7
  6
BYLAYER
 10
59.3624959424
 20
97.2190078095
 11
60.2110276126
 21
96.729118904
  0
LINE
  5
286
100
AcDbEntity
  8
0
100
AcDbLine
 62
7
  6
BYLAYER
 10
61.6252470629
 20
95.912637395
 11
62.4737787331
 21
95.4227484896
  0
LINE
  5
287
100
AcDbEntity
  8
0
100
AcDbLine
 62
7
  6
BYLAYER
 10
63.8879981834
 20
94.6062669805
 11
64.7365298535
 21
94.1163780751
  0
LINE
  5
288
100
AcDbEntity
  8
0
100
AcDbLine
 62
7
  6
BYLAYER
 10
66.1507493038
 20
93.2998965661
 11
66.999280974
 21
92.8100076606
  0
LINE
  5
289
100
AcDbEntity
  8
0
100
AcDbLine
 62
7
  6
BYLAYER
 10
68.4135004243
 20
91.9935261516
 11
69.2620320945
 21
91.5036372462
  0
LINE
  5
28A
100
AcDbEntity
  8
0
100
AcDbLine
 62
7
  6
BYLAYER
 10
69.2620320945
 20
92.9972264708
 11
69.200843757
 21
93.0325527747
  0
LINE
  5
28B
100
AcDbEntity
  8
0
100
AcDbLine
 62
7
  6
BYLAYER
 10
66.999280974
 20
94.3035968852
 11
66.9380926366
 21
94.3389231891
  0
LINE
  5
28C
100
AcDbEntity
  8
0
100
AcDbLine
 62
7
  6
BYLAYER
 10
64.7365298535
 20
95.6099672997
 11
64.6753415161
 21
95.6452936036
  0
LINE
  5
28D
100
AcDbEntity
  8
0
100
AcDbLine
 62
7
  6
BYLAYER
 10
62.4737787331
 20
96.9163377142
 11
62.4125903956
 21
96.9516640181
  0
LINE
  5
28E
100
AcDbEntity
  8
0
100
AcDbLine
 62
7
  6
BYLAYER
 10
60.2110276126
 20
98.2227081286
 11
60.1498392751
 21
98.2580344325
  0
LINE
  5
28F
100
AcDbEntity
  8
0
100
AcDbLine
 62
7
  6
BYLAYER
 10
57.9482764921
 20
99.5290785431
 11
57.8870881547
 21
99.564404847
  0
LINE
  5
290
100
AcDbEntity
  8
0
100
AcDbLine
 62
7
  6
BYLAYER
 10
69.2231995154
 20
93.1944002056
 11
68.3746678452
 21
93.684289111
  0
LINE
  5
291
100
AcDbEntity
  8
0
100
AcDbLine
 62
7
  6
BYLAYER
 10
66.9604483949
 20
94.50077062
 11
66.1119167247
 21
94.9906595254
  0
LINE
  5
292
100
AcDbEntity
  8
0
100
AcDbLine
 62
7
  6
BYLAYER
 10
64.6976972744
 20
95.8071410345
 11
63.8491656043
 21
96.2970299399
  0
LINE
  5
293
100
AcDbEntity
  8
0
100
AcDbLine
 62
7
  6
BYLAYER
 10
62.434946154
 20
97.113511449
 11
61.5864144838
 21
97.6034003544
  0
LINE
  5
294
100
AcDbEntity
  8
0
100
AcDbLine
 62
7
  6
BYLAYER
 10
60.1721950335
 20
98.4198818634
 11
59.3236633633
 21
98.9097707688
  0
LINE
  5
295
100
AcDbEntity
  8
0
100
AcDbLine
 62
7
  6
BYLAYER
 10
57.909443913
 20
99.7262522779
 11
57.0609122428
 21
100.2161411833
  0
LINE
  5
296
100
AcDbEntity
  8
0
100
AcDbLine
 62
7
  6
BYLAYER
 10
57.1497439736
 20
100.2569285252
 11
57.9982756438
 21
99.7670396198
  0
LINE
  5
297
100
AcDbEntity
  8
0
100
AcDbLine
 62
7
  6
BYLAYER
 10
59.4124950941
 20
98.9505581108
 11
60.2610267642
 21
98.4606692053
  0
LINE
  5
298
100
AcDbEntity
  8
0
100
AcDbLine
 62
7
  6
BYLAYER
 10
61.6752462145
 20
97.6441876963
 11
62.5237778847
 21
97.1542987909
  0
LINE
  5
299
100
AcDbEntity
  8
0
100
AcDbLine
 62
7
  6
BYLAYER
 10
63.937997335
 20
96.3378172818
 11
64.7865290052
 21
95.8479283764
  0
LINE
  5
29A
100
AcDbEntity
  8
0
100
AcDbLine
 62
7
  6
BYLAYER
 10
66.2007484555
 20
95.0314468674
 11
67.0492801257
 21
94.5415579619
  0
LINE
  5
29B
100
AcDbEntity
  8
0
100
AcDbLine
 62
7
  6
BYLAYER
 10
68.4634995759
 20
93.7250764529
 11
69.3120312461
 21
93.2351875475
  0
LINE
  5
29C
100
AcDbEntity
  8
0
100
AcDbLine
 62
7
  6
BYLAYER
 10
62.5237248537
 20
97.154206454
 11
62.5444891168
 21
97.1085201761
  0
LINE
  5
29D
100
AcDbEntity
  8
0
100
AcDbLine
 62
7
  6
BYLAYER
 10
64.7365298535
 20
95.6099672997
 11
64.7157655904
 21
95.6556535776
  0
LINE
  5
29E
100
AcDbEntity
  8
0
100
AcDbLine
 62
7
  6
BYLAYER
 10
64.7864759741
 20
95.8478360395
 11
64.8072402373
 21
95.8021497616
  0
LINE
  5
29F
100
AcDbEntity
  8
0
100
AcDbLine
 62
7
  6
BYLAYER
 10
66.999280974
 20
94.3035968852
 11
66.9785167109
 21
94.3492831631
  0
LINE
  5
2A0
100
AcDbEntity
  8
0
100
AcDbLine
 62
7
  6
BYLAYER
 10
67.0492270946
 20
94.5414656251
 11
67.0699913577
 21
94.4957793472
  0
LINE
  5
2A1
100
AcDbEntity
  8
0
100
AcDbLine
 62
7
  6
BYLAYER
 10
31.4319379432
 20
65.0212037576
 11
31.7854898618
 21
65.2253258345
  0
LINE
  5
2A2
100
AcDbEntity
  8
0
100
AcDbLine
 62
7
  6
BYLAYER
 10
114.8703026051
 20
109.5072776245
 11
80.9293184189
 21
89.9115582387
  0
LINE
  5
2A3
100
AcDbEntity
  8
0
100
AcDbLine
 62
7
  6
BYLAYER
 10
81.9899830066
 20
87.4212415475
 11
50.170045375
 21
105.7920755009
  0
LINE
  5
2A4
100
AcDbEntity
  8
0
100
AcDbLine
 62
7
  6
BYLAYER
 10
80.9293184189
 20
89.9115582387
 11
51.2307099627
 21
107.0576699285
  0
LINE
  5
2A5
100
AcDbEntity
  8
0
100
AcDbLine
 62
7
  6
BYLAYER
 10
69.2620320945
 20
92.9972264708
 11
69.2412678314
 21
93.0429127487
  0
LINE
  5
2A6
100
AcDbEntity
  8
0
100
AcDbLine
 62
7
  6
BYLAYER
 10
69.3119782151
 20
93.2350952106
 11
69.3327424782
 21
93.1894089327
  0
LINE
  5
2A7
100
AcDbEntity
  8
0
100
AcDbLine
 62
7
  6
BYLAYER
 10
34.9674865689
 20
62.979999985
 11
35.3210384875
 21
63.1841220619
  0
LINE
  5
2A8
100
AcDbEntity
  8
0
100
AcDbLine
 62
7
  6
BYLAYER
 10
81.7424878317
 20
89.4420612359
 11
114.8703026051
 21
108.5682998448
  0
LINE
  5
2A9
100
AcDbEntity
  8
0
100
AcDbLine
 62
7
  6
BYLAYER
 10
113.8096380174
 20
107.8742571092
 11
81.7424878317
 21
89.3603898302
  0
LINE
  5
2AA
100
AcDbEntity
  8
0
100
AcDbLine
 62
7
  6
BYLAYER
 10
81.7424878317
 20
88.1356573685
 11
114.8703026051
 21
107.2618959774
  0
LINE
  5
2AB
100
AcDbEntity
  8
0
100
AcDbLine
 62
7
  6
BYLAYER
 10
81.9899830066
 20
87.4212415475
 11
59.0091082971
 21
74.1533065467
  0
LINE
  5
2AC
100
AcDbEntity
  8
0
100
AcDbLine
 62
7
  6
BYLAYER
 10
43.4528091586
 20
64.6003396977
 11
44.1599129958
 21
65.0085838515
  0
LINE
  5
2AD
100
AcDbEntity
  8
0
100
AcDbLine
 62
7
  6
BYLAYER
 10
52.6451590424
 20
69.907513698
 11
56.8666776222
 21
72.3447940379
  0
LINE
  5
2AE
100
AcDbEntity
  8
0
100
AcDbLine
 62
7
  6
BYLAYER
 10
38.5030351946
 20
60.9387962123
 11
38.8565871133
 21
61.1429182893
  0
LINE
  5
2AF
100
AcDbEntity
  8
0
100
AcDbLine
 62
7
  6
BYLAYER
 10
44.1599129958
 20
64.1920814344
 11
52.6451590424
 21
69.0910112809
  0
LINE
  5
2B0
100
AcDbEntity
  8
0
100
AcDbLine
 62
7
  6
BYLAYER
 10
80.9293184189
 20
89.9115582387
 11
80.9293184189
 21
88.0336026793
  0
LINE
  5
2B1
100
AcDbEntity
  8
0
100
AcDbLine
 62
7
  6
BYLAYER
 10
81.7424878317
 20
88.1356573685
 11
81.7424878317
 21
89.4420612359
  0
LINE
  5
2B2
100
AcDbEntity
  8
0
100
AcDbLine
 62
7
  6
BYLAYER
 10
42.0385838204
 20
58.8975924397
 11
42.392135739
 21
59.1017145167
  0
LINE
  5
2B3
100
AcDbEntity
  8
0
100
AcDbLine
 62
7
  6
BYLAYER
 10
81.9899830066
 20
87.4212415475
 11
81.9899830066
 21
71.7443951386
  0
LINE
  5
2B4
100
AcDbEntity
  8
0
100
AcDbLine
 62
7
  6
BYLAYER
 10
43.4528091586
 20
54.3940594836
 11
44.1599129958
 21
54.8023036374
  0
LINE
  5
2B5
100
AcDbEntity
  8
0
100
AcDbLine
 62
7
  6
BYLAYER
 10
47.6954321819
 20
56.8435244068
 11
56.8666776222
 21
62.1385138237
  0
LINE
  5
2B6
100
AcDbEntity
  8
0
100
AcDbLine
 62
7
  6
BYLAYER
 10
81.9899830066
 20
72.9691276003
 11
114.8703026051
 21
91.9524756562
  0
LINE
  5
2B7
100
AcDbEntity
  8
0
100
AcDbLine
 62
7
  6
BYLAYER
 10
81.9899830066
 20
71.7443951386
 11
59.0091082971
 21
58.4764601378
  0
LINE
  5
2B8
100
AcDbEntity
  8
0
100
AcDbLine
 62
7
  6
BYLAYER
 10
113.8096380174
 20
107.8742571092
 11
114.8703026051
 21
107.2618959774
  0
LINE
  5
2B9
100
AcDbEntity
  8
0
100
AcDbLine
 62
7
  6
BYLAYER
 10
85.171694149
 20
126.6533893144
 11
114.8703026051
 21
109.5072776245
  0
LINE
  5
2BA
100
AcDbEntity
  8
0
100
AcDbLine
 62
7
  6
BYLAYER
 10
113.8096380174
 20
107.9559285149
 11
113.8096380174
 21
107.8742571092
  0
LINE
  5
2BB
100
AcDbEntity
  8
0
100
AcDbLine
 62
7
  6
BYLAYER
 10
114.8703026051
 20
109.5072776245
 11
114.8703026051
 21
108.5682998448
  0
LINE
  5
2BC
100
AcDbEntity
  8
0
100
AcDbLine
 62
7
  6
BYLAYER
 10
114.8703026051
 20
107.2618959774
 11
114.8703026051
 21
91.9524756562
  0
SPLINE
  5
2BD
100
AcDbEntity
  8
0
100
AcDbSpline
 62
7
  6
BYLAYER
 70
0
 71
3
 72
11
 73
7
 74
0
 42
0.0000001
 43
0.0000001
 44
0.0000000001
 40
0.0
 40
0.0
 40
0.0
 40
0.0
 40
0.2177660095
 40
0.4508968553
 40
0.7103699668
 40
1.0
 40
1.0
 40
1.0
 40
1.0
 10
42.5082318619
 20
58.2754676948
 30
0.0
 10
42.5741844412
 20
58.313580147
 30
0.0
 10
42.697684117
 20
58.4172483757
 30
0.0
 10
42.8290755808
 20
58.6321767948
 30
0.0
 10
42.9070770086
 20
58.8969718068
 30
0.0
 10
42.9224768647
 20
59.089693031
 30
0.0
 10
42.9224768647
 20
59.1910033437
 30
0.0
  0
SPLINE
  5
2BE
100
AcDbEntity
  8
0
100
AcDbSpline
 62
7
  6
BYLAYER
 70
0
 71
3
 72
11
 73
7
 74
0
 42
0.0000001
 43
0.0000001
 44
0.0000000001
 40
0.0
 40
0.0
 40
0.0
 40
0.0
 40
0.2177660095
 40
0.4508968553
 40
0.7103699668
 40
1.0
 40
1.0
 40
1.0
 40
1.0
 10
38.9726832361
 20
60.3166714674
 30
0.0
 10
39.0386358155
 20
60.3547839196
 30
0.0
 10
39.1621354912
 20
60.4584521483
 30
0.0
 10
39.2935269551
 20
60.6733805674
 30
0.0
 10
39.3715283829
 20
60.9381755794
 30
0.0
 10
39.386928239
 20
61.1308968036
 30
0.0
 10
39.386928239
 20
61.2322071163
 30
0.0
  0
SPLINE
  5
2BF
100
AcDbEntity
  8
0
100
AcDbSpline
 62
7
  6
BYLAYER
 70
0
 71
3
 72
11
 73
7
 74
0
 42
0.0000001
 43
0.0000001
 44
0.0000000001
 40
0.0
 40
0.0
 40
0.0
 40
0.0
 40
0.2177660095
 40
0.4508968553
 40
0.7103699668
 40
1.0
 40
1.0
 40
1.0
 40
1.0
 10
35.4371346104
 20
62.35787524
 30
0.0
 10
35.5030871898
 20
62.3959876922
 30
0.0
 10
35.6265868655
 20
62.4996559209
 30
0.0
 10
35.7579783294
 20
62.71458434
 30
0.0
 10
35.8359797572
 20
62.979379352
 30
0.0
 10
35.8513796133
 20
63.1721005762
 30
0.0
 10
35.8513796133
 20
63.2734108889
 30
0.0
  0
SPLINE
  5
2C0
100
AcDbEntity
  8
0
100
AcDbSpline
 62
7
  6
BYLAYER
 70
0
 71
3
 72
11
 73
7
 74
0
 42
0.0000001
 43
0.0000001
 44
0.0000000001
 40
0.0
 40
0.0
 40
0.0
 40
0.0
 40
0.2177660095
 40
0.4508968553
 40
0.7103699668
 40
1.0
 40
1.0
 40
1.0
 40
1.0
 10
17.7593914817
 20
72.5638941031
 30
0.0
 10
17.8253440611
 20
72.6020065552
 30
0.0
 10
17.9488437368
 20
72.705674784
 30
0.0
 10
18.0802352007
 20
72.920603203
 30
0.0
 10
18.1582366285
 20
73.185398215
 30
0.0
 10
18.1736364846
 20
73.3781194392
 30
0.0
 10
18.1736364846
 20
73.4794297519
 30
0.0
  0
SPLINE
  5
2C1
100
AcDbEntity
  8
0
100
AcDbSpline
 62
7
  6
BYLAYER
 70
0
 71
3
 72
11
 73
7
 74
0
 42
0.0000001
 43
0.0000001
 44
0.0000000001
 40
0.0
 40
0.0
 40
0.0
 40
0.0
 40
0.2177660095
 40
0.4508968553
 40
0.7103699668
 40
1.0
 40
1.0
 40
1.0
 40
1.0
 10
21.2949401075
 20
70.5226903305
 30
0.0
 10
21.3608926868
 20
70.5608027826
 30
0.0
 10
21.4843923626
 20
70.6644710114
 30
0.0
 10
21.6157838264
 20
70.8793994304
 30
0.0
 10
21.6937852542
 20
71.1441944424
 30
0.0
 10
21.7091851103
 20
71.3369156666
 30
0.0
 10
21.7091851103
 20
71.4382259793
 30
0.0
  0
SPLINE
  5
2C2
100
AcDbEntity
  8
0
100
AcDbSpline
 62
7
  6
BYLAYER
 70
0
 71
3
 72
11
 73
7
 74
0
 42
0.0000001
 43
0.0000001
 44
0.0000000001
 40
0.0
 40
0.0
 40
0.0
 40
0.0
 40
0.2177660095
 40
0.4508968553
 40
0.7103699668
 40
1.0
 40
1.0
 40
1.0
 40
1.0
 10
24.8304887332
 20
68.4814865579
 30
0.0
 10
24.8964413125
 20
68.51959901
 30
0.0
 10
25.0199409883
 20
68.6232672388
 30
0.0
 10
25.1513324521
 20
68.8381956578
 30
0.0
 10
25.22933388
 20
69.1029906698
 30
0.0
 10
25.2447337361
 20
69.295711894
 30
0.0
 10
25.2447337361
 20
69.3970222067
 30
0.0
  0
SPLINE
  5
2C3
100
AcDbEntity
  8
0
100
AcDbSpline
 62
7
  6
BYLAYER
 70
0
 71
3
 72
11
 73
7
 74
0
 42
0.0000001
 43
0.0000001
 44
0.0000000001
 40
0.0
 40
0.0
 40
0.0
 40
0.0
 40
0.2177660095
 40
0.4508968553
 40
0.7103699668
 40
1.0
 40
1.0
 40
1.0
 40
1.0
 10
28.3660373589
 20
66.4402827853
 30
0.0
 10
28.4319899383
 20
66.4783952374
 30
0.0
 10
28.555489614
 20
66.5820634661
 30
0.0
 10
28.6868810779
 20
66.7969918852
 30
0.0
 10
28.7648825057
 20
67.0617868972
 30
0.0
 10
28.7802823618
 20
67.2545081214
 30
0.0
 10
28.7802823618
 20
67.3558184341
 30
0.0
  0
SPLINE
  5
2C4
100
AcDbEntity
  8
0
100
AcDbSpline
 62
7
  6
BYLAYER
 70
0
 71
3
 72
11
 73
7
 74
0
 42
0.0000001
 43
0.0000001
 44
0.0000000001
 40
0.0
 40
0.0
 40
0.0
 40
0.0
 40
0.2177660095
 40
0.4508968553
 40
0.7103699668
 40
1.0
 40
1.0
 40
1.0
 40
1.0
 10
31.9015859847
 20
64.3990790126
 30
0.0
 10
31.967538564
 20
64.4371914648
 30
0.0
 10
32.0910382398
 20
64.5408596935
 30
0.0
 10
32.2224297036
 20
64.7557881126
 30
0.0
 10
32.3004311314
 20
65.0205831246
 30
0.0
 10
32.3158309875
 20
65.2133043488
 30
0.0
 10
32.3158309875
 20
65.3146146615
 30
0.0
  0
SPLINE
  5
2C5
100
AcDbEntity
  8
0
100
AcDbSpline
 62
7
  6
BYLAYER
 70
0
 71
3
 72
8
 73
4
 74
0
 42
0.0000001
 43
0.0000001
 44
0.0000000001
 40
0.0
 40
0.0
 40
0.0
 40
0.0
 40
1.0
 40
1.0
 40
1.0
 40
1.0
 10
69.2413142432
 20
93.0429932085
 30
0.0
 10
69.2363839165
 20
93.045832216
 30
0.0
 10
69.2305740534
 20
93.0473795134
 30
0.0
 10
69.2248906543
 20
93.0476384748
 30
0.0
  0
SPLINE
  5
2C6
100
AcDbEntity
  8
0
100
AcDbSpline
 62
7
  6
BYLAYER
 70
0
 71
3
 72
9
 73
5
 74
0
 42
0.0000001
 43
0.0000001
 44
0.0000000001
 40
0.0
 40
0.0
 40
0.0
 40
0.0
 40
0.4373495712
 40
1.0
 40
1.0
 40
1.0
 40
1.0
 10
69.2248906543
 20
93.0476384748
 30
0.0
 10
69.212116471
 20
93.0482205243
 30
0.0
 10
69.183006811
 20
93.0365752598
 30
0.0
 10
69.1623463849
 20
93.0153885975
 30
0.0
 10
69.1524891317
 20
93.0022177436
 30
0.0
  0
SPLINE
  5
2C7
100
AcDbEntity
  8
0
100
AcDbSpline
 62
7
  6
BYLAYER
 70
0
 71
3
 72
11
 73
7
 74
0
 42
0.0000001
 43
0.0000001
 44
0.0000000001
 40
0.0
 40
0.0
 40
0.0
 40
0.0
 40
0.1916843664
 40
0.4185583341
 40
0.6922437248
 40
1.0
 40
1.0
 40
1.0
 40
1.0
 10
68.4634929568
 20
93.7250645758
 30
0.0
 10
68.4576671707
 20
93.7284192116
 30
0.0
 10
68.4424140967
 20
93.7315735366
 30
0.0
 10
68.4185823907
 20
93.7243829653
 30
0.0
 10
68.3950104941
 20
93.708117314
 30
0.0
 10
68.3811351008
 20
93.6929303903
 30
0.0
 10
68.3746678452
 20
93.684289111
 30
0.0
  0
SPLINE
  5
2C8
100
AcDbEntity
  8
0
100
AcDbSpline
 62
7
  6
BYLAYER
 70
0
 71
3
 72
8
 73
4
 74
0
 42
0.0000001
 43
0.0000001
 44
0.0000000001
 40
0.0
 40
0.0
 40
0.0
 40
0.0
 40
1.0
 40
1.0
 40
1.0
 40
1.0
 10
66.9785631228
 20
94.3493636229
 30
0.0
 10
66.973632796
 20
94.3522026304
 30
0.0
 10
66.9678229329
 20
94.3537499279
 30
0.0
 10
66.9621395339
 20
94.3540088892
 30
0.0
  0
SPLINE
  5
2C9
100
AcDbEntity
  8
0
100
AcDbSpline
 62
7
  6
BYLAYER
 70
0
 71
3
 72
9
 73
5
 74
0
 42
0.0000001
 43
0.0000001
 44
0.0000000001
 40
0.0
 40
0.0
 40
0.0
 40
0.0
 40
0.4373495712
 40
1.0
 40
1.0
 40
1.0
 40
1.0
 10
66.9621395339
 20
94.3540088892
 30
0.0
 10
66.9493653505
 20
94.3545909388
 30
0.0
 10
66.9202556905
 20
94.3429456742
 30
0.0
 10
66.8995952644
 20
94.321759012
 30
0.0
 10
66.8897380112
 20
94.3085881581
 30
0.0
  0
SPLINE
  5
2CA
100
AcDbEntity
  8
0
100
AcDbSpline
 62
7
  6
BYLAYER
 70
0
 71
3
 72
11
 73
7
 74
0
 42
0.0000001
 43
0.0000001
 44
0.0000000001
 40
0.0
 40
0.0
 40
0.0
 40
0.0
 40
0.1916843664
 40
0.4185583341
 40
0.6922437248
 40
1.0
 40
1.0
 40
1.0
 40
1.0
 10
66.2007418363
 20
95.0314349903
 30
0.0
 10
66.1949160502
 20
95.034789626
 30
0.0
 10
66.1796629762
 20
95.0379439511
 30
0.0
 10
66.1558312702
 20
95.0307533798
 30
0.0
 10
66.1322593737
 20
95.0144877285
 30
0.0
 10
66.1183839803
 20
94.9993008047
 30
0.0
 10
66.1119167247
 20
94.9906595254
 30
0.0
  0
SPLINE
  5
2CB
100
AcDbEntity
  8
0
100
AcDbSpline
 62
7
  6
BYLAYER
 70
0
 71
3
 72
8
 73
4
 74
0
 42
0.0000001
 43
0.0000001
 44
0.0000000001
 40
0.0
 40
0.0
 40
0.0
 40
0.0
 40
1.0
 40
1.0
 40
1.0
 40
1.0
 10
64.7158120023
 20
95.6557340374
 30
0.0
 10
64.7108816755
 20
95.6585730449
 30
0.0
 10
64.7050718124
 20
95.6601203423
 30
0.0
 10
64.6993884134
 20
95.6603793037
 30
0.0
  0
SPLINE
  5
2CC
100
AcDbEntity
  8
0
100
AcDbSpline
 62
7
  6
BYLAYER
 70
0
 71
3
 72
9
 73
5
 74
0
 42
0.0000001
 43
0.0000001
 44
0.0000000001
 40
0.0
 40
0.0
 40
0.0
 40
0.0
 40
0.4373495712
 40
1.0
 40
1.0
 40
1.0
 40
1.0
 10
64.6993884134
 20
95.6603793037
 30
0.0
 10
64.6866142301
 20
95.6609613533
 30
0.0
 10
64.6575045701
 20
95.6493160887
 30
0.0
 10
64.636844144
 20
95.6281294264
 30
0.0
 10
64.6269868907
 20
95.6149585726
 30
0.0
  0
SPLINE
  5
2CD
100
AcDbEntity
  8
0
100
AcDbSpline
 62
7
  6
BYLAYER
 70
0
 71
3
 72
11
 73
7
 74
0
 42
0.0000001
 43
0.0000001
 44
0.0000000001
 40
0.0
 40
0.0
 40
0.0
 40
0.0
 40
0.1916843664
 40
0.4185583341
 40
0.6922437248
 40
1.0
 40
1.0
 40
1.0
 40
1.0
 10
63.9379907158
 20
96.3378054048
 30
0.0
 10
63.9321649297
 20
96.3411600405
 30
0.0
 10
63.9169118557
 20
96.3443143655
 30
0.0
 10
63.8930801497
 20
96.3371237943
 30
0.0
 10
63.8695082532
 20
96.320858143
 30
0.0
 10
63.8556328598
 20
96.3056712192
 30
0.0
 10
63.8491656043
 20
96.2970299399
 30
0.0
  0
SPLINE
  5
2CE
100
AcDbEntity
  8
0
100
AcDbSpline
 62
7
  6
BYLAYER
 70
0
 71
3
 72
8
 73
4
 74
0
 42
0.0000001
 43
0.0000001
 44
0.0000000001
 40
0.0
 40
0.0
 40
0.0
 40
0.0
 40
1.0
 40
1.0
 40
1.0
 40
1.0
 10
62.4530608818
 20
96.9621044519
 30
0.0
 10
62.4481305551
 20
96.9649434594
 30
0.0
 10
62.442320692
 20
96.9664907568
 30
0.0
 10
62.4366372929
 20
96.9667497182
 30
0.0
  0
SPLINE
  5
2CF
100
AcDbEntity
  8
0
100
AcDbSpline
 62
7
  6
BYLAYER
 70
0
 71
3
 72
9
 73
5
 74
0
 42
0.0000001
 43
0.0000001
 44
0.0000000001
 40
0.0
 40
0.0
 40
0.0
 40
0.0
 40
0.4373495712
 40
1.0
 40
1.0
 40
1.0
 40
1.0
 10
62.4366372929
 20
96.9667497182
 30
0.0
 10
62.4238631096
 20
96.9673317677
 30
0.0
 10
62.3947534496
 20
96.9556865032
 30
0.0
 10
62.3740930235
 20
96.9344998409
 30
0.0
 10
62.3642357702
 20
96.921328987
 30
0.0
  0
SPLINE
  5
2D0
100
AcDbEntity
  8
0
100
AcDbSpline
 62
7
  6
BYLAYER
 70
0
 71
3
 72
11
 73
7
 74
0
 42
0.0000001
 43
0.0000001
 44
0.0000000001
 40
0.0
 40
0.0
 40
0.0
 40
0.0
 40
0.1916843664
 40
0.4185583341
 40
0.6922437248
 40
1.0
 40
1.0
 40
1.0
 40
1.0
 10
61.6752395954
 20
97.6441758192
 30
0.0
 10
61.6694138093
 20
97.647530455
 30
0.0
 10
61.6541607352
 20
97.65068478
 30
0.0
 10
61.6303290293
 20
97.6434942087
 30
0.0
 10
61.6067571327
 20
97.6272285574
 30
0.0
 10
61.5928817394
 20
97.6120416336
 30
0.0
 10
61.5864144838
 20
97.6034003544
 30
0.0
  0
SPLINE
  5
2D1
100
AcDbEntity
  8
0
100
AcDbSpline
 62
7
  6
BYLAYER
 70
0
 71
3
 72
8
 73
4
 74
0
 42
0.0000001
 43
0.0000001
 44
0.0000000001
 40
0.0
 40
0.0
 40
0.0
 40
0.0
 40
1.0
 40
1.0
 40
1.0
 40
1.0
 10
60.1903097614
 20
98.2684748663
 30
0.0
 10
60.1853794346
 20
98.2713138738
 30
0.0
 10
60.1795695715
 20
98.2728611713
 30
0.0
 10
60.1738861725
 20
98.2731201326
 30
0.0
  0
SPLINE
  5
2D2
100
AcDbEntity
  8
0
100
AcDbSpline
 62
7
  6
BYLAYER
 70
0
 71
3
 72
9
 73
5
 74
0
 42
0.0000001
 43
0.0000001
 44
0.0000000001
 40
0.0
 40
0.0
 40
0.0
 40
0.0
 40
0.4373495712
 40
1.0
 40
1.0
 40
1.0
 40
1.0
 10
60.1738861725
 20
98.2731201326
 30
0.0
 10
60.1611119891
 20
98.2737021822
 30
0.0
 10
60.1320023291
 20
98.2620569176
 30
0.0
 10
60.111341903
 20
98.2408702553
 30
0.0
 10
60.1014846498
 20
98.2276994015
 30
0.0
  0
SPLINE
  5
2D3
100
AcDbEntity
  8
0
100
AcDbSpline
 62
7
  6
BYLAYER
 70
0
 71
3
 72
11
 73
7
 74
0
 42
0.0000001
 43
0.0000001
 44
0.0000000001
 40
0.0
 40
0.0
 40
0.0
 40
0.0
 40
0.1916843664
 40
0.4185583341
 40
0.6922437248
 40
1.0
 40
1.0
 40
1.0
 40
1.0
 10
59.4124884749
 20
98.9505462337
 30
0.0
 10
59.4066626888
 20
98.9539008694
 30
0.0
 10
59.3914096148
 20
98.9570551945
 30
0.0
 10
59.3675779088
 20
98.9498646232
 30
0.0
 10
59.3440060122
 20
98.9335989719
 30
0.0
 10
59.3301306189
 20
98.9184120481
 30
0.0
 10
59.3236633633
 20
98.9097707688
 30
0.0
  0
SPLINE
  5
2D4
100
AcDbEntity
  8
0
100
AcDbSpline
 62
7
  6
BYLAYER
 70
0
 71
3
 72
8
 73
4
 74
0
 42
0.0000001
 43
0.0000001
 44
0.0000000001
 40
0.0
 40
0.0
 40
0.0
 40
0.0
 40
1.0
 40
1.0
 40
1.0
 40
1.0
 10
57.9275586409
 20
99.5748452808
 30
0.0
 10
57.9226283141
 20
99.5776842883
 30
0.0
 10
57.916818451
 20
99.5792315857
 30
0.0
 10
57.911135052
 20
99.5794905471
 30
0.0
  0
SPLINE
  5
2D5
100
AcDbEntity
  8
0
100
AcDbSpline
 62
7
  6
BYLAYER
 70
0
 71
3
 72
9
 73
5
 74
0
 42
0.0000001
 43
0.0000001
 44
0.0000000001
 40
0.0
 40
0.0
 40
0.0
 40
0.0
 40
0.4373495712
 40
1.0
 40
1.0
 40
1.0
 40
1.0
 10
57.911135052
 20
99.5794905471
 30
0.0
 10
57.8983608687
 20
99.5800725967
 30
0.0
 10
57.8692512086
 20
99.5684273321
 30
0.0
 10
57.8485907825
 20
99.5472406698
 30
0.0
 10
57.8387335293
 20
99.5340698159
 30
0.0
  0
SPLINE
  5
2D6
100
AcDbEntity
  8
0
100
AcDbSpline
 62
7
  6
BYLAYER
 70
0
 71
3
 72
11
 73
7
 74
0
 42
0.0000001
 43
0.0000001
 44
0.0000000001
 40
0.0
 40
0.0
 40
0.0
 40
0.0
 40
0.1916843664
 40
0.4185583341
 40
0.6922437248
 40
1.0
 40
1.0
 40
1.0
 40
1.0
 10
57.1497373544
 20
100.2569166482
 30
0.0
 10
57.1439115683
 20
100.2602712839
 30
0.0
 10
57.1286584943
 20
100.2634256089
 30
0.0
 10
57.1048267883
 20
100.2562350377
 30
0.0
 10
57.0812548918
 20
100.2399693864
 30
0.0
 10
57.0673794984
 20
100.2247824626
 30
0.0
 10
57.0609122428
 20
100.2161411833
 30
0.0
  0
SPLINE
  5
2D7
100
AcDbEntity
  8
0
100
AcDbSpline
 62
7
  6
BYLAYER
 70
0
 71
3
 72
17
 73
13
 74
0
 42
0.0000001
 43
0.0000001
 44
0.0000000001
 40
0.0
 40
0.0
 40
0.0
 40
0.0
 40
0.128688864
 40
0.2702797703
 40
0.4174318348
 40
0.5617733576
 40
0.6954455149
 40
0.8127096012
 40
0.8646749146
 40
0.9125085807
 40
0.9571389861
 40
1.0
 40
1.0
 40
1.0
 40
1.0
 10
32.3158309875
 20
65.3146146615
 30
0.0
 10
32.3158309875
 20
65.4855644822
 30
0.0
 10
32.2680049859
 20
65.8450124508
 30
0.0
 10
32.0895110763
 20
66.3727820713
 30
0.0
 10
31.8144521839
 20
66.881187146
 30
0.0
 10
31.4649515441
 20
67.3285442277
 30
0.0
 10
31.0695620743
 20
67.6787191938
 30
0.0
 10
30.7116796708
 20
67.8744094384
 30
0.0
 10
30.431726417
 20
67.9488748602
 30
0.0
 10
30.2390495514
 20
67.9630625198
 30
0.0
 10
30.0596355211
 20
67.9367679155
 30
0.0
 10
29.9509342332
 20
67.8916009938
 30
0.0
 10
29.9016370898
 20
67.8631133284
 30
0.0
  0
SPLINE
  5
2D8
100
AcDbEntity
  8
0
100
AcDbSpline
 62
7
  6
BYLAYER
 70
0
 71
3
 72
17
 73
13
 74
0
 42
0.0000001
 43
0.0000001
 44
0.0000000001
 40
0.0
 40
0.0
 40
0.0
 40
0.0
 40
0.128688864
 40
0.2702797703
 40
0.4174318348
 40
0.5617733576
 40
0.6954455149
 40
0.8127096012
 40
0.8646749146
 40
0.9125085807
 40
0.9571389861
 40
1.0
 40
1.0
 40
1.0
 40
1.0
 10
28.7802823618
 20
67.3558184341
 30
0.0
 10
28.7802823618
 20
67.5267682548
 30
0.0
 10
28.7324563602
 20
67.8862162234
 30
0.0
 10
28.5539624506
 20
68.4139858439
 30
0.0
 10
28.2789035581
 20
68.9223909186
 30
0.0
 10
27.9294029184
 20
69.3697480003
 30
0.0
 10
27.5340134486
 20
69.7199229664
 30
0.0
 10
27.1761310451
 20
69.915613211
 30
0.0
 10
26.8961777913
 20
69.9900786328
 30
0.0
 10
26.7035009256
 20
70.0042662924
 30
0.0
 10
26.5240868954
 20
69.9779716881
 30
0.0
 10
26.4153856074
 20
69.9328047664
 30
0.0
 10
26.3660884641
 20
69.904317101
 30
0.0
  0
SPLINE
  5
2D9
100
AcDbEntity
  8
0
100
AcDbSpline
 62
7
  6
BYLAYER
 70
0
 71
3
 72
17
 73
13
 74
0
 42
0.0000001
 43
0.0000001
 44
0.0000000001
 40
0.0
 40
0.0
 40
0.0
 40
0.0
 40
0.128688864
 40
0.2702797703
 40
0.4174318348
 40
0.5617733576
 40
0.6954455149
 40
0.8127096012
 40
0.8646749146
 40
0.9125085807
 40
0.9571389861
 40
1.0
 40
1.0
 40
1.0
 40
1.0
 10
25.2447337361
 20
69.3970222067
 30
0.0
 10
25.2447337361
 20
69.5679720274
 30
0.0
 10
25.1969077344
 20
69.927419996
 30
0.0
 10
25.0184138249
 20
70.4551896165
 30
0.0
 10
24.7433549324
 20
70.9635946912
 30
0.0
 10
24.3938542927
 20
71.4109517729
 30
0.0
 10
23.9984648229
 20
71.761126739
 30
0.0
 10
23.6405824194
 20
71.9568169836
 30
0.0
 10
23.3606291655
 20
72.0312824054
 30
0.0
 10
23.1679522999
 20
72.045470065
 30
0.0
 10
22.9885382696
 20
72.0191754607
 30
0.0
 10
22.8798369817
 20
71.974008539
 30
0.0
 10
22.8305398384
 20
71.9455208736
 30
0.0
  0
SPLINE
  5
2DA
100
AcDbEntity
  8
0
100
AcDbSpline
 62
7
  6
BYLAYER
 70
0
 71
3
 72
17
 73
13
 74
0
 42
0.0000001
 43
0.0000001
 44
0.0000000001
 40
0.0
 40
0.0
 40
0.0
 40
0.0
 40
0.128688864
 40
0.2702797703
 40
0.4174318348
 40
0.5617733576
 40
0.6954455149
 40
0.8127096012
 40
0.8646749146
 40
0.9125085807
 40
0.9571389861
 40
1.0
 40
1.0
 40
1.0
 40
1.0
 10
21.7091851103
 20
71.4382259793
 30
0.0
 10
21.7091851103
 20
71.6091758
 30
0.0
 10
21.6613591087
 20
71.9686237686
 30
0.0
 10
21.4828651991
 20
72.4963933891
 30
0.0
 10
21.2078063067
 20
73.0047984638
 30
0.0
 10
20.8583056669
 20
73.4521555455
 30
0.0
 10
20.4629161971
 20
73.8023305116
 30
0.0
 10
20.1050337936
 20
73.9980207562
 30
0.0
 10
19.8250805398
 20
74.072486178
 30
0.0
 10
19.6324036741
 20
74.0866738376
 30
0.0
 10
19.4529896439
 20
74.0603792333
 30
0.0
 10
19.344288356
 20
74.0152123116
 30
0.0
 10
19.2949912126
 20
73.9867246462
 30
0.0
  0
SPLINE
  5
2DB
100
AcDbEntity
  8
0
100
AcDbSpline
 62
7
  6
BYLAYER
 70
0
 71
3
 72
17
 73
13
 74
0
 42
0.0000001
 43
0.0000001
 44
0.0000000001
 40
0.0
 40
0.0
 40
0.0
 40
0.0
 40
0.128688864
 40
0.2702797703
 40
0.4174318348
 40
0.5617733576
 40
0.6954455149
 40
0.8127096012
 40
0.8646749146
 40
0.9125085807
 40
0.9571389861
 40
1.0
 40
1.0
 40
1.0
 40
1.0
 10
18.1736364846
 20
73.4794297519
 30
0.0
 10
18.1736364846
 20
73.6503795726
 30
0.0
 10
18.125810483
 20
74.0098275412
 30
0.0
 10
17.9473165734
 20
74.5375971617
 30
0.0
 10
17.6722576809
 20
75.0460022364
 30
0.0
 10
17.3227570412
 20
75.4933593181
 30
0.0
 10
16.9273675714
 20
75.8435342842
 30
0.0
 10
16.5694851679
 20
76.0392245288
 30
0.0
 10
16.289531914
 20
76.1136899506
 30
0.0
 10
16.0968550484
 20
76.1278776102
 30
0.0
 10
15.9174410182
 20
76.1015830059
 30
0.0
 10
15.8087397302
 20
76.0564160842
 30
0.0
 10
15.7594425869
 20
76.0279284188
 30
0.0
  0
SPLINE
  5
2DC
100
AcDbEntity
  8
0
100
AcDbSpline
 62
7
  6
BYLAYER
 70
0
 71
3
 72
17
 73
13
 74
0
 42
0.0000001
 43
0.0000001
 44
0.0000000001
 40
0.0
 40
0.0
 40
0.0
 40
0.0
 40
0.128688864
 40
0.2702797703
 40
0.4174318348
 40
0.5617733576
 40
0.6954455149
 40
0.8127096012
 40
0.8646749146
 40
0.9125085807
 40
0.9571389861
 40
1.0
 40
1.0
 40
1.0
 40
1.0
 10
35.8513796133
 20
63.2734108889
 30
0.0
 10
35.8513796133
 20
63.4443607096
 30
0.0
 10
35.8035536116
 20
63.8038086782
 30
0.0
 10
35.6250597021
 20
64.3315782987
 30
0.0
 10
35.3500008096
 20
64.8399833734
 30
0.0
 10
35.0005001699
 20
65.2873404551
 30
0.0
 10
34.6051107001
 20
65.6375154212
 30
0.0
 10
34.2472282966
 20
65.8332056658
 30
0.0
 10
33.9672750427
 20
65.9076710876
 30
0.0
 10
33.7745981771
 20
65.9218587472
 30
0.0
 10
33.5951841468
 20
65.8955641429
 30
0.0
 10
33.4864828589
 20
65.8503972212
 30
0.0
 10
33.4371857156
 20
65.8219095558
 30
0.0
  0
SPLINE
  5
2DD
100
AcDbEntity
  8
0
100
AcDbSpline
 62
7
  6
BYLAYER
 70
0
 71
3
 72
17
 73
13
 74
0
 42
0.0000001
 43
0.0000001
 44
0.0000000001
 40
0.0
 40
0.0
 40
0.0
 40
0.0
 40
0.128688864
 40
0.2702797703
 40
0.4174318348
 40
0.5617733576
 40
0.6954455149
 40
0.8127096012
 40
0.8646749146
 40
0.9125085807
 40
0.9571389861
 40
1.0
 40
1.0
 40
1.0
 40
1.0
 10
39.386928239
 20
61.2322071163
 30
0.0
 10
39.386928239
 20
61.403156937
 30
0.0
 10
39.3391022374
 20
61.7626049056
 30
0.0
 10
39.1606083278
 20
62.2903745261
 30
0.0
 10
38.8855494353
 20
62.7987796008
 30
0.0
 10
38.5360487956
 20
63.2461366825
 30
0.0
 10
38.1406593258
 20
63.5963116486
 30
0.0
 10
37.7827769223
 20
63.7920018932
 30
0.0
 10
37.5028236685
 20
63.866467315
 30
0.0
 10
37.3101468028
 20
63.8806549746
 30
0.0
 10
37.1307327726
 20
63.8543603703
 30
0.0
 10
37.0220314846
 20
63.8091934486
 30
0.0
 10
36.9727343413
 20
63.7807057832
 30
0.0
  0
SPLINE
  5
2DE
100
AcDbEntity
  8
0
100
AcDbSpline
 62
7
  6
BYLAYER
 70
0
 71
3
 72
17
 73
13
 74
0
 42
0.0000001
 43
0.0000001
 44
0.0000000001
 40
0.0
 40
0.0
 40
0.0
 40
0.0
 40
0.128688864
 40
0.2702797703
 40
0.4174318348
 40
0.5617733576
 40
0.6954455149
 40
0.8127096012
 40
0.8646749146
 40
0.9125085807
 40
0.9571389861
 40
1.0
 40
1.0
 40
1.0
 40
1.0
 10
42.9224768647
 20
59.1910033437
 30
0.0
 10
42.9224768647
 20
59.3619531644
 30
0.0
 10
42.8746508631
 20
59.721401133
 30
0.0
 10
42.6961569535
 20
60.2491707535
 30
0.0
 10
42.4210980611
 20
60.7575758282
 30
0.0
 10
42.0715974213
 20
61.2049329098
 30
0.0
 10
41.6762079515
 20
61.555107876
 30
0.0
 10
41.318325548
 20
61.7507981206
 30
0.0
 10
41.0383722942
 20
61.8252635424
 30
0.0
 10
40.8456954286
 20
61.839451202
 30
0.0
 10
40.6662813983
 20
61.8131565977
 30
0.0
 10
40.5575801104
 20
61.767989676
 30
0.0
 10
40.508282967
 20
61.7395020106
 30
0.0
  0
SPLINE
  5
2DF
100
AcDbEntity
  8
0
100
AcDbSpline
 62
7
  6
BYLAYER
 70
0
 71
3
 72
11
 73
7
 74
0
 42
0.0000001
 43
0.0000001
 44
0.0000000001
 40
0.0
 40
0.0
 40
0.0
 40
0.0
 40
0.3077562752
 40
0.5814416659
 40
0.8083156336
 40
1.0
 40
1.0
 40
1.0
 40
1.0
 10
60.1721950335
 20
98.4198818634
 30
0.0
 10
60.1786622891
 20
98.4285231427
 30
0.0
 10
60.1925376824
 20
98.4437100665
 30
0.0
 10
60.216109579
 20
98.4599757178
 30
0.0
 10
60.239941285
 20
98.4671662891
 30
0.0
 10
60.255194359
 20
98.464011964
 30
0.0
 10
60.2610201451
 20
98.4606573283
 30
0.0
  0
SPLINE
  5
2E0
100
AcDbEntity
  8
0
100
AcDbSpline
 62
7
  6
BYLAYER
 70
0
 71
3
 72
9
 73
5
 74
0
 42
0.0000001
 43
0.0000001
 44
0.0000000001
 40
0.0
 40
0.0
 40
0.0
 40
0.0
 40
0.2342049982
 40
1.0
 40
1.0
 40
1.0
 40
1.0
 10
21.6059294024
 20
70.8376643748
 30
0.0
 10
21.5715317024
 20
70.8387725051
 30
0.0
 10
21.4249363174
 20
70.8519598444
 30
0.0
 10
21.2821556228
 20
70.8960799934
 30
0.0
 10
21.1788469285
 20
70.9406946981
 30
0.0
  0
SPLINE
  5
2E1
100
AcDbEntity
  8
0
100
AcDbSpline
 62
7
  6
BYLAYER
 70
0
 71
3
 72
11
 73
7
 74
0
 42
0.0000001
 43
0.0000001
 44
0.0000000001
 40
0.0
 40
0.0
 40
0.0
 40
0.0
 40
0.3077562752
 40
0.5814416659
 40
0.8083156336
 40
1.0
 40
1.0
 40
1.0
 40
1.0
 10
66.9604483949
 20
94.50077062
 30
0.0
 10
66.9669156505
 20
94.5094118993
 30
0.0
 10
66.9807910438
 20
94.5245988231
 30
0.0
 10
67.0043629404
 20
94.5408644744
 30
0.0
 10
67.0281946464
 20
94.5480550457
 30
0.0
 10
67.0434477204
 20
94.5449007206
 30
0.0
 10
67.0492735065
 20
94.5415460849
 30
0.0
  0
SPLINE
  5
2E2
100
AcDbEntity
  8
0
100
AcDbSpline
 62
7
  6
BYLAYER
 70
0
 71
3
 72
11
 73
7
 74
0
 42
0.0000001
 43
0.0000001
 44
0.0000000001
 40
0.0
 40
0.0
 40
0.0
 40
0.0
 40
0.2177660095
 40
0.4508968553
 40
0.7103699668
 40
1.0
 40
1.0
 40
1.0
 40
1.0
 10
22.8305398384
 20
71.9455208736
 30
0.0
 10
22.764587259
 20
71.9074084214
 30
0.0
 10
22.6410875833
 20
71.8037401927
 30
0.0
 10
22.5096961194
 20
71.5888117736
 30
0.0
 10
22.4316946916
 20
71.3240167616
 30
0.0
 10
22.4162948355
 20
71.1312955374
 30
0.0
 10
22.4162948355
 20
71.0299852247
 30
0.0
  0
SPLINE
  5
2E3
100
AcDbEntity
  8
0
100
AcDbSpline
 62
7
  6
BYLAYER
 70
0
 71
3
 72
11
 73
7
 74
0
 42
0.0000001
 43
0.0000001
 44
0.0000000001
 40
0.0
 40
0.0
 40
0.0
 40
0.0
 40
0.2701074687
 40
0.5273933828
 40
0.7708452072
 40
1.0
 40
1.0
 40
1.0
 40
1.0
 10
59.0091082971
 20
74.1533065467
 30
0.0
 10
55.8836983998
 20
75.2948744748
 30
0.0
 10
49.8635869745
 20
77.7599657113
 30
0.0
 10
41.406041594
 20
82.1053222352
 30
0.0
 10
33.8237810147
 20
86.9642065843
 30
0.0
 10
29.2743263201
 20
90.6213015687
 30
0.0
 10
27.1891706655
 20
92.5241405001
 30
0.0
  0
SPLINE
  5
2E4
100
AcDbEntity
  8
0
100
AcDbSpline
 62
7
  6
BYLAYER
 70
0
 71
3
 72
9
 73
5
 74
0
 42
0.0000001
 43
0.0000001
 44
0.0000000001
 40
0.0
 40
0.0
 40
0.0
 40
0.0
 40
0.2342049982
 40
1.0
 40
1.0
 40
1.0
 40
1.0
 10
35.7481239054
 20
62.6728492844
 30
0.0
 10
35.7137262054
 20
62.6739574147
 30
0.0
 10
35.5671308204
 20
62.687144754
 30
0.0
 10
35.4243501257
 20
62.731264903
 30
0.0
 10
35.3210414315
 20
62.7758796077
 30
0.0
  0
SPLINE
  5
2E5
100
AcDbEntity
  8
0
100
AcDbSpline
 62
7
  6
BYLAYER
 70
0
 71
3
 72
11
 73
7
 74
0
 42
0.0000001
 43
0.0000001
 44
0.0000000001
 40
0.0
 40
0.0
 40
0.0
 40
0.0
 40
0.3077562752
 40
0.5814416659
 40
0.8083156336
 40
1.0
 40
1.0
 40
1.0
 40
1.0
 10
69.2231995154
 20
93.1944002056
 30
0.0
 10
69.229666771
 20
93.2030414848
 30
0.0
 10
69.2435421643
 20
93.2182284086
 30
0.0
 10
69.2671140608
 20
93.2344940599
 30
0.0
 10
69.2909457668
 20
93.2416846312
 30
0.0
 10
69.3061988409
 20
93.2385303061
 30
0.0
 10
69.312024627
 20
93.2351756704
 30
0.0
  0
SPLINE
  5
2E6
100
AcDbEntity
  8
0
100
AcDbSpline
 62
7
  6
BYLAYER
 70
0
 71
3
 72
11
 73
7
 74
0
 42
0.0000001
 43
0.0000001
 44
0.0000000001
 40
0.0
 40
0.0
 40
0.0
 40
0.0
 40
0.2177660095
 40
0.4508968553
 40
0.7103699668
 40
1.0
 40
1.0
 40
1.0
 40
1.0
 10
33.4371857156
 20
65.8219095558
 30
0.0
 10
33.3712331362
 20
65.7837971036
 30
0.0
 10
33.2477334605
 20
65.6801288749
 30
0.0
 10
33.1163419966
 20
65.4652004558
 30
0.0
 10
33.0383405688
 20
65.2004054438
 30
0.0
 10
33.0229407127
 20
65.0076842196
 30
0.0
 10
33.0229407127
 20
64.9063739069
 30
0.0
  0
SPLINE
  5
2E7
100
AcDbEntity
  8
0
100
AcDbSpline
 62
7
  6
BYLAYER
 70
0
 71
3
 72
11
 73
7
 74
0
 42
0.0000001
 43
0.0000001
 44
0.0000000001
 40
0.0
 40
0.0
 40
0.0
 40
0.0
 40
0.3077562752
 40
0.5814416659
 40
0.8083156336
 40
1.0
 40
1.0
 40
1.0
 40
1.0
 10
57.909443913
 20
99.7262522779
 30
0.0
 10
57.9159111686
 20
99.7348935572
 30
0.0
 10
57.9297865619
 20
99.7500804809
 30
0.0
 10
57.9533584585
 20
99.7663461322
 30
0.0
 10
57.9771901645
 20
99.7735367035
 30
0.0
 10
57.9924432385
 20
99.7703823785
 30
0.0
 10
57.9982690246
 20
99.7670277427
 30
0.0
  0
SPLINE
  5
2E8
100
AcDbEntity
  8
0
100
AcDbSpline
 62
7
  6
BYLAYER
 70
0
 71
3
 72
11
 73
7
 74
0
 42
0.0000001
 43
0.0000001
 44
0.0000000001
 40
0.0
 40
0.0
 40
0.0
 40
0.0
 40
0.2177660095
 40
0.4508968553
 40
0.7103699668
 40
1.0
 40
1.0
 40
1.0
 40
1.0
 10
19.2949912126
 20
73.9867246462
 30
0.0
 10
19.2290386333
 20
73.948612194
 30
0.0
 10
19.1055389575
 20
73.8449439653
 30
0.0
 10
18.9741474937
 20
73.6300155463
 30
0.0
 10
18.8961460659
 20
73.3652205342
 30
0.0
 10
18.8807462097
 20
73.17249931
 30
0.0
 10
18.8807462097
 20
73.0711889974
 30
0.0
  0
SPLINE
  5
2E9
100
AcDbEntity
  8
0
100
AcDbSpline
 62
7
  6
BYLAYER
 70
0
 71
3
 72
11
 73
7
 74
0
 42
0.0000001
 43
0.0000001
 44
0.0000000001
 40
0.0
 40
0.0
 40
0.0
 40
0.0
 40
0.3077562752
 40
0.5814416659
 40
0.8083156336
 40
1.0
 40
1.0
 40
1.0
 40
1.0
 10
62.434946154
 20
97.1135114489
 30
0.0
 10
62.4414134095
 20
97.1221527282
 30
0.0
 10
62.4552888029
 20
97.137339652
 30
0.0
 10
62.4788606994
 20
97.1536053033
 30
0.0
 10
62.5026924054
 20
97.1607958746
 30
0.0
 10
62.5179454794
 20
97.1576415495
 30
0.0
 10
62.5237712655
 20
97.1542869138
 30
0.0
  0
SPLINE
  5
2EA
100
AcDbEntity
  8
0
100
AcDbSpline
 62
7
  6
BYLAYER
 70
0
 71
3
 72
11
 73
7
 74
0
 42
0.0000001
 43
0.0000001
 44
0.0000000001
 40
0.0
 40
0.0
 40
0.0
 40
0.0
 40
0.2312133274
 40
0.4752775406
 40
0.7318031644
 40
1.0
 40
1.0
 40
1.0
 40
1.0
 10
28.2999863874
 20
88.9196820776
 30
0.0
 10
30.2260812617
 20
87.2372681905
 30
0.0
 10
34.3774684103
 20
83.9946373524
 30
0.0
 10
41.2111531011
 20
79.6372701618
 30
0.0
 10
48.755245761
 20
75.6934102442
 30
0.0
 10
54.0989673875
 20
73.412402818
 30
0.0
 10
56.8666776222
 20
72.3447940379
 30
0.0
  0
SPLINE
  5
2EB
100
AcDbEntity
  8
0
100
AcDbSpline
 62
7
  6
BYLAYER
 70
0
 71
3
 72
9
 73
5
 74
0
 42
0.0000001
 43
0.0000001
 44
0.0000000001
 40
0.0
 40
0.0
 40
0.0
 40
0.0
 40
0.2342049982
 40
1.0
 40
1.0
 40
1.0
 40
1.0
 10
39.2836725311
 20
60.6316455118
 30
0.0
 10
39.2492748311
 20
60.6327536421
 30
0.0
 10
39.1026794461
 20
60.6459409814
 30
0.0
 10
38.9598987515
 20
60.6900611304
 30
0.0
 10
38.8565900572
 20
60.7346758351
 30
0.0
  0
SPLINE
  5
2EC
100
AcDbEntity
  8
0
100
AcDbSpline
 62
7
  6
BYLAYER
 70
0
 71
3
 72
9
 73
5
 74
0
 42
0.0000001
 43
0.0000001
 44
0.0000000001
 40
0.0
 40
0.0
 40
0.0
 40
0.0
 40
0.2342049982
 40
1.0
 40
1.0
 40
1.0
 40
1.0
 10
28.6770266539
 20
66.7552568296
 30
0.0
 10
28.6426289539
 20
66.7563649599
 30
0.0
 10
28.4960335689
 20
66.7695522992
 30
0.0
 10
28.3532528743
 20
66.8136724482
 30
0.0
 10
28.24994418
 20
66.8582871529
 30
0.0
  0
SPLINE
  5
2ED
100
AcDbEntity
  8
0
100
AcDbSpline
 62
7
  6
BYLAYER
 70
0
 71
3
 72
11
 73
7
 74
0
 42
0.0000001
 43
0.0000001
 44
0.0000000001
 40
0.0
 40
0.0
 40
0.0
 40
0.0
 40
0.2177660095
 40
0.4508968553
 40
0.7103699668
 40
1.0
 40
1.0
 40
1.0
 40
1.0
 10
26.3660884641
 20
69.904317101
 30
0.0
 10
26.3001358847
 20
69.8662046488
 30
0.0
 10
26.176636209
 20
69.7625364201
 30
0.0
 10
26.0452447451
 20
69.547608001
 30
0.0
 10
25.9672433173
 20
69.282812989
 30
0.0
 10
25.9518434612
 20
69.0900917648
 30
0.0
 10
25.9518434612
 20
68.9887814521
 30
0.0
  0
SPLINE
  5
2EE
100
AcDbEntity
  8
0
100
AcDbSpline
 62
7
  6
BYLAYER
 70
0
 71
3
 72
11
 73
7
 74
0
 42
0.0000001
 43
0.0000001
 44
0.0000000001
 40
0.0
 40
0.0
 40
0.0
 40
0.0
 40
0.2177660095
 40
0.4508968553
 40
0.7103699668
 40
1.0
 40
1.0
 40
1.0
 40
1.0
 10
36.9727343413
 20
63.7807057832
 30
0.0
 10
36.9067817619
 20
63.742593331
 30
0.0
 10
36.7832820862
 20
63.6389251023
 30
0.0
 10
36.6518906223
 20
63.4239966832
 30
0.0
 10
36.5738891945
 20
63.1592016712
 30
0.0
 10
36.5584893384
 20
62.966480447
 30
0.0
 10
36.5584893384
 20
62.8651701343
 30
0.0
  0
SPLINE
  5
2EF
100
AcDbEntity
  8
0
100
AcDbSpline
 62
7
  6
BYLAYER
 70
0
 71
3
 72
9
 73
5
 74
0
 42
0.0000001
 43
0.0000001
 44
0.0000000001
 40
0.0
 40
0.0
 40
0.0
 40
0.0
 40
0.2342049982
 40
1.0
 40
1.0
 40
1.0
 40
1.0
 10
18.0703807767
 20
72.8788681474
 30
0.0
 10
18.0359830767
 20
72.8799762777
 30
0.0
 10
17.8893876917
 20
72.893163617
 30
0.0
 10
17.7466069971
 20
72.937283766
 30
0.0
 10
17.6432983028
 20
72.9818984707
 30
0.0
  0
SPLINE
  5
2F0
100
AcDbEntity
  8
0
100
AcDbSpline
 62
7
  6
BYLAYER
 70
0
 71
3
 72
9
 73
5
 74
0
 42
0.0000001
 43
0.0000001
 44
0.0000000001
 40
0.0
 40
0.0
 40
0.0
 40
0.0
 40
0.2342049982
 40
1.0
 40
1.0
 40
1.0
 40
1.0
 10
32.2125752796
 20
64.714053057
 30
0.0
 10
32.1781775796
 20
64.7151611873
 30
0.0
 10
32.0315821946
 20
64.7283485266
 30
0.0
 10
31.8888015
 20
64.7724686756
 30
0.0
 10
31.7854928057
 20
64.8170833803
 30
0.0
  0
SPLINE
  5
2F1
100
AcDbEntity
  8
0
100
AcDbSpline
 62
7
  6
BYLAYER
 70
0
 71
3
 72
11
 73
7
 74
0
 42
0.0000001
 43
0.0000001
 44
0.0000000001
 40
0.0
 40
0.0
 40
0.0
 40
0.0
 40
0.2177660095
 40
0.4508968553
 40
0.7103699668
 40
1.0
 40
1.0
 40
1.0
 40
1.0
 10
29.9016370898
 20
67.8631133284
 30
0.0
 10
29.8356845105
 20
67.8250008762
 30
0.0
 10
29.7121848347
 20
67.7213326475
 30
0.0
 10
29.5807933709
 20
67.5064042284
 30
0.0
 10
29.5027919431
 20
67.2416092164
 30
0.0
 10
29.487392087
 20
67.0488879922
 30
0.0
 10
29.487392087
 20
66.9475776795
 30
0.0
  0
SPLINE
  5
2F2
100
AcDbEntity
  8
0
100
AcDbSpline
 62
7
  6
BYLAYER
 70
0
 71
3
 72
11
 73
7
 74
0
 42
0.0000001
 43
0.0000001
 44
0.0000000001
 40
0.0
 40
0.0
 40
0.0
 40
0.0
 40
0.2177660095
 40
0.4508968553
 40
0.7103699668
 40
1.0
 40
1.0
 40
1.0
 40
1.0
 10
15.7594425869
 20
76.0279284188
 30
0.0
 10
15.6934900075
 20
75.9898159666
 30
0.0
 10
15.5699903318
 20
75.8861477379
 30
0.0
 10
15.4385988679
 20
75.6712193189
 30
0.0
 10
15.3605974401
 20
75.4064243068
 30
0.0
 10
15.345197584
 20
75.2137030826
 30
0.0
 10
15.345197584
 20
75.11239277
 30
0.0
  0
SPLINE
  5
2F3
100
AcDbEntity
  8
0
100
AcDbSpline
 62
7
  6
BYLAYER
 70
0
 71
3
 72
9
 73
5
 74
0
 42
0.0000001
 43
0.0000001
 44
0.0000000001
 40
0.0
 40
0.0
 40
0.0
 40
0.0
 40
0.2342049982
 40
1.0
 40
1.0
 40
1.0
 40
1.0
 10
25.1414780282
 20
68.7964606022
 30
0.0
 10
25.1070803282
 20
68.7975687325
 30
0.0
 10
24.9604849432
 20
68.8107560718
 30
0.0
 10
24.8177042485
 20
68.8548762208
 30
0.0
 10
24.7143955543
 20
68.8994909255
 30
0.0
  0
SPLINE
  5
2F4
100
AcDbEntity
  8
0
100
AcDbSpline
 62
7
  6
BYLAYER
 70
0
 71
3
 72
17
 73
13
 74
0
 42
0.0000001
 43
0.0000001
 44
0.0000000001
 40
0.0
 40
0.0
 40
0.0
 40
0.0
 40
0.128688864
 40
0.2702797703
 40
0.4174318348
 40
0.5617733576
 40
0.6954455149
 40
0.8127096012
 40
0.8646749146
 40
0.9125085807
 40
0.9571389861
 40
1.0
 40
1.0
 40
1.0
 40
1.0
 10
29.487392087
 20
66.9475776795
 30
0.0
 10
29.487392087
 20
66.7766278588
 30
0.0
 10
29.5352180886
 20
66.4171798902
 30
0.0
 10
29.7137119982
 20
65.8894102697
 30
0.0
 10
29.9887708906
 20
65.381005195
 30
0.0
 10
30.3382715304
 20
64.9336481134
 30
0.0
 10
30.7336610002
 20
64.5834731472
 30
0.0
 10
31.0915434037
 20
64.3877829026
 30
0.0
 10
31.3714966575
 20
64.3133174808
 30
0.0
 10
31.5641735231
 20
64.2991298212
 30
0.0
 10
31.7435875534
 20
64.3254244255
 30
0.0
 10
31.8522888413
 20
64.3705913472
 30
0.0
 10
31.9015859847
 20
64.3990790126
 30
0.0
  0
SPLINE
  5
2F5
100
AcDbEntity
  8
0
100
AcDbSpline
 62
7
  6
BYLAYER
 70
0
 71
3
 72
17
 73
13
 74
0
 42
0.0000001
 43
0.0000001
 44
0.0000000001
 40
0.0
 40
0.0
 40
0.0
 40
0.0
 40
0.128688864
 40
0.2702797703
 40
0.4174318348
 40
0.5617733576
 40
0.6954455149
 40
0.8127096012
 40
0.8646749146
 40
0.9125085807
 40
0.9571389861
 40
1.0
 40
1.0
 40
1.0
 40
1.0
 10
25.9518434612
 20
68.9887814521
 30
0.0
 10
25.9518434612
 20
68.8178316314
 30
0.0
 10
25.9996694629
 20
68.4583836628
 30
0.0
 10
26.1781633724
 20
67.9306140423
 30
0.0
 10
26.4532222649
 20
67.4222089676
 30
0.0
 10
26.8027229046
 20
66.974851886
 30
0.0
 10
27.1981123744
 20
66.6246769198
 30
0.0
 10
27.5559947779
 20
66.4289866752
 30
0.0
 10
27.8359480318
 20
66.3545212534
 30
0.0
 10
28.0286248974
 20
66.3403335938
 30
0.0
 10
28.2080389276
 20
66.3666281981
 30
0.0
 10
28.3167402156
 20
66.4117951198
 30
0.0
 10
28.3660373589
 20
66.4402827853
 30
0.0
  0
SPLINE
  5
2F6
100
AcDbEntity
  8
0
100
AcDbSpline
 62
7
  6
BYLAYER
 70
0
 71
3
 72
17
 73
13
 74
0
 42
0.0000001
 43
0.0000001
 44
0.0000000001
 40
0.0
 40
0.0
 40
0.0
 40
0.0
 40
0.128688864
 40
0.2702797703
 40
0.4174318348
 40
0.5617733576
 40
0.6954455149
 40
0.8127096012
 40
0.8646749146
 40
0.9125085807
 40
0.9571389861
 40
1.0
 40
1.0
 40
1.0
 40
1.0
 10
22.4162948355
 20
71.0299852247
 30
0.0
 10
22.4162948355
 20
70.859035404
 30
0.0
 10
22.4641208371
 20
70.4995874354
 30
0.0
 10
22.6426147467
 20
69.9718178149
 30
0.0
 10
22.9176736391
 20
69.4634127402
 30
0.0
 10
23.2671742789
 20
69.0160556586
 30
0.0
 10
23.6625637487
 20
68.6658806924
 30
0.0
 10
24.0204461522
 20
68.4701904478
 30
0.0
 10
24.300399406
 20
68.395725026
 30
0.0
 10
24.4930762717
 20
68.3815373664
 30
0.0
 10
24.6724903019
 20
68.4078319707
 30
0.0
 10
24.7811915899
 20
68.4529988924
 30
0.0
 10
24.8304887332
 20
68.4814865579
 30
0.0
  0
SPLINE
  5
2F7
100
AcDbEntity
  8
0
100
AcDbSpline
 62
7
  6
BYLAYER
 70
0
 71
3
 72
17
 73
13
 74
0
 42
0.0000001
 43
0.0000001
 44
0.0000000001
 40
0.0
 40
0.0
 40
0.0
 40
0.0
 40
0.128688864
 40
0.2702797703
 40
0.4174318348
 40
0.5617733576
 40
0.6954455149
 40
0.8127096012
 40
0.8646749146
 40
0.9125085807
 40
0.9571389861
 40
1.0
 40
1.0
 40
1.0
 40
1.0
 10
18.8807462097
 20
73.0711889974
 30
0.0
 10
18.8807462097
 20
72.9002391766
 30
0.0
 10
18.9285722114
 20
72.540791208
 30
0.0
 10
19.107066121
 20
72.0130215875
 30
0.0
 10
19.3821250134
 20
71.5046165128
 30
0.0
 10
19.7316256532
 20
71.0572594312
 30
0.0
 10
20.127015123
 20
70.707084465
 30
0.0
 10
20.4848975265
 20
70.5113942204
 30
0.0
 10
20.7648507803
 20
70.4369287986
 30
0.0
 10
20.9575276459
 20
70.422741139
 30
0.0
 10
21.1369416762
 20
70.4490357433
 30
0.0
 10
21.2456429641
 20
70.494202665
 30
0.0
 10
21.2949401075
 20
70.5226903305
 30
0.0
  0
SPLINE
  5
2F8
100
AcDbEntity
  8
0
100
AcDbSpline
 62
7
  6
BYLAYER
 70
0
 71
3
 72
17
 73
13
 74
0
 42
0.0000001
 43
0.0000001
 44
0.0000000001
 40
0.0
 40
0.0
 40
0.0
 40
0.0
 40
0.128688864
 40
0.2702797703
 40
0.4174318348
 40
0.5617733576
 40
0.6954455149
 40
0.8127096012
 40
0.8646749146
 40
0.9125085807
 40
0.9571389861
 40
1.0
 40
1.0
 40
1.0
 40
1.0
 10
15.345197584
 20
75.11239277
 30
0.0
 10
15.345197584
 20
74.9414429492
 30
0.0
 10
15.3930235857
 20
74.5819949806
 30
0.0
 10
15.5715174952
 20
74.0542253601
 30
0.0
 10
15.8465763877
 20
73.5458202854
 30
0.0
 10
16.1960770274
 20
73.0984632038
 30
0.0
 10
16.5914664972
 20
72.7482882376
 30
0.0
 10
16.9493489007
 20
72.552597993
 30
0.0
 10
17.2293021546
 20
72.4781325712
 30
0.0
 10
17.4219790202
 20
72.4639449116
 30
0.0
 10
17.6013930504
 20
72.4902395159
 30
0.0
 10
17.7100943384
 20
72.5354064376
 30
0.0
 10
17.7593914817
 20
72.5638941031
 30
0.0
  0
SPLINE
  5
2F9
100
AcDbEntity
  8
0
100
AcDbSpline
 62
7
  6
BYLAYER
 70
0
 71
3
 72
11
 73
7
 74
0
 42
0.0000001
 43
0.0000001
 44
0.0000000001
 40
0.0
 40
0.0
 40
0.0
 40
0.0
 40
0.3077562752
 40
0.5814416659
 40
0.8083156336
 40
1.0
 40
1.0
 40
1.0
 40
1.0
 10
64.6976972744
 20
95.8071410345
 30
0.0
 10
64.70416453
 20
95.8157823138
 30
0.0
 10
64.7180399234
 20
95.8309692375
 30
0.0
 10
64.7416118199
 20
95.8472348888
 30
0.0
 10
64.7654435259
 20
95.8544254601
 30
0.0
 10
64.7806965999
 20
95.8512711351
 30
0.0
 10
64.786522386
 20
95.8479164993
 30
0.0
  0
SPLINE
  5
2FA
100
AcDbEntity
  8
0
100
AcDbSpline
 62
7
  6
BYLAYER
 70
0
 71
3
 72
17
 73
13
 74
0
 42
0.0000001
 43
0.0000001
 44
0.0000000001
 40
0.0
 40
0.0
 40
0.0
 40
0.0
 40
0.128688864
 40
0.2702797703
 40
0.4174318348
 40
0.5617733576
 40
0.6954455149
 40
0.8127096012
 40
0.8646749146
 40
0.9125085807
 40
0.9571389861
 40
1.0
 40
1.0
 40
1.0
 40
1.0
 10
33.0229407127
 20
64.9063739069
 30
0.0
 10
33.0229407127
 20
64.7354240862
 30
0.0
 10
33.0707667143
 20
64.3759761176
 30
0.0
 10
33.2492606239
 20
63.8482064971
 30
0.0
 10
33.5243195164
 20
63.3398014224
 30
0.0
 10
33.8738201561
 20
62.8924443408
 30
0.0
 10
34.2692096259
 20
62.5422693746
 30
0.0
 10
34.6270920294
 20
62.34657913
 30
0.0
 10
34.9070452832
 20
62.2721137082
 30
0.0
 10
35.0997221489
 20
62.2579260486
 30
0.0
 10
35.2791361791
 20
62.2842206529
 30
0.0
 10
35.3878374671
 20
62.3293875746
 30
0.0
 10
35.4371346104
 20
62.35787524
 30
0.0
  0
SPLINE
  5
2FB
100
AcDbEntity
  8
0
100
AcDbSpline
 62
7
  6
BYLAYER
 70
0
 71
3
 72
11
 73
7
 74
0
 42
0.0000001
 43
0.0000001
 44
0.0000000001
 40
0.0
 40
0.0
 40
0.0
 40
0.0
 40
0.2177660095
 40
0.4508968553
 40
0.7103699668
 40
1.0
 40
1.0
 40
1.0
 40
1.0
 10
40.508282967
 20
61.7395020106
 30
0.0
 10
40.4423303877
 20
61.7013895584
 30
0.0
 10
40.3188307119
 20
61.5977213297
 30
0.0
 10
40.1874392481
 20
61.3827929106
 30
0.0
 10
40.1094378203
 20
61.1179978986
 30
0.0
 10
40.0940379642
 20
60.9252766744
 30
0.0
 10
40.0940379642
 20
60.8239663617
 30
0.0
  0
SPLINE
  5
2FC
100
AcDbEntity
  8
0
100
AcDbSpline
 62
7
  6
BYLAYER
 70
0
 71
3
 72
17
 73
13
 74
0
 42
0.0000001
 43
0.0000001
 44
0.0000000001
 40
0.0
 40
0.0
 40
0.0
 40
0.0
 40
0.128688864
 40
0.2702797703
 40
0.4174318348
 40
0.5617733576
 40
0.6954455149
 40
0.8127096012
 40
0.8646749146
 40
0.9125085807
 40
0.9571389861
 40
1.0
 40
1.0
 40
1.0
 40
1.0
 10
36.5584893384
 20
62.8651701343
 30
0.0
 10
36.5584893384
 20
62.6942203136
 30
0.0
 10
36.6063153401
 20
62.334772345
 30
0.0
 10
36.7848092496
 20
61.8070027245
 30
0.0
 10
37.0598681421
 20
61.2985976498
 30
0.0
 10
37.4093687818
 20
60.8512405682
 30
0.0
 10
37.8047582516
 20
60.501065602
 30
0.0
 10
38.1626406551
 20
60.3053753574
 30
0.0
 10
38.442593909
 20
60.2309099356
 30
0.0
 10
38.6352707746
 20
60.216722276
 30
0.0
 10
38.8146848048
 20
60.2430168803
 30
0.0
 10
38.9233860928
 20
60.288183802
 30
0.0
 10
38.9726832361
 20
60.3166714674
 30
0.0
  0
SPLINE
  5
2FD
100
AcDbEntity
  8
0
100
AcDbSpline
 62
7
  6
BYLAYER
 70
0
 71
3
 72
17
 73
13
 74
0
 42
0.0000001
 43
0.0000001
 44
0.0000000001
 40
0.0
 40
0.0
 40
0.0
 40
0.0
 40
0.128688864
 40
0.2702797703
 40
0.4174318348
 40
0.5617733576
 40
0.6954455149
 40
0.8127096012
 40
0.8646749146
 40
0.9125085807
 40
0.9571389861
 40
1.0
 40
1.0
 40
1.0
 40
1.0
 10
40.0940379642
 20
60.8239663617
 30
0.0
 10
40.0940379642
 20
60.653016541
 30
0.0
 10
40.1418639658
 20
60.2935685724
 30
0.0
 10
40.3203578754
 20
59.7657989519
 30
0.0
 10
40.5954167678
 20
59.2573938772
 30
0.0
 10
40.9449174076
 20
58.8100367956
 30
0.0
 10
41.3403068774
 20
58.4598618294
 30
0.0
 10
41.6981892809
 20
58.2641715848
 30
0.0
 10
41.9781425347
 20
58.189706163
 30
0.0
 10
42.1708194003
 20
58.1755185034
 30
0.0
 10
42.3502334306
 20
58.2018131077
 30
0.0
 10
42.4589347185
 20
58.2469800294
 30
0.0
 10
42.5082318619
 20
58.2754676948
 30
0.0
  0
SPLINE
  5
2FE
100
AcDbEntity
  8
0
100
AcDbSpline
 62
7
  6
BYLAYER
 70
0
 71
3
 72
9
 73
5
 74
0
 42
0.0000001
 43
0.0000001
 44
0.0000000001
 40
0.0
 40
0.0
 40
0.0
 40
0.0
 40
0.2717736094
 40
1.0
 40
1.0
 40
1.0
 40
1.0
 10
40.8011418014
 20
61.2322105156
 30
0.0
 10
40.8011418014
 20
61.2854809633
 30
0.0
 10
40.8094826718
 20
61.4810782124
 30
0.0
 10
40.8536455644
 20
61.6775311782
 30
0.0
 10
40.9142260308
 20
61.8067778206
 30
0.0
  0
SPLINE
  5
2FF
100
AcDbEntity
  8
0
100
AcDbSpline
 62
7
  6
BYLAYER
 70
0
 71
3
 72
11
 73
7
 74
0
 42
0.0000001
 43
0.0000001
 44
0.0000000001
 40
0.0
 40
0.0
 40
0.0
 40
0.0
 40
0.2445890349
 40
0.5073314764
 40
0.766141213
 40
1.0
 40
1.0
 40
1.0
 40
1.0
 10
42.0385838204
 20
58.8975924397
 30
0.0
 10
41.8586733536
 20
59.0276346461
 30
0.0
 10
41.5238701291
 20
59.3515785822
 30
0.0
 10
41.1353404408
 20
59.9336167684
 30
0.0
 10
40.8743471948
 20
60.5724146984
 30
0.0
 10
40.8011418014
 20
61.0199610735
 30
0.0
 10
40.8011418014
 20
61.2322105156
 30
0.0
  0
SPLINE
  5
300
100
AcDbEntity
  8
0
100
AcDbSpline
 62
7
  6
BYLAYER
 70
0
 71
3
 72
11
 73
7
 74
0
 42
0.0000001
 43
0.0000001
 44
0.0000000001
 40
0.0
 40
0.0
 40
0.0
 40
0.0
 40
0.2445890349
 40
0.5073314764
 40
0.766141213
 40
1.0
 40
1.0
 40
1.0
 40
1.0
 10
31.4319379432
 20
65.0212037576
 30
0.0
 10
31.2520274764
 20
65.1512459639
 30
0.0
 10
30.9172242519
 20
65.4751899
 30
0.0
 10
30.5286945636
 20
66.0572280862
 30
0.0
 10
30.2677013176
 20
66.6960260162
 30
0.0
 10
30.1944959242
 20
67.1435723913
 30
0.0
 10
30.1944959242
 20
67.3558218334
 30
0.0
  0
SPLINE
  5
301
100
AcDbEntity
  8
0
100
AcDbSpline
 62
7
  6
BYLAYER
 70
0
 71
3
 72
9
 73
5
 74
0
 42
0.0000001
 43
0.0000001
 44
0.0000000001
 40
0.0
 40
0.0
 40
0.0
 40
0.0
 40
0.2717736094
 40
1.0
 40
1.0
 40
1.0
 40
1.0
 10
30.1944959242
 20
67.3558218334
 30
0.0
 10
30.1944959242
 20
67.4090922811
 30
0.0
 10
30.2028367946
 20
67.6046895302
 30
0.0
 10
30.2469996872
 20
67.801142496
 30
0.0
 10
30.3075801536
 20
67.9303891384
 30
0.0
  0
SPLINE
  5
302
100
AcDbEntity
  8
0
100
AcDbSpline
 62
7
  6
BYLAYER
 70
0
 71
3
 72
9
 73
5
 74
0
 42
0.0000001
 43
0.0000001
 44
0.0000000001
 40
0.0
 40
0.0
 40
0.0
 40
0.0
 40
0.2717736094
 40
1.0
 40
1.0
 40
1.0
 40
1.0
 10
37.2655931756
 20
63.2734142882
 30
0.0
 10
37.2655931756
 20
63.3266847359
 30
0.0
 10
37.2739340461
 20
63.522281985
 30
0.0
 10
37.3180969387
 20
63.7187349508
 30
0.0
 10
37.378677405
 20
63.8479815932
 30
0.0
  0
SPLINE
  5
303
100
AcDbEntity
  8
0
100
AcDbSpline
 62
7
  6
BYLAYER
 70
0
 71
3
 72
11
 73
7
 74
0
 42
0.0000001
 43
0.0000001
 44
0.0000000001
 40
0.0
 40
0.0
 40
0.0
 40
0.0
 40
0.2445890349
 40
0.5073314764
 40
0.766141213
 40
1.0
 40
1.0
 40
1.0
 40
1.0
 10
38.5030351946
 20
60.9387962123
 30
0.0
 10
38.3231247278
 20
61.0688384187
 30
0.0
 10
37.9883215033
 20
61.3927823548
 30
0.0
 10
37.599791815
 20
61.974820541
 30
0.0
 10
37.338798569
 20
62.613618471
 30
0.0
 10
37.2655931756
 20
63.0611648461
 30
0.0
 10
37.2655931756
 20
63.2734142882
 30
0.0
  0
SPLINE
  5
304
100
AcDbEntity
  8
0
100
AcDbSpline
 62
7
  6
BYLAYER
 70
0
 71
3
 72
9
 73
5
 74
0
 42
0.0000001
 43
0.0000001
 44
0.0000000001
 40
0.0
 40
0.0
 40
0.0
 40
0.0
 40
0.2342049982
 40
1.0
 40
1.0
 40
1.0
 40
1.0
 10
42.8192211568
 20
58.5904417392
 30
0.0
 10
42.7848234568
 20
58.5915498695
 30
0.0
 10
42.6382280718
 20
58.6047372088
 30
0.0
 10
42.4954473772
 20
58.6488573578
 30
0.0
 10
42.392138683
 20
58.6934720625
 30
0.0
  0
SPLINE
  5
305
100
AcDbEntity
  8
0
100
AcDbSpline
 62
7
  6
BYLAYER
 70
0
 71
3
 72
11
 73
7
 74
0
 42
0.0000001
 43
0.0000001
 44
0.0000000001
 40
0.0
 40
0.0
 40
0.0
 40
0.0
 40
0.2445890349
 40
0.5073314764
 40
0.766141213
 40
1.0
 40
1.0
 40
1.0
 40
1.0
 10
27.8963893174
 20
67.0624075302
 30
0.0
 10
27.7164788506
 20
67.1924497365
 30
0.0
 10
27.3816756261
 20
67.5163936726
 30
0.0
 10
26.9931459378
 20
68.0984318588
 30
0.0
 10
26.7321526918
 20
68.7372297888
 30
0.0
 10
26.6589472984
 20
69.1847761639
 30
0.0
 10
26.6589472984
 20
69.397025606
 30
0.0
  0
SPLINE
  5
306
100
AcDbEntity
  8
0
100
AcDbSpline
 62
7
  6
BYLAYER
 70
0
 71
3
 72
9
 73
5
 74
0
 42
0.0000001
 43
0.0000001
 44
0.0000000001
 40
0.0
 40
0.0
 40
0.0
 40
0.0
 40
0.2717736094
 40
1.0
 40
1.0
 40
1.0
 40
1.0
 10
26.6589472984
 20
69.397025606
 30
0.0
 10
26.6589472984
 20
69.4502960537
 30
0.0
 10
26.6672881689
 20
69.6458933028
 30
0.0
 10
26.7114510615
 20
69.8423462686
 30
0.0
 10
26.7720315278
 20
69.971592911
 30
0.0
  0
SPLINE
  5
307
100
AcDbEntity
  8
0
100
AcDbSpline
 62
7
  6
BYLAYER
 70
0
 71
3
 72
9
 73
5
 74
0
 42
0.0000001
 43
0.0000001
 44
0.0000000001
 40
0.0
 40
0.0
 40
0.0
 40
0.0
 40
0.2717736094
 40
1.0
 40
1.0
 40
1.0
 40
1.0
 10
33.7300445499
 20
65.3146180608
 30
0.0
 10
33.7300445499
 20
65.3678885085
 30
0.0
 10
33.7383854203
 20
65.5634857576
 30
0.0
 10
33.7825483129
 20
65.7599387234
 30
0.0
 10
33.8431287793
 20
65.8891853658
 30
0.0
  0
SPLINE
  5
308
100
AcDbEntity
  8
0
100
AcDbSpline
 62
7
  6
BYLAYER
 70
0
 71
3
 72
11
 73
7
 74
0
 42
0.0000001
 43
0.0000001
 44
0.0000000001
 40
0.0
 40
0.0
 40
0.0
 40
0.0
 40
0.2445890349
 40
0.5073314764
 40
0.766141213
 40
1.0
 40
1.0
 40
1.0
 40
1.0
 10
34.9674865689
 20
62.979999985
 30
0.0
 10
34.7875761021
 20
63.1100421913
 30
0.0
 10
34.4527728776
 20
63.4339861274
 30
0.0
 10
34.0642431893
 20
64.0160243136
 30
0.0
 10
33.8032499433
 20
64.6548222436
 30
0.0
 10
33.7300445499
 20
65.1023686187
 30
0.0
 10
33.7300445499
 20
65.3146180608
 30
0.0
  0
SPLINE
  5
309
100
AcDbEntity
  8
0
100
AcDbSpline
 62
7
  6
BYLAYER
 70
0
 71
3
 72
11
 73
7
 74
0
 42
0.0000001
 43
0.0000001
 44
0.0000000001
 40
0.0
 40
0.0
 40
0.0
 40
0.0
 40
0.2445890349
 40
0.5073314764
 40
0.766141213
 40
1.0
 40
1.0
 40
1.0
 40
1.0
 10
24.3608406917
 20
69.1036113028
 30
0.0
 10
24.1809302249
 20
69.2336535091
 30
0.0
 10
23.8461270004
 20
69.5575974452
 30
0.0
 10
23.4575973121
 20
70.1396356314
 30
0.0
 10
23.1966040661
 20
70.7784335614
 30
0.0
 10
23.1233986727
 20
71.2259799365
 30
0.0
 10
23.1233986727
 20
71.4382293786
 30
0.0
  0
SPLINE
  5
30A
100
AcDbEntity
  8
0
100
AcDbSpline
 62
7
  6
BYLAYER
 70
0
 71
3
 72
9
 73
5
 74
0
 42
0.0000001
 43
0.0000001
 44
0.0000000001
 40
0.0
 40
0.0
 40
0.0
 40
0.0
 40
0.2717736094
 40
1.0
 40
1.0
 40
1.0
 40
1.0
 10
23.1233986727
 20
71.4382293786
 30
0.0
 10
23.1233986727
 20
71.4914998263
 30
0.0
 10
23.1317395431
 20
71.6870970754
 30
0.0
 10
23.1759024357
 20
71.8835500412
 30
0.0
 10
23.2364829021
 20
72.0127966836
 30
0.0
  0
SPLINE
  5
30B
100
AcDbEntity
  8
0
100
AcDbSpline
 62
7
  6
BYLAYER
 70
0
 71
3
 72
9
 73
5
 74
0
 42
0.0000001
 43
0.0000001
 44
0.0000000001
 40
0.0
 40
0.0
 40
0.0
 40
0.0
 40
0.2717736094
 40
1.0
 40
1.0
 40
1.0
 40
1.0
 10
16.0523014212
 20
75.5206369238
 30
0.0
 10
16.0523014212
 20
75.5739073715
 30
0.0
 10
16.0606422917
 20
75.7695046207
 30
0.0
 10
16.1048051843
 20
75.9659575864
 30
0.0
 10
16.1653856506
 20
76.0952042288
 30
0.0
  0
SPLINE
  5
30C
100
AcDbEntity
  8
0
100
AcDbSpline
 62
7
  6
BYLAYER
 70
0
 71
3
 72
11
 73
7
 74
0
 42
0.0000001
 43
0.0000001
 44
0.0000000001
 40
0.0
 40
0.0
 40
0.0
 40
0.0
 40
0.2445890349
 40
0.5073314764
 40
0.766141213
 40
1.0
 40
1.0
 40
1.0
 40
1.0
 10
20.825292066
 20
71.1448150754
 30
0.0
 10
20.6453815992
 20
71.2748572817
 30
0.0
 10
20.3105783747
 20
71.5988012178
 30
0.0
 10
19.9220486863
 20
72.180839404
 30
0.0
 10
19.6610554404
 20
72.819637334
 30
0.0
 10
19.587850047
 20
73.2671837091
 30
0.0
 10
19.587850047
 20
73.4794331512
 30
0.0
  0
SPLINE
  5
30D
100
AcDbEntity
  8
0
100
AcDbSpline
 62
7
  6
BYLAYER
 70
0
 71
3
 72
9
 73
5
 74
0
 42
0.0000001
 43
0.0000001
 44
0.0000000001
 40
0.0
 40
0.0
 40
0.0
 40
0.0
 40
0.2717736094
 40
1.0
 40
1.0
 40
1.0
 40
1.0
 10
19.587850047
 20
73.4794331512
 30
0.0
 10
19.587850047
 20
73.5327035989
 30
0.0
 10
19.5961909174
 20
73.7283008481
 30
0.0
 10
19.64035381
 20
73.9247538138
 30
0.0
 10
19.7009342764
 20
74.0540004562
 30
0.0
  0
SPLINE
  5
30E
100
AcDbEntity
  8
0
100
AcDbSpline
 62
7
  6
BYLAYER
 70
0
 71
3
 72
11
 73
7
 74
0
 42
0.0000001
 43
0.0000001
 44
0.0000000001
 40
0.0
 40
0.0
 40
0.0
 40
0.0
 40
0.2445890349
 40
0.5073314764
 40
0.766141213
 40
1.0
 40
1.0
 40
1.0
 40
1.0
 10
17.2897434402
 20
73.186018848
 30
0.0
 10
17.1098329734
 20
73.3160610543
 30
0.0
 10
16.7750297489
 20
73.6400049904
 30
0.0
 10
16.3865000606
 20
74.2220431766
 30
0.0
 10
16.1255068146
 20
74.8608411066
 30
0.0
 10
16.0523014212
 20
75.3083874817
 30
0.0
 10
16.0523014212
 20
75.5206369238
 30
0.0
  0
ENDSEC
  0
SECTION
  2
OBJECTS
  0
DICTIONARY
  5
C
100
AcDbDictionary
280
0
281
1
  3
ACAD_GROUP
350
D
  3
ACAD_MLINESTYLE
350
17
  3
ACAD_LAYOUT
350
1A
  3
ACAD_PLOTSETTINGS
350
19
  3
ACAD_PLOTSTYLENAME
350
E
  0
DICTIONARY
  5
D
102
{ACAD_REACTORS
330
C
102
}
100
AcDbDictionary
280
0
281
1
  0
ACDBDICTIONARYWDFLT
  5
E
102
{ACAD_REACTORS
330
C
102
}
100
AcDbDictionary
281
1
  3
Normal
350
F
100
AcDbDictionaryWithDefault
340
F
  0
DICTIONARY
  5
17
102
{ACAD_REACTORS
330
C
102
}
100
AcDbDictionary
280
0
281
1
  3
Standard
350
18
  0
DICTIONARY
  5
19
102
{ACAD_REACTORS
330
C
102
}
100
AcDbDictionary
281
1
  0
DICTIONARY
  5
1A
102
{ACAD_REACTORS
330
C
102
}
100
AcDbDictionary
281
1
  3
Model
350
30F
  3
Layout1
350
310
  0
ACDBPLACEHOLDER
  5
F
102
{ACAD_REACTORS
330
E
102
}
  0
MLINESTYLE
  5
18
102
{ACAD_REACTORS
330
17
102
}
100
AcDbMlineStyle
  2
STANDARD
 70
0
  3

 62
256
 51
90.0
 52
90.0
 71
2
 49
0.5
 62
256
  6
BYLAYER
 49
-0.5
 62
256
  6
BYLAYER
  0
LAYOUT
  5
30F
102
{ACAD_REACTORS
330
1A
102
}
100
AcDbPlotSettings
  1

  2
none_device
  4

  6

 40
0.0
 41
0.0
 42
0.0
 43
0.0
 44
210.0
 45
297.0
 46
0.0
 47
0.0
 48
0.0
 49
0.0
140
0.0
141
0.0
142
1.0
143
1.0
 70
1024
 72
1
 73
0
 74
0
  7

 75
0
147
1.0
148
0.0
149
0.0
100
AcDbLayout
  1
Model
 70
0
 71
0
 10
0.0
 20
0.0
 11
210.0
 21
297.0
 12
0.0
 22
0.0
 32
0.0
 14
0.0
 24
0.0
 34
0.0
 15
0.0
 25
0.0
 35
0.0
146
0.0
 13
0.0
 23
0.0
 33
0.0
 16
1.0
 26
0.0
 36
0.0
 17
0.0
 27
1.0
 37
0.0
 76
0
330
210
345
0
346
0
  0
LAYOUT
  5
310
102
{ACAD_REACTORS
330
1A
102
}
100
AcDbPlotSettings
  1

  2
none_device
  4

  6

 40
0.0
 41
0.0
 42
0.0
 43
0.0
 44
210.0
 45
297.0
 46
0.0
 47
0.0
 48
0.0
 49
0.0
140
0.0
141
0.0
142
1.0
143
1.0
 70
0
 72
1
 73
0
 74
0
  7

 75
0
147
1.0
148
0.0
149
0.0
100
AcDbLayout
  1
Layout1
 70
0
 71
1
 10
0.0
 20
0.0
 11
210.0
 21
297.0
 12
0.0
 22
0.0
 32
0.0
 14
0.0
 24
0.0
 34
0.0
 15
0.0
 25
0.0
 35
0.0
146
0.0
 13
0.0
 23
0.0
 33
0.0
 16
1.0
 26
0.0
 36
0.0
 17
0.0
 27
1.0
 37
0.0
 76
0
330
211
345
0
346
0
  0
ENDSEC
  0
EOF
