999
DXF file: C:\Users\sesa63760\Dev\_Creo\CAD\MCADID0002173_3D-CAD\drw0001_7.dxf
999
Pro/ENGINEER 2019471 by Parametric Technology Corporation
  0
SECTION
  2
HEADER
  9
$ACADVER
  1
AC1024
  9
$DWGCODEPAGE
  3
ANSI_1252
  9
$EXTMAX
 10
49.2167118036
 20
69.6064924079
 30
0.0
  9
$EXTMIN
 10
0.0
 20
0.0
 30
0.0
  9
$LIMMIN
 10
0.0
 20
0.0
  9
$LIMMAX
 10
49.2167118036
 20
69.6064924079
  9
$VIEWCTR
 10
24.6083559018
 20
34.803246204
  9
$VIEWSIZE
 40
69.6064924079
  9
$CLAYER
  8
0
  9
$LTSCALE
 40
4.5373120977
  9
$CELTYPE
  6
BYLAYER
  9
$DIMSCALE
 40
1.0
  9
$DIMASZ
 40
0.5859132358
  9
$DIMEXO
 40
1.0
  9
$DIMDLI
 40
3.1348701766
  9
$DIMEXE
 40
1.0
  9
$DIMCEN
 40
0.7424692524
  9
$DIMLFAC
 40
1.0
  9
$DIMBLK
  1
_FILLED
  9
$DIMALT
 70
0
  9
$DIMALTF
 40
0.0393700787
  9
$DIMTXT
 40
0.8202785301
  9
$DIMTOL
 70
1
  9
$DIMLIM
 70
0
  9
$DIMTFAC
 40
1.0
  9
$DIMTP
 40
0.01
  9
$DIMTM
 40
0.01
  9
$DIMGAP
 40
0.625
  9
$DIMDSEP
 70
46
  9
$AUNITS
 70
0
  9
$PDMODE
 70
3
  9
$PDSIZE
 40
0.3125
  9
$HANDSEED
  5
26A
  9
$TILEMODE
 70
1
  9
$MEASUREMENT
 70
1
  9
$INSUNITS
 70
4
  0
ENDSEC
  0
SECTION
  2
CLASSES
  0
CLASS
  1
ACDBDICTIONARYWDFLT
  2
AcDbDictionaryWithDefault
  3
AutoCAD 2000
 90
0
 91
1
280
0
281
0
  0
CLASS
  1
ACDBPLACEHOLDER
  2
AcDbPlaceHolder
  3
AutoCAD 2000
 90
0
 91
1
280
0
281
0
  0
CLASS
  1
LAYOUT
  2
AcDbLayout
  3
AutoCAD 2000
 90
0
 91
0
280
0
281
0
  0
ENDSEC
  0
SECTION
  2
TABLES
  0
TABLE
  2
VPORT
  5
8
100
AcDbSymbolTable
 70
2
  0
VPORT
  5
1F4
100
AcDbSymbolTableRecord
100
AcDbViewportTableRecord
  2
*ACTIVE
 70
0
 10
0.0
 20
0.0
 11
1.0
 21
1.0
 12
24.6083559018
 22
34.803246204
 13
0.0
 23
0.0
 14
1.0
 24
1.0
 15
0.0
 25
0.0
 16
0.0
 26
0.0
 36
1.0
 17
0.0
 27
0.0
 37
0.0
 40
69.6064924079
 41
0.7070707071
 42
50.0
 43
0.0
 44
0.0
 50
0.0
 51
0.0
 71
0
 72
100
 73
1
 74
1
 75
0
 76
0
 77
0
 78
0
  0
ENDTAB
  0
TABLE
  2
LTYPE
  5
5
100
AcDbSymbolTable
 70
6
  0
LTYPE
  5
14
100
AcDbSymbolTableRecord
100
AcDbLinetypeTableRecord
  2
BYBLOCK
 70
0
  3

 72
65
 73
0
 40
0.0
  0
LTYPE
  5
15
100
AcDbSymbolTableRecord
100
AcDbLinetypeTableRecord
  2
BYLAYER
 70
0
  3

 72
65
 73
0
 40
0.0
  0
LTYPE
  5
16
100
AcDbSymbolTableRecord
100
AcDbLinetypeTableRecord
  2
CONTINUOUS
 70
64
  3
Solid line
 72
65
 73
0
 40
0.0
  0
LTYPE
  5
1F5
100
AcDbSymbolTableRecord
100
AcDbLinetypeTableRecord
  2
CENTER
 70
64
  3
____ _ ____ _ ____ _ ____ _ ____ _ ____ _ ____
 72
65
 73
4
 40
0.6
 49
0.375
 74
0
 49
-0.075
 74
0
 49
0.075
 74
0
 49
-0.075
 74
0
  0
LTYPE
  5
1F6
100
AcDbSymbolTableRecord
100
AcDbLinetypeTableRecord
  2
HIDDEN
 70
64
  3
- - - - - - - - - - - - - - - - - - - -
 72
65
 73
2
 40
0.2
 49
0.1
 74
0
 49
-0.1
 74
0
  0
LTYPE
  5
1F7
100
AcDbSymbolTableRecord
100
AcDbLinetypeTableRecord
  2
PHANTOM
 70
64
  3
_____ _ _ _____ _ _ _____ _ _ _____
 72
65
 73
6
 40
0.8
 49
0.45
 74
0
 49
-0.05
 74
0
 49
0.1
 74
0
 49
-0.05
 74
0
 49
0.1
 74
0
 49
-0.05
 74
0
  0
LTYPE
  5
1F8
100
AcDbSymbolTableRecord
100
AcDbLinetypeTableRecord
  2
DOT
 70
64
  3
. . . . . . . . . . . . . . . . . . . .
 72
65
 73
2
 40
0.2
 49
0.1
 74
0
 49
-0.1
 74
0
  0
LTYPE
  5
1F9
100
AcDbSymbolTableRecord
100
AcDbLinetypeTableRecord
  2
DASHED
 70
64
  3
- - - - - - - - - - - - - - - - - - - -
 72
65
 73
2
 40
0.2
 49
0.1
 74
0
 49
-0.1
 74
0
  0
ENDTAB
  0
TABLE
  2
LAYER
  5
2
100
AcDbSymbolTable
 70
36
  0
LAYER
  5
10
100
AcDbSymbolTableRecord
100
AcDbLayerTableRecord
  2
0
 70
0
 62
7
  6
CONTINUOUS
370
-3
390
F
  0
LAYER
  5
1FA
100
AcDbSymbolTableRecord
100
AcDbLayerTableRecord
  2
DEFAULT_1
 70
0
 62
7
  6
CENTER
370
-3
390
F
  0
LAYER
  5
1FB
100
AcDbSymbolTableRecord
100
AcDbLayerTableRecord
  2
DEFAULT_2
 70
0
 62
8
  6
HIDDEN
370
-3
390
F
  0
LAYER
  5
1FC
100
AcDbSymbolTableRecord
100
AcDbLayerTableRecord
  2
DEFAULT_3
 70
0
 62
7
  6
PHANTOM
370
-3
390
F
  0
LAYER
  5
1FD
100
AcDbSymbolTableRecord
100
AcDbLayerTableRecord
  2
00_COMPONENTS
 70
0
 62
7
  6
CONTINUOUS
370
-3
390
F
  0
LAYER
  5
1FE
100
AcDbSymbolTableRecord
100
AcDbLayerTableRecord
  2
01_1_DEFAULT_DATUMS
 70
0
 62
7
  6
CONTINUOUS
370
-3
390
F
  0
LAYER
  5
1FF
100
AcDbSymbolTableRecord
100
AcDbLayerTableRecord
  2
01_PLANES
 70
0
 62
7
  6
CONTINUOUS
370
-3
390
F
  0
LAYER
  5
200
100
AcDbSymbolTableRecord
100
AcDbLayerTableRecord
  2
02_COORD_SYS
 70
0
 62
7
  6
CONTINUOUS
370
-3
390
F
  0
LAYER
  5
201
100
AcDbSymbolTableRecord
100
AcDbLayerTableRecord
  2
03_AXES
 70
0
 62
7
  6
CONTINUOUS
370
-3
390
F
  0
LAYER
  5
202
100
AcDbSymbolTableRecord
100
AcDbLayerTableRecord
  2
04_POINTS
 70
0
 62
7
  6
CONTINUOUS
370
-3
390
F
  0
LAYER
  5
203
100
AcDbSymbolTableRecord
100
AcDbLayerTableRecord
  2
05_CURVES
 70
0
 62
7
  6
CONTINUOUS
370
-3
390
F
  0
LAYER
  5
204
100
AcDbSymbolTableRecord
100
AcDbLayerTableRecord
  2
06_SURFS
 70
0
 62
7
  6
CONTINUOUS
370
-3
390
F
  0
LAYER
  5
205
100
AcDbSymbolTableRecord
100
AcDbLayerTableRecord
  2
07_COSMETICS
 70
0
 62
7
  6
CONTINUOUS
370
-3
390
F
  0
LAYER
  5
206
100
AcDbSymbolTableRecord
100
AcDbLayerTableRecord
  2
10_NOTES
 70
0
 62
7
  6
CONTINUOUS
370
-3
390
F
  0
LAYER
  5
207
100
AcDbSymbolTableRecord
100
AcDbLayerTableRecord
  2
11_NOTES_PUB
 70
0
 62
7
  6
CONTINUOUS
370
-3
390
F
  0
LAYER
  5
208
100
AcDbSymbolTableRecord
100
AcDbLayerTableRecord
  2
13_REF_GTOL
 70
0
 62
7
  6
CONTINUOUS
370
-3
390
F
  0
LAYER
  5
209
100
AcDbSymbolTableRecord
100
AcDbLayerTableRecord
  2
16_MISC
 70
0
 62
7
  6
CONTINUOUS
370
-3
390
F
  0
LAYER
  5
20A
100
AcDbSymbolTableRecord
100
AcDbLayerTableRecord
  2
17_NO_PRINT
 70
0
 62
7
  6
CONTINUOUS
370
-3
390
F
  0
LAYER
  5
20B
100
AcDbSymbolTableRecord
100
AcDbLayerTableRecord
  2
18_DATUM_CAMS_JOINTS
 70
0
 62
7
  6
CONTINUOUS
370
-3
390
F
  0
LAYER
  5
20C
100
AcDbSymbolTableRecord
100
AcDbLayerTableRecord
  2
19_DATUM_FUNCTIONAL
 70
0
 62
7
  6
CONTINUOUS
370
-3
390
F
  0
LAYER
  5
20D
100
AcDbSymbolTableRecord
100
AcDbLayerTableRecord
  2
20_DATUM_KINEMATIC_SCHEME
 70
0
 62
7
  6
CONTINUOUS
370
-3
390
F
  0
ENDTAB
  0
TABLE
  2
STYLE
  5
3
100
AcDbSymbolTable
 70
1
  0
STYLE
  5
11
100
AcDbSymbolTableRecord
100
AcDbTextStyleTableRecord
  2
STANDARD
 70
0
 40
0.0
 41
0.8
 50
0.0
 71
0
 42
0.2
  3
txt
  4

  0
STYLE
  5
20E
100
AcDbSymbolTableRecord
100
AcDbTextStyleTableRecord
  2
TEXTSTYLE_1
 70
0
 40
0.0
 41
0.8
 50
0.0
 71
0
 42
0.2
  3
gdt
  4

  0
ENDTAB
  0
TABLE
  2
VIEW
  5
6
100
AcDbSymbolTable
 70
0
  0
ENDTAB
  0
TABLE
  2
UCS
  5
7
100
AcDbSymbolTable
 70
0
  0
ENDTAB
  0
TABLE
  2
APPID
  5
9
100
AcDbSymbolTable
 70
1
  0
APPID
  5
20F
100
AcDbSymbolTableRecord
100
AcDbRegAppTableRecord
  2
ACAD
 70
0
  0
ENDTAB
  0
TABLE
  2
BLOCK_RECORD
  5
1
100
AcDbSymbolTable
 70
0
  0
BLOCK_RECORD
  5
210
100
AcDbSymbolTableRecord
100
AcDbBlockTableRecord
  2
*Model_Space
  0
BLOCK_RECORD
  5
211
100
AcDbSymbolTableRecord
100
AcDbBlockTableRecord
  2
*Paper_Space
  0
BLOCK_RECORD
  5
212
100
AcDbSymbolTableRecord
100
AcDbBlockTableRecord
  2
_FILLED
  0
ENDTAB
  0
TABLE
  2
DIMSTYLE
  5
A
100
AcDbSymbolTable
 70
1
100
AcDbDimStyleTable
 71
0
  0
DIMSTYLE
105
213
100
AcDbSymbolTableRecord
100
AcDbDimStyleTableRecord
  2
STANDARD
 70
0
  3

  4

 40
1.0
 41
0.5859132358
 42
1.0
 43
0.38
 44
1.0
 45
0.0
 46
0.0
 47
0.01
 48
0.01
140
0.8202785301
141
0.09
142
0.0
143
25.4
144
1.0
145
0.0
146
1.0
147
0.625
 71
1
 72
0
 73
0
 74
0
 75
0
 76
0
 77
1
 78
8
 79
2
170
0
171
1
172
0
173
0
174
0
175
0
176
0
177
0
178
0
270
2
179
2
271
2
272
2
273
2
274
2
275
0
280
0
281
0
282
0
283
1
284
8
285
0
286
0
287
3
288
0
340
11
278
46
341
212
342
212
343
212
344
212
  0
ENDTAB
  0
ENDSEC
  0
SECTION
  2
BLOCKS
  0
BLOCK
  5
20
100
AcDbEntity
  8
0
100
AcDbBlockBegin
  2
*Model_Space
 70
0
 10
0.0
 20
0.0
 30
0.0
  3
*Model_Space
  1

  0
ENDBLK
  5
21
100
AcDbEntity
  8
0
100
AcDbBlockEnd
  0
BLOCK
  5
1C
100
AcDbEntity
  8
0
100
AcDbBlockBegin
  2
*Paper_Space
 70
0
 10
0.0
 20
0.0
 30
0.0
  3
*Paper_Space
  1

  0
ENDBLK
  5
1D
100
AcDbEntity
  8
0
100
AcDbBlockEnd
  0
BLOCK
  5
214
100
AcDbEntity
  8
0
100
AcDbBlockBegin
  2
_FILLED
 70
64
 10
0.0
 20
0.0
  3
_FILLED
  1

  0
SOLID
  5
215
100
AcDbEntity
  8
0
  6
BYBLOCK
 62
0
100
AcDbTrace
 10
0.0
 20
0.0
 11
-1.0
 21
0.25
 12
-1.0
 22
-0.25
 13
-1.0
 23
-0.25
  0
ENDBLK
  5
216
100
AcDbEntity
  8
0
  6
BYBLOCK
 62
0
100
AcDbBlockEnd
  0
ENDSEC
  0
SECTION
  2
ENTITIES
  0
LINE
  5
217
100
AcDbEntity
  8
0
100
AcDbLine
 62
7
  6
CONTINUOUS
 10
39.3435535669
 20
5.1544587401
 11
29.4275278847
 21
5.1544587401
  0
LINE
  5
218
100
AcDbEntity
  8
0
100
AcDbLine
 62
7
  6
CONTINUOUS
 10
19.4595792492
 20
5.1544587401
 11
9.5435535669
 21
5.1544587401
  0
LINE
  5
219
100
AcDbEntity
  8
0
100
AcDbLine
 62
7
  6
CONTINUOUS
 10
30.5178718578
 20
5.8544587401
 11
28.4372986765
 21
5.8544587401
  0
LINE
  5
21A
100
AcDbEntity
  8
0
100
AcDbLine
 62
7
  6
CONTINUOUS
 10
20.4498084574
 20
5.8544587401
 11
18.3678718578
 21
5.8544587401
  0
LINE
  5
21B
100
AcDbEntity
  8
0
100
AcDbLine
 62
7
  6
CONTINUOUS
 10
39.8435535669
 20
7.4544587401
 11
39.3435535669
 21
7.4544587401
  0
LINE
  5
21C
100
AcDbEntity
  8
0
100
AcDbLine
 62
7
  6
CONTINUOUS
 10
15.5584617148
 20
8.9872453456
 11
16.0685535669
 21
8.6967830148
  0
LINE
  5
21D
100
AcDbEntity
  8
0
100
AcDbLine
 62
7
  6
CONTINUOUS
 10
20.7987246817
 20
6.0032749312
 11
21.0913084529
 21
5.8366685371
  0
LINE
  5
21E
100
AcDbEntity
  8
0
100
AcDbLine
 62
7
  6
CONTINUOUS
 10
16.0685535669
 20
7.4644587401
 11
18.3678718578
 21
5.8544587401
  0
LINE
  5
21F
100
AcDbEntity
  8
0
100
AcDbLine
 62
7
  6
CONTINUOUS
 10
39.8435535669
 20
11.4191590819
 11
39.3435535669
 21
11.4191590819
  0
LINE
  5
220
100
AcDbEntity
  8
0
100
AcDbLine
 62
7
  6
CONTINUOUS
 10
39.8435535669
 20
16.2855733594
 11
39.3435535669
 21
16.2855733594
  0
LINE
  5
221
100
AcDbEntity
  8
0
100
AcDbLine
 62
7
  6
CONTINUOUS
 10
39.8435535669
 20
19.2544587401
 11
39.3435535669
 21
19.2544587401
  0
LINE
  5
222
100
AcDbEntity
  8
0
100
AcDbLine
 62
7
  6
CONTINUOUS
 10
9.5435535669
 20
42.519373444
 11
9.5435535669
 21
5.1544587401
  0
LINE
  5
223
100
AcDbEntity
  8
0
100
AcDbLine
 62
7
  6
CONTINUOUS
 10
13.7612450205
 20
44.9544587401
 11
9.5435535669
 21
42.519373444
  0
LINE
  5
224
100
AcDbEntity
  8
0
100
AcDbLine
 62
7
  6
CONTINUOUS
 10
12.6435535669
 20
59.6535933161
 11
12.6435535669
 21
44.3091592785
  0
LINE
  5
225
100
AcDbEntity
  8
0
100
AcDbLine
 62
7
  6
CONTINUOUS
 10
16.5685535669
 20
44.9544587401
 11
16.0685535669
 21
44.0884333363
  0
LINE
  5
226
100
AcDbEntity
  8
0
100
AcDbLine
 62
7
  6
CONTINUOUS
 10
27.5766424489
 20
6.2215370606
 11
27.7957986811
 21
5.8366685372
  0
LINE
  5
227
100
AcDbEntity
  8
0
100
AcDbLine
 62
7
  6
CONTINUOUS
 10
14.2510740576
 20
39.5880702207
 11
14.2853134747
 21
33.8427845909
  0
LINE
  5
228
100
AcDbEntity
  8
0
100
AcDbLine
 62
7
  6
CONTINUOUS
 10
14.4073768244
 20
13.3608702474
 11
14.4218693407
 21
10.9290635079
  0
LINE
  5
229
100
AcDbEntity
  8
0
100
AcDbLine
 62
7
  6
CONTINUOUS
 10
15.921842704
 20
10.9380027003
 11
15.9152055484
 21
12.0517002426
  0
LINE
  5
22A
100
AcDbEntity
  8
0
100
AcDbLine
 62
7
  6
CONTINUOUS
 10
15.7776322772
 20
35.1361392973
 11
15.751047421
 21
39.5970094131
  0
LINE
  5
22B
100
AcDbEntity
  8
0
100
AcDbLine
 62
7
  6
CONTINUOUS
 10
15.0435535669
 20
59.6535933161
 11
15.0435535669
 21
44.9544587401
  0
LINE
  5
22C
100
AcDbEntity
  8
0
100
AcDbLine
 62
7
  6
CONTINUOUS
 10
16.0685535669
 20
7.4644587401
 11
16.0685535669
 21
11.9185560579
  0
LINE
  5
22D
100
AcDbEntity
  8
0
100
AcDbLine
 62
7
  6
CONTINUOUS
 10
16.0685535669
 20
35.3882733712
 11
16.0685535669
 21
44.0884333363
  0
LINE
  5
22E
100
AcDbEntity
  8
0
100
AcDbLine
 62
7
  6
CONTINUOUS
 10
20.6435535669
 20
59.6535933161
 11
20.6435535669
 21
44.9649884158
  0
LINE
  5
22F
100
AcDbEntity
  8
0
100
AcDbLine
 62
7
  6
CONTINUOUS
 10
21.5435535669
 20
44.0884333363
 11
21.5435535669
 21
37.7370119088
  0
LINE
  5
230
100
AcDbEntity
  8
0
100
AcDbLine
 62
7
  6
CONTINUOUS
 10
27.8435535669
 20
44.9544587401
 11
27.3435535669
 21
44.0884333363
  0
LINE
  5
231
100
AcDbEntity
  8
0
100
AcDbLine
 62
7
  6
CONTINUOUS
 10
23.0435535669
 20
59.6535933161
 11
23.0435535669
 21
46.1477633634
  0
LINE
  5
232
100
AcDbEntity
  8
0
100
AcDbLine
 62
7
  6
CONTINUOUS
 10
25.8435535922
 20
59.6535933162
 11
25.8435535922
 21
46.1477660844
  0
LINE
  5
233
100
AcDbEntity
  8
0
100
AcDbLine
 62
7
  6
CONTINUOUS
 10
32.8185535669
 20
37.1544587401
 11
30.5090296406
 21
37.1544587401
  0
LINE
  5
234
100
AcDbEntity
  8
0
100
AcDbLine
 62
7
  6
CONTINUOUS
 10
18.3780774933
 20
37.1544587401
 11
16.0685535669
 21
37.1544587401
  0
LINE
  5
235
100
AcDbEntity
  8
0
100
AcDbLine
 62
7
  6
CONTINUOUS
 10
21.5435535669
 20
44.0884333363
 11
21.0435535669
 21
44.9544587401
  0
LINE
  5
236
100
AcDbEntity
  8
0
100
AcDbLine
 62
7
  6
CONTINUOUS
 10
27.3435535669
 20
37.7360395822
 11
27.3435535669
 21
44.0884333363
  0
LINE
  5
237
100
AcDbEntity
  8
0
100
AcDbLine
 62
7
  6
CONTINUOUS
 10
28.2435535922
 20
59.6535933162
 11
28.2435535922
 21
44.9649882856
  0
LINE
  5
238
100
AcDbEntity
  8
0
100
AcDbLine
 62
7
  6
CONTINUOUS
 10
39.8435535669
 20
39.4544587401
 11
39.3435535669
 21
39.4544587401
  0
LINE
  5
239
100
AcDbEntity
  8
0
100
AcDbLine
 62
7
  6
CONTINUOUS
 10
21.5435535669
 20
40.9830301687
 11
24.4435535669
 21
41.6044587401
  0
LINE
  5
23A
100
AcDbEntity
  8
0
100
AcDbLine
 62
7
  6
CONTINUOUS
 10
24.4435535669
 20
41.6044587401
 11
27.3435535669
 21
40.9830301687
  0
LINE
  5
23B
100
AcDbEntity
  8
0
100
AcDbLine
 62
7
  6
CONTINUOUS
 10
32.8185535669
 20
44.0884333363
 11
32.8185535669
 21
35.3903614223
  0
LINE
  5
23C
100
AcDbEntity
  8
0
100
AcDbLine
 62
7
  6
CONTINUOUS
 10
32.8185535669
 20
11.9206441091
 11
32.8185535669
 21
7.4654134159
  0
LINE
  5
23D
100
AcDbEntity
  8
0
100
AcDbLine
 62
7
  6
CONTINUOUS
 10
33.8435535922
 20
59.6535933162
 11
33.8435535922
 21
44.9544587401
  0
LINE
  5
23E
100
AcDbEntity
  8
0
100
AcDbLine
 62
7
  6
CONTINUOUS
 10
33.1360597129
 20
39.5970094131
 11
33.1094845216
 21
35.1377610618
  0
LINE
  5
23F
100
AcDbEntity
  8
0
100
AcDbLine
 62
7
  6
CONTINUOUS
 10
32.971912648
 20
12.0535565196
 11
32.9652644298
 21
10.9380027003
  0
LINE
  5
240
100
AcDbEntity
  8
0
100
AcDbLine
 62
7
  6
CONTINUOUS
 10
24.4435535669
 20
43.1385109969
 11
21.5435535669
 21
42.5170824255
  0
LINE
  5
241
100
AcDbEntity
  8
0
100
AcDbLine
 62
7
  6
CONTINUOUS
 10
27.3435535669
 20
42.5170824255
 11
24.4435535669
 21
43.1385109969
  0
LINE
  5
242
100
AcDbEntity
  8
0
100
AcDbLine
 62
7
  6
CONTINUOUS
 10
34.4652377932
 20
10.9290635079
 11
34.4797271551
 21
13.3603409585
  0
LINE
  5
243
100
AcDbEntity
  8
0
100
AcDbLine
 62
7
  6
CONTINUOUS
 10
34.6017893981
 20
33.842069614
 11
34.6360330762
 21
39.5880702207
  0
LINE
  5
244
100
AcDbEntity
  8
0
100
AcDbLine
 62
7
  6
CONTINUOUS
 10
21.0913084529
 20
5.8366685371
 11
21.3104646852
 21
6.2215370607
  0
LINE
  5
245
100
AcDbEntity
  8
0
100
AcDbLine
 62
7
  6
CONTINUOUS
 10
13.7612450205
 20
44.9544587401
 11
21.0435535669
 21
44.9544587401
  0
LINE
  5
246
100
AcDbEntity
  8
0
100
AcDbLine
 62
7
  6
CONTINUOUS
 10
27.8435535669
 20
44.9544587401
 11
35.1258621133
 21
44.9544587401
  0
LINE
  5
247
100
AcDbEntity
  8
0
100
AcDbLine
 62
7
  6
CONTINUOUS
 10
36.2435535922
 20
59.6535933162
 11
36.2435535922
 21
44.3091592639
  0
LINE
  5
248
100
AcDbEntity
  8
0
100
AcDbLine
 62
7
  6
CONTINUOUS
 10
32.8185535669
 20
44.0884333363
 11
32.3185535669
 21
44.9544587401
  0
LINE
  5
249
100
AcDbEntity
  8
0
100
AcDbLine
 62
7
  6
CONTINUOUS
 10
39.3435535669
 20
42.519373444
 11
39.3435535669
 21
5.1544587401
  0
LINE
  5
24A
100
AcDbEntity
  8
0
100
AcDbLine
 62
7
  6
CONTINUOUS
 10
39.8435535669
 20
39.4544587401
 11
39.8435535669
 21
7.4544587401
  0
LINE
  5
24B
100
AcDbEntity
  8
0
100
AcDbLine
 62
7
  6
CONTINUOUS
 10
39.3435535669
 20
42.519373444
 11
35.1258621133
 21
44.9544587401
  0
LINE
  5
24C
100
AcDbEntity
  8
0
100
AcDbLine
 62
7
  6
CONTINUOUS
 10
27.7957986811
 20
5.8366685372
 11
28.0883824521
 21
6.0032749312
  0
LINE
  5
24D
100
AcDbEntity
  8
0
100
AcDbLine
 62
7
  6
CONTINUOUS
 10
32.8185535669
 20
8.6967830148
 11
33.3286454191
 21
8.9872453456
  0
LINE
  5
24E
100
AcDbEntity
  8
0
100
AcDbLine
 62
7
  6
CONTINUOUS
 10
30.5178718578
 20
5.8544587401
 11
32.8185535669
 21
7.4654134159
  0
ARC
  5
24F
100
AcDbEntity
  8
0
100
AcDbCircle
 62
7
  6
CONTINUOUS
 10
24.4435535669
 20
23.6544587401
 40
14.8
100
AcDbArc
 50
101.2999884138
 51
114.1941224753
  0
ARC
  5
250
100
AcDbEntity
  8
0
100
AcDbCircle
 62
7
  6
CONTINUOUS
 10
24.4435535669
 20
23.6544587401
 40
14.8
100
AcDbArc
 50
65.8058775247
 51
78.7000115862
  0
CIRCLE
  5
251
100
AcDbEntity
  8
0
100
AcDbCircle
 62
7
  6
CONTINUOUS
 10
24.4435535669
 20
23.6544587401
 40
14.5
  0
CIRCLE
  5
252
100
AcDbEntity
  8
0
100
AcDbCircle
 62
7
  6
CONTINUOUS
 10
24.4435535669
 20
23.6544587401
 40
14.2393718875
  0
CIRCLE
  5
253
100
AcDbEntity
  8
0
100
AcDbCircle
 62
7
  6
CONTINUOUS
 10
24.4435535669
 20
23.6544587401
 40
12.771256225
  0
ARC
  5
254
100
AcDbEntity
  8
0
100
AcDbCircle
 62
7
  6
CONTINUOUS
 10
24.4435535669
 20
-0.8455412599
 40
7.8
100
AcDbArc
 50
50.2848627682
 51
129.7151372318
  0
ARC
  5
255
100
AcDbEntity
  8
0
100
AcDbCircle
 62
7
  6
CONTINUOUS
 10
24.4435535669
 20
40.6544587401
 40
5.75
100
AcDbArc
 50
48.4024161073
 51
131.5975838927
  0
ARC
  5
256
100
AcDbEntity
  8
0
100
AcDbCircle
 62
7
  6
CONTINUOUS
 10
31.88608191
 20
39.6044587401
 40
2.75
100
AcDbArc
 50
359.6585459803
 51
66.6934070271
  0
ARC
  5
257
100
AcDbEntity
  8
0
100
AcDbCircle
 62
7
  6
CONTINUOUS
 10
17.0010252238
 20
39.6044587401
 40
2.75
100
AcDbArc
 50
113.3065929729
 51
180.3414540195
  0
ARC
  5
258
100
AcDbEntity
  8
0
100
AcDbCircle
 62
7
  6
CONTINUOUS
 10
32.2152777481
 20
10.9424722965
 40
2.25
100
AcDbArc
 50
299.658545981
 51
359.6585459813
  0
ARC
  5
259
100
AcDbEntity
  8
0
100
AcDbCircle
 62
7
  6
CONTINUOUS
 10
16.6718293857
 20
10.9424722965
 40
2.25
100
AcDbArc
 50
180.3414540189
 51
240.3414540189
  0
ARC
  5
25A
100
AcDbEntity
  8
0
100
AcDbCircle
 62
7
  6
CONTINUOUS
 10
17.0010252238
 20
39.6044587401
 40
1.25
100
AcDbArc
 50
138.2431126001
 51
180.3414540192
  0
ARC
  5
25B
100
AcDbEntity
  8
0
100
AcDbCircle
 62
7
  6
CONTINUOUS
 10
31.88608191
 20
39.6044587401
 40
1.25
100
AcDbArc
 50
359.6585459804
 51
41.7568873999
  0
ARC
  5
25C
100
AcDbEntity
  8
0
100
AcDbCircle
 62
7
  6
CONTINUOUS
 10
32.2152777481
 20
10.9424722965
 40
0.75
100
AcDbArc
 50
324.8921576731
 51
359.6585459811
  0
ARC
  5
25D
100
AcDbEntity
  8
0
100
AcDbCircle
 62
7
  6
CONTINUOUS
 10
16.6718293857
 20
10.9424722965
 40
0.75
100
AcDbArc
 50
180.3414540192
 51
215.1078423273
  0
SPLINE
  5
25E
100
AcDbEntity
  8
0
100
AcDbSpline
 62
7
  6
CONTINUOUS
 70
0
 71
3
 72
29
 73
25
 74
0
 42
0.0000001
 43
0.0000001
 44
0.0000000001
 40
0.0
 40
0.0
 40
0.0
 40
0.0
 40
0.0615005874
 40
0.0923421117
 40
0.1232287922
 40
0.1851561751
 40
0.2474420224
 40
0.2787670703
 40
0.3101863907
 40
0.3416944197
 40
0.3732815213
 40
0.4365686901
 40
0.499999406
 40
0.5634301696
 40
0.6267174719
 40
0.6583046721
 40
0.6898128013
 40
0.7212322384
 40
0.7525573978
 40
0.8148434732
 40
0.8767710345
 40
0.9076577875
 40
0.9384993799
 40
1.0
 40
1.0
 40
1.0
 40
1.0
 10
20.6435535669
 20
59.6535933161
 30
0.0
 10
20.6435535669
 20
59.8317634603
 30
0.0
 10
20.6166156708
 20
60.1002750818
 30
0.0
 10
20.5282878346
 20
60.4466103008
 30
0.0
 10
20.4055812441
 20
60.7837536915
 30
0.0
 10
20.189350318
 20
61.1812015586
 30
0.0
 10
19.8983616003
 20
61.52931843
 30
0.0
 10
19.6274893048
 20
61.7705217613
 30
0.0
 10
19.4064916975
 20
61.931655127
 30
0.0
 10
19.1701630083
 20
62.0708230802
 30
0.0
 10
18.8377377893
 20
62.2254093781
 30
0.0
 10
18.3952254936
 20
62.3572883577
 30
0.0
 10
17.8435586509
 20
62.4106119559
 30
0.0
 10
17.2918912294
 20
62.3572902627
 30
0.0
 10
16.8493777057
 20
62.2254124993
 30
0.0
 10
16.5169511573
 20
62.0708267681
 30
0.0
 10
16.2806213003
 20
61.9316589859
 30
0.0
 10
16.0596225658
 20
61.770525547
 30
0.0
 10
15.7887487408
 20
61.5293219359
 30
0.0
 10
15.4977586028
 20
61.181204255
 30
0.0
 10
15.2815265506
 20
60.783755391
 30
0.0
 10
15.1588195613
 20
60.4466111549
 30
0.0
 10
15.0704915166
 20
60.1002754709
 30
0.0
 10
15.0435535669
 20
59.831763555
 30
0.0
 10
15.0435535669
 20
59.6535933161
 30
0.0
  0
SPLINE
  5
25F
100
AcDbEntity
  8
0
100
AcDbSpline
 62
7
  6
CONTINUOUS
 70
0
 71
3
 72
39
 73
35
 74
0
 42
0.0000001
 43
0.0000001
 44
0.0000000001
 40
0.0
 40
0.0
 40
0.0
 40
0.0
 40
0.0311028551
 40
0.0622282798
 40
0.0933537707
 40
0.1244935602
 40
0.1556551008
 40
0.1868389393
 40
0.2180477623
 40
0.2492838021
 40
0.2805472922
 40
0.3118379323
 40
0.3431539907
 40
0.3744930311
 40
0.405851765
 40
0.4372257699
 40
0.4686104899
 40
0.5000005356
 40
0.5313905748
 40
0.562775262
 40
0.5941492179
 40
0.6255078869
 40
0.6568468439
 40
0.6881628125
 40
0.7194533502
 40
0.750716737
 40
0.7819526735
 40
0.8131613955
 40
0.8443451389
 40
0.875506597
 40
0.9066463238
 40
0.937771757
 40
0.9688971499
 40
1.0
 40
1.0
 40
1.0
 40
1.0
 10
23.0435535669
 20
59.6535933161
 30
0.0
 10
23.0435535669
 20
59.8219060972
 30
0.0
 10
23.0267455587
 20
60.1588908189
 30
0.0
 10
22.9515891084
 20
60.659252449
 30
0.0
 10
22.827035661
 20
61.1499184233
 30
0.0
 10
22.654396287
 20
61.6259854304
 30
0.0
 10
22.4354234672
 20
62.0829516505
 30
0.0
 10
22.1721618318
 20
62.5163517636
 30
0.0
 10
21.8672796853
 20
62.922053199
 30
0.0
 10
21.5237021057
 20
63.2961350393
 30
0.0
 10
21.1447880426
 20
63.6350320964
 30
0.0
 10
20.7342264519
 20
63.9355399525
 30
0.0
 10
20.2959462054
 20
64.1947471289
 30
0.0
 10
19.8342135962
 20
64.4102765475
 30
0.0
 10
19.3534287945
 20
64.5800252633
 30
0.0
 10
18.8582184164
 20
64.7024320321
 30
0.0
 10
18.3533167547
 20
64.776355042
 30
0.0
 10
17.8435448764
 20
64.8010451241
 30
0.0
 10
17.3337731775
 20
64.7763537975
 30
0.0
 10
16.8288724136
 20
64.7024282206
 30
0.0
 10
16.3336628873
 20
64.5800212952
 30
0.0
 10
15.8528799711
 20
64.4102704001
 30
0.0
 10
15.3911488453
 20
64.1947409648
 30
0.0
 10
14.9528705325
 20
63.9355333717
 30
0.0
 10
14.5423111435
 20
63.6350252834
 30
0.0
 10
14.1633985298
 20
63.2961291051
 30
0.0
 10
13.8198231549
 20
62.9220475039
 30
0.0
 10
13.5149421158
 20
62.516347295
 30
0.0
 10
13.2516818142
 20
62.0829481236
 30
0.0
 10
13.0327098195
 20
61.6259829678
 30
0.0
 10
12.8600710335
 20
61.1499169165
 30
0.0
 10
12.7355178974
 20
60.6592517204
 30
0.0
 10
12.6603615501
 20
60.1588905935
 30
0.0
 10
12.6435535669
 20
59.8219060705
 30
0.0
 10
12.6435535669
 20
59.6535933161
 30
0.0
  0
SPLINE
  5
260
100
AcDbEntity
  8
0
100
AcDbSpline
 62
7
  6
CONTINUOUS
 70
0
 71
3
 72
22
 73
18
 74
0
 42
0.0000001
 43
0.0000001
 44
0.0000000001
 40
0.0
 40
0.0
 40
0.0
 40
0.0
 40
0.1876158903
 40
0.3682892041
 40
0.5352420112
 40
0.6116741
 40
0.6824556233
 40
0.7469867185
 40
0.8047186964
 40
0.8552329586
 40
0.8982129005
 40
0.9335501125
 40
0.9614574547
 40
0.9728750799
 40
0.982855325
 40
0.9917356644
 40
1.0
 40
1.0
 40
1.0
 40
1.0
 10
21.8435535669
 20
59.8619711293
 30
0.0
 10
21.9215937974
 20
59.8619711293
 30
0.0
 10
22.0748008586
 20
59.8593982654
 30
0.0
 10
22.2971856885
 20
59.8479149835
 30
0.0
 10
22.4729185001
 20
59.8319887446
 30
0.0
 10
22.6025577146
 20
59.8154244121
 30
0.0
 10
22.6895930174
 20
59.8018326967
 30
0.0
 10
22.768501562
 20
59.786868334
 30
0.0
 10
22.838544154
 20
59.7706624237
 30
0.0
 10
22.8990660986
 20
59.753407735
 30
0.0
 10
22.9495640369
 20
59.7352747055
 30
0.0
 10
22.9896019856
 20
59.7164463538
 30
0.0
 10
23.015754817
 20
59.6992673903
 30
0.0
 10
23.0304449413
 20
59.6848574273
 30
0.0
 10
23.0379036976
 20
59.6746159825
 30
0.0
 10
23.0424944789
 20
59.664195649
 30
0.0
 10
23.0435535669
 20
59.6570309282
 30
0.0
 10
23.0435535669
 20
59.6535933161
 30
0.0
  0
SPLINE
  5
261
100
AcDbEntity
  8
0
100
AcDbSpline
 62
7
  6
CONTINUOUS
 70
0
 71
3
 72
22
 73
18
 74
0
 42
0.0000001
 43
0.0000001
 44
0.0000000001
 40
0.0
 40
0.0
 40
0.0
 40
0.0
 40
0.0082643356
 40
0.017144675
 40
0.0271249201
 40
0.0385425453
 40
0.0664498875
 40
0.1017870995
 40
0.1447670414
 40
0.1952813036
 40
0.2530132815
 40
0.3175443767
 40
0.3883259
 40
0.4647579888
 40
0.6317107959
 40
0.8123841097
 40
1.0
 40
1.0
 40
1.0
 40
1.0
 10
20.6435535669
 20
59.6535933161
 30
0.0
 10
20.6435535669
 20
59.6570309282
 30
0.0
 10
20.6446126549
 20
59.664195649
 30
0.0
 10
20.6492034362
 20
59.6746159825
 30
0.0
 10
20.6566621925
 20
59.6848574273
 30
0.0
 10
20.6713523168
 20
59.6992673903
 30
0.0
 10
20.6975051482
 20
59.7164463538
 30
0.0
 10
20.737543097
 20
59.7352747055
 30
0.0
 10
20.7880410352
 20
59.753407735
 30
0.0
 10
20.8485629798
 20
59.7706624237
 30
0.0
 10
20.9186055718
 20
59.786868334
 30
0.0
 10
20.9975141164
 20
59.8018326967
 30
0.0
 10
21.0845494192
 20
59.8154244121
 30
0.0
 10
21.2141886337
 20
59.8319887446
 30
0.0
 10
21.3899214453
 20
59.8479149835
 30
0.0
 10
21.6123062753
 20
59.8593982654
 30
0.0
 10
21.7655133364
 20
59.8619711293
 30
0.0
 10
21.8435535669
 20
59.8619711293
 30
0.0
  0
SPLINE
  5
262
100
AcDbEntity
  8
0
100
AcDbSpline
 62
7
  6
CONTINUOUS
 70
0
 71
3
 72
37
 73
33
 74
0
 42
0.0000001
 43
0.0000001
 44
0.0000000001
 40
0.0
 40
0.0
 40
0.0
 40
0.0
 40
0.0041311057
 40
0.0085709396
 40
0.0135612017
 40
0.019270099
 40
0.0332236306
 40
0.0508945072
 40
0.0723817226
 40
0.0976404192
 40
0.1265068097
 40
0.1587713173
 40
0.1941646617
 40
0.2323749668
 40
0.3158601294
 40
0.4061839617
 40
0.5
 40
0.5938160383
 40
0.6841398706
 40
0.7676250332
 40
0.8058353383
 40
0.8412286827
 40
0.8734931903
 40
0.9023595808
 40
0.9276182774
 40
0.9491054928
 40
0.9667763694
 40
0.980729901
 40
0.9864387983
 40
0.9914290604
 40
0.9958688943
 40
1.0
 40
1.0
 40
1.0
 40
1.0
 10
12.6435535669
 20
59.6535933161
 30
0.0
 10
12.6435535669
 20
59.6570300366
 30
0.0
 10
12.6446136479
 20
59.6641935416
 30
0.0
 10
12.6492061907
 20
59.6746118499
 30
0.0
 10
12.6566656982
 20
59.6848524214
 30
0.0
 10
12.6713541216
 20
59.6992638804
 30
0.0
 10
12.6975047001
 20
59.7164499875
 30
0.0
 10
12.7375448806
 20
59.7352727801
 30
0.0
 10
12.7880411669
 20
59.7534118884
 30
0.0
 10
12.8485645521
 20
59.7706595936
 30
0.0
 10
12.9186070899
 20
59.7868673095
 30
0.0
 10
12.9975166487
 20
59.801834742
 30
0.0
 10
13.0845490787
 20
59.8154204997
 30
0.0
 10
13.2141913748
 20
59.8319952654
 30
0.0
 10
13.389916197
 20
59.8479113199
 30
0.0
 10
13.612305802
 20
59.8593992864
 30
0.0
 10
13.8435535669
 20
59.8632785821
 30
0.0
 10
14.0748013318
 20
59.8593992864
 30
0.0
 10
14.2971909368
 20
59.8479113199
 30
0.0
 10
14.472915759
 20
59.8319952654
 30
0.0
 10
14.6025580551
 20
59.8154204997
 30
0.0
 10
14.6895904851
 20
59.801834742
 30
0.0
 10
14.7685000439
 20
59.7868673095
 30
0.0
 10
14.8385425817
 20
59.7706595936
 30
0.0
 10
14.8990659669
 20
59.7534118884
 30
0.0
 10
14.9495622532
 20
59.7352727801
 30
0.0
 10
14.9896024337
 20
59.7164499875
 30
0.0
 10
15.0157530122
 20
59.6992638804
 30
0.0
 10
15.0304414356
 20
59.6848524214
 30
0.0
 10
15.0379009431
 20
59.6746118499
 30
0.0
 10
15.0424934859
 20
59.6641935416
 30
0.0
 10
15.0435535669
 20
59.6570300366
 30
0.0
 10
15.0435535669
 20
59.6535933161
 30
0.0
  0
SPLINE
  5
263
100
AcDbEntity
  8
0
100
AcDbSpline
 62
7
  6
CONTINUOUS
 70
0
 71
3
 72
29
 73
25
 74
0
 42
0.0000001
 43
0.0000001
 44
0.0000000001
 40
0.0
 40
0.0
 40
0.0
 40
0.0
 40
0.0615005874
 40
0.0923421117
 40
0.1232287922
 40
0.1851561751
 40
0.2474420224
 40
0.2787670703
 40
0.3101863907
 40
0.3416944197
 40
0.3732815213
 40
0.4365686901
 40
0.499999406
 40
0.5634301696
 40
0.6267174719
 40
0.6583046721
 40
0.6898128013
 40
0.7212322384
 40
0.7525573978
 40
0.8148434732
 40
0.8767710345
 40
0.9076577875
 40
0.9384993799
 40
1.0
 40
1.0
 40
1.0
 40
1.0
 10
33.8435535922
 20
59.6535933162
 30
0.0
 10
33.8435535922
 20
59.8317634604
 30
0.0
 10
33.8166156961
 20
60.1002750819
 30
0.0
 10
33.72828786
 20
60.4466103009
 30
0.0
 10
33.6055812694
 20
60.7837536916
 30
0.0
 10
33.3893503433
 20
61.1812015587
 30
0.0
 10
33.0983616256
 20
61.5293184301
 30
0.0
 10
32.8274893301
 20
61.7705217614
 30
0.0
 10
32.6064917229
 20
61.9316551272
 30
0.0
 10
32.3701630336
 20
62.0708230803
 30
0.0
 10
32.0377378146
 20
62.2254093782
 30
0.0
 10
31.5952255189
 20
62.3572883579
 30
0.0
 10
31.0435586762
 20
62.4106119561
 30
0.0
 10
30.4918912547
 20
62.3572902629
 30
0.0
 10
30.0493777311
 20
62.2254124994
 30
0.0
 10
29.7169511826
 20
62.0708267682
 30
0.0
 10
29.4806213256
 20
61.9316589861
 30
0.0
 10
29.2596225911
 20
61.7705255471
 30
0.0
 10
28.9887487661
 20
61.529321936
 30
0.0
 10
28.6977586281
 20
61.1812042551
 30
0.0
 10
28.4815265759
 20
60.7837553911
 30
0.0
 10
28.3588195866
 20
60.446611155
 30
0.0
 10
28.270491542
 20
60.100275471
 30
0.0
 10
28.2435535922
 20
59.8317635552
 30
0.0
 10
28.2435535922
 20
59.6535933162
 30
0.0
  0
SPLINE
  5
264
100
AcDbEntity
  8
0
100
AcDbSpline
 62
7
  6
CONTINUOUS
 70
0
 71
3
 72
39
 73
35
 74
0
 42
0.0000001
 43
0.0000001
 44
0.0000000001
 40
0.0
 40
0.0
 40
0.0
 40
0.0
 40
0.0311028551
 40
0.0622282798
 40
0.0933537707
 40
0.1244935602
 40
0.1556551008
 40
0.1868389393
 40
0.2180477623
 40
0.2492838021
 40
0.2805472922
 40
0.3118379323
 40
0.3431539907
 40
0.3744930311
 40
0.405851765
 40
0.4372257699
 40
0.4686104899
 40
0.5000005356
 40
0.5313905748
 40
0.562775262
 40
0.5941492179
 40
0.6255078869
 40
0.6568468439
 40
0.6881628125
 40
0.7194533502
 40
0.750716737
 40
0.7819526735
 40
0.8131613955
 40
0.8443451389
 40
0.875506597
 40
0.9066463238
 40
0.937771757
 40
0.9688971499
 40
1.0
 40
1.0
 40
1.0
 40
1.0
 10
36.2435535922
 20
59.6535933162
 30
0.0
 10
36.2435535922
 20
59.8219060973
 30
0.0
 10
36.226745584
 20
60.158890819
 30
0.0
 10
36.1515891337
 20
60.6592524491
 30
0.0
 10
36.0270356863
 20
61.1499184234
 30
0.0
 10
35.8543963123
 20
61.6259854305
 30
0.0
 10
35.6354234925
 20
62.0829516506
 30
0.0
 10
35.3721618571
 20
62.5163517637
 30
0.0
 10
35.0672797106
 20
62.9220531991
 30
0.0
 10
34.723702131
 20
63.2961350394
 30
0.0
 10
34.3447880679
 20
63.6350320965
 30
0.0
 10
33.9342264772
 20
63.9355399526
 30
0.0
 10
33.4959462308
 20
64.194747129
 30
0.0
 10
33.0342136215
 20
64.4102765476
 30
0.0
 10
32.5534288198
 20
64.5800252634
 30
0.0
 10
32.0582184417
 20
64.7024320322
 30
0.0
 10
31.55331678
 20
64.7763550421
 30
0.0
 10
31.0435449017
 20
64.8010451242
 30
0.0
 10
30.5337732029
 20
64.7763537976
 30
0.0
 10
30.0288724389
 20
64.7024282207
 30
0.0
 10
29.5336629127
 20
64.5800212954
 30
0.0
 10
29.0528799964
 20
64.4102704002
 30
0.0
 10
28.5911488706
 20
64.194740965
 30
0.0
 10
28.1528705578
 20
63.9355333719
 30
0.0
 10
27.7423111688
 20
63.6350252835
 30
0.0
 10
27.3633985551
 20
63.2961291052
 30
0.0
 10
27.0198231802
 20
62.922047504
 30
0.0
 10
26.7149421411
 20
62.5163472951
 30
0.0
 10
26.4516818395
 20
62.0829481237
 30
0.0
 10
26.2327098448
 20
61.6259829679
 30
0.0
 10
26.0600710589
 20
61.1499169166
 30
0.0
 10
25.9355179227
 20
60.6592517205
 30
0.0
 10
25.8603615754
 20
60.1588905936
 30
0.0
 10
25.8435535922
 20
59.8219060706
 30
0.0
 10
25.8435535922
 20
59.6535933162
 30
0.0
  0
SPLINE
  5
265
100
AcDbEntity
  8
0
100
AcDbSpline
 62
7
  6
CONTINUOUS
 70
0
 71
3
 72
22
 73
18
 74
0
 42
0.0000001
 43
0.0000001
 44
0.0000000001
 40
0.0
 40
0.0
 40
0.0
 40
0.0
 40
0.1876158903
 40
0.3682892041
 40
0.5352420112
 40
0.6116741
 40
0.6824556233
 40
0.7469867185
 40
0.8047186964
 40
0.8552329586
 40
0.8982129005
 40
0.9335501125
 40
0.9614574547
 40
0.9728750799
 40
0.982855325
 40
0.9917356644
 40
1.0
 40
1.0
 40
1.0
 40
1.0
 10
35.0435535922
 20
59.8619711294
 30
0.0
 10
35.1215938227
 20
59.8619711294
 30
0.0
 10
35.2748008839
 20
59.8593982656
 30
0.0
 10
35.4971857138
 20
59.8479149837
 30
0.0
 10
35.6729185254
 20
59.8319887447
 30
0.0
 10
35.8025577399
 20
59.8154244122
 30
0.0
 10
35.8895930427
 20
59.8018326968
 30
0.0
 10
35.9685015873
 20
59.7868683341
 30
0.0
 10
36.0385441793
 20
59.7706624239
 30
0.0
 10
36.0990661239
 20
59.7534077352
 30
0.0
 10
36.1495640622
 20
59.7352747056
 30
0.0
 10
36.1896020109
 20
59.7164463539
 30
0.0
 10
36.2157548424
 20
59.6992673905
 30
0.0
 10
36.2304449666
 20
59.6848574274
 30
0.0
 10
36.2379037229
 20
59.6746159827
 30
0.0
 10
36.2424945042
 20
59.6641956491
 30
0.0
 10
36.2435535922
 20
59.6570309283
 30
0.0
 10
36.2435535922
 20
59.6535933162
 30
0.0
  0
SPLINE
  5
266
100
AcDbEntity
  8
0
100
AcDbSpline
 62
7
  6
CONTINUOUS
 70
0
 71
3
 72
22
 73
18
 74
0
 42
0.0000001
 43
0.0000001
 44
0.0000000001
 40
0.0
 40
0.0
 40
0.0
 40
0.0
 40
0.0082643356
 40
0.017144675
 40
0.0271249201
 40
0.0385425453
 40
0.0664498875
 40
0.1017870995
 40
0.1447670414
 40
0.1952813036
 40
0.2530132815
 40
0.3175443767
 40
0.3883259
 40
0.4647579888
 40
0.6317107959
 40
0.8123841097
 40
1.0
 40
1.0
 40
1.0
 40
1.0
 10
33.8435535922
 20
59.6535933162
 30
0.0
 10
33.8435535922
 20
59.6570309283
 30
0.0
 10
33.8446126802
 20
59.6641956491
 30
0.0
 10
33.8492034616
 20
59.6746159827
 30
0.0
 10
33.8566622178
 20
59.6848574274
 30
0.0
 10
33.8713523421
 20
59.6992673905
 30
0.0
 10
33.8975051735
 20
59.7164463539
 30
0.0
 10
33.9375431223
 20
59.7352747056
 30
0.0
 10
33.9880410606
 20
59.7534077352
 30
0.0
 10
34.0485630051
 20
59.7706624239
 30
0.0
 10
34.1186055971
 20
59.7868683341
 30
0.0
 10
34.1975141417
 20
59.8018326968
 30
0.0
 10
34.2845494445
 20
59.8154244122
 30
0.0
 10
34.4141886591
 20
59.8319887447
 30
0.0
 10
34.5899214706
 20
59.8479149837
 30
0.0
 10
34.8123063006
 20
59.8593982656
 30
0.0
 10
34.9655133617
 20
59.8619711294
 30
0.0
 10
35.0435535922
 20
59.8619711294
 30
0.0
  0
SPLINE
  5
267
100
AcDbEntity
  8
0
100
AcDbSpline
 62
7
  6
CONTINUOUS
 70
0
 71
3
 72
37
 73
33
 74
0
 42
0.0000001
 43
0.0000001
 44
0.0000000001
 40
0.0
 40
0.0
 40
0.0
 40
0.0
 40
0.0041311057
 40
0.0085709396
 40
0.0135612017
 40
0.019270099
 40
0.0332236306
 40
0.0508945072
 40
0.0723817226
 40
0.0976404192
 40
0.1265068097
 40
0.1587713173
 40
0.1941646617
 40
0.2323749668
 40
0.3158601294
 40
0.4061839617
 40
0.5
 40
0.5938160383
 40
0.6841398706
 40
0.7676250332
 40
0.8058353383
 40
0.8412286827
 40
0.8734931903
 40
0.9023595808
 40
0.9276182774
 40
0.9491054928
 40
0.9667763694
 40
0.980729901
 40
0.9864387983
 40
0.9914290604
 40
0.9958688943
 40
1.0
 40
1.0
 40
1.0
 40
1.0
 10
25.8435535922
 20
59.6535933162
 30
0.0
 10
25.8435535922
 20
59.6570300367
 30
0.0
 10
25.8446136732
 20
59.6641935417
 30
0.0
 10
25.849206216
 20
59.67461185
 30
0.0
 10
25.8566657235
 20
59.6848524215
 30
0.0
 10
25.8713541469
 20
59.6992638805
 30
0.0
 10
25.8975047254
 20
59.7164499876
 30
0.0
 10
25.9375449059
 20
59.7352727802
 30
0.0
 10
25.9880411922
 20
59.7534118885
 30
0.0
 10
26.0485645774
 20
59.7706595937
 30
0.0
 10
26.1186071152
 20
59.7868673096
 30
0.0
 10
26.197516674
 20
59.8018347421
 30
0.0
 10
26.284549104
 20
59.8154204999
 30
0.0
 10
26.4141914001
 20
59.8319952655
 30
0.0
 10
26.5899162223
 20
59.84791132
 30
0.0
 10
26.8123058273
 20
59.8593992865
 30
0.0
 10
27.0435535922
 20
59.8632785822
 30
0.0
 10
27.2748013571
 20
59.8593992865
 30
0.0
 10
27.4971909621
 20
59.84791132
 30
0.0
 10
27.6729157843
 20
59.8319952655
 30
0.0
 10
27.8025580805
 20
59.8154204999
 30
0.0
 10
27.8895905104
 20
59.8018347421
 30
0.0
 10
27.9685000692
 20
59.7868673096
 30
0.0
 10
28.038542607
 20
59.7706595937
 30
0.0
 10
28.0990659922
 20
59.7534118885
 30
0.0
 10
28.1495622786
 20
59.7352727802
 30
0.0
 10
28.189602459
 20
59.7164499876
 30
0.0
 10
28.2157530375
 20
59.6992638805
 30
0.0
 10
28.2304414609
 20
59.6848524215
 30
0.0
 10
28.2379009684
 20
59.67461185
 30
0.0
 10
28.2424935113
 20
59.6641935417
 30
0.0
 10
28.2435535922
 20
59.6570300367
 30
0.0
 10
28.2435535922
 20
59.6535933162
 30
0.0
  0
ENDSEC
  0
SECTION
  2
OBJECTS
  0
DICTIONARY
  5
C
100
AcDbDictionary
280
0
281
1
  3
ACAD_GROUP
350
D
  3
ACAD_MLINESTYLE
350
17
  3
ACAD_LAYOUT
350
1A
  3
ACAD_PLOTSETTINGS
350
19
  3
ACAD_PLOTSTYLENAME
350
E
  0
DICTIONARY
  5
D
102
{ACAD_REACTORS
330
C
102
}
100
AcDbDictionary
280
0
281
1
  0
ACDBDICTIONARYWDFLT
  5
E
102
{ACAD_REACTORS
330
C
102
}
100
AcDbDictionary
281
1
  3
Normal
350
F
100
AcDbDictionaryWithDefault
340
F
  0
DICTIONARY
  5
17
102
{ACAD_REACTORS
330
C
102
}
100
AcDbDictionary
280
0
281
1
  3
Standard
350
18
  0
DICTIONARY
  5
19
102
{ACAD_REACTORS
330
C
102
}
100
AcDbDictionary
281
1
  0
DICTIONARY
  5
1A
102
{ACAD_REACTORS
330
C
102
}
100
AcDbDictionary
281
1
  3
Model
350
268
  3
Layout1
350
269
  0
ACDBPLACEHOLDER
  5
F
102
{ACAD_REACTORS
330
E
102
}
  0
MLINESTYLE
  5
18
102
{ACAD_REACTORS
330
17
102
}
100
AcDbMlineStyle
  2
STANDARD
 70
0
  3

 62
256
 51
90.0
 52
90.0
 71
2
 49
0.5
 62
256
  6
BYLAYER
 49
-0.5
 62
256
  6
BYLAYER
  0
LAYOUT
  5
268
102
{ACAD_REACTORS
330
1A
102
}
100
AcDbPlotSettings
  1

  2
none_device
  4

  6

 40
0.0
 41
0.0
 42
0.0
 43
0.0
 44
210.0
 45
297.0
 46
0.0
 47
0.0
 48
0.0
 49
0.0
140
0.0
141
0.0
142
1.0
143
1.0
 70
1024
 72
1
 73
0
 74
0
  7

 75
0
147
1.0
148
0.0
149
0.0
100
AcDbLayout
  1
Model
 70
0
 71
0
 10
0.0
 20
0.0
 11
210.0
 21
297.0
 12
0.0
 22
0.0
 32
0.0
 14
0.0
 24
0.0
 34
0.0
 15
0.0
 25
0.0
 35
0.0
146
0.0
 13
0.0
 23
0.0
 33
0.0
 16
1.0
 26
0.0
 36
0.0
 17
0.0
 27
1.0
 37
0.0
 76
0
330
210
345
0
346
0
  0
LAYOUT
  5
269
102
{ACAD_REACTORS
330
1A
102
}
100
AcDbPlotSettings
  1

  2
none_device
  4

  6

 40
0.0
 41
0.0
 42
0.0
 43
0.0
 44
210.0
 45
297.0
 46
0.0
 47
0.0
 48
0.0
 49
0.0
140
0.0
141
0.0
142
1.0
143
1.0
 70
0
 72
1
 73
0
 74
0
  7

 75
0
147
1.0
148
0.0
149
0.0
100
AcDbLayout
  1
Layout1
 70
0
 71
1
 10
0.0
 20
0.0
 11
210.0
 21
297.0
 12
0.0
 22
0.0
 32
0.0
 14
0.0
 24
0.0
 34
0.0
 15
0.0
 25
0.0
 35
0.0
146
0.0
 13
0.0
 23
0.0
 33
0.0
 16
1.0
 26
0.0
 36
0.0
 17
0.0
 27
1.0
 37
0.0
 76
0
330
211
345
0
346
0
  0
ENDSEC
  0
EOF
