999
DXF file: C:\Users\sesa63760\Dev\_Creo\CAD\MCADPE0010561_3D-CAD\drw0001_1.dxf
999
Pro/ENGINEER 2019471 by Parametric Technology Corporation
  0
SECTION
  2
HEADER
  9
$ACADVER
  1
AC1024
  9
$DWGCODEPAGE
  3
ANSI_1252
  9
$EXTMAX
 10
60.6469637814
 20
85.7721344908
 30
0.0
  9
$EXTMIN
 10
0.0
 20
0.0
 30
0.0
  9
$LIMMIN
 10
0.0
 20
0.0
  9
$LIMMAX
 10
60.6469637814
 20
85.7721344908
  9
$VIEWCTR
 10
30.3234818907
 20
42.8860672454
  9
$VIEWSIZE
 40
85.7721344908
  9
$CLAYER
  8
0
  9
$LTSCALE
 40
5.5910724705
  9
$CELTYPE
  6
BYLAYER
  9
$DIMSCALE
 40
1.0
  9
$DIMASZ
 40
0.7219876641
  9
$DIMEXO
 40
1.0
  9
$DIMDLI
 40
3.8629227978
  9
$DIMEXE
 40
1.0
  9
$DIMCEN
 40
0.9149027679
  9
$DIMLFAC
 40
1.0
  9
$DIMBLK
  1
_FILLED
  9
$DIMALT
 70
0
  9
$DIMALTF
 40
0.0393700787
  9
$DIMTXT
 40
1.0107827297
  9
$DIMTOL
 70
1
  9
$DIMLIM
 70
0
  9
$DIMTFAC
 40
1.0
  9
$DIMTP
 40
0.01
  9
$DIMTM
 40
0.01
  9
$DIMGAP
 40
0.625
  9
$DIMDSEP
 70
46
  9
$AUNITS
 70
0
  9
$PDMODE
 70
3
  9
$PDSIZE
 40
0.3125
  9
$HANDSEED
  5
297
  9
$TILEMODE
 70
1
  9
$MEASUREMENT
 70
1
  9
$INSUNITS
 70
4
  0
ENDSEC
  0
SECTION
  2
CLASSES
  0
CLASS
  1
ACDBDICTIONARYWDFLT
  2
AcDbDictionaryWithDefault
  3
AutoCAD 2000
 90
0
 91
1
280
0
281
0
  0
CLASS
  1
ACDBPLACEHOLDER
  2
AcDbPlaceHolder
  3
AutoCAD 2000
 90
0
 91
1
280
0
281
0
  0
CLASS
  1
LAYOUT
  2
AcDbLayout
  3
AutoCAD 2000
 90
0
 91
0
280
0
281
0
  0
ENDSEC
  0
SECTION
  2
TABLES
  0
TABLE
  2
VPORT
  5
8
100
AcDbSymbolTable
 70
2
  0
VPORT
  5
1F4
100
AcDbSymbolTableRecord
100
AcDbViewportTableRecord
  2
*ACTIVE
 70
0
 10
0.0
 20
0.0
 11
1.0
 21
1.0
 12
30.3234818907
 22
42.8860672454
 13
0.0
 23
0.0
 14
1.0
 24
1.0
 15
0.0
 25
0.0
 16
0.0
 26
0.0
 36
1.0
 17
0.0
 27
0.0
 37
0.0
 40
85.7721344908
 41
0.7070707071
 42
50.0
 43
0.0
 44
0.0
 50
0.0
 51
0.0
 71
0
 72
100
 73
1
 74
1
 75
0
 76
0
 77
0
 78
0
  0
ENDTAB
  0
TABLE
  2
LTYPE
  5
5
100
AcDbSymbolTable
 70
6
  0
LTYPE
  5
14
100
AcDbSymbolTableRecord
100
AcDbLinetypeTableRecord
  2
BYBLOCK
 70
0
  3

 72
65
 73
0
 40
0.0
  0
LTYPE
  5
15
100
AcDbSymbolTableRecord
100
AcDbLinetypeTableRecord
  2
BYLAYER
 70
0
  3

 72
65
 73
0
 40
0.0
  0
LTYPE
  5
16
100
AcDbSymbolTableRecord
100
AcDbLinetypeTableRecord
  2
CONTINUOUS
 70
64
  3
Solid line
 72
65
 73
0
 40
0.0
  0
LTYPE
  5
1F5
100
AcDbSymbolTableRecord
100
AcDbLinetypeTableRecord
  2
CENTER
 70
64
  3
____ _ ____ _ ____ _ ____ _ ____ _ ____ _ ____
 72
65
 73
4
 40
0.6
 49
0.375
 74
0
 49
-0.075
 74
0
 49
0.075
 74
0
 49
-0.075
 74
0
  0
LTYPE
  5
1F6
100
AcDbSymbolTableRecord
100
AcDbLinetypeTableRecord
  2
HIDDEN
 70
64
  3
- - - - - - - - - - - - - - - - - - - -
 72
65
 73
2
 40
0.2
 49
0.1
 74
0
 49
-0.1
 74
0
  0
LTYPE
  5
1F7
100
AcDbSymbolTableRecord
100
AcDbLinetypeTableRecord
  2
PHANTOM
 70
64
  3
_____ _ _ _____ _ _ _____ _ _ _____
 72
65
 73
6
 40
0.8
 49
0.45
 74
0
 49
-0.05
 74
0
 49
0.1
 74
0
 49
-0.05
 74
0
 49
0.1
 74
0
 49
-0.05
 74
0
  0
LTYPE
  5
1F8
100
AcDbSymbolTableRecord
100
AcDbLinetypeTableRecord
  2
DOT
 70
64
  3
. . . . . . . . . . . . . . . . . . . .
 72
65
 73
2
 40
0.2
 49
0.1
 74
0
 49
-0.1
 74
0
  0
LTYPE
  5
1F9
100
AcDbSymbolTableRecord
100
AcDbLinetypeTableRecord
  2
DASHED
 70
64
  3
- - - - - - - - - - - - - - - - - - - -
 72
65
 73
2
 40
0.2
 49
0.1
 74
0
 49
-0.1
 74
0
  0
ENDTAB
  0
TABLE
  2
LAYER
  5
2
100
AcDbSymbolTable
 70
36
  0
LAYER
  5
10
100
AcDbSymbolTableRecord
100
AcDbLayerTableRecord
  2
0
 70
0
 62
7
  6
CONTINUOUS
370
-3
390
F
  0
LAYER
  5
1FA
100
AcDbSymbolTableRecord
100
AcDbLayerTableRecord
  2
DEFAULT_1
 70
0
 62
7
  6
CENTER
370
-3
390
F
  0
LAYER
  5
1FB
100
AcDbSymbolTableRecord
100
AcDbLayerTableRecord
  2
DEFAULT_2
 70
0
 62
7
  6
HIDDEN
370
-3
390
F
  0
LAYER
  5
1FC
100
AcDbSymbolTableRecord
100
AcDbLayerTableRecord
  2
DEFAULT_3
 70
0
 62
7
  6
PHANTOM
370
-3
390
F
  0
LAYER
  5
1FD
100
AcDbSymbolTableRecord
100
AcDbLayerTableRecord
  2
00_COMPONENTS
 70
0
 62
7
  6
CONTINUOUS
370
-3
390
F
  0
LAYER
  5
1FE
100
AcDbSymbolTableRecord
100
AcDbLayerTableRecord
  2
01_1_DEFAULT_DATUMS
 70
0
 62
7
  6
CONTINUOUS
370
-3
390
F
  0
LAYER
  5
1FF
100
AcDbSymbolTableRecord
100
AcDbLayerTableRecord
  2
01_PLANES
 70
0
 62
7
  6
CONTINUOUS
370
-3
390
F
  0
LAYER
  5
200
100
AcDbSymbolTableRecord
100
AcDbLayerTableRecord
  2
02_COORD_SYS
 70
0
 62
7
  6
CONTINUOUS
370
-3
390
F
  0
LAYER
  5
201
100
AcDbSymbolTableRecord
100
AcDbLayerTableRecord
  2
03_AXES
 70
0
 62
7
  6
CONTINUOUS
370
-3
390
F
  0
LAYER
  5
202
100
AcDbSymbolTableRecord
100
AcDbLayerTableRecord
  2
04_POINTS
 70
0
 62
7
  6
CONTINUOUS
370
-3
390
F
  0
LAYER
  5
203
100
AcDbSymbolTableRecord
100
AcDbLayerTableRecord
  2
05_CURVES
 70
0
 62
7
  6
CONTINUOUS
370
-3
390
F
  0
LAYER
  5
204
100
AcDbSymbolTableRecord
100
AcDbLayerTableRecord
  2
06_SURFS
 70
0
 62
7
  6
CONTINUOUS
370
-3
390
F
  0
LAYER
  5
205
100
AcDbSymbolTableRecord
100
AcDbLayerTableRecord
  2
07_COSMETICS
 70
0
 62
7
  6
CONTINUOUS
370
-3
390
F
  0
LAYER
  5
206
100
AcDbSymbolTableRecord
100
AcDbLayerTableRecord
  2
10_NOTES
 70
0
 62
7
  6
CONTINUOUS
370
-3
390
F
  0
LAYER
  5
207
100
AcDbSymbolTableRecord
100
AcDbLayerTableRecord
  2
11_NOTES_PUB
 70
0
 62
7
  6
CONTINUOUS
370
-3
390
F
  0
LAYER
  5
208
100
AcDbSymbolTableRecord
100
AcDbLayerTableRecord
  2
13_REF_GTOL
 70
0
 62
7
  6
CONTINUOUS
370
-3
390
F
  0
LAYER
  5
209
100
AcDbSymbolTableRecord
100
AcDbLayerTableRecord
  2
16_MISC
 70
0
 62
7
  6
CONTINUOUS
370
-3
390
F
  0
LAYER
  5
20A
100
AcDbSymbolTableRecord
100
AcDbLayerTableRecord
  2
17_NO_PRINT
 70
0
 62
7
  6
CONTINUOUS
370
-3
390
F
  0
LAYER
  5
20B
100
AcDbSymbolTableRecord
100
AcDbLayerTableRecord
  2
18_DATUM_CAMS_JOINTS
 70
0
 62
7
  6
CONTINUOUS
370
-3
390
F
  0
LAYER
  5
20C
100
AcDbSymbolTableRecord
100
AcDbLayerTableRecord
  2
19_DATUM_FUNCTIONAL
 70
0
 62
7
  6
CONTINUOUS
370
-3
390
F
  0
LAYER
  5
20D
100
AcDbSymbolTableRecord
100
AcDbLayerTableRecord
  2
20_DATUM_KINEMATIC_SCHEME
 70
0
 62
7
  6
CONTINUOUS
370
-3
390
F
  0
ENDTAB
  0
TABLE
  2
STYLE
  5
3
100
AcDbSymbolTable
 70
1
  0
STYLE
  5
11
100
AcDbSymbolTableRecord
100
AcDbTextStyleTableRecord
  2
STANDARD
 70
0
 40
0.0
 41
1.0
 50
0.0
 71
0
 42
0.2
  3
ARIAL.TTF
  4

  0
STYLE
  5
20E
100
AcDbSymbolTableRecord
100
AcDbTextStyleTableRecord
  2
TEXTSTYLE_1
 70
0
 40
0.0
 41
0.8
 50
0.0
 71
0
 42
0.2
  3
gdt
  4

  0
ENDTAB
  0
TABLE
  2
VIEW
  5
6
100
AcDbSymbolTable
 70
0
  0
ENDTAB
  0
TABLE
  2
UCS
  5
7
100
AcDbSymbolTable
 70
0
  0
ENDTAB
  0
TABLE
  2
APPID
  5
9
100
AcDbSymbolTable
 70
1
  0
APPID
  5
20F
100
AcDbSymbolTableRecord
100
AcDbRegAppTableRecord
  2
ACAD
 70
0
  0
ENDTAB
  0
TABLE
  2
BLOCK_RECORD
  5
1
100
AcDbSymbolTable
 70
0
  0
BLOCK_RECORD
  5
210
100
AcDbSymbolTableRecord
100
AcDbBlockTableRecord
  2
*Model_Space
  0
BLOCK_RECORD
  5
211
100
AcDbSymbolTableRecord
100
AcDbBlockTableRecord
  2
*Paper_Space
  0
BLOCK_RECORD
  5
212
100
AcDbSymbolTableRecord
100
AcDbBlockTableRecord
  2
_FILLED
  0
ENDTAB
  0
TABLE
  2
DIMSTYLE
  5
A
100
AcDbSymbolTable
 70
1
100
AcDbDimStyleTable
 71
0
  0
DIMSTYLE
105
213
100
AcDbSymbolTableRecord
100
AcDbDimStyleTableRecord
  2
STANDARD
 70
0
  3

  4

 40
1.0
 41
0.7219876641
 42
1.0
 43
0.38
 44
1.0
 45
0.0
 46
0.0
 47
0.01
 48
0.01
140
1.0107827297
141
0.09
142
0.0
143
25.4
144
1.0
145
0.0
146
1.0
147
0.625
 71
1
 72
0
 73
0
 74
0
 75
0
 76
0
 77
1
 78
8
 79
2
170
0
171
1
172
0
173
0
174
0
175
0
176
0
177
0
178
0
270
2
179
2
271
2
272
2
273
2
274
2
275
0
280
0
281
0
282
0
283
1
284
8
285
0
286
0
287
3
288
0
340
11
278
46
341
212
342
212
343
212
344
212
  0
ENDTAB
  0
ENDSEC
  0
SECTION
  2
BLOCKS
  0
BLOCK
  5
20
100
AcDbEntity
  8
0
100
AcDbBlockBegin
  2
*Model_Space
 70
0
 10
0.0
 20
0.0
 30
0.0
  3
*Model_Space
  1

  0
ENDBLK
  5
21
100
AcDbEntity
  8
0
100
AcDbBlockEnd
  0
BLOCK
  5
1C
100
AcDbEntity
  8
0
100
AcDbBlockBegin
  2
*Paper_Space
 70
0
 10
0.0
 20
0.0
 30
0.0
  3
*Paper_Space
  1

  0
ENDBLK
  5
1D
100
AcDbEntity
  8
0
100
AcDbBlockEnd
  0
BLOCK
  5
214
100
AcDbEntity
  8
0
100
AcDbBlockBegin
  2
_FILLED
 70
64
 10
0.0
 20
0.0
  3
_FILLED
  1

  0
SOLID
  5
215
100
AcDbEntity
  8
0
  6
BYBLOCK
 62
0
100
AcDbTrace
 10
0.0
 20
0.0
 11
-1.0
 21
0.25
 12
-1.0
 22
-0.25
 13
-1.0
 23
-0.25
  0
ENDBLK
  5
216
100
AcDbEntity
  8
0
  6
BYBLOCK
 62
0
100
AcDbBlockEnd
  0
ENDSEC
  0
SECTION
  2
ENTITIES
  0
LINE
  5
217
100
AcDbEntity
  8
0
100
AcDbLine
 62
7
  6
BYLAYER
 10
21.8849967952
 20
11.5759830312
 11
15.5210622603
 21
14.5495649754
  0
LINE
  5
218
100
AcDbEntity
  8
0
100
AcDbLine
 62
7
  6
BYLAYER
 10
15.5210622603
 20
14.5495649754
 11
7.0357455585
 21
19.4484540296
  0
LINE
  5
219
100
AcDbEntity
  8
0
100
AcDbLine
 62
7
  6
BYLAYER
 10
22.1324831382
 20
16.2096317793
 11
23.4406252371
 21
16.0927788668
  0
LINE
  5
21A
100
AcDbEntity
  8
0
100
AcDbLine
 62
7
  6
BYLAYER
 10
23.4406252371
 20
16.0927788668
 11
22.1324831382
 21
16.8480179739
  0
LINE
  5
21B
100
AcDbEntity
  8
0
100
AcDbLine
 62
7
  6
BYLAYER
 10
7.0357455585
 20
50.5000409531
 11
7.0357455585
 21
19.4484540296
  0
LINE
  5
21C
100
AcDbEntity
  8
0
100
AcDbLine
 62
7
  6
BYLAYER
 10
7.5082939166
 20
52.0302327103
 11
7.0357455585
 21
50.5000409531
  0
LINE
  5
21D
100
AcDbEntity
  8
0
100
AcDbLine
 62
7
  6
BYLAYER
 10
12.3390243376
 20
59.9536363796
 11
10.6298646873
 21
57.1502586986
  0
LINE
  5
21E
100
AcDbEntity
  8
0
100
AcDbLine
 62
7
  6
BYLAYER
 10
37.370500175
 20
74.4054794267
 11
29.5923579657
 21
69.9147937341
  0
LINE
  5
21F
100
AcDbEntity
  8
0
100
AcDbLine
 62
7
  6
BYLAYER
 10
20.117166547
 20
64.4443220722
 11
12.3390243376
 21
59.9536363796
  0
LINE
  5
220
100
AcDbEntity
  8
0
100
AcDbLine
 62
7
  6
BYLAYER
 10
7.6367888249
 20
27.9447621682
 11
14.9200189939
 21
23.7398823967
  0
LINE
  5
221
100
AcDbEntity
  8
0
100
AcDbLine
 62
7
  6
BYLAYER
 10
7.6367888249
 20
45.9690530264
 11
7.6367888249
 21
27.9447621682
  0
LINE
  5
222
100
AcDbEntity
  8
0
100
AcDbLine
 62
7
  6
BYLAYER
 10
12.0664966897
 20
56.1774335104
 11
9.0095938523
 21
51.1634763969
  0
LINE
  5
223
100
AcDbEntity
  8
0
100
AcDbLine
 62
7
  6
BYLAYER
 10
12.3743845342
 20
40.9087320298
 11
12.3743845342
 21
35.1932151099
  0
LINE
  5
224
100
AcDbEntity
  8
0
100
AcDbLine
 62
7
  6
BYLAYER
 10
12.4786832187
 20
36.5890955758
 11
12.4786832187
 21
40.8485165185
  0
LINE
  5
225
100
AcDbEntity
  8
0
100
AcDbLine
 62
7
  6
BYLAYER
 10
12.4786832187
 20
36.5890955758
 11
13.802746179
 21
34.3685687857
  0
LINE
  5
226
100
AcDbEntity
  8
0
100
AcDbLine
 62
7
  6
BYLAYER
 10
14.5098500163
 20
34.7768129396
 11
13.1857870559
 21
36.9973397297
  0
LINE
  5
227
100
AcDbEntity
  8
0
100
AcDbLine
 62
7
  6
BYLAYER
 10
13.1857870559
 20
40.5614657915
 11
13.1857870559
 21
36.9973397297
  0
LINE
  5
228
100
AcDbEntity
  8
0
100
AcDbLine
 62
7
  6
BYLAYER
 10
13.5411096928
 20
40.3563248123
 11
13.5411096928
 21
36.9691076076
  0
LINE
  5
229
100
AcDbEntity
  8
0
100
AcDbLine
 62
7
  6
BYLAYER
 10
14.9200189939
 20
41.7641732548
 11
14.9200189939
 21
23.7398823967
  0
LINE
  5
22A
100
AcDbEntity
  8
0
100
AcDbLine
 62
7
  6
BYLAYER
 10
28.8852541284
 20
61.0965746838
 11
27.4005225741
 21
60.2393696381
  0
LINE
  5
22B
100
AcDbEntity
  8
0
100
AcDbLine
 62
7
  6
BYLAYER
 10
28.3197652168
 20
59.7086566572
 11
29.8044967711
 21
60.5658617029
  0
LINE
  5
22C
100
AcDbEntity
  8
0
100
AcDbLine
 62
7
  6
BYLAYER
 10
45.8558168768
 20
69.5065903724
 11
38.0776746674
 21
65.0159046798
  0
LINE
  5
22D
100
AcDbEntity
  8
0
100
AcDbLine
 62
7
  6
BYLAYER
 10
28.6024832488
 20
59.545433018
 11
20.8243410394
 21
55.0547473254
  0
LINE
  5
22E
100
AcDbEntity
  8
0
100
AcDbLine
 62
7
  6
BYLAYER
 10
12.3743845342
 20
35.1932151099
 11
14.9200189939
 21
33.7235256181
  0
LINE
  5
22F
100
AcDbEntity
  8
0
100
AcDbLine
 62
7
  6
BYLAYER
 10
13.5411096928
 20
36.9691076076
 11
14.6548075099
 21
35.1013747935
  0
LINE
  5
230
100
AcDbEntity
  8
0
100
AcDbLine
 62
7
  6
BYLAYER
 10
15.5210622603
 20
45.6011518988
 11
15.5210622603
 21
14.5495649754
  0
LINE
  5
231
100
AcDbEntity
  8
0
100
AcDbLine
 62
7
  6
BYLAYER
 10
15.5210622603
 20
45.6011518988
 11
15.9936106184
 21
47.131343656
  0
LINE
  5
232
100
AcDbEntity
  8
0
100
AcDbLine
 62
7
  6
BYLAYER
 10
19.115181389
 20
52.2513696444
 11
20.8243410394
 21
55.0547473254
  0
LINE
  5
233
100
AcDbEntity
  8
0
100
AcDbLine
 62
7
  6
BYLAYER
 10
17.4302426208
 20
46.1585184678
 11
20.5518133914
 21
51.2785444562
  0
LINE
  5
234
100
AcDbEntity
  8
0
100
AcDbLine
 62
7
  6
BYLAYER
 10
14.5098500163
 20
34.7768129396
 11
14.9200189939
 21
34.5400071272
  0
LINE
  5
235
100
AcDbEntity
  8
0
100
AcDbLine
 62
7
  6
BYLAYER
 10
14.9200189939
 20
34.9482583358
 11
14.6548075099
 21
35.1013747935
  0
LINE
  5
236
100
AcDbEntity
  8
0
100
AcDbLine
 62
7
  6
BYLAYER
 10
7.6367888249
 20
45.9690530264
 11
12.3743845342
 21
40.9087320298
  0
LINE
  5
237
100
AcDbEntity
  8
0
100
AcDbLine
 62
7
  6
BYLAYER
 10
12.4786832187
 20
40.8485165185
 11
12.2317580692
 21
41.1122622231
  0
LINE
  5
238
100
AcDbEntity
  8
0
100
AcDbLine
 62
7
  6
BYLAYER
 10
12.3743845342
 20
35.1932151099
 11
7.6367888249
 21
27.9447621682
  0
LINE
  5
239
100
AcDbEntity
  8
0
100
AcDbLine
 62
7
  6
BYLAYER
 10
29.309587086
 20
54.9728614572
 11
29.8044967711
 21
55.2585959916
  0
LINE
  5
23A
100
AcDbEntity
  8
0
100
AcDbLine
 62
7
  6
BYLAYER
 10
12.3743845342
 20
40.9087320298
 11
12.4786832187
 21
40.8485165185
  0
LINE
  5
23B
100
AcDbEntity
  8
0
100
AcDbLine
 62
7
  6
BYLAYER
 10
14.9200189939
 20
39.5602291662
 11
12.2317580692
 21
41.1122622231
  0
LINE
  5
23C
100
AcDbEntity
  8
0
100
AcDbLine
 62
7
  6
BYLAYER
 10
22.1324831382
 20
16.2096317793
 11
22.1324831382
 21
17.4343854049
  0
LINE
  5
23D
100
AcDbEntity
  8
0
100
AcDbLine
 62
7
  6
BYLAYER
 10
29.5923579657
 20
69.9147937341
 11
28.8852541284
 21
67.4652935374
  0
LINE
  5
23E
100
AcDbEntity
  8
0
100
AcDbLine
 62
7
  6
BYLAYER
 10
31.2894271939
 20
54.4012904071
 11
29.309587086
 21
53.2582360109
  0
LINE
  5
23F
100
AcDbEntity
  8
0
100
AcDbLine
 62
7
  6
BYLAYER
 10
31.2894271939
 20
53.5847879899
 11
29.5570771143
 21
52.5846211753
  0
LINE
  5
240
100
AcDbEntity
  8
0
100
AcDbLine
 62
7
  6
BYLAYER
 10
29.6277880868
 20
52.5437970999
 11
31.2894277827
 21
53.5031394991
  0
LINE
  5
241
100
AcDbEntity
  8
0
100
AcDbLine
 62
7
  6
BYLAYER
 10
36.8755940226
 20
56.4834541577
 11
29.309587086
 21
52.1152440908
  0
LINE
  5
242
100
AcDbEntity
  8
0
100
AcDbLine
 62
7
  6
BYLAYER
 10
37.3705708302
 20
56.1976856295
 11
29.309587086
 21
51.5437022754
  0
LINE
  5
243
100
AcDbEntity
  8
0
100
AcDbLine
 62
7
  6
BYLAYER
 10
7.6367888249
 20
45.9690530264
 11
14.9200189939
 21
41.7641732548
  0
LINE
  5
244
100
AcDbEntity
  8
0
100
AcDbLine
 62
7
  6
BYLAYER
 10
45.4669097663
 20
25.1909255628
 11
40.5170561556
 21
28.0486602268
  0
LINE
  5
245
100
AcDbEntity
  8
0
100
AcDbLine
 62
7
  6
BYLAYER
 10
23.4406252371
 20
14.4597740326
 11
23.4406252371
 21
16.0927788668
  0
LINE
  5
246
100
AcDbEntity
  8
0
100
AcDbLine
 62
7
  6
BYLAYER
 10
15.5210622603
 20
45.6011518988
 11
7.0357455585
 21
50.5000409531
  0
LINE
  5
247
100
AcDbEntity
  8
0
100
AcDbLine
 62
7
  6
BYLAYER
 10
42.201230596
 20
72.060089479
 11
42.0822565121
 21
71.8421467455
  0
LINE
  5
248
100
AcDbEntity
  8
0
100
AcDbLine
 62
7
  6
BYLAYER
 10
12.4786832187
 20
36.5890955758
 11
13.1857870559
 21
36.9973397297
  0
LINE
  5
249
100
AcDbEntity
  8
0
100
AcDbLine
 62
7
  6
BYLAYER
 10
14.9200189939
 20
37.7652165116
 11
13.5411096928
 21
36.9691076076
  0
LINE
  5
24A
100
AcDbEntity
  8
0
100
AcDbLine
 62
7
  6
BYLAYER
 10
15.9936106184
 20
47.131343656
 11
7.5082939166
 21
52.0302327103
  0
LINE
  5
24B
100
AcDbEntity
  8
0
100
AcDbLine
 62
7
  6
BYLAYER
 10
15.9936106184
 20
47.131343656
 11
17.4302426208
 21
46.1585184678
  0
LINE
  5
24C
100
AcDbEntity
  8
0
100
AcDbLine
 62
7
  6
BYLAYER
 10
28.8852541284
 20
67.4652935374
 11
28.8852541284
 21
61.0965746838
  0
LINE
  5
24D
100
AcDbEntity
  8
0
100
AcDbLine
 62
7
  6
BYLAYER
 10
29.309587086
 20
51.5437022754
 11
29.309587086
 21
57.912421129
  0
LINE
  5
24E
100
AcDbEntity
  8
0
100
AcDbLine
 62
7
  6
BYLAYER
 10
29.6631390046
 20
34.2746726258
 11
29.6631390046
 21
40.6433914794
  0
LINE
  5
24F
100
AcDbEntity
  8
0
100
AcDbLine
 62
7
  6
BYLAYER
 10
29.8044967711
 20
55.2585959916
 11
29.8044967711
 21
60.5658617029
  0
LINE
  5
250
100
AcDbEntity
  8
0
100
AcDbLine
 62
7
  6
BYLAYER
 10
14.6548075099
 20
35.1013747935
 11
14.9200189939
 21
35.2544938012
  0
LINE
  5
251
100
AcDbEntity
  8
0
100
AcDbLine
 62
7
  6
BYLAYER
 10
13.802746179
 20
34.3685687857
 11
14.5098500163
 21
34.7768129396
  0
LINE
  5
252
100
AcDbEntity
  8
0
100
AcDbLine
 62
7
  6
BYLAYER
 10
52.0783306443
 20
30.9676142026
 11
50.1503925846
 21
32.0806845793
  0
LINE
  5
253
100
AcDbEntity
  8
0
100
AcDbLine
 62
7
  6
BYLAYER
 10
31.2894271939
 20
54.4012904071
 11
31.2894271939
 21
53.5847879899
  0
LINE
  5
254
100
AcDbEntity
  8
0
100
AcDbLine
 62
7
  6
BYLAYER
 10
31.2894277827
 20
53.258298827
 11
31.2894277827
 21
53.5031394991
  0
LINE
  5
255
100
AcDbEntity
  8
0
100
AcDbLine
 62
7
  6
BYLAYER
 10
37.3705708302
 20
62.5664044831
 11
38.0776746674
 21
65.0159046798
  0
LINE
  5
256
100
AcDbEntity
  8
0
100
AcDbLine
 62
7
  6
BYLAYER
 10
47.5649765271
 20
68.6767684793
 11
46.1283445247
 21
66.0450734467
  0
LINE
  5
257
100
AcDbEntity
  8
0
100
AcDbLine
 62
7
  6
BYLAYER
 10
29.6631390046
 20
40.6433914794
 11
38.5019369697
 21
45.7464434028
  0
LINE
  5
258
100
AcDbEntity
  8
0
100
AcDbLine
 62
7
  6
BYLAYER
 10
37.299850437
 20
40.0717338318
 11
38.5019369697
 21
39.3777245492
  0
LINE
  5
259
100
AcDbEntity
  8
0
100
AcDbLine
 62
7
  6
BYLAYER
 10
36.592743067
 20
41.0515332818
 11
37.0170089021
 21
40.8065888291
  0
LINE
  5
25A
100
AcDbEntity
  8
0
100
AcDbLine
 62
7
  6
BYLAYER
 10
20.5518133914
 20
51.2785444562
 11
12.0664966897
 21
56.1774335104
  0
LINE
  5
25B
100
AcDbEntity
  8
0
100
AcDbLine
 62
7
  6
BYLAYER
 10
19.115181389
 20
52.2513696444
 11
10.6298646873
 21
57.1502586986
  0
LINE
  5
25C
100
AcDbEntity
  8
0
100
AcDbLine
 62
7
  6
BYLAYER
 10
10.6298646873
 20
57.1502586986
 11
12.0664966897
 21
56.1774335104
  0
LINE
  5
25D
100
AcDbEntity
  8
0
100
AcDbLine
 62
7
  6
BYLAYER
 10
20.5518133914
 20
51.2785444562
 11
19.115181389
 21
52.2513696444
  0
LINE
  5
25E
100
AcDbEntity
  8
0
100
AcDbLine
 62
7
  6
BYLAYER
 10
37.0170089021
 20
40.8065888291
 11
37.299850437
 21
40.9698864907
  0
LINE
  5
25F
100
AcDbEntity
  8
0
100
AcDbLine
 62
7
  6
BYLAYER
 10
36.592743067
 20
40.153380623
 11
29.6631390046
 21
36.1525957336
  0
LINE
  5
260
100
AcDbEntity
  8
0
100
AcDbLine
 62
7
  6
BYLAYER
 10
53.3511175512
 20
34.6418623812
 11
49.4488467337
 21
36.8947885202
  0
LINE
  5
261
100
AcDbEntity
  8
0
100
AcDbLine
 62
7
  6
BYLAYER
 10
54.5531940745
 20
35.3358774428
 11
49.6740526582
 21
38.1527873259
  0
LINE
  5
262
100
AcDbEntity
  8
0
100
AcDbLine
 62
7
  6
BYLAYER
 10
20.8243410394
 20
55.0547473254
 11
12.3390243376
 21
59.9536363796
  0
LINE
  5
263
100
AcDbEntity
  8
0
100
AcDbLine
 62
7
  6
BYLAYER
 10
28.6024832488
 20
59.545433018
 11
29.309587086
 21
57.912421129
  0
LINE
  5
264
100
AcDbEntity
  8
0
100
AcDbLine
 62
7
  6
BYLAYER
 10
36.592743067
 20
40.153380623
 11
36.592743067
 21
44.6441763687
  0
LINE
  5
265
100
AcDbEntity
  8
0
100
AcDbLine
 62
7
  6
BYLAYER
 10
37.0170089021
 20
44.8891249007
 11
37.0170089021
 21
40.8065888291
  0
LINE
  5
266
100
AcDbEntity
  8
0
100
AcDbLine
 62
7
  6
BYLAYER
 10
37.299850437
 20
45.0524225622
 11
37.299850437
 21
40.0717338318
  0
LINE
  5
267
100
AcDbEntity
  8
0
100
AcDbLine
 62
7
  6
BYLAYER
 10
37.3705708302
 20
62.5664044831
 11
37.3705708302
 21
56.1976856295
  0
LINE
  5
268
100
AcDbEntity
  8
0
100
AcDbLine
 62
7
  6
BYLAYER
 10
38.5019369697
 20
45.7464434028
 11
38.5019369697
 21
39.3777245492
  0
LINE
  5
269
100
AcDbEntity
  8
0
100
AcDbLine
 62
7
  6
BYLAYER
 10
23.4406252371
 20
14.4597740326
 11
21.8849967952
 21
11.5759830312
  0
LINE
  5
26A
100
AcDbEntity
  8
0
100
AcDbLine
 62
7
  6
BYLAYER
 10
49.2499152954
 20
64.5295053921
 11
50.6865472978
 21
67.1612004247
  0
LINE
  5
26B
100
AcDbEntity
  8
0
100
AcDbLine
 62
7
  6
BYLAYER
 10
38.5019369697
 20
39.3777245492
 11
29.6631390046
 21
34.2746726258
  0
LINE
  5
26C
100
AcDbEntity
  8
0
100
AcDbLine
 62
7
  6
BYLAYER
 10
29.4862774414
 20
52.2172557062
 11
29.309587086
 21
52.3192656227
  0
LINE
  5
26D
100
AcDbEntity
  8
0
100
AcDbLine
 62
7
  6
BYLAYER
 10
29.309587086
 20
52.7275063773
 11
29.8398293601
 21
52.4213777832
  0
LINE
  5
26E
100
AcDbEntity
  8
0
100
AcDbLine
 62
7
  6
BYLAYER
 10
31.501469056
 20
53.3807201824
 11
31.2894277827
 21
53.5031394991
  0
LINE
  5
26F
100
AcDbEntity
  8
0
100
AcDbLine
 62
7
  6
BYLAYER
 10
31.5721794397
 20
53.4215445978
 11
31.2894271939
 21
53.5847879899
  0
LINE
  5
270
100
AcDbEntity
  8
0
100
AcDbLine
 62
7
  6
BYLAYER
 10
31.2894271939
 20
54.4012904071
 11
29.8044967711
 21
55.2585959916
  0
LINE
  5
271
100
AcDbEntity
  8
0
100
AcDbLine
 62
7
  6
BYLAYER
 10
28.6024832488
 20
59.545433018
 11
20.117166547
 21
64.4443220722
  0
LINE
  5
272
100
AcDbEntity
  8
0
100
AcDbLine
 62
7
  6
BYLAYER
 10
45.4669097663
 20
30.9064424827
 11
45.4669097663
 21
25.1909255628
  0
LINE
  5
273
100
AcDbEntity
  8
0
100
AcDbLine
 62
7
  6
BYLAYER
 10
49.2499152954
 20
37.907912967
 11
50.6641229698
 21
38.7244012747
  0
LINE
  5
274
100
AcDbEntity
  8
0
100
AcDbLine
 62
7
  6
BYLAYER
 10
37.3705708302
 20
56.1976856295
 11
36.8755940226
 21
56.4834541577
  0
LINE
  5
275
100
AcDbEntity
  8
0
100
AcDbLine
 62
7
  6
BYLAYER
 10
29.8044967711
 20
60.5658617029
 11
28.8852541284
 21
61.0965746838
  0
LINE
  5
276
100
AcDbEntity
  8
0
100
AcDbLine
 62
7
  6
BYLAYER
 10
22.1324831382
 20
17.4343854049
 11
45.4669097663
 21
30.9064424827
  0
LINE
  5
277
100
AcDbEntity
  8
0
100
AcDbLine
 62
7
  6
BYLAYER
 10
54.5531940745
 20
35.3358774428
 11
53.3511175512
 21
34.6418623812
  0
LINE
  5
278
100
AcDbEntity
  8
0
100
AcDbLine
 62
7
  6
BYLAYER
 10
52.0783306443
 20
43.6234016681
 11
52.0783306443
 21
66.4854693477
  0
LINE
  5
279
100
AcDbEntity
  8
0
100
AcDbLine
 62
7
  6
BYLAYER
 10
52.0783306443
 20
43.6234016681
 11
50.6641229698
 21
38.7244012747
  0
LINE
  5
27A
100
AcDbEntity
  8
0
100
AcDbLine
 62
7
  6
BYLAYER
 10
52.0783306443
 20
30.9676142026
 11
50.3105710512
 21
29.9470038179
  0
LINE
  5
27B
100
AcDbEntity
  8
0
100
AcDbLine
 62
7
  6
BYLAYER
 10
37.3705708302
 20
62.5664044831
 11
28.8852541284
 21
67.4652935374
  0
LINE
  5
27C
100
AcDbEntity
  8
0
100
AcDbLine
 62
7
  6
BYLAYER
 10
54.5531940745
 20
30.4368629401
 11
54.5531940745
 21
35.3358774428
  0
LINE
  5
27D
100
AcDbEntity
  8
0
100
AcDbLine
 62
7
  6
BYLAYER
 10
45.4669097663
 20
25.1909255628
 11
54.5531940745
 21
30.4368629401
  0
LINE
  5
27E
100
AcDbEntity
  8
0
100
AcDbLine
 62
7
  6
BYLAYER
 10
38.0776746674
 20
65.0159046798
 11
29.5923579657
 21
69.9147937341
  0
LINE
  5
27F
100
AcDbEntity
  8
0
100
AcDbLine
 62
7
  6
BYLAYER
 10
52.0783306443
 20
30.9676142026
 11
53.3511175512
 21
34.6418623812
  0
LINE
  5
280
100
AcDbEntity
  8
0
100
AcDbLine
 62
7
  6
BYLAYER
 10
46.1283445247
 20
66.0450734467
 11
49.2499152954
 21
64.5295053921
  0
LINE
  5
281
100
AcDbEntity
  8
0
100
AcDbLine
 62
7
  6
BYLAYER
 10
49.2499152954
 20
64.529505392
 11
46.2524579408
 21
66.2600490525
  0
LINE
  5
282
100
AcDbEntity
  8
0
100
AcDbLine
 62
7
  6
BYLAYER
 10
45.8558168768
 20
69.5065903724
 11
47.5649765271
 21
68.6767684793
  0
LINE
  5
283
100
AcDbEntity
  8
0
100
AcDbLine
 62
7
  6
BYLAYER
 10
50.6865472978
 20
67.1612004247
 11
52.0783306443
 21
66.4854693477
  0
LINE
  5
284
100
AcDbEntity
  8
0
100
AcDbLine
 62
7
  6
BYLAYER
 10
43.5930139425
 20
71.384358402
 11
42.201230596
 21
72.060089479
  0
LINE
  5
285
100
AcDbEntity
  8
0
100
AcDbLine
 62
7
  6
BYLAYER
 10
39.0796598254
 20
73.5756575336
 11
37.370500175
 21
74.4054794267
  0
LINE
  5
286
100
AcDbEntity
  8
0
100
AcDbLine
 62
7
  6
BYLAYER
 10
45.8558168768
 20
69.5065903724
 11
37.370500175
 21
74.4054794267
  0
LINE
  5
287
100
AcDbEntity
  8
0
100
AcDbLine
 62
7
  6
BYLAYER
 10
47.5649765271
 20
68.6767684793
 11
39.0796598254
 21
73.5756575336
  0
LINE
  5
288
100
AcDbEntity
  8
0
100
AcDbLine
 62
7
  6
BYLAYER
 10
50.6865472978
 20
67.1612004247
 11
42.201230596
 21
72.060089479
  0
LINE
  5
289
100
AcDbEntity
  8
0
100
AcDbLine
 62
7
  6
BYLAYER
 10
52.0783306443
 20
66.4854693477
 11
43.5930139425
 21
71.384358402
  0
SPLINE
  5
28A
100
AcDbEntity
  8
0
100
AcDbSpline
 62
7
  6
BYLAYER
 70
0
 71
3
 72
22
 73
18
 74
0
 42
0.0000001
 43
0.0000001
 44
0.0000000001
 40
0.0
 40
0.0
 40
0.0
 40
0.0
 40
0.0428172557
 40
0.0874043966
 40
0.1351937451
 40
0.1871084902
 40
0.2435630966
 40
0.3045288646
 40
0.3696341758
 40
0.4382520021
 40
0.5095591902
 40
0.5826037103
 40
0.7296226254
 40
0.8016209794
 40
0.871228373
 40
0.9376186325
 40
1.0
 40
1.0
 40
1.0
 40
1.0
 10
16.3015342493
 20
60.1577749435
 30
0.0
 10
16.3015349561
 20
60.065260816
 30
0.0
 10
16.3262572806
 20
59.8756034054
 30
0.0
 10
16.4350279601
 20
59.6017491746
 30
0.0
 10
16.6115468244
 20
59.3421548622
 30
0.0
 10
16.8507489915
 20
59.1019031196
 30
0.0
 10
17.147187831
 20
58.8853028778
 30
0.0
 10
17.4945178574
 20
58.6964082167
 30
0.0
 10
17.8854564913
 20
58.5388845508
 30
0.0
 10
18.3118028405
 20
58.4160218787
 30
0.0
 10
18.7645904792
 20
58.3303315174
 30
0.0
 10
19.3916254521
 20
58.2679834455
 30
0.0
 10
20.0261261139
 20
58.2855054218
 30
0.0
 10
20.6426795086
 20
58.3831812396
 30
0.0
 10
21.0789852615
 20
58.4939284734
 30
0.0
 10
21.4826156734
 20
58.6402558898
 30
0.0
 10
21.7328905451
 20
58.7635998962
 30
0.0
 10
21.8496186404
 20
58.8309924912
 30
0.0
  0
SPLINE
  5
28B
100
AcDbEntity
  8
0
100
AcDbSpline
 62
7
  6
BYLAYER
 70
0
 71
3
 72
22
 73
18
 74
0
 42
0.0000001
 43
0.0000001
 44
0.0000000001
 40
0.0
 40
0.0
 40
0.0
 40
0.0
 40
0.0428172557
 40
0.0874043966
 40
0.1351937451
 40
0.1871084902
 40
0.2435630966
 40
0.3045288646
 40
0.3696341758
 40
0.4382520021
 40
0.5095591902
 40
0.5826037103
 40
0.7296226254
 40
0.8016209794
 40
0.871228373
 40
0.9376186325
 40
1.0
 40
1.0
 40
1.0
 40
1.0
 10
33.7669990285
 20
70.2414055441
 30
0.0
 10
33.7669997353
 20
70.1488914167
 30
0.0
 10
33.7917220598
 20
69.959234006
 30
0.0
 10
33.9004927393
 20
69.6853797753
 30
0.0
 10
34.0770116036
 20
69.4257854628
 30
0.0
 10
34.3162137707
 20
69.1855337202
 30
0.0
 10
34.6126526102
 20
68.9689334784
 30
0.0
 10
34.9599826366
 20
68.7800388174
 30
0.0
 10
35.3509212705
 20
68.6225151514
 30
0.0
 10
35.7772676197
 20
68.4996524793
 30
0.0
 10
36.2300552584
 20
68.4139621181
 30
0.0
 10
36.8570902313
 20
68.3516140462
 30
0.0
 10
37.4915908931
 20
68.3691360224
 30
0.0
 10
38.1081442878
 20
68.4668118402
 30
0.0
 10
38.5444500407
 20
68.577559074
 30
0.0
 10
38.9480804526
 20
68.7238864904
 30
0.0
 10
39.1983553243
 20
68.8472304969
 30
0.0
 10
39.3150834196
 20
68.9146230918
 30
0.0
  0
SPLINE
  5
28C
100
AcDbEntity
  8
0
100
AcDbSpline
 62
7
  6
BYLAYER
 70
0
 71
3
 72
9
 73
5
 74
0
 42
0.0000001
 43
0.0000001
 44
0.0000000001
 40
0.0
 40
0.0
 40
0.0
 40
0.0
 40
0.4876671753
 40
1.0
 40
1.0
 40
1.0
 40
1.0
 10
49.2499152954
 20
37.907912967
 30
0.0
 10
49.542991464
 20
36.6343757878
 30
0.0
 10
50.0124773885
 20
33.9914743628
 30
0.0
 10
50.2453567129
 20
31.3183764088
 30
0.0
 10
50.3105710512
 20
29.9470038179
 30
0.0
  0
SPLINE
  5
28D
100
AcDbEntity
  8
0
100
AcDbSpline
 62
7
  6
BYLAYER
 70
0
 71
3
 72
14
 73
10
 74
0
 42
0.0000001
 43
0.0000001
 44
0.0000000001
 40
0.0
 40
0.0
 40
0.0
 40
0.0
 40
0.2892474192
 40
0.4225699703
 40
0.5485178763
 40
0.6678936333
 40
0.7818670822
 40
0.8919561178
 40
1.0
 40
1.0
 40
1.0
 40
1.0
 10
21.8496186404
 20
58.8309924912
 30
0.0
 10
21.9922605042
 20
58.9133463181
 30
0.0
 10
22.1920403032
 20
59.0509278208
 30
0.0
 10
22.4181028
 20
59.2672373118
 30
0.0
 10
22.5556772652
 20
59.4340051173
 30
0.0
 10
22.6644052703
 20
59.608085928
 30
0.0
 10
22.7430919046
 20
59.7879618214
 30
0.0
 10
22.7908399867
 20
59.9717829072
 30
0.0
 10
22.8014902881
 20
60.0962506814
 30
0.0
 10
22.8014898181
 20
60.1577749434
 30
0.0
  0
SPLINE
  5
28E
100
AcDbEntity
  8
0
100
AcDbSpline
 62
7
  6
BYLAYER
 70
0
 71
3
 72
14
 73
10
 74
0
 42
0.0000001
 43
0.0000001
 44
0.0000000001
 40
0.0
 40
0.0
 40
0.0
 40
0.0
 40
0.2892474192
 40
0.4225699703
 40
0.5485178763
 40
0.6678936333
 40
0.7818670822
 40
0.8919561178
 40
1.0
 40
1.0
 40
1.0
 40
1.0
 10
39.3150834196
 20
68.9146230918
 30
0.0
 10
39.4577252833
 20
68.9969769187
 30
0.0
 10
39.6575050824
 20
69.1345584214
 30
0.0
 10
39.8835675792
 20
69.3508679125
 30
0.0
 10
40.0211420444
 20
69.5176357179
 30
0.0
 10
40.1298700495
 20
69.6917165286
 30
0.0
 10
40.2085566838
 20
69.871592422
 30
0.0
 10
40.2563047659
 20
70.0554135079
 30
0.0
 10
40.2669550673
 20
70.179881282
 30
0.0
 10
40.2669545972
 20
70.241405544
 30
0.0
  0
SPLINE
  5
28F
100
AcDbEntity
  8
0
100
AcDbSpline
 62
7
  6
BYLAYER
 70
0
 71
3
 72
22
 73
18
 74
0
 42
0.0000001
 43
0.0000001
 44
0.0000000001
 40
0.0
 40
0.0
 40
0.0
 40
0.0
 40
0.0428172557
 40
0.0874043966
 40
0.1351937451
 40
0.1871084902
 40
0.2435630966
 40
0.3045288646
 40
0.3696341758
 40
0.4382520021
 40
0.5095591902
 40
0.5826037103
 40
0.7296226254
 40
0.8016209794
 40
0.871228373
 40
0.9376186325
 40
1.0
 40
1.0
 40
1.0
 40
1.0
 10
22.8014898181
 20
60.1577749434
 30
0.0
 10
22.8014891113
 20
60.2502890708
 30
0.0
 10
22.7767667868
 20
60.4399464814
 30
0.0
 10
22.6679961073
 20
60.7138007122
 30
0.0
 10
22.491477243
 20
60.9733950246
 30
0.0
 10
22.2522750759
 20
61.2136467673
 30
0.0
 10
21.9558362364
 20
61.430247009
 30
0.0
 10
21.60850621
 20
61.6191416701
 30
0.0
 10
21.2175675761
 20
61.776665336
 30
0.0
 10
20.7912212269
 20
61.8995280082
 30
0.0
 10
20.3384335882
 20
61.9852183694
 30
0.0
 10
19.7113986152
 20
62.0475664413
 30
0.0
 10
19.0768979535
 20
62.030044465
 30
0.0
 10
18.4603445588
 20
61.9323686472
 30
0.0
 10
18.0240388059
 20
61.8216214134
 30
0.0
 10
17.620408394
 20
61.675293997
 30
0.0
 10
17.3701335223
 20
61.5519499906
 30
0.0
 10
17.253405427
 20
61.4845573956
 30
0.0
  0
SPLINE
  5
290
100
AcDbEntity
  8
0
100
AcDbSpline
 62
7
  6
BYLAYER
 70
0
 71
3
 72
10
 73
6
 74
0
 42
0.0000001
 43
0.0000001
 44
0.0000000001
 40
0.0
 40
0.0
 40
0.0
 40
0.0
 40
0.4999337095
 40
0.7521418863
 40
1.0
 40
1.0
 40
1.0
 40
1.0
 10
18.5420820238
 20
58.4303708042
 30
0.0
 10
18.8782475435
 20
58.4937625957
 30
0.0
 10
19.3949551353
 20
58.5391734696
 30
0.0
 10
20.0789652184
 20
58.5063159687
 30
0.0
 10
20.4184151536
 20
58.4580238929
 30
0.0
 10
20.5849254446
 20
58.4257868099
 30
0.0
  0
SPLINE
  5
291
100
AcDbEntity
  8
0
100
AcDbSpline
 62
7
  6
BYLAYER
 70
0
 71
3
 72
14
 73
10
 74
0
 42
0.0000001
 43
0.0000001
 44
0.0000000001
 40
0.0
 40
0.0
 40
0.0
 40
0.0
 40
0.2892474192
 40
0.4225699703
 40
0.5485178763
 40
0.6678936333
 40
0.7818670822
 40
0.8919561178
 40
1.0
 40
1.0
 40
1.0
 40
1.0
 10
17.253405427
 20
61.4845573956
 30
0.0
 10
17.1107635632
 20
61.4022035688
 30
0.0
 10
16.9109837642
 20
61.2646220661
 30
0.0
 10
16.6849212674
 20
61.048312575
 30
0.0
 10
16.5473468022
 20
60.8815447695
 30
0.0
 10
16.4386187971
 20
60.7074639589
 30
0.0
 10
16.3599321628
 20
60.5275880654
 30
0.0
 10
16.3121840807
 20
60.3437669796
 30
0.0
 10
16.3015337793
 20
60.2192992054
 30
0.0
 10
16.3015342493
 20
60.1577749435
 30
0.0
  0
SPLINE
  5
292
100
AcDbEntity
  8
0
100
AcDbSpline
 62
7
  6
BYLAYER
 70
0
 71
3
 72
14
 73
10
 74
0
 42
0.0000001
 43
0.0000001
 44
0.0000000001
 40
0.0
 40
0.0
 40
0.0
 40
0.0
 40
0.2892474192
 40
0.4225699703
 40
0.5485178763
 40
0.6678936333
 40
0.7818670822
 40
0.8919561178
 40
1.0
 40
1.0
 40
1.0
 40
1.0
 10
34.7188702061
 20
71.5681879962
 30
0.0
 10
34.5762283424
 20
71.4858341694
 30
0.0
 10
34.3764485434
 20
71.3482526667
 30
0.0
 10
34.1503860465
 20
71.1319431756
 30
0.0
 10
34.0128115813
 20
70.9651753702
 30
0.0
 10
33.9040835763
 20
70.7910945595
 30
0.0
 10
33.8253969419
 20
70.6112186661
 30
0.0
 10
33.7776488599
 20
70.4273975802
 30
0.0
 10
33.7669985585
 20
70.3029298061
 30
0.0
 10
33.7669990285
 20
70.2414055441
 30
0.0
  0
SPLINE
  5
293
100
AcDbEntity
  8
0
100
AcDbSpline
 62
7
  6
BYLAYER
 70
0
 71
3
 72
22
 73
18
 74
0
 42
0.0000001
 43
0.0000001
 44
0.0000000001
 40
0.0
 40
0.0
 40
0.0
 40
0.0
 40
0.0428172557
 40
0.0874043966
 40
0.1351937451
 40
0.1871084902
 40
0.2435630966
 40
0.3045288646
 40
0.3696341758
 40
0.4382520021
 40
0.5095591902
 40
0.5826037103
 40
0.7296226254
 40
0.8016209794
 40
0.871228373
 40
0.9376186325
 40
1.0
 40
1.0
 40
1.0
 40
1.0
 10
40.2669545972
 20
70.241405544
 30
0.0
 10
40.2669538905
 20
70.3339196714
 30
0.0
 10
40.242231566
 20
70.5235770821
 30
0.0
 10
40.1334608865
 20
70.7974313128
 30
0.0
 10
39.9569420221
 20
71.0570256253
 30
0.0
 10
39.7177398551
 20
71.2972773679
 30
0.0
 10
39.4213010156
 20
71.5138776097
 30
0.0
 10
39.0739709892
 20
71.7027722707
 30
0.0
 10
38.6830323553
 20
71.8602959367
 30
0.0
 10
38.2566860061
 20
71.9831586088
 30
0.0
 10
37.8038983673
 20
72.06884897
 30
0.0
 10
37.1768633944
 20
72.1311970419
 30
0.0
 10
36.5423627327
 20
72.1136750656
 30
0.0
 10
35.9258093379
 20
72.0159992478
 30
0.0
 10
35.4895035851
 20
71.9052520141
 30
0.0
 10
35.0858731732
 20
71.7589245976
 30
0.0
 10
34.8355983015
 20
71.6355805912
 30
0.0
 10
34.7188702061
 20
71.5681879962
 30
0.0
  0
SPLINE
  5
294
100
AcDbEntity
  8
0
100
AcDbSpline
 62
7
  6
BYLAYER
 70
0
 71
3
 72
10
 73
6
 74
0
 42
0.0000001
 43
0.0000001
 44
0.0000000001
 40
0.0
 40
0.0
 40
0.0
 40
0.0
 40
0.4999337095
 40
0.7521418863
 40
1.0
 40
1.0
 40
1.0
 40
1.0
 10
36.007546803
 20
68.5140014048
 30
0.0
 10
36.3437123227
 20
68.5773931963
 30
0.0
 10
36.8604199145
 20
68.6228040703
 30
0.0
 10
37.5444299976
 20
68.5899465693
 30
0.0
 10
37.8838799328
 20
68.5416544935
 30
0.0
 10
38.0503902238
 20
68.5094174106
 30
0.0
  0
ENDSEC
  0
SECTION
  2
OBJECTS
  0
DICTIONARY
  5
C
100
AcDbDictionary
280
0
281
1
  3
ACAD_GROUP
350
D
  3
ACAD_MLINESTYLE
350
17
  3
ACAD_LAYOUT
350
1A
  3
ACAD_PLOTSETTINGS
350
19
  3
ACAD_PLOTSTYLENAME
350
E
  0
DICTIONARY
  5
D
102
{ACAD_REACTORS
330
C
102
}
100
AcDbDictionary
280
0
281
1
  0
ACDBDICTIONARYWDFLT
  5
E
102
{ACAD_REACTORS
330
C
102
}
100
AcDbDictionary
281
1
  3
Normal
350
F
100
AcDbDictionaryWithDefault
340
F
  0
DICTIONARY
  5
17
102
{ACAD_REACTORS
330
C
102
}
100
AcDbDictionary
280
0
281
1
  3
Standard
350
18
  0
DICTIONARY
  5
19
102
{ACAD_REACTORS
330
C
102
}
100
AcDbDictionary
281
1
  0
DICTIONARY
  5
1A
102
{ACAD_REACTORS
330
C
102
}
100
AcDbDictionary
281
1
  3
Model
350
295
  3
Layout1
350
296
  0
ACDBPLACEHOLDER
  5
F
102
{ACAD_REACTORS
330
E
102
}
  0
MLINESTYLE
  5
18
102
{ACAD_REACTORS
330
17
102
}
100
AcDbMlineStyle
  2
STANDARD
 70
0
  3

 62
256
 51
90.0
 52
90.0
 71
2
 49
0.5
 62
256
  6
BYLAYER
 49
-0.5
 62
256
  6
BYLAYER
  0
LAYOUT
  5
295
102
{ACAD_REACTORS
330
1A
102
}
100
AcDbPlotSettings
  1

  2
none_device
  4

  6

 40
0.0
 41
0.0
 42
0.0
 43
0.0
 44
210.0
 45
297.0
 46
0.0
 47
0.0
 48
0.0
 49
0.0
140
0.0
141
0.0
142
1.0
143
1.0
 70
1024
 72
1
 73
0
 74
0
  7

 75
0
147
1.0
148
0.0
149
0.0
100
AcDbLayout
  1
Model
 70
0
 71
0
 10
0.0
 20
0.0
 11
210.0
 21
297.0
 12
0.0
 22
0.0
 32
0.0
 14
0.0
 24
0.0
 34
0.0
 15
0.0
 25
0.0
 35
0.0
146
0.0
 13
0.0
 23
0.0
 33
0.0
 16
1.0
 26
0.0
 36
0.0
 17
0.0
 27
1.0
 37
0.0
 76
0
330
210
345
0
346
0
  0
LAYOUT
  5
296
102
{ACAD_REACTORS
330
1A
102
}
100
AcDbPlotSettings
  1

  2
none_device
  4

  6

 40
0.0
 41
0.0
 42
0.0
 43
0.0
 44
210.0
 45
297.0
 46
0.0
 47
0.0
 48
0.0
 49
0.0
140
0.0
141
0.0
142
1.0
143
1.0
 70
0
 72
1
 73
0
 74
0
  7

 75
0
147
1.0
148
0.0
149
0.0
100
AcDbLayout
  1
Layout1
 70
0
 71
1
 10
0.0
 20
0.0
 11
210.0
 21
297.0
 12
0.0
 22
0.0
 32
0.0
 14
0.0
 24
0.0
 34
0.0
 15
0.0
 25
0.0
 35
0.0
146
0.0
 13
0.0
 23
0.0
 33
0.0
 16
1.0
 26
0.0
 36
0.0
 17
0.0
 27
1.0
 37
0.0
 76
0
330
211
345
0
346
0
  0
ENDSEC
  0
EOF
