  0
SECTION
  2
HEADER
  9
$ACADVER
  1
AC1015
  9
$ACADMAINTVER
 70
    20
  9
$DWGCODEPAGE
  3
ANSI_1252
  9
$INSBASE
 10
0.0
 20
0.0
 30
0.0
  9
$EXTMIN
 10
0.0
 20
0.0
 30
0.0
  9
$EXTMAX
 10
8.5
 20
11.0
 30
0.0
  9
$LIMMIN
 10
0.0
 20
0.0
  9
$LIMMAX
 10
300.0
 20
225.0
  9
$ORTHOMODE
 70
     1
  9
$REGENMODE
 70
     0
  9
$FILLMODE
 70
     1
  9
$QTEXTMODE
 70
     0
  9
$MIRRTEXT
 70
     1
  9
$LTSCALE
 40
1.0
  9
$ATTMODE
 70
     1
  9
$TEXTSIZE
 40
0.14
  9
$TRACEWID
 40
0.05
  9
$TEXTSTYLE
  7
H
  9
$CLAYER
  8
SHADE
  9
$CELTYPE
  6
ByLayer
  9
$CECOLOR
 62
   256
  9
$CELTSCALE
 40
1.0
  9
$DISPSILH
 70
     0
  9
$DIMSCALE
 40
1.0
  9
$DIMASZ
 40
0.18
  9
$DIMEXO
 40
0.0625
  9
$DIMDLI
 40
0.38
  9
$DIMRND
 40
0.0
  9
$DIMDLE
 40
0.0
  9
$DIMEXE
 40
0.18
  9
$DIMTP
 40
0.0
  9
$DIMTM
 40
0.0
  9
$DIMTXT
 40
0.18
  9
$DIMCEN
 40
0.09
  9
$DIMTSZ
 40
0.0
  9
$DIMTOL
 70
     0
  9
$DIMLIM
 70
     0
  9
$DIMTIH
 70
     1
  9
$DIMTOH
 70
     1
  9
$DIMSE1
 70
     0
  9
$DIMSE2
 70
     0
  9
$DIMTAD
 70
     0
  9
$DIMZIN
 70
     0
  9
$DIMBLK
  1

  9
$DIMASO
 70
     1
  9
$DIMSHO
 70
     0
  9
$DIMPOST
  1

  9
$DIMAPOST
  1

  9
$DIMALT
 70
     0
  9
$DIMALTD
 70
     2
  9
$DIMALTF
 40
25.4
  9
$DIMLFAC
 40
1.0
  9
$DIMTOFL
 70
     0
  9
$DIMTVP
 40
0.0
  9
$DIMTIX
 70
     0
  9
$DIMSOXD
 70
     0
  9
$DIMSAH
 70
     0
  9
$DIMBLK1
  1

  9
$DIMBLK2
  1

  9
$DIMSTYLE
  2
Standard
  9
$DIMCLRD
 70
     0
  9
$DIMCLRE
 70
     0
  9
$DIMCLRT
 70
     0
  9
$DIMTFAC
 40
1.0
  9
$DIMGAP
 40
0.09
  9
$DIMJUST
 70
     0
  9
$DIMSD1
 70
     0
  9
$DIMSD2
 70
     0
  9
$DIMTOLJ
 70
     1
  9
$DIMTZIN
 70
     0
  9
$DIMALTZ
 70
     0
  9
$DIMALTTZ
 70
     0
  9
$DIMUPT
 70
     0
  9
$DIMDEC
 70
     4
  9
$DIMTDEC
 70
     4
  9
$DIMALTU
 70
     2
  9
$DIMALTTD
 70
     2
  9
$DIMTXSTY
  7
STANDARD
  9
$DIMAUNIT
 70
     0
  9
$DIMADEC
 70
     0
  9
$DIMALTRND
 40
0.0
  9
$DIMAZIN
 70
     0
  9
$DIMDSEP
 70
    46
  9
$DIMATFIT
 70
     3
  9
$DIMFRAC
 70
     0
  9
$DIMLDRBLK
  1

  9
$DIMLUNIT
 70
     2
  9
$DIMLWD
 70
    -2
  9
$DIMLWE
 70
    -2
  9
$DIMTMOVE
 70
     0
  9
$LUNITS
 70
     2
  9
$LUPREC
 70
     4
  9
$SKETCHINC
 40
0.1
  9
$FILLETRAD
 40
0.0
  9
$AUNITS
 70
     0
  9
$AUPREC
 70
     0
  9
$MENU
  1
NEWLABEL
  9
$ELEVATION
 40
0.0
  9
$PELEVATION
 40
0.0
  9
$THICKNESS
 40
0.0
  9
$LIMCHECK
 70
     0
  9
$CHAMFERA
 40
0.0
  9
$CHAMFERB
 40
0.0
  9
$CHAMFERC
 40
0.0
  9
$CHAMFERD
 40
0.0
  9
$SKPOLY
 70
     0
  9
$TDCREATE
 40
2451218.549012037
  9
$TDUCREATE
 40
2451218.757345371
  9
$TDUPDATE
 40
2455751.663227512
  9
$TDUUPDATE
 40
2455751.871560845
  9
$TDINDWG
 40
1.2577049769
  9
$TDUSRTIMER
 40
1.2577049769
  9
$USRTIMER
 70
     1
  9
$ANGBASE
 50
0.0
  9
$ANGDIR
 70
     0
  9
$PDMODE
 70
     0
  9
$PDSIZE
 40
0.0
  9
$PLINEWID
 40
0.0
  9
$SPLFRAME
 70
     0
  9
$SPLINETYPE
 70
     6
  9
$SPLINESEGS
 70
     8
  9
$HANDSEED
  5
323
  9
$SURFTAB1
 70
     6
  9
$SURFTAB2
 70
     6
  9
$SURFTYPE
 70
     6
  9
$SURFU
 70
     6
  9
$SURFV
 70
     6
  9
$UCSBASE
  2

  9
$UCSNAME
  2

  9
$UCSORG
 10
0.0
 20
0.0
 30
0.0
  9
$UCSXDIR
 10
1.0
 20
0.0
 30
0.0
  9
$UCSYDIR
 10
0.0
 20
1.0
 30
0.0
  9
$UCSORTHOREF
  2

  9
$UCSORTHOVIEW
 70
     0
  9
$UCSORGTOP
 10
0.0
 20
0.0
 30
0.0
  9
$UCSORGBOTTOM
 10
0.0
 20
0.0
 30
0.0
  9
$UCSORGLEFT
 10
0.0
 20
0.0
 30
0.0
  9
$UCSORGRIGHT
 10
0.0
 20
0.0
 30
0.0
  9
$UCSORGFRONT
 10
0.0
 20
0.0
 30
0.0
  9
$UCSORGBACK
 10
0.0
 20
0.0
 30
0.0
  9
$PUCSBASE
  2

  9
$PUCSNAME
  2

  9
$PUCSORG
 10
0.0
 20
0.0
 30
0.0
  9
$PUCSXDIR
 10
1.0
 20
0.0
 30
0.0
  9
$PUCSYDIR
 10
0.0
 20
1.0
 30
0.0
  9
$PUCSORTHOREF
  2

  9
$PUCSORTHOVIEW
 70
     0
  9
$PUCSORGTOP
 10
0.0
 20
0.0
 30
0.0
  9
$PUCSORGBOTTOM
 10
0.0
 20
0.0
 30
0.0
  9
$PUCSORGLEFT
 10
0.0
 20
0.0
 30
0.0
  9
$PUCSORGRIGHT
 10
0.0
 20
0.0
 30
0.0
  9
$PUCSORGFRONT
 10
0.0
 20
0.0
 30
0.0
  9
$PUCSORGBACK
 10
0.0
 20
0.0
 30
0.0
  9
$USERI1
 70
     0
  9
$USERI2
 70
     0
  9
$USERI3
 70
     0
  9
$USERI4
 70
     0
  9
$USERI5
 70
     0
  9
$USERR1
 40
0.0
  9
$USERR2
 40
0.0
  9
$USERR3
 40
0.0
  9
$USERR4
 40
0.0
  9
$USERR5
 40
0.0
  9
$WORLDVIEW
 70
     1
  9
$SHADEDGE
 70
     3
  9
$SHADEDIF
 70
    70
  9
$TILEMODE
 70
     0
  9
$MAXACTVP
 70
    16
  9
$PINSBASE
 10
0.0
 20
0.0
 30
0.0
  9
$PLIMCHECK
 70
     0
  9
$PEXTMIN
 10
1.074462919815516
 20
0.8243866185941577
 30
-0.0015258207003583
  9
$PEXTMAX
 10
9.675842310390251
 20
7.425109882402594
 30
0.0000000349246037
  9
$PLIMMIN
 10
-0.1249995194082185
 20
-0.1249999981226884
  9
$PLIMMAX
 10
10.87500024029589
 20
8.37499976158142
  9
$UNITMODE
 70
     0
  9
$VISRETAIN
 70
     0
  9
$PLINEGEN
 70
     0
  9
$PSLTSCALE
 70
     1
  9
$TREEDEPTH
 70
  3020
  9
$CMLSTYLE
  2
Standard
  9
$CMLJUST
 70
     0
  9
$CMLSCALE
 40
1.0
  9
$PROXYGRAPHICS
 70
     1
  9
$MEASUREMENT
 70
     0
  9
$CELWEIGHT
370
    -1
  9
$ENDCAPS
280
     0
  9
$JOINSTYLE
280
     0
  9
$LWDISPLAY
290
     0
  9
$INSUNITS
 70
     0
  9
$HYPERLINKBASE
  1

  9
$STYLESHEET
  1

  9
$XEDIT
290
     1
  9
$CEPSNTYPE
380
     0
  9
$PSTYLEMODE
290
     1
  9
$FINGERPRINTGUID
  2
{372EB575-B602-405D-AF15-FB003896F9CA}
  9
$VERSIONGUID
  2
{0146CD70-59D8-4BBA-960F-0F6CA4DE048C}
  9
$EXTNAMES
290
     1
  9
$PSVPSCALE
 40
0.0
  9
$OLESTARTUP
290
     0
  0
ENDSEC
  0
SECTION
  2
CLASSES
  0
CLASS
  1
ACDBDICTIONARYWDFLT
  2
AcDbDictionaryWithDefault
  3
ObjectDBX Classes
 90
        0
280
     0
281
     0
  0
CLASS
  1
MATERIAL
  2
AcDbMaterial
  3
ObjectDBX Classes
 90
     1153
280
     0
281
     0
  0
CLASS
  1
VISUALSTYLE
  2
AcDbVisualStyle
  3
ObjectDBX Classes
 90
     4095
280
     0
281
     0
  0
CLASS
  1
SCALE
  2
AcDbScale
  3
ObjectDBX Classes
 90
     1153
280
     0
281
     0
  0
CLASS
  1
TABLESTYLE
  2
AcDbTableStyle
  3
ObjectDBX Classes
 90
     4095
280
     0
281
     0
  0
CLASS
  1
MLEADERSTYLE
  2
AcDbMLeaderStyle
  3
ACDB_MLEADERSTYLE_CLASS
 90
     4095
280
     0
281
     0
  0
CLASS
  1
CELLSTYLEMAP
  2
AcDbCellStyleMap
  3
ObjectDBX Classes
 90
     1152
280
     0
281
     0
  0
CLASS
  1
DICTIONARYVAR
  2
AcDbDictionaryVar
  3
ObjectDBX Classes
 90
        0
280
     0
281
     0
  0
CLASS
  1
ACDBPLACEHOLDER
  2
AcDbPlaceHolder
  3
ObjectDBX Classes
 90
        0
280
     0
281
     0
  0
CLASS
  1
LAYOUT
  2
AcDbLayout
  3
ObjectDBX Classes
 90
        0
280
     0
281
     0
  0
ENDSEC
  0
SECTION
  2
TABLES
  0
TABLE
  2
VPORT
  5
8
330
0
100
AcDbSymbolTable
 70
     1
  0
VPORT
  5
7A
330
8
100
AcDbSymbolTableRecord
100
AcDbViewportTableRecord
  2
*ACTIVE
 70
     0
 10
0.0
 20
0.0
 11
1.0
 21
1.0
 12
12.13610038610039
 22
5.5
 13
0.0
 23
0.0
 14
1.0
 24
1.0
 15
0.0
 25
0.0
 16
0.0
 26
0.0
 36
1.0
 17
0.0
 27
0.0
 37
0.0
 40
11.0
 41
2.206563706563706
 42
50.0
 43
0.0
 44
0.0
 50
0.0
 51
0.0
 71
     0
 72
   100
 73
     1
 74
     1
 75
     0
 76
     0
 77
     0
 78
     0
281
     0
 65
     1
110
0.0
120
0.0
130
0.0
111
1.0
121
0.0
131
0.0
112
0.0
122
1.0
132
0.0
 79
     0
146
0.0
  0
ENDTAB
  0
TABLE
  2
LTYPE
  5
5
330
0
100
AcDbSymbolTable
 70
     1
  0
LTYPE
  5
62
330
5
100
AcDbSymbolTableRecord
100
AcDbLinetypeTableRecord
  2
ByBlock
 70
     0
  3

 72
    65
 73
     0
 40
0.0
  0
LTYPE
  5
63
330
5
100
AcDbSymbolTableRecord
100
AcDbLinetypeTableRecord
  2
ByLayer
 70
     0
  3

 72
    65
 73
     0
 40
0.0
  0
LTYPE
  5
64
330
5
100
AcDbSymbolTableRecord
100
AcDbLinetypeTableRecord
  2
CONTINUOUS
 70
     0
  3
Solid line
 72
    65
 73
     0
 40
0.0
  0
ENDTAB
  0
TABLE
  2
LAYER
  5
2
330
0
100
AcDbSymbolTable
 70
     5
  0
LAYER
  5
5C
102
{ACAD_XDICTIONARY
360
2DD
102
}
330
2
100
AcDbSymbolTableRecord
100
AcDbLayerTableRecord
  2
0
 70
     0
 62
     7
  6
CONTINUOUS
370
    -3
390
F
  0
LAYER
  5
78
102
{ACAD_XDICTIONARY
360
2DF
102
}
330
2
100
AcDbSymbolTableRecord
100
AcDbLayerTableRecord
  2
SHADE
 70
     0
 62
     2
  6
CONTINUOUS
370
    -3
390
F
  0
LAYER
  5
7B
102
{ACAD_XDICTIONARY
360
2E1
102
}
330
2
100
AcDbSymbolTableRecord
100
AcDbLayerTableRecord
  2
ASWINDOW
 70
     0
 62
    -7
  6
CONTINUOUS
370
    -3
390
F
  0
LAYER
  5
7C
102
{ACAD_XDICTIONARY
360
2E3
102
}
330
2
100
AcDbSymbolTableRecord
100
AcDbLayerTableRecord
  2
L1
 70
     0
 62
     1
  6
CONTINUOUS
370
    -3
390
F
  0
LAYER
  5
7D
102
{ACAD_XDICTIONARY
360
2E5
102
}
330
2
100
AcDbSymbolTableRecord
100
AcDbLayerTableRecord
  2
ASCRIPT
 70
     1
 62
     7
  6
CONTINUOUS
370
    -3
390
F
  0
ENDTAB
  0
TABLE
  2
STYLE
  5
3
330
0
100
AcDbSymbolTable
 70
     6
  0
STYLE
  5
5D
330
3
100
AcDbSymbolTableRecord
100
AcDbTextStyleTableRecord
  2
STANDARD
 70
     0
 40
0.0
 41
1.0
 50
0.0
 71
     0
 42
0.1
  3
TXT
  4

  0
STYLE
  5
79
330
3
100
AcDbSymbolTableRecord
100
AcDbTextStyleTableRecord
  2
H
 70
     0
 40
0.0
 41
1.0
 50
0.0
 71
     0
 42
0.14
  3
H.SHX
  4

  0
STYLE
  5
7E
330
3
100
AcDbSymbolTableRecord
100
AcDbTextStyleTableRecord
  2
ASCFG
 70
     0
 40
0.0
 41
1.0
 50
0.0
 71
     0
 42
0.0055
  3
ASCFG
  4

  0
ENDTAB
  0
TABLE
  2
VIEW
  5
6
330
0
100
AcDbSymbolTable
 70
     0
  0
ENDTAB
  0
TABLE
  2
UCS
  5
7
330
0
100
AcDbSymbolTable
 70
     0
  0
ENDTAB
  0
TABLE
  2
APPID
  5
9
330
0
100
AcDbSymbolTable
 70
     4
  0
APPID
  5
5E
330
9
100
AcDbSymbolTableRecord
100
AcDbRegAppTableRecord
  2
ACAD
 70
     0
  0
APPID
  5
65
330
9
100
AcDbSymbolTableRecord
100
AcDbRegAppTableRecord
  2
AcadAnnotative
 70
     0
  0
APPID
  5
6F
330
9
100
AcDbSymbolTableRecord
100
AcDbRegAppTableRecord
  2
ACAD_MLEADERVER
 70
     0
  0
APPID
  5
2D8
330
9
100
AcDbSymbolTableRecord
100
AcDbRegAppTableRecord
  2
ACAD_PSEXT
 70
     0
  0
ENDTAB
  0
TABLE
  2
DIMSTYLE
  5
A
330
0
100
AcDbSymbolTable
 70
     4
100
AcDbDimStyleTable
 71
     1
340
5F
  0
DIMSTYLE
105
5F
330
A
100
AcDbSymbolTableRecord
100
AcDbDimStyleTableRecord
  2
Standard
 70
     0
340
5D
  0
ENDTAB
  0
TABLE
  2
BLOCK_RECORD
  5
1
330
0
100
AcDbSymbolTable
 70
     5
  0
BLOCK_RECORD
  5
74
330
1
100
AcDbSymbolTableRecord
100
AcDbBlockTableRecord
  2
*Model_Space
340
77
  0
BLOCK_RECORD
  5
70
330
1
100
AcDbSymbolTableRecord
100
AcDbBlockTableRecord
  2
*Paper_Space
340
73
  0
BLOCK_RECORD
  5
81
330
1
100
AcDbSymbolTableRecord
100
AcDbBlockTableRecord
  2
BORDER
340
0
102
{BLKREFS
331
A2
102
}
  0
BLOCK_RECORD
  5
88
330
1
100
AcDbSymbolTableRecord
100
AcDbBlockTableRecord
  2
ASWINDOW
340
0
102
{BLKREFS
331
A3
102
}
  0
BLOCK_RECORD
  5
92
330
1
100
AcDbSymbolTableRecord
100
AcDbBlockTableRecord
  2
AS-CFG
340
0
102
{BLKREFS
331
161
102
}
  0
ENDTAB
  0
ENDSEC
  0
SECTION
  2
BLOCKS
  0
BLOCK
  5
75
330
74
100
AcDbEntity
  8
0
100
AcDbBlockBegin
  2
*Model_Space
 70
     0
 10
0.0
 20
0.0
 30
0.0
  3
*Model_Space
  1

  0
ENDBLK
  5
76
330
74
100
AcDbEntity
  8
0
100
AcDbBlockEnd
  0
BLOCK
  5
71
330
70
100
AcDbEntity
 67
     1
  8
0
100
AcDbBlockBegin
  2
*Paper_Space
 70
     0
 10
0.0
 20
0.0
 30
0.0
  3
*Paper_Space
  1

  0
ENDBLK
  5
72
330
70
100
AcDbEntity
 67
     1
  8
0
100
AcDbBlockEnd
  0
BLOCK
  5
82
330
81
100
AcDbEntity
  8
0
100
AcDbBlockBegin
  2
BORDER
 70
     0
 10
0.0
 20
0.0
 30
0.0
  3
BORDER
  1

  0
LINE
  5
83
330
81
100
AcDbEntity
  8
0
100
AcDbLine
 10
0.0
 20
0.0
 30
0.0
 11
1.0
 21
0.0
 31
0.0
  0
LINE
  5
84
330
81
100
AcDbEntity
  8
0
100
AcDbLine
 10
1.0
 20
0.0
 30
0.0
 11
1.0
 21
1.0
 31
0.0
  0
LINE
  5
85
330
81
100
AcDbEntity
  8
0
100
AcDbLine
 10
1.0
 20
1.0
 30
0.0
 11
0.0
 21
1.0
 31
0.0
  0
LINE
  5
86
330
81
100
AcDbEntity
  8
0
100
AcDbLine
 10
0.0
 20
1.0
 30
0.0
 11
0.0
 21
0.0
 31
0.0
  0
ENDBLK
  5
87
330
81
100
AcDbEntity
  8
0
100
AcDbBlockEnd
  0
BLOCK
  5
89
330
88
100
AcDbEntity
  8
0
100
AcDbBlockBegin
  2
ASWINDOW
 70
     2
 10
0.0
 20
0.0
 30
0.0
  3
ASWINDOW
  1

  0
LINE
  5
8A
330
88
100
AcDbEntity
  8
0
 62
     0
100
AcDbLine
 10
0.0
 20
0.0
 30
0.0
 11
0.0
 21
1.0
 31
0.0
  0
LINE
  5
8B
330
88
100
AcDbEntity
  8
0
 62
     0
100
AcDbLine
 10
0.0
 20
1.0
 30
0.0
 11
1.0
 21
1.0
 31
0.0
  0
LINE
  5
8C
330
88
100
AcDbEntity
  8
0
 62
     0
100
AcDbLine
 10
1.0
 20
1.0
 30
0.0
 11
1.0
 21
0.0
 31
0.0
  0
LINE
  5
8D
330
88
100
AcDbEntity
  8
0
 62
     0
100
AcDbLine
 10
1.0
 20
0.0
 30
0.0
 11
0.0
 21
0.0
 31
0.0
  0
ATTDEF
  5
8E
330
88
100
AcDbEntity
  8
0
 62
     0
100
AcDbText
 10
0.015625
 20
0.03125
 30
0.0
 40
0.125
  1
1
100
AcDbAttributeDefinition
  3
Window number
  2
ASWINDOW
 70
     0
  0
ATTDEF
  5
8F
330
88
100
AcDbEntity
  8
0
 62
     0
100
AcDbText
 10
0.015625
 20
0.84375
 30
0.0
 40
0.125
  1
ON
100
AcDbAttributeDefinition
  3
ON or OFF
  2
PRSTATUS
 70
     0
  0
ATTDEF
  5
90
330
88
100
AcDbEntity
  8
0
 62
     0
100
AcDbText
 10
0.015625
 20
0.5
 30
0.0
 40
0.125
  1
0
100
AcDbAttributeDefinition
  3
Scale (0=Fit, -Rotate)
  2
SCALE
 70
     1
  0
ENDBLK
  5
91
330
88
100
AcDbEntity
  8
0
100
AcDbBlockEnd
  0
BLOCK
  5
93
330
92
100
AcDbEntity
  8
0
100
AcDbBlockBegin
  2
AS-CFG
 70
     0
 10
0.0
 20
0.0
 30
0.0
  3
AS-CFG
  1

  0
TEXT
  5
94
330
92
100
AcDbEntity
  8
0
100
AcDbText
 10
0.0
 20
0.0
 30
0.0
 40
0.0055
  1
ASCRIPT
  7
ASCFG
100
AcDbText
  0
TEXT
  5
95
330
92
100
AcDbEntity
  8
0
100
AcDbText
 10
0.0
 20
-0.007333
 30
0.0
 40
0.0055
  1
!ASCFG C:\FIGS\SCHEM.cfg 0 0 1 2 2 0 3 0 4 2 5 0 6 1450 7 0 8 0.005 9 8 10 8.5 11 11 12 0.3 13 0.3 14 0.3 15 0.3 16 50 17 50 18
  7
ASCFG
100
AcDbText
  0
TEXT
  5
96
330
92
100
AcDbEntity
  8
0
100
AcDbText
 10
0.0
 20
-0.014667
 30
0.0
 40
0.0055
  1
0 19 0 20 0 21 0 22 0 23 0 24 0 25 0 26 1 27 0.005 28 100 29 0 30 0 31 0 32 0 33 11.7 34 30 35 0 59 0.998752 60 0 50 Black 52 2
  7
ASCFG
100
AcDbText
  0
TEXT
  5
97
330
92
100
AcDbEntity
  8
0
100
AcDbText
 10
0.0
 20
-0.022
 30
0.0
 40
0.0055
  1
99 2 50 GREY 52 2 53 0.9 99 3 98 0 0 X 98 1 1 1 2 X 98 2 0.005 X 98 3 2 2 3 X 98 4 1 1 0 X 98 5 1 2 0 X 98 6 1 X 98 7 0 X 98 8
  7
ASCFG
100
AcDbText
  0
TEXT
  5
98
330
92
100
AcDbEntity
  8
0
100
AcDbText
 10
0.0
 20
-0.029333
 30
0.0
 40
0.0055
  1
0 X 98 9 0 X 98 10 0 X 98 11 0 X 100 0 0 0 0 0 0 0 0 0 0 0 0 0 0 0 0 999
  7
ASCFG
100
AcDbText
  0
ENDBLK
  5
99
330
92
100
AcDbEntity
  8
0
100
AcDbBlockEnd
  0
ENDSEC
  0
SECTION
  2
ENTITIES
  0
LINE
  5
9A
330
74
100
AcDbEntity
  8
0
  6
Continuous
 62
     7
100
AcDbLine
 10
0.0
 20
11.0
 30
0.0
 11
8.5
 21
11.0
 31
0.0
  0
LINE
  5
9B
330
74
100
AcDbEntity
  8
0
  6
Continuous
 62
     7
100
AcDbLine
 10
8.125999999999999
 20
10.713
 30
0.0
 11
0.404
 21
10.713
 31
0.0
  0
LINE
  5
9C
330
74
100
AcDbEntity
  8
0
  6
Continuous
 62
     7
100
AcDbLine
 10
0.0
 20
11.0
 30
0.0
 11
0.0
 21
0.0
 31
0.0
  0
LINE
  5
9D
330
74
100
AcDbEntity
  8
0
  6
Continuous
 62
     7
100
AcDbLine
 10
0.0
 20
0.0
 30
0.0
 11
8.5
 21
0.0
 31
0.0
  0
LINE
  5
9E
330
74
100
AcDbEntity
  8
0
  6
Continuous
 62
     7
100
AcDbLine
 10
0.404
 20
0.3
 30
0.0
 11
8.125999999999999
 21
0.3
 31
0.0
  0
LINE
  5
9F
330
74
100
AcDbEntity
  8
0
  6
Continuous
 62
     7
100
AcDbLine
 10
8.5
 20
11.0
 30
0.0
 11
8.5
 21
0.0
 31
0.0
  0
LINE
  5
A0
330
74
100
AcDbEntity
  8
0
  6
Continuous
 62
     7
100
AcDbLine
 10
8.125999999999999
 20
0.3
 30
0.0
 11
8.125999999999999
 21
10.713
 31
0.0
  0
LINE
  5
A1
330
74
100
AcDbEntity
  8
0
  6
Continuous
 62
     7
100
AcDbLine
 10
0.404
 20
0.3
 30
0.0
 11
0.404
 21
10.713
 31
0.0
  0
INSERT
  5
A2
330
74
100
AcDbEntity
  8
0
 62
     7
100
AcDbBlockReference
  2
BORDER
 10
0.0
 20
0.0
 30
0.0
 41
8.5
 42
11.0
 43
8.5
  0
INSERT
  5
A3
330
74
100
AcDbEntity
  8
ASWINDOW
 62
     2
100
AcDbBlockReference
 66
     1
  2
ASWINDOW
 10
0.404
 20
0.3
 30
0.0
 41
7.722
 42
10.413
 43
7.722
  0
ATTRIB
  5
A4
330
A3
100
AcDbEntity
  8
0
 62
     0
100
AcDbText
 10
0.5246560000000001
 20
0.625406
 30
0.0
 40
1.301625
  1
1
 41
0.7415729999999999
100
AcDbAttribute
  2
ASWINDOW
 70
     0
  0
ATTRIB
  5
A5
330
A3
100
AcDbEntity
  8
0
 62
     0
100
AcDbText
 10
0.5246560000000001
 20
9.085969
 30
0.0
 40
1.301625
  1
ON
 41
0.7415729999999999
100
AcDbAttribute
  2
PRSTATUS
 70
     0
  0
ATTRIB
  5
A6
330
A3
100
AcDbEntity
  8
0
 62
     0
100
AcDbText
 10
0.5246560000000001
 20
5.506499999999999
 30
0.0
 40
1.301625
  1
0
 41
0.7415729999999999
100
AcDbAttribute
  2
SCALE
 70
     1
  0
SEQEND
  5
A7
330
A3
100
AcDbEntity
  8
ASWINDOW
 62
     2
  0
TEXT
  5
A8
330
74
100
AcDbEntity
  8
L1
 62
     1
100
AcDbText
 10
2.004391999999999
 20
8.495286
 30
0.0
 40
0.075582
  1
3
  7
H
100
AcDbText
  0
LWPOLYLINE
  5
A9
330
74
100
AcDbEntity
  8
L1
 62
     1
100
AcDbPolyline
 90
        4
 70
     1
 43
0.002075
 10
2.142330999999999
 20
8.686467999999999
 10
5.105692999999999
 20
8.686467999999999
 10
5.105692999999999
 20
8.435544999999999
 10
2.142330999999999
 20
8.435544999999999
  0
TEXT
  5
AF
330
74
100
AcDbEntity
  8
L1
 62
     1
100
AcDbText
 10
2.004391999999999
 20
8.957978
 30
0.0
 40
0.075582
  1
2
  7
H
100
AcDbText
  0
LWPOLYLINE
  5
B0
330
74
100
AcDbEntity
  8
L1
 62
     1
100
AcDbPolyline
 90
        4
 70
     1
 43
0.002075
 10
2.142330999999999
 20
9.129571
 10
5.105692999999999
 20
9.129571
 10
5.105692999999999
 20
8.878648
 10
2.142330999999999
 20
8.878648
  0
LWPOLYLINE
  5
B6
330
74
100
AcDbEntity
  8
L1
100
AcDbPolyline
 90
        4
 70
     1
 43
0.001482
 10
1.930201999999999
 20
9.842333999999999
 10
6.562367
 20
9.842333999999999
 10
6.562367
 20
7.240675999999999
 10
1.930201999999999
 20
7.240675999999999
  0
CIRCLE
  5
BC
330
74
100
AcDbEntity
  8
L1
 62
     1
100
AcDbCircle
 10
2.244911999999999
 20
8.992214999999999
 30
0.0
 40
0.018525
  0
TEXT
  5
BD
330
74
100
AcDbEntity
  8
L1
 62
     1
100
AcDbText
 10
5.764762999999999
 20
9.148972999999999
 30
0.0
 40
0.058687
  1
20 ... 132 VAC
 50
90.0
  7
H
100
AcDbText
  0
TEXT
  5
BE
330
74
100
AcDbEntity
  8
L1
100
AcDbText
 10
5.886294
 20
9.914158
 30
0.0
 40
0.067784
  1
170 ADM 690 50
  7
H
100
AcDbText
  0
TEXT
  5
BF
330
74
100
AcDbEntity
  8
L1
100
AcDbText
 10
1.924724
 20
7.099297999999999
 30
0.0
 40
0.067784
  1
Wiring for 2-wire field devices
  7
H
100
AcDbText
  0
TEXT
  5
C0
330
74
100
AcDbEntity
  8
L1
100
AcDbText
 10
7.445077999999999
 20
0.4228130000000001
 30
0.0
 40
0.105743
  1
FIG11-12
  7
H
100
AcDbText
  0
LWPOLYLINE
  5
C1
330
74
100
AcDbEntity
  8
L1
 62
     1
100
AcDbPolyline
 90
        4
 70
     1
 43
0.002223
 10
5.185978999999999
 20
8.874432999999999
 10
5.400284
 20
8.874432999999999
 10
5.400284
 20
8.797047
 10
5.185978999999999
 20
8.797047
  0
TEXT
  5
C7
330
74
100
AcDbEntity
  8
L1
 62
     1
100
AcDbText
 10
4.775775
 20
9.033445
 30
0.0
 40
0.055
  1
N
  7
H
100
AcDbText
  0
TEXT
  5
C8
330
74
100
AcDbEntity
  8
L1
 62
     1
100
AcDbText
 10
4.9305
 20
9.033445
 30
0.0
 40
0.055
  1
L1
  7
H
100
AcDbText
  0
TEXT
  5
C9
330
74
100
AcDbEntity
  8
L1
 62
     1
100
AcDbText
 10
2.225700999999999
 20
9.034299999999999
 30
0.0
 40
0.055
  1
1
  7
H
100
AcDbText
  0
TEXT
  5
CA
330
74
100
AcDbEntity
  8
L1
 62
     1
100
AcDbText
 10
5.940445999999999
 20
8.732421999999999
 30
0.0
 40
0.058687
  1
fast-blow fuse
  7
H
100
AcDbText
  0
TEXT
  5
CB
330
74
100
AcDbEntity
  8
L1
 62
     1
100
AcDbText
 10
5.939758
 20
8.834921000000001
 30
0.0
 40
0.064556
  1
315 mA
  7
H
100
AcDbText
  0
CIRCLE
  5
CC
330
74
100
AcDbEntity
  8
L1
 62
     1
100
AcDbCircle
 10
4.484912
 20
8.547822999999999
 30
0.0
 40
0.018525
  0
CIRCLE
  5
CD
330
74
100
AcDbEntity
  8
L1
 62
     1
100
AcDbCircle
 10
4.804911999999999
 20
8.992214999999999
 30
0.0
 40
0.018525
  0
CIRCLE
  5
CE
330
74
100
AcDbEntity
  8
L1
 62
     1
100
AcDbCircle
 10
4.804911999999999
 20
8.547822999999999
 30
0.0
 40
0.018525
  0
CIRCLE
  5
CF
330
74
100
AcDbEntity
  8
L1
 62
     1
100
AcDbCircle
 10
4.964911999999999
 20
8.992214999999999
 30
0.0
 40
0.018525
  0
CIRCLE
  5
D0
330
74
100
AcDbEntity
  8
L1
 62
     1
100
AcDbCircle
 10
4.964911999999999
 20
8.547822999999999
 30
0.0
 40
0.018525
  0
TEXT
  5
D1
330
74
100
AcDbEntity
  8
L1
 62
     1
100
AcDbText
 10
3.640416
 20
9.034299999999999
 30
0.0
 40
0.055
  1
10
  7
H
100
AcDbText
  0
TEXT
  5
D2
330
74
100
AcDbEntity
  8
L1
 62
     1
100
AcDbText
 10
4.600344999999999
 20
9.032626999999999
 30
0.0
 40
0.055
  1
NC
  7
H
100
AcDbText
  0
TEXT
  5
D3
330
74
100
AcDbEntity
  8
L1
 62
     1
100
AcDbText
 10
4.907937
 20
8.592817
 30
0.0
 40
0.055
  1
1L1
  7
H
100
AcDbText
  0
TEXT
  5
D4
330
74
100
AcDbEntity
  8
L1
 62
     1
100
AcDbText
 10
4.746796999999999
 20
8.593671999999999
 30
0.0
 40
0.055
  1
1N
  7
H
100
AcDbText
  0
LWPOLYLINE
  5
D5
330
74
100
AcDbEntity
  8
L1
 62
     1
100
AcDbPolyline
 90
        3
 70
     0
 43
0.002594
 10
4.962901999999999
 20
8.992214999999999
 10
4.962901999999999
 20
8.835274999999999
 10
5.507244
 20
8.835274999999999
  0
LWPOLYLINE
  5
DA
330
74
100
AcDbEntity
  8
L1
 62
     1
100
AcDbPolyline
 90
        3
 70
     0
 43
0.002594
 10
4.804911999999999
 20
8.547822999999999
 10
4.804911999999999
 20
8.291154999999999
 10
5.863091999999999
 20
8.291154999999999
  0
LWPOLYLINE
  5
DF
330
74
100
AcDbEntity
  8
L1
 62
     1
100
AcDbPolyline
 90
        3
 70
     0
 43
0.002594
 10
4.962901999999999
 20
8.547822999999999
 10
4.962901999999999
 20
8.390883
 10
5.746567999999999
 20
8.390883
  0
TEXT
  5
E4
330
74
100
AcDbEntity
  8
L1
 62
     1
100
AcDbText
 10
5.651962
 20
9.148972999999999
 30
0.0
 40
0.058687
  1
Return
 50
90.0
  7
H
100
AcDbText
  0
TEXT
  5
E5
330
74
100
AcDbEntity
  8
L1
 62
     1
100
AcDbText
 10
5.51783
 20
9.148972999999999
 30
0.0
 40
0.058687
  1
115 VAC
 50
90.0
  7
H
100
AcDbText
  0
LWPOLYLINE
  5
E6
330
74
100
AcDbEntity
  8
L1
 62
     1
100
AcDbPolyline
 90
        2
 70
     0
 43
0.004
 10
5.501916
 20
9.128061
 10
5.501916
 20
7.938258
  0
LWPOLYLINE
  5
EA
330
74
100
AcDbEntity
  8
L1
 62
     1
100
AcDbPolyline
 90
        2
 70
     0
 43
0.004
 10
5.622552999999999
 20
9.128061
 10
5.622552999999999
 20
7.938258
  0
LWPOLYLINE
  5
EE
330
74
100
AcDbEntity
  8
L1
 62
     1
100
AcDbPolyline
 90
        2
 70
     0
 43
0.004
 10
5.746567999999999
 20
9.128061
 10
5.746567999999999
 20
7.938258
  0
TEXT
  5
F2
330
74
100
AcDbEntity
  8
L1
 62
     1
100
AcDbText
 10
5.300898999999999
 20
7.369855999999999
 30
0.0
 40
0.05965
  1
group of inputs/outputs
  7
H
100
AcDbText
  0
LWPOLYLINE
  5
F3
330
74
100
AcDbEntity
  8
L1
100
AcDbPolyline
 90
        4
 70
     1
 43
0.001482
 10
1.930201999999999
 20
4.917167
 10
6.480455999999999
 20
4.917167
 10
6.480455999999999
 20
2.375875
 10
1.930201999999999
 20
2.375875
  0
LWPOLYLINE
  5
F9
330
74
100
AcDbEntity
  8
L1
 62
     1
100
AcDbPolyline
 90
        4
 70
     1
 43
0.002075
 10
2.175556
 20
3.585033999999999
 10
5.138918
 20
3.585033999999999
 10
5.138918
 20
3.334111
 10
2.175556
 20
3.334111
  0
LWPOLYLINE
  5
FF
330
74
100
AcDbEntity
  8
L1
 62
     1
100
AcDbPolyline
 90
        4
 70
     1
 43
0.002075
 10
2.175556
 20
4.047101
 10
5.138918
 20
4.047101
 10
5.138918
 20
3.796177999999999
 10
2.175556
 20
3.796177999999999
  0
LWPOLYLINE
  5
105
330
74
100
AcDbEntity
  8
L1
 62
     1
100
AcDbPolyline
 90
        4
 70
     1
 43
0.002075
 10
2.175556
 20
4.490204
 10
5.138918
 20
4.490204
 10
5.138918
 20
4.239281
 10
2.175556
 20
4.239281
  0
TEXT
  5
10B
330
74
100
AcDbEntity
  8
L1
 62
     1
100
AcDbText
 10
2.042109999999999
 20
3.409433
 30
0.0
 40
0.075582
  1
3
  7
H
100
AcDbText
  0
TEXT
  5
10C
330
74
100
AcDbEntity
  8
L1
 62
     1
100
AcDbText
 10
2.042109999999999
 20
3.872125
 30
0.0
 40
0.075582
  1
2
  7
H
100
AcDbText
  0
TEXT
  5
10D
330
74
100
AcDbEntity
  8
L1
 62
     1
100
AcDbText
 10
2.042109999999999
 20
4.323495999999999
 30
0.0
 40
0.075582
  1
1
  7
H
100
AcDbText
  0
TEXT
  5
10E
330
74
100
AcDbEntity
  8
L1
100
AcDbText
 10
5.789791999999999
 20
4.98899
 30
0.0
 40
0.067784
  1
170 ADO 340 00
  7
H
100
AcDbText
  0
TEXT
  5
10F
330
74
100
AcDbEntity
  8
L1
 62
     1
100
AcDbText
 10
5.741222
 20
2.561165
 30
0.0
 40
0.05965
  1
group of outputs
  7
H
100
AcDbText
  0
LWPOLYLINE
  5
110
330
74
100
AcDbEntity
  8
L1
 62
     1
100
AcDbPolyline
 90
        2
 70
     0
 43
0.004
 10
5.640007999999999
 20
4.486869
 10
5.640007999999999
 20
3.010645
  0
LWPOLYLINE
  5
114
330
74
100
AcDbEntity
  8
L1
 62
     1
100
AcDbPolyline
 90
        2
 70
     0
 43
0.004
 10
5.766303999999999
 20
4.486869
 10
5.766303999999999
 20
3.010645
  0
LWPOLYLINE
  5
118
330
74
100
AcDbEntity
  8
L1
 62
     1
100
AcDbPolyline
 90
        2
 70
     0
 43
0.004
 10
5.519370999999999
 20
4.486869
 10
5.519370999999999
 20
3.010645
  0
TEXT
  5
11C
330
74
100
AcDbEntity
  8
L1
 62
     1
100
AcDbText
 10
4.796948999999999
 20
3.483973
 30
0.0
 40
0.055
  1
M-
  7
H
100
AcDbText
  0
TEXT
  5
11D
330
74
100
AcDbEntity
  8
L1
 62
     1
100
AcDbText
 10
4.963724
 20
3.483973
 30
0.0
 40
0.055
  1
L+
  7
H
100
AcDbText
  0
CIRCLE
  5
11E
330
74
100
AcDbEntity
  8
L1
 62
     1
100
AcDbCircle
 10
4.998136999999999
 20
3.438784999999999
 30
0.0
 40
0.018525
  0
CIRCLE
  5
11F
330
74
100
AcDbEntity
  8
L1
 62
     1
100
AcDbCircle
 10
4.838137
 20
3.438784999999999
 30
0.0
 40
0.018525
  0
CIRCLE
  5
120
330
74
100
AcDbEntity
  8
L1
 62
     1
100
AcDbCircle
 10
4.838137
 20
3.908455999999999
 30
0.0
 40
0.018525
  0
CIRCLE
  5
121
330
74
100
AcDbEntity
  8
L1
 62
     1
100
AcDbCircle
 10
4.998136999999999
 20
3.908455999999999
 30
0.0
 40
0.018525
  0
TEXT
  5
122
330
74
100
AcDbEntity
  8
L1
 62
     1
100
AcDbText
 10
4.941162
 20
3.95345
 30
0.0
 40
0.055
  1
2L+
  7
H
100
AcDbText
  0
TEXT
  5
123
330
74
100
AcDbEntity
  8
L1
 62
     1
100
AcDbText
 10
4.771198
 20
3.954304
 30
0.0
 40
0.055
  1
1L+
  7
H
100
AcDbText
  0
TEXT
  5
124
330
74
100
AcDbEntity
  8
L1
 62
     1
100
AcDbText
 10
5.782667
 20
4.50778
 30
0.0
 40
0.058687
  1
Return
 50
90.0
  7
H
100
AcDbText
  0
TEXT
  5
125
330
74
100
AcDbEntity
  8
L1
 62
     1
100
AcDbText
 10
5.669417
 20
4.50778
 30
0.0
 40
0.058687
  1
24 VDC
 50
90.0
  7
H
100
AcDbText
  0
TEXT
  5
126
330
74
100
AcDbEntity
  8
L1
 62
     1
100
AcDbText
 10
5.535285
 20
4.50778
 30
0.0
 40
0.058687
  1
24 VDC
 50
90.0
  7
H
100
AcDbText
  0
LWPOLYLINE
  5
127
330
74
100
AcDbEntity
  8
L1
 62
     1
100
AcDbPolyline
 90
        3
 70
     0
 43
0.002594
 10
4.838137
 20
3.908455999999999
 10
4.838137
 20
3.638145999999999
 10
5.640007999999999
 20
3.638145999999999
  0
LWPOLYLINE
  5
12C
330
74
100
AcDbEntity
  8
L1
 62
     1
100
AcDbPolyline
 90
        3
 70
     0
 43
0.002594
 10
4.996126999999999
 20
3.908455999999999
 10
4.996126999999999
 20
3.751516
 10
5.640007999999999
 20
3.751516
  0
TEXT
  5
131
330
74
100
AcDbEntity
  8
L1
 62
     1
100
AcDbText
 10
5.838262999999999
 20
3.729565
 30
0.0
 40
0.064556
  1
max. 4 A
  7
H
100
AcDbText
  0
TEXT
  5
132
330
74
100
AcDbEntity
  8
L1
 62
     1
100
AcDbText
 10
5.838949999999999
 20
3.627066999999999
 30
0.0
 40
0.058687
  1
fast-blow fuse
  7
H
100
AcDbText
  0
LWPOLYLINE
  5
133
330
74
100
AcDbEntity
  8
L1
 62
     1
100
AcDbPolyline
 90
        4
 70
     1
 43
0.002223
 10
5.202633999999999
 20
3.787459999999999
 10
5.373253
 20
3.787459999999999
 10
5.373253
 20
3.710073999999999
 10
5.202633999999999
 20
3.710073999999999
  0
LWPOLYLINE
  5
139
330
74
100
AcDbEntity
  8
L1
 62
     1
100
AcDbPolyline
 90
        4
 70
     1
 43
0.002223
 10
5.202633999999999
 20
3.673888999999999
 10
5.373253
 20
3.673888999999999
 10
5.373253
 20
3.596501999999999
 10
5.202633999999999
 20
3.596501999999999
  0
LWPOLYLINE
  5
13F
330
74
100
AcDbEntity
  8
L1
 62
     1
100
AcDbPolyline
 90
        3
 70
     0
 43
0.002594
 10
4.838137
 20
3.420259999999999
 10
4.838137
 20
3.286144999999999
 10
5.766303999999999
 20
3.286144999999999
  0
LWPOLYLINE
  5
144
330
74
100
AcDbEntity
  8
L1
 62
     1
100
AcDbPolyline
 90
        4
 70
     1
 43
0.004
 10
5.373647
 20
2.619574
 10
5.701582
 20
2.619574
 10
5.701582
 20
2.542187999999999
 10
5.373647
 20
2.542187999999999
  0
TEXT
  5
14A
330
74
100
AcDbEntity
  8
L1
 62
     1
100
AcDbText
 10
4.633569999999999
 20
3.960687999999999
 30
0.0
 40
0.055
  1
16
  7
H
100
AcDbText
  0
TEXT
  5
14B
330
74
100
AcDbEntity
  8
L1
 62
     1
100
AcDbText
 10
2.258925999999999
 20
3.954007999999999
 30
0.0
 40
0.055
  1
1
  7
H
100
AcDbText
  0
TEXT
  5
14C
330
74
100
AcDbEntity
  8
L1
 62
     1
100
AcDbText
 10
3.039791999999999
 20
3.484335999999999
 30
0.0
 40
0.055
  1
M-
  7
H
100
AcDbText
  0
LWPOLYLINE
  5
14D
330
74
100
AcDbEntity
  8
L1
100
AcDbPolyline
 90
        4
 70
     1
 43
0.004
 10
3.795552999999999
 20
2.897097
 10
3.945187999999999
 20
2.897097
 10
3.945187999999999
 20
3.034190999999999
 10
3.795552999999999
 20
3.034190999999999
  0
LWPOLYLINE
  5
153
330
74
100
AcDbEntity
  8
SHADE
100
AcDbPolyline
 90
        4
 70
     1
 43
0.0
 10
5.379243999999999
 20
2.545236
 10
5.703452999999999
 20
2.545236
 10
5.703452999999999
 20
2.613783
 10
5.379243999999999
 20
2.613783
  0
CIRCLE
  5
159
330
74
100
AcDbEntity
  8
L1
 62
     1
100
AcDbCircle
 10
5.501916
 20
8.835274999999999
 30
0.0
 40
0.018525
  0
CIRCLE
  5
15A
330
74
100
AcDbEntity
  8
L1
 62
     1
100
AcDbCircle
 10
5.622552999999999
 20
8.755307999999999
 30
0.0
 40
0.018525
  0
CIRCLE
  5
15B
330
74
100
AcDbEntity
  8
L1
 62
     1
100
AcDbCircle
 10
5.746567999999999
 20
8.390883
 30
0.0
 40
0.018525
  0
CIRCLE
  5
15C
330
74
100
AcDbEntity
  8
L1
 62
     1
100
AcDbCircle
 10
5.863091999999999
 20
8.291154999999999
 30
0.0
 40
0.018525
  0
CIRCLE
  5
15D
330
74
100
AcDbEntity
  8
L1
 62
     1
100
AcDbCircle
 10
5.640007999999999
 20
3.751516
 30
0.0
 40
0.018525
  0
CIRCLE
  5
15E
330
74
100
AcDbEntity
  8
L1
 62
     1
100
AcDbCircle
 10
5.640007999999999
 20
3.638145999999999
 30
0.0
 40
0.018525
  0
CIRCLE
  5
15F
330
74
100
AcDbEntity
  8
L1
 62
     1
100
AcDbCircle
 10
5.766303999999999
 20
3.286144999999999
 30
0.0
 40
0.018525
  0
CIRCLE
  5
160
330
74
100
AcDbEntity
  8
L1
 62
     1
100
AcDbCircle
 10
5.519370999999999
 20
3.438784999999999
 30
0.0
 40
0.018525
  0
INSERT
  5
161
330
74
100
AcDbEntity
  8
ASCRIPT
100
AcDbBlockReference
  2
AS-CFG
 10
3.997399999999999
 20
5.5
 30
0.0
  0
LWPOLYLINE
  5
162
330
74
100
AcDbEntity
  8
L1
 62
     1
100
AcDbPolyline
 90
        4
 70
     1
 43
0.002223
 10
5.185978999999999
 20
8.429802999999999
 10
5.400284
 20
8.429802999999999
 10
5.400284
 20
8.352415999999999
 10
5.185978999999999
 20
8.352415999999999
  0
TEXT
  5
168
330
74
100
AcDbEntity
  8
L1
 62
     1
100
AcDbText
 10
5.939758
 20
8.364129
 30
0.0
 40
0.064556
  1
max. 8 A
  7
H
100
AcDbText
  0
TEXT
  5
169
330
74
100
AcDbEntity
  8
L1
 62
     1
100
AcDbText
 10
5.940445999999999
 20
8.26163
 30
0.0
 40
0.058687
  1
slow-blow fuse
  7
H
100
AcDbText
  0
TEXT
  5
16A
330
74
100
AcDbEntity
  8
L1
 62
     1
100
AcDbText
 10
3.317891
 20
8.593671999999999
 30
0.0
 40
0.055
  1
1N
  7
H
100
AcDbText
  0
TEXT
  5
16B
330
74
100
AcDbEntity
  8
L1
 62
     1
100
AcDbText
 10
3.628155
 20
8.593671999999999
 30
0.0
 40
0.055
  1
1N
  7
H
100
AcDbText
  0
LWPOLYLINE
  5
16C
330
74
100
AcDbEntity
  8
L1
 62
     1
100
AcDbPolyline
 90
        4
 70
     1
 43
0.004
 10
4.261398999999999
 20
8.112660999999999
 10
4.394857
 20
8.112660999999999
 10
4.394857
 20
7.999032999999999
 10
4.261398999999999
 20
7.999032999999999
  0
LWPOLYLINE
  5
172
330
74
100
AcDbEntity
  8
L1
 62
     1
100
AcDbPolyline
 90
        4
 70
     1
 43
0.002223
 10
4.887580999999999
 20
7.43926
 10
5.255114999999999
 20
7.43926
 10
5.255114999999999
 20
7.347052999999999
 10
4.887580999999999
 20
7.347052999999999
  0
LWPOLYLINE
  5
178
330
74
100
AcDbEntity
  8
SHADE
100
AcDbPolyline
 90
        4
 70
     1
 43
0.0
 10
2.165602
 20
9.105862
 10
4.725567999999999
 20
9.105862
 10
4.725567999999999
 20
8.899714999999998
 10
2.165602
 20
8.899714999999998
  0
TEXT
  5
17E
330
74
100
AcDbEntity
  8
L1
 62
     1
100
AcDbText
 10
4.177578999999999
 20
8.091622
 30
0.0
 40
0.055
  1
+
  7
H
100
AcDbText
  0
TEXT
  5
17F
330
74
100
AcDbEntity
  8
L1
 62
     1
100
AcDbText
 10
4.436136
 20
8.084153
 30
0.0
 40
0.077
  1
-
  7
H
100
AcDbText
  0
LWPOLYLINE
  5
180
330
74
100
AcDbEntity
  8
SHADE
100
AcDbPolyline
 90
        4
 70
     1
 43
0.0
 10
4.887580999999999
 20
7.43926
 10
5.255114999999999
 20
7.43926
 10
5.255114999999999
 20
7.347052999999999
 10
4.887580999999999
 20
7.347052999999999
  0
TEXT
  5
186
330
74
100
AcDbEntity
  8
L1
 62
     1
100
AcDbText
 10
3.694562
 20
3.022429999999999
 30
0.0
 40
0.055
  1
+
  7
H
100
AcDbText
  0
TEXT
  5
187
330
74
100
AcDbEntity
  8
L1
 62
     1
100
AcDbText
 10
4.153569999999999
 20
3.960687999999999
 30
0.0
 40
0.055
  1
13
  7
H
100
AcDbText
  0
TEXT
  5
188
330
74
100
AcDbEntity
  8
L1
 62
     1
100
AcDbText
 10
5.838949999999999
 20
3.263781
 30
0.0
 40
0.058687
  1
fast-blow fuse
  7
H
100
AcDbText
  0
TEXT
  5
189
330
74
100
AcDbEntity
  8
L1
 62
     1
100
AcDbText
 10
5.838262999999999
 20
3.36628
 30
0.0
 40
0.064556
  1
315 mA
  7
H
100
AcDbText
  0
LWPOLYLINE
  5
18A
330
74
100
AcDbEntity
  8
L1
 62
     1
100
AcDbPolyline
 90
        2
 70
     0
 43
0.004
 10
5.863091999999999
 20
9.128061
 10
5.863091999999999
 20
7.938258
  0
TEXT
  5
18E
330
74
100
AcDbEntity
  8
L1
 62
     1
100
AcDbText
 10
5.892501
 20
9.148972999999999
 30
0.0
 40
0.058687
  1
Return
 50
90.0
  7
H
100
AcDbText
  0
TEXT
  5
18F
330
74
100
AcDbEntity
  8
L1
 62
     1
100
AcDbText
 10
2.338551999999999
 20
8.593671999999999
 30
0.0
 40
0.055
  1
1N
  7
H
100
AcDbText
  0
TEXT
  5
190
330
74
100
AcDbEntity
  8
L1
 62
     1
100
AcDbText
 10
4.441666999999999
 20
8.593671999999999
 30
0.0
 40
0.055
  1
15
  7
H
100
AcDbText
  0
TEXT
  5
191
330
74
100
AcDbEntity
  8
L1
 62
     1
100
AcDbText
 10
4.593713
 20
8.592817
 30
0.0
 40
0.055
  1
1N
  7
H
100
AcDbText
  0
LWPOLYLINE
  5
192
330
74
100
AcDbEntity
  8
L1
100
AcDbPolyline
 90
        3
 70
     0
 43
0.004
 10
3.194901999999999
 20
7.958994999999999
 10
3.069459
 20
7.958994999999999
 10
2.896457999999999
 20
8.036827999999999
  0
LWPOLYLINE
  5
197
330
74
100
AcDbEntity
  8
L1
100
AcDbPolyline
 90
        4
 70
     0
 43
0.004
 10
4.261359999999999
 20
8.056305999999999
 10
4.101593
 20
8.056305999999999
 10
4.101593
 20
8.241916999999999
 10
4.484912
 20
8.547822999999999
  0
LWPOLYLINE
  5
19D
330
74
100
AcDbEntity
  8
L1
100
AcDbPolyline
 90
        4
 70
     0
 43
0.004
 10
4.394857
 20
8.056305999999999
 10
4.563387999999999
 20
8.056305999999999
 10
4.563387999999999
 20
8.241916999999999
 10
4.644912
 20
8.547822999999999
  0
LWPOLYLINE
  5
1A3
330
74
100
AcDbEntity
  8
L1
100
AcDbPolyline
 90
        4
 70
     0
 43
0.004
 10
2.244911999999999
 20
8.992214999999999
 10
2.739451999999999
 20
8.196124000000001
 10
2.739451999999999
 20
7.958994999999999
 10
2.901400999999999
 20
7.958994999999999
  0
LWPOLYLINE
  5
1A9
330
74
100
AcDbEntity
  8
L1
 62
     1
100
AcDbPolyline
 90
        3
 70
     0
 43
0.002594
 10
4.804911999999999
 20
8.992214999999999
 10
4.804911999999999
 20
8.755307999999999
 10
5.622552999999999
 20
8.755307999999999
  0
TEXT
  5
1AE
330
74
100
AcDbEntity
  8
L1
 62
     1
100
AcDbText
 10
3.239236
 20
7.961896
 30
0.0
 40
0.064556
  1
L1 120 VAC
  7
H
100
AcDbText
  0
TEXT
  5
1AF
330
74
100
AcDbEntity
  8
L1
 62
     1
100
AcDbText
 10
3.297194999999999
 20
7.872424
 30
0.0
 40
0.058687
  1
for inputs
  7
H
100
AcDbText
  0
LWPOLYLINE
  5
1B0
330
74
100
AcDbEntity
  8
SHADE
100
AcDbPolyline
 90
        4
 70
     1
 43
0.0
 10
2.166738999999999
 20
8.665506
 10
4.703857
 20
8.665506
 10
4.703857
 20
8.453711999999999
 10
2.166738999999999
 20
8.453711999999999
  0
LWPOLYLINE
  5
1B6
330
74
100
AcDbEntity
  8
L1
 62
     1
100
AcDbPolyline
 90
        2
 70
     1
 43
0.0025
 10
4.306386999999999
 20
8.547822999999999
 42
1.0
 10
4.343437
 20
8.547822999999999
 42
1.0
  0
LWPOLYLINE
  5
1BA
330
74
100
AcDbEntity
  8
L1
 62
     1
100
AcDbPolyline
 90
        2
 70
     1
 43
0.0025
 10
4.626387
 20
8.992214999999999
 42
1.0
 10
4.663437
 20
8.992214999999999
 42
1.0
  0
LWPOLYLINE
  5
1BE
330
74
100
AcDbEntity
  8
L1
 62
     1
100
AcDbPolyline
 90
        2
 70
     1
 43
0.0025
 10
4.466387
 20
8.992214999999999
 42
1.0
 10
4.503436999999999
 20
8.992214999999999
 42
1.0
  0
LWPOLYLINE
  5
1C2
330
74
100
AcDbEntity
  8
L1
 62
     1
100
AcDbPolyline
 90
        2
 70
     1
 43
0.0025
 10
4.146386999999999
 20
8.547822999999999
 42
1.0
 10
4.183437
 20
8.547822999999999
 42
1.0
  0
LWPOLYLINE
  5
1C6
330
74
100
AcDbEntity
  8
L1
 62
     1
100
AcDbPolyline
 90
        2
 70
     1
 43
0.0025
 10
4.306386999999999
 20
8.992214999999999
 42
1.0
 10
4.343437
 20
8.992214999999999
 42
1.0
  0
LWPOLYLINE
  5
1CA
330
74
100
AcDbEntity
  8
L1
 62
     1
100
AcDbPolyline
 90
        2
 70
     1
 43
0.0025
 10
3.986387
 20
8.547822999999999
 42
1.0
 10
4.023437
 20
8.547822999999999
 42
1.0
  0
LWPOLYLINE
  5
1CE
330
74
100
AcDbEntity
  8
L1
 62
     1
100
AcDbPolyline
 90
        2
 70
     1
 43
0.0025
 10
4.146386999999999
 20
8.992214999999999
 42
1.0
 10
4.183437
 20
8.992214999999999
 42
1.0
  0
LWPOLYLINE
  5
1D2
330
74
100
AcDbEntity
  8
L1
 62
     1
100
AcDbPolyline
 90
        2
 70
     1
 43
0.0025
 10
3.826387
 20
8.547822999999999
 42
1.0
 10
3.863437
 20
8.547822999999999
 42
1.0
  0
LWPOLYLINE
  5
1D6
330
74
100
AcDbEntity
  8
L1
 62
     1
100
AcDbPolyline
 90
        2
 70
     1
 43
0.0025
 10
3.986387
 20
8.992214999999999
 42
1.0
 10
4.023437
 20
8.992214999999999
 42
1.0
  0
LWPOLYLINE
  5
1DA
330
74
100
AcDbEntity
  8
L1
 62
     1
100
AcDbPolyline
 90
        2
 70
     1
 43
0.0025
 10
3.666387
 20
8.547822999999999
 42
1.0
 10
3.703437
 20
8.547822999999999
 42
1.0
  0
LWPOLYLINE
  5
1DE
330
74
100
AcDbEntity
  8
L1
 62
     1
100
AcDbPolyline
 90
        2
 70
     1
 43
0.0025
 10
3.826387
 20
8.992214999999999
 42
1.0
 10
3.863437
 20
8.992214999999999
 42
1.0
  0
LWPOLYLINE
  5
1E2
330
74
100
AcDbEntity
  8
L1
 62
     1
100
AcDbPolyline
 90
        2
 70
     1
 43
0.0025
 10
3.506387
 20
8.547822999999999
 42
1.0
 10
3.543437
 20
8.547822999999999
 42
1.0
  0
LWPOLYLINE
  5
1E6
330
74
100
AcDbEntity
  8
L1
 62
     1
100
AcDbPolyline
 90
        2
 70
     1
 43
0.0025
 10
3.666387
 20
8.992214999999999
 42
1.0
 10
3.703437
 20
8.992214999999999
 42
1.0
  0
LWPOLYLINE
  5
1EA
330
74
100
AcDbEntity
  8
L1
 62
     1
100
AcDbPolyline
 90
        2
 70
     1
 43
0.0025
 10
3.346387
 20
8.547822999999999
 42
1.0
 10
3.383437
 20
8.547822999999999
 42
1.0
  0
LWPOLYLINE
  5
1EE
330
74
100
AcDbEntity
  8
L1
 62
     1
100
AcDbPolyline
 90
        2
 70
     1
 43
0.0025
 10
3.506387
 20
8.992214999999999
 42
1.0
 10
3.543437
 20
8.992214999999999
 42
1.0
  0
LWPOLYLINE
  5
1F2
330
74
100
AcDbEntity
  8
L1
 62
     1
100
AcDbPolyline
 90
        2
 70
     1
 43
0.0025
 10
3.186386999999999
 20
8.547822999999999
 42
1.0
 10
3.223437
 20
8.547822999999999
 42
1.0
  0
LWPOLYLINE
  5
1F6
330
74
100
AcDbEntity
  8
L1
 62
     1
100
AcDbPolyline
 90
        2
 70
     1
 43
0.0025
 10
3.346387
 20
8.992214999999999
 42
1.0
 10
3.383437
 20
8.992214999999999
 42
1.0
  0
LWPOLYLINE
  5
1FA
330
74
100
AcDbEntity
  8
L1
 62
     1
100
AcDbPolyline
 90
        2
 70
     1
 43
0.0025
 10
3.026386999999999
 20
8.547822999999999
 42
1.0
 10
3.063436999999999
 20
8.547822999999999
 42
1.0
  0
LWPOLYLINE
  5
1FE
330
74
100
AcDbEntity
  8
L1
 62
     1
100
AcDbPolyline
 90
        2
 70
     1
 43
0.0025
 10
3.186386999999999
 20
8.992214999999999
 42
1.0
 10
3.223437
 20
8.992214999999999
 42
1.0
  0
LWPOLYLINE
  5
202
330
74
100
AcDbEntity
  8
L1
 62
     1
100
AcDbPolyline
 90
        2
 70
     1
 43
0.0025
 10
2.866386999999999
 20
8.547822999999999
 42
1.0
 10
2.903436999999999
 20
8.547822999999999
 42
1.0
  0
LWPOLYLINE
  5
206
330
74
100
AcDbEntity
  8
L1
 62
     1
100
AcDbPolyline
 90
        2
 70
     1
 43
0.0025
 10
3.026386999999999
 20
8.992214999999999
 42
1.0
 10
3.063436999999999
 20
8.992214999999999
 42
1.0
  0
LWPOLYLINE
  5
20A
330
74
100
AcDbEntity
  8
L1
 62
     1
100
AcDbPolyline
 90
        2
 70
     1
 43
0.0025
 10
2.706386999999999
 20
8.547822999999999
 42
1.0
 10
2.743436999999999
 20
8.547822999999999
 42
1.0
  0
LWPOLYLINE
  5
20E
330
74
100
AcDbEntity
  8
L1
 62
     1
100
AcDbPolyline
 90
        2
 70
     1
 43
0.0025
 10
2.866386999999999
 20
8.992214999999999
 42
1.0
 10
2.903436999999999
 20
8.992214999999999
 42
1.0
  0
LWPOLYLINE
  5
212
330
74
100
AcDbEntity
  8
L1
 62
     1
100
AcDbPolyline
 90
        2
 70
     1
 43
0.0025
 10
2.546386999999999
 20
8.547822999999999
 42
1.0
 10
2.583436999999999
 20
8.547822999999999
 42
1.0
  0
LWPOLYLINE
  5
216
330
74
100
AcDbEntity
  8
L1
 62
     1
100
AcDbPolyline
 90
        2
 70
     1
 43
0.0025
 10
2.706386999999999
 20
8.992214999999999
 42
1.0
 10
2.743436999999999
 20
8.992214999999999
 42
1.0
  0
LWPOLYLINE
  5
21A
330
74
100
AcDbEntity
  8
L1
 62
     1
100
AcDbPolyline
 90
        2
 70
     1
 43
0.0025
 10
2.386387
 20
8.547822999999999
 42
1.0
 10
2.423436999999999
 20
8.547822999999999
 42
1.0
  0
LWPOLYLINE
  5
21E
330
74
100
AcDbEntity
  8
L1
 62
     1
100
AcDbPolyline
 90
        2
 70
     1
 43
0.0025
 10
2.546386999999999
 20
8.992214999999999
 42
1.0
 10
2.583436999999999
 20
8.992214999999999
 42
1.0
  0
LWPOLYLINE
  5
222
330
74
100
AcDbEntity
  8
L1
 62
     1
100
AcDbPolyline
 90
        2
 70
     1
 43
0.0025
 10
2.226386999999999
 20
8.547822999999999
 42
1.0
 10
2.263436999999999
 20
8.547822999999999
 42
1.0
  0
LWPOLYLINE
  5
226
330
74
100
AcDbEntity
  8
L1
 62
     1
100
AcDbPolyline
 90
        2
 70
     1
 43
0.0025
 10
2.386387
 20
8.992214999999999
 42
1.0
 10
2.423436999999999
 20
8.992214999999999
 42
1.0
  0
CIRCLE
  5
22A
330
74
100
AcDbEntity
  8
L1
 62
     1
100
AcDbCircle
 10
4.644912
 20
8.547822999999999
 30
0.0
 40
0.018525
  0
CIRCLE
  5
22B
330
74
100
AcDbEntity
  8
L1
 62
     1
100
AcDbCircle
 10
2.244911999999999
 20
8.992214999999999
 30
0.0
 40
0.018525
  0
TEXT
  5
22C
330
74
100
AcDbEntity
  8
L1
 62
     1
100
AcDbText
 10
4.156582
 20
3.484335999999999
 30
0.0
 40
0.055
  1
M-
  7
H
100
AcDbText
  0
TEXT
  5
22D
330
74
100
AcDbEntity
  8
L1
 62
     1
100
AcDbText
 10
4.003308
 20
3.013784999999999
 30
0.0
 40
0.077
  1
-
  7
H
100
AcDbText
  0
LWPOLYLINE
  5
22E
330
74
100
AcDbEntity
  8
L1
100
AcDbPolyline
 90
        4
 70
     0
 43
0.004
 10
4.198137
 20
3.908455999999999
 10
3.639683999999999
 20
3.499116
 10
3.639683999999999
 20
2.965643999999999
 10
3.795552999999999
 20
2.965643999999999
  0
LWPOLYLINE
  5
234
330
74
100
AcDbEntity
  8
L1
100
AcDbPolyline
 90
        4
 70
     0
 43
0.004
 10
3.945187999999999
 20
2.965643999999999
 10
4.113526999999999
 20
2.965643999999999
 10
4.113526999999999
 20
3.361601999999999
 10
4.198137
 20
3.438784999999999
  0
LWPOLYLINE
  5
23A
330
74
100
AcDbEntity
  8
L1
 62
     1
100
AcDbPolyline
 90
        2
 70
     1
 43
0.0025
 10
4.659612
 20
3.908455999999999
 42
1.0
 10
4.696661999999999
 20
3.908455999999999
 42
1.0
  0
LWPOLYLINE
  5
23E
330
74
100
AcDbEntity
  8
L1
 62
     1
100
AcDbPolyline
 90
        2
 70
     1
 43
0.0025
 10
4.659612
 20
3.438784999999999
 42
1.0
 10
4.696661999999999
 20
3.438784999999999
 42
1.0
  0
LWPOLYLINE
  5
242
330
74
100
AcDbEntity
  8
L1
 62
     1
100
AcDbPolyline
 90
        2
 70
     1
 43
0.0025
 10
4.499611999999999
 20
3.438784999999999
 42
1.0
 10
4.536662
 20
3.438784999999999
 42
1.0
  0
LWPOLYLINE
  5
246
330
74
100
AcDbEntity
  8
L1
 62
     1
100
AcDbPolyline
 90
        2
 70
     1
 43
0.0025
 10
4.019612
 20
3.438784999999999
 42
1.0
 10
4.056662
 20
3.438784999999999
 42
1.0
  0
LWPOLYLINE
  5
24A
330
74
100
AcDbEntity
  8
L1
 62
     1
100
AcDbPolyline
 90
        2
 70
     1
 43
0.0025
 10
4.499611999999999
 20
3.908455999999999
 42
1.0
 10
4.536662
 20
3.908455999999999
 42
1.0
  0
LWPOLYLINE
  5
24E
330
74
100
AcDbEntity
  8
L1
 62
     1
100
AcDbPolyline
 90
        2
 70
     1
 43
0.0025
 10
4.019612
 20
3.908455999999999
 42
1.0
 10
4.056662
 20
3.908455999999999
 42
1.0
  0
LWPOLYLINE
  5
252
330
74
100
AcDbEntity
  8
L1
 62
     1
100
AcDbPolyline
 90
        2
 70
     1
 43
0.0025
 10
4.339612
 20
3.438784999999999
 42
1.0
 10
4.376662
 20
3.438784999999999
 42
1.0
  0
LWPOLYLINE
  5
256
330
74
100
AcDbEntity
  8
L1
 62
     1
100
AcDbPolyline
 90
        2
 70
     1
 43
0.0025
 10
3.859612
 20
3.438784999999999
 42
1.0
 10
3.896662
 20
3.438784999999999
 42
1.0
  0
LWPOLYLINE
  5
25A
330
74
100
AcDbEntity
  8
L1
 62
     1
100
AcDbPolyline
 90
        2
 70
     1
 43
0.0025
 10
4.339612
 20
3.908455999999999
 42
1.0
 10
4.376662
 20
3.908455999999999
 42
1.0
  0
LWPOLYLINE
  5
25E
330
74
100
AcDbEntity
  8
L1
 62
     1
100
AcDbPolyline
 90
        2
 70
     1
 43
0.0025
 10
3.859612
 20
3.908455999999999
 42
1.0
 10
3.896662
 20
3.908455999999999
 42
1.0
  0
LWPOLYLINE
  5
262
330
74
100
AcDbEntity
  8
L1
 62
     1
100
AcDbPolyline
 90
        2
 70
     1
 43
0.0025
 10
3.699612
 20
3.438784999999999
 42
1.0
 10
3.736662
 20
3.438784999999999
 42
1.0
  0
LWPOLYLINE
  5
266
330
74
100
AcDbEntity
  8
L1
 62
     1
100
AcDbPolyline
 90
        2
 70
     1
 43
0.0025
 10
3.699612
 20
3.908455999999999
 42
1.0
 10
3.736662
 20
3.908455999999999
 42
1.0
  0
LWPOLYLINE
  5
26A
330
74
100
AcDbEntity
  8
L1
 62
     1
100
AcDbPolyline
 90
        2
 70
     1
 43
0.0025
 10
3.539612
 20
3.438784999999999
 42
1.0
 10
3.576662
 20
3.438784999999999
 42
1.0
  0
LWPOLYLINE
  5
26E
330
74
100
AcDbEntity
  8
L1
 62
     1
100
AcDbPolyline
 90
        2
 70
     1
 43
0.0025
 10
3.539612
 20
3.908455999999999
 42
1.0
 10
3.576662
 20
3.908455999999999
 42
1.0
  0
LWPOLYLINE
  5
272
330
74
100
AcDbEntity
  8
L1
 62
     1
100
AcDbPolyline
 90
        2
 70
     1
 43
0.0025
 10
3.379612
 20
3.438784999999999
 42
1.0
 10
3.416662
 20
3.438784999999999
 42
1.0
  0
LWPOLYLINE
  5
276
330
74
100
AcDbEntity
  8
L1
 62
     1
100
AcDbPolyline
 90
        2
 70
     1
 43
0.0025
 10
3.379612
 20
3.908455999999999
 42
1.0
 10
3.416662
 20
3.908455999999999
 42
1.0
  0
LWPOLYLINE
  5
27A
330
74
100
AcDbEntity
  8
L1
 62
     1
100
AcDbPolyline
 90
        2
 70
     1
 43
0.0025
 10
3.219611999999999
 20
3.438784999999999
 42
1.0
 10
3.256661999999999
 20
3.438784999999999
 42
1.0
  0
LWPOLYLINE
  5
27E
330
74
100
AcDbEntity
  8
L1
 62
     1
100
AcDbPolyline
 90
        2
 70
     1
 43
0.0025
 10
3.219611999999999
 20
3.908455999999999
 42
1.0
 10
3.256661999999999
 20
3.908455999999999
 42
1.0
  0
LWPOLYLINE
  5
282
330
74
100
AcDbEntity
  8
L1
 62
     1
100
AcDbPolyline
 90
        2
 70
     1
 43
0.0025
 10
3.059611999999999
 20
3.438784999999999
 42
1.0
 10
3.096661999999999
 20
3.438784999999999
 42
1.0
  0
LWPOLYLINE
  5
286
330
74
100
AcDbEntity
  8
L1
 62
     1
100
AcDbPolyline
 90
        2
 70
     1
 43
0.0025
 10
3.059611999999999
 20
3.908455999999999
 42
1.0
 10
3.096661999999999
 20
3.908455999999999
 42
1.0
  0
LWPOLYLINE
  5
28A
330
74
100
AcDbEntity
  8
L1
 62
     1
100
AcDbPolyline
 90
        2
 70
     1
 43
0.0025
 10
2.899611999999999
 20
3.438784999999999
 42
1.0
 10
2.936662
 20
3.438784999999999
 42
1.0
  0
LWPOLYLINE
  5
28E
330
74
100
AcDbEntity
  8
L1
 62
     1
100
AcDbPolyline
 90
        2
 70
     1
 43
0.0025
 10
2.899611999999999
 20
3.908455999999999
 42
1.0
 10
2.936662
 20
3.908455999999999
 42
1.0
  0
LWPOLYLINE
  5
292
330
74
100
AcDbEntity
  8
L1
 62
     1
100
AcDbPolyline
 90
        2
 70
     1
 43
0.0025
 10
2.739611999999999
 20
3.438784999999999
 42
1.0
 10
2.776661999999999
 20
3.438784999999999
 42
1.0
  0
LWPOLYLINE
  5
296
330
74
100
AcDbEntity
  8
L1
 62
     1
100
AcDbPolyline
 90
        2
 70
     1
 43
0.0025
 10
2.739611999999999
 20
3.908455999999999
 42
1.0
 10
2.776661999999999
 20
3.908455999999999
 42
1.0
  0
LWPOLYLINE
  5
29A
330
74
100
AcDbEntity
  8
L1
 62
     1
100
AcDbPolyline
 90
        2
 70
     1
 43
0.0025
 10
2.579612
 20
3.438784999999999
 42
1.0
 10
2.616661999999999
 20
3.438784999999999
 42
1.0
  0
LWPOLYLINE
  5
29E
330
74
100
AcDbEntity
  8
L1
 62
     1
100
AcDbPolyline
 90
        2
 70
     1
 43
0.0025
 10
2.579612
 20
3.908455999999999
 42
1.0
 10
2.616661999999999
 20
3.908455999999999
 42
1.0
  0
LWPOLYLINE
  5
2A2
330
74
100
AcDbEntity
  8
L1
 62
     1
100
AcDbPolyline
 90
        2
 70
     1
 43
0.0025
 10
2.419611999999999
 20
3.438784999999999
 42
1.0
 10
2.456661999999999
 20
3.438784999999999
 42
1.0
  0
LWPOLYLINE
  5
2A6
330
74
100
AcDbEntity
  8
L1
 62
     1
100
AcDbPolyline
 90
        2
 70
     1
 43
0.0025
 10
2.419611999999999
 20
3.908455999999999
 42
1.0
 10
2.456661999999999
 20
3.908455999999999
 42
1.0
  0
LWPOLYLINE
  5
2AA
330
74
100
AcDbEntity
  8
L1
 62
     1
100
AcDbPolyline
 90
        2
 70
     1
 43
0.0025
 10
2.259611999999999
 20
3.438784999999999
 42
1.0
 10
2.296661999999999
 20
3.438784999999999
 42
1.0
  0
LWPOLYLINE
  5
2AE
330
74
100
AcDbEntity
  8
L1
 62
     1
100
AcDbPolyline
 90
        2
 70
     1
 43
0.0025
 10
2.259611999999999
 20
3.908455999999999
 42
1.0
 10
2.296661999999999
 20
3.908455999999999
 42
1.0
  0
LWPOLYLINE
  5
2B2
330
74
100
AcDbEntity
  8
L1
 62
     1
100
AcDbPolyline
 90
        4
 70
     1
 43
0.002223
 10
5.202633999999999
 20
3.473351999999999
 10
5.373253
 20
3.473351999999999
 10
5.373253
 20
3.395966
 10
5.202633999999999
 20
3.395966
  0
LWPOLYLINE
  5
2B8
330
74
100
AcDbEntity
  8
L1
 62
     1
100
AcDbPolyline
 90
        2
 70
     0
 43
0.002594
 10
4.998136999999999
 20
3.438784999999999
 10
5.519370999999999
 20
3.438784999999999
  0
LWPOLYLINE
  5
2BC
330
74
100
AcDbEntity
  8
SHADE
100
AcDbPolyline
 90
        4
 70
     1
 43
0.0
 10
2.194223
 20
4.030266
 10
3.463133999999999
 20
4.030266
 10
3.463133999999999
 20
3.813469999999999
 10
2.194223
 20
3.813469999999999
  0
LWPOLYLINE
  5
2C2
330
74
100
AcDbEntity
  8
SHADE
100
AcDbPolyline
 90
        4
 70
     1
 43
0.0
 10
3.479401999999999
 20
4.030266
 10
4.74289
 20
4.030266
 10
4.74289
 20
3.813469999999999
 10
3.479401999999999
 20
3.813469999999999
  0
CIRCLE
  5
2C8
330
74
100
AcDbEntity
  8
L1
 62
     1
100
AcDbCircle
 10
4.198137
 20
3.438784999999999
 30
0.0
 40
0.018525
  0
CIRCLE
  5
2C9
330
74
100
AcDbEntity
  8
L1
 62
     1
100
AcDbCircle
 10
4.198137
 20
3.908455999999999
 30
0.0
 40
0.018525
  0
TEXT
  5
2CA
330
74
100
AcDbEntity
  8
L1
100
AcDbText
 10
1.932977999999999
 20
9.914158
 30
0.0
 40
0.067784
  1
120 VDC - 10 Pt. In / 8 Pt. Out Module
  7
H
100
AcDbText
  0
TEXT
  5
2CB
330
74
100
AcDbEntity
  8
L1
 62
     1
100
AcDbText
 10
4.176811999999999
 20
7.769103999999999
 30
0.0
 40
0.058687
  1
number 8
  7
H
100
AcDbText
  0
TEXT
  5
2CC
330
74
100
AcDbEntity
  8
L1
 62
     1
100
AcDbText
 10
4.061433
 20
7.871602999999999
 30
0.0
 40
0.064556
  1
Output Device
  7
H
100
AcDbText
  0
TEXT
  5
2CD
330
74
100
AcDbEntity
  8
L1
 62
     1
100
AcDbText
 10
2.734869999999999
 20
7.738786999999999
 30
0.0
 40
0.064556
  1
Input Device
  7
H
100
AcDbText
  0
TEXT
  5
2CE
330
74
100
AcDbEntity
  8
L1
 62
     1
100
AcDbText
 10
2.813756
 20
7.636288
 30
0.0
 40
0.058687
  1
number 1
  7
H
100
AcDbText
  0
TEXT
  5
2CF
330
74
100
AcDbEntity
  8
L1
100
AcDbText
 10
1.924724
 20
2.234496
 30
0.0
 40
0.067784
  1
A 2-wire actuator field wiring sample
  7
H
100
AcDbText
  0
TEXT
  5
2D0
330
74
100
AcDbEntity
  8
L1
100
AcDbText
 10
1.932977999999999
 20
4.98899
 30
0.0
 40
0.067784
  1
24 VDC - 16 Pt. Discrete Output Module
  7
H
100
AcDbText
  0
TEXT
  5
2D1
330
74
100
AcDbEntity
  8
L1
 62
     1
100
AcDbText
 10
3.683282
 20
2.650743999999999
 30
0.0
 40
0.058687
  1
number 13
  7
H
100
AcDbText
  0
TEXT
  5
2D2
330
74
100
AcDbEntity
  8
L1
 62
     1
100
AcDbText
 10
3.603162999999999
 20
2.753241999999999
 30
0.0
 40
0.064556
  1
Output Device
  7
H
100
AcDbText
  0
VIEWPORT
  5
2D5
102
{ACAD_XDICTIONARY
360
2D6
102
}
330
70
100
AcDbEntity
 67
     1
  8
0
100
AcDbViewport
 10
5.375152615102884
 20
4.124748250498376
 30
0.0
 40
14.73329692730246
 41
6.67703220327443
 68
     1
 69
     1
 12
5.375152615102884
 22
4.124748250498376
 13
0.0
 23
0.0
 14
0.5
 24
0.5
 15
0.5
 25
0.5
 16
0.0
 26
0.0
 36
1.0
 17
0.0
 27
0.0
 37
0.0
 42
50.0
 43
0.0
 44
0.0
 45
6.67703220327443
 50
0.0
 51
0.0
 72
   100
 90
   819232
  1

281
     0
 71
     1
 74
     0
110
0.0
120
0.0
130
0.0
111
1.0
121
0.0
131
0.0
112
0.0
122
1.0
132
0.0
 79
     0
146
0.0
  0
VIEWPORT
  5
2DA
102
{ACAD_XDICTIONARY
360
2DB
102
}
330
70
100
AcDbEntity
 67
     1
  8
SHADE
100
AcDbViewport
 10
5.375000121086602
 20
4.124999820716737
 30
0.0
 40
8.600000193738562
 41
6.599999713146781
 68
     2
 69
     2
 12
4.25
 22
5.5
 13
0.0
 23
0.0
 14
0.5
 24
0.5
 15
0.5
 25
0.5
 16
0.0
 26
0.0
 36
1.0
 17
0.0
 27
0.0
 37
0.0
 42
50.0
 43
0.0
 44
0.0
 45
11.17414248021108
 50
0.0
 51
0.0
 72
   100
 90
   819232
  1

281
     0
 71
     1
 74
     0
110
0.0
120
0.0
130
0.0
111
1.0
121
0.0
131
0.0
112
0.0
122
1.0
132
0.0
 79
     0
146
0.0
  0
ENDSEC
  0
SECTION
  2
OBJECTS
  0
DICTIONARY
  5
C
330
0
100
AcDbDictionary
281
     1
  3
ACAD_COLOR
350
6A
  3
ACAD_GROUP
350
D
  3
ACAD_LAYOUT
350
69
  3
ACAD_MATERIAL
350
10
  3
ACAD_MLEADERSTYLE
350
6D
  3
ACAD_MLINESTYLE
350
66
  3
ACAD_PLOTSETTINGS
350
68
  3
ACAD_PLOTSTYLENAME
350
E
  3
ACAD_SCALELIST
350
3A
  3
ACAD_TABLESTYLE
350
6B
  3
ACAD_VISUALSTYLE
350
29
  3
ACDB_RECOMPOSE_DATA
350
317
  3
AcDbVariableDictionary
350
30E
  3
DWGPROPS
350
318
  0
DICTIONARY
  5
2DD
330
5C
100
AcDbDictionary
280
     1
281
     1
  3
ADSK_XREC_LAYER_RECONCILED
360
2DE
  0
DICTIONARY
  5
2DF
330
78
100
AcDbDictionary
280
     1
281
     1
  3
ADSK_XREC_LAYER_RECONCILED
360
2E0
  0
DICTIONARY
  5
2E1
330
7B
100
AcDbDictionary
280
     1
281
     1
  3
ADSK_XREC_LAYER_RECONCILED
360
2E2
  0
DICTIONARY
  5
2E3
330
7C
100
AcDbDictionary
280
     1
281
     1
  3
ADSK_XREC_LAYER_RECONCILED
360
2E4
  0
DICTIONARY
  5
2E5
330
7D
100
AcDbDictionary
280
     1
281
     1
  3
ADSK_XREC_LAYER_RECONCILED
360
2E6
  0
DICTIONARY
  5
2D6
330
2D5
100
AcDbDictionary
280
     1
281
     1
  3
ACAD_XREC_ROUNDTRIP
360
321
  3
ASDK_XREC_ANNOTATION_SCALE_INFO
360
2D7
  0
DICTIONARY
  5
2DB
330
2DA
100
AcDbDictionary
280
     1
281
     1
  3
ACAD_XREC_ROUNDTRIP
360
322
  3
ASDK_XREC_ANNOTATION_SCALE_INFO
360
2DC
  0
DICTIONARY
  5
6A
102
{ACAD_REACTORS
330
C
102
}
330
C
100
AcDbDictionary
281
     1
  0
DICTIONARY
  5
D
102
{ACAD_REACTORS
330
C
102
}
330
C
100
AcDbDictionary
281
     1
  0
DICTIONARY
  5
69
102
{ACAD_REACTORS
330
C
102
}
330
C
100
AcDbDictionary
281
     1
  3
Layout1
350
73
  3
Model
350
77
  0
DICTIONARY
  5
10
102
{ACAD_REACTORS
330
C
102
}
330
C
100
AcDbDictionary
281
     1
  3
ByBlock
350
19
  3
ByLayer
350
11
  3
Global
350
21
  0
DICTIONARY
  5
6D
102
{ACAD_REACTORS
330
C
102
}
330
C
100
AcDbDictionary
281
     1
  3
Standard
350
6E
  0
DICTIONARY
  5
66
102
{ACAD_REACTORS
330
C
102
}
330
C
100
AcDbDictionary
281
     1
  3
Standard
350
67
  0
DICTIONARY
  5
68
102
{ACAD_REACTORS
330
C
102
}
330
C
100
AcDbDictionary
281
     1
  0
ACDBDICTIONARYWDFLT
  5
E
102
{ACAD_REACTORS
330
C
102
}
330
C
100
AcDbDictionary
281
     1
  3
Normal
350
F
100
AcDbDictionaryWithDefault
340
F
  0
DICTIONARY
  5
3A
102
{ACAD_REACTORS
330
C
102
}
330
C
100
AcDbDictionary
281
     1
  3
A0
350
3B
  3
A1
350
3C
  3
A2
350
3D
  3
A3
350
3E
  3
A4
350
3F
  3
A5
350
40
  3
A6
350
41
  3
A7
350
42
  3
A8
350
43
  3
A9
350
44
  3
B0
350
45
  3
B1
350
46
  3
B2
350
47
  3
B3
350
48
  3
B4
350
49
  3
B5
350
4A
  3
B6
350
4B
  3
B7
350
4C
  3
B8
350
4D
  3
B9
350
4E
  3
C0
350
4F
  3
C1
350
50
  3
C2
350
51
  3
C3
350
52
  3
C4
350
53
  3
C5
350
54
  3
C6
350
55
  3
C7
350
56
  3
C8
350
57
  3
C9
350
58
  3
D0
350
59
  3
D1
350
5A
  3
D2
350
5B
  0
DICTIONARY
  5
6B
102
{ACAD_REACTORS
330
C
102
}
330
C
100
AcDbDictionary
281
     1
  3
Standard
350
6C
  0
DICTIONARY
  5
29
102
{ACAD_REACTORS
330
C
102
}
330
C
100
AcDbDictionary
281
     1
  3
2dWireframe
350
2F
  3
3D Hidden
350
31
  3
3dWireframe
350
30
  3
Basic
350
2E
  3
Brighten
350
35
  3
ColorChange
350
39
  3
Conceptual
350
32
  3
Dim
350
34
  3
Facepattern
350
38
  3
Flat
350
2A
  3
FlatWithEdges
350
2B
  3
Gouraud
350
2C
  3
GouraudWithEdges
350
2D
  3
Linepattern
350
37
  3
Realistic
350
33
  3
Thicken
350
36
  0
XRECORD
  5
317
102
{ACAD_REACTORS
330
C
102
}
330
C
100
AcDbXrecord
280
     1
 90
        1
330
6C
  0
DICTIONARY
  5
30E
102
{ACAD_REACTORS
330
C
102
}
330
C
100
AcDbDictionary
281
     1
  3
CANNOSCALE
350
311
  3
CMLEADERSTYLE
350
310
  3
CTABLESTYLE
350
30F
  3
DIMASSOC
350
314
  3
INDEXCTL
350
313
  3
SORTENTS
350
312
  0
XRECORD
  5
318
102
{ACAD_REACTORS
330
C
102
}
330
C
100
AcDbXrecord
280
     1
  1
DWGPROPS COOKIE
  2

  3

  4

  6

  7

  8
MGP539
  9

300
=
301
=
302
=
303
=
304
=
305
=
306
=
307
=
308
=
309
=
 40
1.257704976851851
 41
2451218.549012037
 42
2455751.663227512
  1

 90
        0
  0
XRECORD
  5
2DE
102
{ACAD_REACTORS
330
2DD
102
}
330
2DD
100
AcDbXrecord
280
     1
290
     1
  0
XRECORD
  5
2E0
102
{ACAD_REACTORS
330
2DF
102
}
330
2DF
100
AcDbXrecord
280
     1
290
     1
  0
XRECORD
  5
2E2
102
{ACAD_REACTORS
330
2E1
102
}
330
2E1
100
AcDbXrecord
280
     1
290
     1
  0
XRECORD
  5
2E4
102
{ACAD_REACTORS
330
2E3
102
}
330
2E3
100
AcDbXrecord
280
     1
290
     1
  0
XRECORD
  5
2E6
102
{ACAD_REACTORS
330
2E5
102
}
330
2E5
100
AcDbXrecord
280
     1
290
     1
  0
XRECORD
  5
321
102
{ACAD_REACTORS
330
2D6
102
}
330
2D6
100
AcDbXrecord
280
     1
102
SHADEPLOT
 70
     0
  0
XRECORD
  5
2D7
102
{ACAD_REACTORS
330
2D6
102
}
330
2D6
100
AcDbXrecord
280
     1
 90
        1
340
3B
  0
XRECORD
  5
322
102
{ACAD_REACTORS
330
2DB
102
}
330
2DB
100
AcDbXrecord
280
     1
102
SHADEPLOT
 70
     0
  0
XRECORD
  5
2DC
102
{ACAD_REACTORS
330
2DB
102
}
330
2DB
100
AcDbXrecord
280
     1
 90
        1
340
3B
  0
LAYOUT
  5
73
102
{ACAD_XDICTIONARY
360
31D
102
}
102
{ACAD_REACTORS
330
69
102
}
330
69
100
AcDbPlotSettings
  1

  2
RightFax Fax Printer
  4
Letter
  6

 40
3.174999952316284
 41
3.174999952316284
 42
3.175003051757812
 43
3.17498779296875
 44
215.8999938964844
 45
279.3999938964844
 46
0.0
 47
0.0
 48
0.0
 49
0.0
140
0.0
141
0.0
142
1.0
143
1.0
 70
   688
 72
     0
 73
     1
 74
     5
  7
monochrome.ctb
 75
    16
147
1.0
148
0.0
149
0.0
100
AcDbLayout
  1
Layout1
 70
     1
 71
     1
 10
-0.1249995194082185
 20
-0.1249999981226884
 11
10.87500024029589
 21
8.37499976158142
 12
0.0
 22
0.0
 32
0.0
 14
1.074462919815516
 24
0.8243866185941577
 34
-0.0015258207003583
 15
9.675842310390251
 25
7.425109882402594
 35
0.0000000349246037
146
0.0
 13
0.0
 23
0.0
 33
0.0
 16
1.0
 26
0.0
 36
0.0
 17
0.0
 27
1.0
 37
0.0
 76
     0
330
70
331
2D5
1001
ACAD_PSEXT
1000
RightFax Fax Printer
1000
PDFCreator
1000
PostScript Fax Printer
1000
PostScript Fax Printer
1070
     0
  0
LAYOUT
  5
77
102
{ACAD_XDICTIONARY
360
31F
102
}
102
{ACAD_REACTORS
330
69
102
}
330
69
100
AcDbPlotSettings
  1

  2
RightFax Fax Printer
  4

  6

 40
0.0
 41
0.0
 42
0.0
 43
0.0
 44
0.0
 45
0.0
 46
0.0
 47
0.0
 48
0.0
 49
0.0
140
0.0
141
0.0
142
1.0
143
1.0
 70
  1712
 72
     0
 73
     0
 74
     0
  7
monochrome.ctb
 75
     0
147
1.0
148
0.0
149
0.0
100
AcDbLayout
  1
Model
 70
     1
 71
     0
 10
0.0
 20
0.0
 11
12.0
 21
9.0
 12
0.0
 22
0.0
 32
0.0
 14
0.0
 24
0.0
 34
0.0
 15
0.0
 25
0.0
 35
0.0
146
0.0
 13
0.0
 23
0.0
 33
0.0
 16
1.0
 26
0.0
 36
0.0
 17
0.0
 27
1.0
 37
0.0
 76
     0
330
74
  0
MATERIAL
  5
19
102
{ACAD_XDICTIONARY
360
1A
102
}
102
{ACAD_REACTORS
330
10
102
}
330
10
100
AcDbMaterial
  1
ByBlock
 72
     0
 43
0.0208333333333333
 43
0.0
 43
0.0
 43
0.0
 43
0.0
 43
0.0208333333333333
 43
0.0
 43
0.0
 43
0.0
 43
0.0
 43
1.0
 43
0.0
 43
0.0
 43
0.0
 43
0.0
 43
1.0
 77
     0
 47
0.0208333333333333
 47
0.0
 47
0.0
 47
0.0
 47
0.0
 47
0.0208333333333333
 47
0.0
 47
0.0
 47
0.0
 47
0.0
 47
1.0
 47
0.0
 47
0.0
 47
0.0
 47
0.0
 47
1.0
171
     0
 49
0.0208333333333333
 49
0.0
 49
0.0
 49
0.0
 49
0.0
 49
0.0208333333333333
 49
0.0
 49
0.0
 49
0.0
 49
0.0
 49
1.0
 49
0.0
 49
0.0
 49
0.0
 49
0.0
 49
1.0
175
     0
142
0.0208333333333333
142
0.0
142
0.0
142
0.0
142
0.0
142
0.0208333333333333
142
0.0
142
0.0
142
0.0
142
0.0
142
1.0
142
0.0
142
0.0
142
0.0
142
0.0
142
1.0
179
     0
144
0.0208333333333333
144
0.0
144
0.0
144
0.0
144
0.0
144
0.0208333333333333
144
0.0
144
0.0
144
0.0
144
0.0
144
1.0
144
0.0
144
0.0
144
0.0
144
0.0
144
1.0
147
0.0208333333333333
147
0.0
147
0.0
147
0.0
147
0.0
147
0.0208333333333333
147
0.0
147
0.0
147
0.0
147
0.0
147
1.0
147
0.0
147
0.0
147
0.0
147
0.0
147
1.0
  0
MATERIAL
  5
11
102
{ACAD_XDICTIONARY
360
12
102
}
102
{ACAD_REACTORS
330
10
102
}
330
10
100
AcDbMaterial
  1
ByLayer
 72
     0
 43
0.0208333333333333
 43
0.0
 43
0.0
 43
0.0
 43
0.0
 43
0.0208333333333333
 43
0.0
 43
0.0
 43
0.0
 43
0.0
 43
1.0
 43
0.0
 43
0.0
 43
0.0
 43
0.0
 43
1.0
 77
     0
 47
0.0208333333333333
 47
0.0
 47
0.0
 47
0.0
 47
0.0
 47
0.0208333333333333
 47
0.0
 47
0.0
 47
0.0
 47
0.0
 47
1.0
 47
0.0
 47
0.0
 47
0.0
 47
0.0
 47
1.0
171
     0
 49
0.0208333333333333
 49
0.0
 49
0.0
 49
0.0
 49
0.0
 49
0.0208333333333333
 49
0.0
 49
0.0
 49
0.0
 49
0.0
 49
1.0
 49
0.0
 49
0.0
 49
0.0
 49
0.0
 49
1.0
175
     0
142
0.0208333333333333
142
0.0
142
0.0
142
0.0
142
0.0
142
0.0208333333333333
142
0.0
142
0.0
142
0.0
142
0.0
142
1.0
142
0.0
142
0.0
142
0.0
142
0.0
142
1.0
179
     0
144
0.0208333333333333
144
0.0
144
0.0
144
0.0
144
0.0
144
0.0208333333333333
144
0.0
144
0.0
144
0.0
144
0.0
144
1.0
144
0.0
144
0.0
144
0.0
144
0.0
144
1.0
147
0.0208333333333333
147
0.0
147
0.0
147
0.0
147
0.0
147
0.0208333333333333
147
0.0
147
0.0
147
0.0
147
0.0
147
1.0
147
0.0
147
0.0
147
0.0
147
0.0
147
1.0
  0
MATERIAL
  5
21
102
{ACAD_XDICTIONARY
360
22
102
}
102
{ACAD_REACTORS
330
10
102
}
330
10
100
AcDbMaterial
  1
Global
 72
     0
 43
0.0208333333333333
 43
0.0
 43
0.0
 43
0.0
 43
0.0
 43
0.0208333333333333
 43
0.0
 43
0.0
 43
0.0
 43
0.0
 43
1.0
 43
0.0
 43
0.0
 43
0.0
 43
0.0
 43
1.0
 77
     0
 47
0.0208333333333333
 47
0.0
 47
0.0
 47
0.0
 47
0.0
 47
0.0208333333333333
 47
0.0
 47
0.0
 47
0.0
 47
0.0
 47
1.0
 47
0.0
 47
0.0
 47
0.0
 47
0.0
 47
1.0
171
     0
 49
0.0208333333333333
 49
0.0
 49
0.0
 49
0.0
 49
0.0
 49
0.0208333333333333
 49
0.0
 49
0.0
 49
0.0
 49
0.0
 49
1.0
 49
0.0
 49
0.0
 49
0.0
 49
0.0
 49
1.0
175
     0
142
0.0208333333333333
142
0.0
142
0.0
142
0.0
142
0.0
142
0.0208333333333333
142
0.0
142
0.0
142
0.0
142
0.0
142
1.0
142
0.0
142
0.0
142
0.0
142
0.0
142
1.0
179
     0
144
0.0208333333333333
144
0.0
144
0.0
144
0.0
144
0.0
144
0.0208333333333333
144
0.0
144
0.0
144
0.0
144
0.0
144
1.0
144
0.0
144
0.0
144
0.0
144
0.0
144
1.0
147
0.0208333333333333
147
0.0
147
0.0
147
0.0
147
0.0
147
0.0208333333333333
147
0.0
147
0.0
147
0.0
147
0.0
147
1.0
147
0.0
147
0.0
147
0.0
147
0.0
147
1.0
  0
MLEADERSTYLE
  5
6E
102
{ACAD_REACTORS
330
6D
102
}
330
6D
100
AcDbMLeaderStyle
170
     2
171
     1
172
     0
 90
        2
 40
0.0
 41
0.0
173
     1
 91
-1056964608
340
62
 92
       -2
290
     1
 42
0.09
291
     1
 43
0.36
  3
Standard
 44
0.18
300

342
5D
174
     1
178
     6
175
     1
176
     0
 93
-1056964608
 45
0.18
292
     0
297
     0
 46
0.18
 94
-1056964608
 47
1.0
 49
1.0
140
1.0
293
     1
141
0.0
294
     1
177
     0
142
1.0
295
     0
296
     0
143
0.125
1001
ACAD_MLEADERVER
1070
     2
  0
MLINESTYLE
  5
67
102
{ACAD_REACTORS
330
66
102
}
330
66
100
AcDbMlineStyle
  2
STANDARD
 70
     0
  3

 62
   256
 51
90.0
 52
90.0
 71
     2
 49
0.5
 62
   256
  6
BYLAYER
 49
-0.5
 62
   256
  6
BYLAYER
  0
ACDBPLACEHOLDER
  5
F
102
{ACAD_REACTORS
330
E
102
}
330
E
  0
SCALE
  5
3B
102
{ACAD_REACTORS
330
3A
102
}
330
3A
100
AcDbScale
 70
     0
300
1:1
140
1.0
141
1.0
290
     1
  0
SCALE
  5
3C
102
{ACAD_REACTORS
330
3A
102
}
330
3A
100
AcDbScale
 70
     0
300
1:2
140
1.0
141
2.0
290
     0
  0
SCALE
  5
3D
102
{ACAD_REACTORS
330
3A
102
}
330
3A
100
AcDbScale
 70
     0
300
1:4
140
1.0
141
4.0
290
     0
  0
SCALE
  5
3E
102
{ACAD_REACTORS
330
3A
102
}
330
3A
100
AcDbScale
 70
     0
300
1:5
140
1.0
141
5.0
290
     0
  0
SCALE
  5
3F
102
{ACAD_REACTORS
330
3A
102
}
330
3A
100
AcDbScale
 70
     0
300
1:8
140
1.0
141
8.0
290
     0
  0
SCALE
  5
40
102
{ACAD_REACTORS
330
3A
102
}
330
3A
100
AcDbScale
 70
     0
300
1:10
140
1.0
141
10.0
290
     0
  0
SCALE
  5
41
102
{ACAD_REACTORS
330
3A
102
}
330
3A
100
AcDbScale
 70
     0
300
1:16
140
1.0
141
16.0
290
     0
  0
SCALE
  5
42
102
{ACAD_REACTORS
330
3A
102
}
330
3A
100
AcDbScale
 70
     0
300
1:20
140
1.0
141
20.0
290
     0
  0
SCALE
  5
43
102
{ACAD_REACTORS
330
3A
102
}
330
3A
100
AcDbScale
 70
     0
300
1:30
140
1.0
141
30.0
290
     0
  0
SCALE
  5
44
102
{ACAD_REACTORS
330
3A
102
}
330
3A
100
AcDbScale
 70
     0
300
1:40
140
1.0
141
40.0
290
     0
  0
SCALE
  5
45
102
{ACAD_REACTORS
330
3A
102
}
330
3A
100
AcDbScale
 70
     0
300
1:50
140
1.0
141
50.0
290
     0
  0
SCALE
  5
46
102
{ACAD_REACTORS
330
3A
102
}
330
3A
100
AcDbScale
 70
     0
300
1:100
140
1.0
141
100.0
290
     0
  0
SCALE
  5
47
102
{ACAD_REACTORS
330
3A
102
}
330
3A
100
AcDbScale
 70
     0
300
2:1
140
2.0
141
1.0
290
     0
  0
SCALE
  5
48
102
{ACAD_REACTORS
330
3A
102
}
330
3A
100
AcDbScale
 70
     0
300
4:1
140
4.0
141
1.0
290
     0
  0
SCALE
  5
49
102
{ACAD_REACTORS
330
3A
102
}
330
3A
100
AcDbScale
 70
     0
300
8:1
140
8.0
141
1.0
290
     0
  0
SCALE
  5
4A
102
{ACAD_REACTORS
330
3A
102
}
330
3A
100
AcDbScale
 70
     0
300
10:1
140
10.0
141
1.0
290
     0
  0
SCALE
  5
4B
102
{ACAD_REACTORS
330
3A
102
}
330
3A
100
AcDbScale
 70
     0
300
100:1
140
100.0
141
1.0
290
     0
  0
SCALE
  5
4C
102
{ACAD_REACTORS
330
3A
102
}
330
3A
100
AcDbScale
 70
     0
300
1/128" = 1'-0"
140
0.0078125
141
12.0
290
     0
  0
SCALE
  5
4D
102
{ACAD_REACTORS
330
3A
102
}
330
3A
100
AcDbScale
 70
     0
300
1/64" = 1'-0"
140
0.015625
141
12.0
290
     0
  0
SCALE
  5
4E
102
{ACAD_REACTORS
330
3A
102
}
330
3A
100
AcDbScale
 70
     0
300
1/32" = 1'-0"
140
0.03125
141
12.0
290
     0
  0
SCALE
  5
4F
102
{ACAD_REACTORS
330
3A
102
}
330
3A
100
AcDbScale
 70
     0
300
1/16" = 1'-0"
140
0.0625
141
12.0
290
     0
  0
SCALE
  5
50
102
{ACAD_REACTORS
330
3A
102
}
330
3A
100
AcDbScale
 70
     0
300
3/32" = 1'-0"
140
0.09375
141
12.0
290
     0
  0
SCALE
  5
51
102
{ACAD_REACTORS
330
3A
102
}
330
3A
100
AcDbScale
 70
     0
300
1/8" = 1'-0"
140
0.125
141
12.0
290
     0
  0
SCALE
  5
52
102
{ACAD_REACTORS
330
3A
102
}
330
3A
100
AcDbScale
 70
     0
300
3/16" = 1'-0"
140
0.1875
141
12.0
290
     0
  0
SCALE
  5
53
102
{ACAD_REACTORS
330
3A
102
}
330
3A
100
AcDbScale
 70
     0
300
1/4" = 1'-0"
140
0.25
141
12.0
290
     0
  0
SCALE
  5
54
102
{ACAD_REACTORS
330
3A
102
}
330
3A
100
AcDbScale
 70
     0
300
3/8" = 1'-0"
140
0.375
141
12.0
290
     0
  0
SCALE
  5
55
102
{ACAD_REACTORS
330
3A
102
}
330
3A
100
AcDbScale
 70
     0
300
1/2" = 1'-0"
140
0.5
141
12.0
290
     0
  0
SCALE
  5
56
102
{ACAD_REACTORS
330
3A
102
}
330
3A
100
AcDbScale
 70
     0
300
3/4" = 1'-0"
140
0.75
141
12.0
290
     0
  0
SCALE
  5
57
102
{ACAD_REACTORS
330
3A
102
}
330
3A
100
AcDbScale
 70
     0
300
1" = 1'-0"
140
1.0
141
12.0
290
     0
  0
SCALE
  5
58
102
{ACAD_REACTORS
330
3A
102
}
330
3A
100
AcDbScale
 70
     0
300
1-1/2" = 1'-0"
140
1.5
141
12.0
290
     0
  0
SCALE
  5
59
102
{ACAD_REACTORS
330
3A
102
}
330
3A
100
AcDbScale
 70
     0
300
3" = 1'-0"
140
3.0
141
12.0
290
     0
  0
SCALE
  5
5A
102
{ACAD_REACTORS
330
3A
102
}
330
3A
100
AcDbScale
 70
     0
300
6" = 1'-0"
140
6.0
141
12.0
290
     0
  0
SCALE
  5
5B
102
{ACAD_REACTORS
330
3A
102
}
330
3A
100
AcDbScale
 70
     0
300
1'-0" = 1'-0"
140
12.0
141
12.0
290
     0
  0
TABLESTYLE
  5
6C
102
{ACAD_XDICTIONARY
360
315
102
}
102
{ACAD_REACTORS
330
6B
102
}
330
6B
100
AcDbTableStyle
  3
Standard
 70
     0
 71
     0
 40
0.06
 41
0.06
280
     0
281
     0
  7
STANDARD
140
0.18
170
     2
 62
     0
 63
     7
283
     0
274
    -2
284
     1
 64
     0
275
    -2
285
     1
 65
     0
276
    -2
286
     1
 66
     0
277
    -2
287
     1
 67
     0
278
    -2
288
     1
 68
     0
279
    -2
289
     1
 69
     0
  7
STANDARD
140
0.25
170
     5
 62
     0
 63
     7
283
     0
274
    -2
284
     1
 64
     0
275
    -2
285
     1
 65
     0
276
    -2
286
     1
 66
     0
277
    -2
287
     1
 67
     0
278
    -2
288
     1
 68
     0
279
    -2
289
     1
 69
     0
  7
STANDARD
140
0.18
170
     5
 62
     0
 63
     7
283
     0
274
    -2
284
     1
 64
     0
275
    -2
285
     1
 65
     0
276
    -2
286
     1
 66
     0
277
    -2
287
     1
 67
     0
278
    -2
288
     1
 68
     0
279
    -2
289
     1
 69
     0
  0
VISUALSTYLE
  5
2F
102
{ACAD_REACTORS
330
29
102
}
330
29
100
AcDbVisualStyle
  2
2dWireframe
 70
     4
 71
     0
 72
     2
 73
     0
 90
        0
 40
-0.6
 41
-30.0
 62
     5
 63
     7
 74
     1
 91
        4
 64
     7
 65
   257
 75
     1
175
     1
 42
1.0
 92
        0
 66
   257
 43
1.0
 76
     1
 77
     6
 78
     2
 67
     7
 79
     5
170
     0
171
     0
290
     0
174
     0
 93
        1
 44
0.0
173
     0
291
     0
 45
0.0
1001
ACAD
1000
AcDbSavedByObjectVersion
1070
     0
  0
VISUALSTYLE
  5
31
102
{ACAD_REACTORS
330
29
102
}
330
29
100
AcDbVisualStyle
  2
3D Hidden
 70
     6
 71
     1
 72
     2
 73
     2
 90
        0
 40
-0.6
 41
-30.0
 62
     5
 63
     7
 74
     2
 91
        2
 64
     7
 65
   257
 75
     2
175
     1
 42
40.0
 92
        0
 66
   257
 43
1.0
 76
     1
 77
     6
 78
     2
 67
     7
 79
     3
170
     0
171
     0
290
     0
174
     0
 93
        1
 44
0.0
173
     0
291
     0
 45
0.0
1001
ACAD
1000
AcDbSavedByObjectVersion
1070
     0
  0
VISUALSTYLE
  5
30
102
{ACAD_REACTORS
330
29
102
}
330
29
100
AcDbVisualStyle
  2
3dWireframe
 70
     5
 71
     0
 72
     2
 73
     0
 90
        0
 40
-0.6
 41
-30.0
 62
     5
 63
     7
 74
     1
 91
        4
 64
     7
 65
   257
 75
     1
175
     1
 42
1.0
 92
        0
 66
   257
 43
1.0
 76
     1
 77
     6
 78
     2
 67
     7
 79
     5
170
     0
171
     0
290
     0
174
     0
 93
        1
 44
0.0
173
     0
291
     0
 45
0.0
1001
ACAD
1000
AcDbSavedByObjectVersion
1070
     0
  0
VISUALSTYLE
  5
2E
102
{ACAD_REACTORS
330
29
102
}
330
29
100
AcDbVisualStyle
  2
Basic
 70
     7
 71
     1
 72
     0
 73
     1
 90
        0
 40
-0.6
 41
-30.0
 62
     5
 63
     7
 74
     0
 91
        4
 64
     7
 65
   257
 75
     1
175
     1
 42
1.0
 92
        8
 66
     7
 43
1.0
 76
     1
 77
     6
 78
     2
 67
     7
 79
     5
170
     0
171
     0
290
     0
174
     0
 93
        1
 44
0.0
173
     0
291
     1
 45
0.0
1001
ACAD
1000
AcDbSavedByObjectVersion
1070
     0
  0
VISUALSTYLE
  5
35
102
{ACAD_REACTORS
330
29
102
}
330
29
100
AcDbVisualStyle
  2
Brighten
 70
    12
 71
     2
 72
     2
 73
     0
 90
        0
 40
-0.6
 41
-30.0
 62
     5
 63
     7
 74
     1
 91
        4
 64
     7
 65
   257
 75
     1
175
     1
 42
1.0
 92
        8
 66
     7
 43
1.0
 76
     1
 77
     6
 78
     2
 67
     7
 79
     5
170
     0
171
     0
290
     0
174
     0
 93
        1
 44
50.0
173
     0
291
     1
 45
0.0
1001
ACAD
1000
AcDbSavedByObjectVersion
1070
     0
  0
VISUALSTYLE
  5
39
102
{ACAD_REACTORS
330
29
102
}
330
29
100
AcDbVisualStyle
  2
ColorChange
 70
    16
 71
     2
 72
     2
 73
     3
 90
        0
 40
-0.6
 41
-30.0
 62
     5
 63
     8
 74
     1
 91
        4
 64
     7
 65
   257
 75
     1
175
     1
 42
1.0
 92
        8
 66
     8
 43
1.0
 76
     1
 77
     6
 78
     2
 67
     7
 79
     5
170
     0
171
     0
290
     0
174
     0
 93
        1
 44
0.0
173
     0
291
     1
 45
0.0
1001
ACAD
1000
AcDbSavedByObjectVersion
1070
     0
  0
VISUALSTYLE
  5
32
102
{ACAD_REACTORS
330
29
102
}
330
29
100
AcDbVisualStyle
  2
Conceptual
 70
     9
 71
     3
 72
     2
 73
     0
 90
        0
 40
-0.6
 41
-30.0
 62
     5
 63
     7
 74
     2
 91
        2
 64
     7
 65
   257
 75
     1
175
     1
 42
40.0
 92
        8
 66
     7
 43
1.0
 76
     1
 77
     6
 78
     2
 67
     7
 79
     3
170
     0
171
     0
290
     0
174
     0
 93
        1
 44
0.0
173
     0
291
     0
 45
0.0
1001
ACAD
1000
AcDbSavedByObjectVersion
1070
     0
  0
VISUALSTYLE
  5
34
102
{ACAD_REACTORS
330
29
102
}
330
29
100
AcDbVisualStyle
  2
Dim
 70
    11
 71
     2
 72
     2
 73
     0
 90
        0
 40
-0.6
 41
-30.0
 62
     5
 63
     7
 74
     1
 91
        4
 64
     7
 65
   257
 75
     1
175
     1
 42
1.0
 92
        8
 66
     7
 43
1.0
 76
     1
 77
     6
 78
     2
 67
     7
 79
     5
170
     0
171
     0
290
     0
174
     0
 93
        1
 44
-50.0
173
     0
291
     1
 45
0.0
1001
ACAD
1000
AcDbSavedByObjectVersion
1070
     0
  0
VISUALSTYLE
  5
38
102
{ACAD_REACTORS
330
29
102
}
330
29
100
AcDbVisualStyle
  2
Facepattern
 70
    15
 71
     2
 72
     2
 73
     0
 90
        0
 40
-0.6
 41
-30.0
 62
     5
 63
     7
 74
     1
 91
        4
 64
     7
 65
   257
 75
     1
175
     1
 42
1.0
 92
        8
 66
     7
 43
1.0
 76
     1
 77
     6
 78
     2
 67
     7
 79
     5
170
     0
171
     0
290
     0
174
     0
 93
        1
 44
0.0
173
     0
291
     1
 45
0.0
1001
ACAD
1000
AcDbSavedByObjectVersion
1070
     0
  0
VISUALSTYLE
  5
2A
102
{ACAD_REACTORS
330
29
102
}
330
29
100
AcDbVisualStyle
  2
Flat
 70
     0
 71
     2
 72
     1
 73
     1
 90
        2
 40
-0.6
 41
30.0
 62
     5
 63
     7
 74
     0
 91
        4
 64
     7
 65
   257
 75
     1
175
     1
 42
1.0
 92
        8
 66
     7
 43
1.0
 76
     1
 77
     6
 78
     2
 67
     7
 79
     5
170
     0
171
     0
290
     0
174
     0
 93
       13
 44
0.0
173
     0
291
     1
 45
0.0
1001
ACAD
1000
AcDbSavedByObjectVersion
1070
     0
  0
VISUALSTYLE
  5
2B
102
{ACAD_REACTORS
330
29
102
}
330
29
100
AcDbVisualStyle
  2
FlatWithEdges
 70
     1
 71
     2
 72
     1
 73
     1
 90
        2
 40
-0.6
 41
30.0
 62
     5
 63
     7
 74
     1
 91
        4
 64
     7
 65
   257
 75
     1
175
     1
 42
1.0
 92
        0
 66
   257
 43
1.0
 76
     1
 77
     6
 78
     2
 67
     7
 79
     5
170
     0
171
     0
290
     0
174
     0
 93
       13
 44
0.0
173
     0
291
     1
 45
0.0
1001
ACAD
1000
AcDbSavedByObjectVersion
1070
     0
  0
VISUALSTYLE
  5
2C
102
{ACAD_REACTORS
330
29
102
}
330
29
100
AcDbVisualStyle
  2
Gouraud
 70
     2
 71
     2
 72
     2
 73
     1
 90
        2
 40
-0.6
 41
30.0
 62
     5
 63
     7
 74
     0
 91
        4
 64
     7
 65
   257
 75
     1
175
     1
 42
1.0
 92
        0
 66
     7
 43
1.0
 76
     1
 77
     6
 78
     2
 67
     7
 79
     5
170
     0
171
     0
290
     0
174
     0
 93
       13
 44
0.0
173
     0
291
     1
 45
0.0
1001
ACAD
1000
AcDbSavedByObjectVersion
1070
     0
  0
VISUALSTYLE
  5
2D
102
{ACAD_REACTORS
330
29
102
}
330
29
100
AcDbVisualStyle
  2
GouraudWithEdges
 70
     3
 71
     2
 72
     2
 73
     1
 90
        2
 40
-0.6
 41
30.0
 62
     5
 63
     7
 74
     1
 91
        4
 64
     7
 65
   257
 75
     1
175
     1
 42
1.0
 92
        0
 66
   257
 43
1.0
 76
     1
 77
     6
 78
     2
 67
     7
 79
     5
170
     0
171
     0
290
     0
174
     0
 93
       13
 44
0.0
173
     0
291
     1
 45
0.0
1001
ACAD
1000
AcDbSavedByObjectVersion
1070
     0
  0
VISUALSTYLE
  5
37
102
{ACAD_REACTORS
330
29
102
}
330
29
100
AcDbVisualStyle
  2
Linepattern
 70
    14
 71
     2
 72
     2
 73
     0
 90
        0
 40
-0.6
 41
-30.0
 62
     5
 63
     7
 74
     1
 91
        4
 64
     7
 65
   257
 75
     7
175
     7
 42
1.0
 92
        8
 66
     7
 43
1.0
 76
     1
 77
     6
 78
     2
 67
     7
 79
     5
170
     0
171
     0
290
     0
174
     0
 93
        1
 44
0.0
173
     0
291
     1
 45
0.0
1001
ACAD
1000
AcDbSavedByObjectVersion
1070
     0
  0
VISUALSTYLE
  5
33
102
{ACAD_REACTORS
330
29
102
}
330
29
100
AcDbVisualStyle
  2
Realistic
 70
     8
 71
     2
 72
     2
 73
     0
 90
        0
 40
-0.6
 41
-30.0
 62
     5
 63
     7
 74
     1
 91
        0
 64
     7
 65
   257
 75
     1
175
     1
 42
1.0
 92
        8
 66
     8
 43
1.0
 76
     1
 77
     6
 78
     2
 67
     7
 79
     5
170
     0
171
     0
290
     0
174
     0
 93
       13
 44
0.0
173
     0
291
     0
 45
0.0
1001
ACAD
1000
AcDbSavedByObjectVersion
1070
     0
  0
VISUALSTYLE
  5
36
102
{ACAD_REACTORS
330
29
102
}
330
29
100
AcDbVisualStyle
  2
Thicken
 70
    13
 71
     2
 72
     2
 73
     0
 90
        0
 40
-0.6
 41
-30.0
 62
     5
 63
     7
 74
     1
 91
        4
 64
     7
 65
   257
 75
     1
175
     1
 42
1.0
 92
       12
 66
     7
 43
1.0
 76
     1
 77
     6
 78
     2
 67
     7
 79
     5
170
     0
171
     0
290
     0
174
     0
 93
        1
 44
0.0
173
     0
291
     1
 45
0.0
1001
ACAD
1000
AcDbSavedByObjectVersion
1070
     0
  0
DICTIONARYVAR
  5
311
102
{ACAD_REACTORS
330
30E
102
}
330
30E
100
DictionaryVariables
280
     0
  1
1:1
  0
DICTIONARYVAR
  5
310
102
{ACAD_REACTORS
330
30E
102
}
330
30E
100
DictionaryVariables
280
     0
  1
STANDARD
  0
DICTIONARYVAR
  5
30F
102
{ACAD_REACTORS
330
30E
102
}
330
30E
100
DictionaryVariables
280
     0
  1
STANDARD
  0
DICTIONARYVAR
  5
314
102
{ACAD_REACTORS
330
30E
102
}
330
30E
100
DictionaryVariables
280
     0
  1
1
  0
DICTIONARYVAR
  5
313
102
{ACAD_REACTORS
330
30E
102
}
330
30E
100
DictionaryVariables
280
     0
  1
0
  0
DICTIONARYVAR
  5
312
102
{ACAD_REACTORS
330
30E
102
}
330
30E
100
DictionaryVariables
280
     0
  1
127
  0
DICTIONARY
  5
31D
330
73
100
AcDbDictionary
280
     1
281
     1
  3
ACAD_XREC_ROUNDTRIP
360
31E
  0
DICTIONARY
  5
31F
330
77
100
AcDbDictionary
280
     1
281
     1
  3
ACAD_XREC_ROUNDTRIP
360
320
  0
DICTIONARY
  5
1A
330
19
100
AcDbDictionary
280
     1
281
     1
  3
ACAD_XREC_ROUNDTRIP
360
31A
  3
BUMPTILE
360
1C
  3
DIFFUSETILE
360
1B
  3
OPACITYTILE
360
1F
  3
REFLECTIONTILE
360
1E
  3
REFRACTIONTILE
360
20
  3
SPECULARTILE
360
1D
  0
DICTIONARY
  5
12
330
11
100
AcDbDictionary
280
     1
281
     1
  3
ACAD_XREC_ROUNDTRIP
360
319
  3
BUMPTILE
360
14
  3
DIFFUSETILE
360
13
  3
OPACITYTILE
360
17
  3
REFLECTIONTILE
360
16
  3
REFRACTIONTILE
360
18
  3
SPECULARTILE
360
15
  0
DICTIONARY
  5
22
330
21
100
AcDbDictionary
280
     1
281
     1
  3
ACAD_XREC_ROUNDTRIP
360
31B
  3
BUMPTILE
360
24
  3
DIFFUSETILE
360
23
  3
OPACITYTILE
360
27
  3
REFLECTIONTILE
360
26
  3
REFRACTIONTILE
360
28
  3
SPECULARTILE
360
25
  0
DICTIONARY
  5
315
330
6C
100
AcDbDictionary
280
     1
281
     1
  3
ACAD_ROUNDTRIP_2008_TABLESTYLE_CELLSTYLEMAP
360
316
  3
ACAD_XREC_ROUNDTRIP
360
31C
  0
XRECORD
  5
31E
102
{ACAD_REACTORS
330
31D
102
}
330
31D
100
AcDbXrecord
280
     1
102
SHADEPLOT
 70
     0
102
SHADEPLOTRESLEVEL
 70
     2
102
SHADEPLOTCUSTOMDPI
 70
   300
  0
XRECORD
  5
320
102
{ACAD_REACTORS
330
31F
102
}
330
31F
100
AcDbXrecord
280
     1
102
SHADEPLOT
 70
     0
102
SHADEPLOTRESLEVEL
 70
     2
102
SHADEPLOTCUSTOMDPI
 70
   300
  0
XRECORD
  5
31A
102
{ACAD_REACTORS
330
1A
102
}
330
1A
100
AcDbXrecord
280
     1
102
MATERIAL
148
0.0
149
0.0
149
0.0
 93
        0
 94
      127
282
     0
 72
     0
 77
     0
171
     0
175
     0
179
     0
273
     0
  0
XRECORD
  5
1C
102
{ACAD_REACTORS
330
1A
102
}
330
1A
100
AcDbXrecord
280
     1
270
     1
271
     1
  0
XRECORD
  5
1B
102
{ACAD_REACTORS
330
1A
102
}
330
1A
100
AcDbXrecord
280
     1
270
     1
271
     1
  0
XRECORD
  5
1F
102
{ACAD_REACTORS
330
1A
102
}
330
1A
100
AcDbXrecord
280
     1
270
     1
271
     1
  0
XRECORD
  5
1E
102
{ACAD_REACTORS
330
1A
102
}
330
1A
100
AcDbXrecord
280
     1
270
     1
271
     1
  0
XRECORD
  5
20
102
{ACAD_REACTORS
330
1A
102
}
330
1A
100
AcDbXrecord
280
     1
270
     1
271
     1
  0
XRECORD
  5
1D
102
{ACAD_REACTORS
330
1A
102
}
330
1A
100
AcDbXrecord
280
     1
270
     1
271
     1
  0
XRECORD
  5
319
102
{ACAD_REACTORS
330
12
102
}
330
12
100
AcDbXrecord
280
     1
102
MATERIAL
148
0.0
149
0.0
149
0.0
 93
        0
 94
      127
282
     0
 72
     0
 77
     0
171
     0
175
     0
179
     0
273
     0
  0
XRECORD
  5
14
102
{ACAD_REACTORS
330
12
102
}
330
12
100
AcDbXrecord
280
     1
270
     1
271
     1
  0
XRECORD
  5
13
102
{ACAD_REACTORS
330
12
102
}
330
12
100
AcDbXrecord
280
     1
270
     1
271
     1
  0
XRECORD
  5
17
102
{ACAD_REACTORS
330
12
102
}
330
12
100
AcDbXrecord
280
     1
270
     1
271
     1
  0
XRECORD
  5
16
102
{ACAD_REACTORS
330
12
102
}
330
12
100
AcDbXrecord
280
     1
270
     1
271
     1
  0
XRECORD
  5
18
102
{ACAD_REACTORS
330
12
102
}
330
12
100
AcDbXrecord
280
     1
270
     1
271
     1
  0
XRECORD
  5
15
102
{ACAD_REACTORS
330
12
102
}
330
12
100
AcDbXrecord
280
     1
270
     1
271
     1
  0
XRECORD
  5
31B
102
{ACAD_REACTORS
330
22
102
}
330
22
100
AcDbXrecord
280
     1
102
MATERIAL
148
0.0
149
0.0
149
0.0
 93
        0
 94
      127
282
     0
 72
     0
 77
     0
171
     0
175
     0
179
     0
273
     0
  0
XRECORD
  5
24
102
{ACAD_REACTORS
330
22
102
}
330
22
100
AcDbXrecord
280
     1
270
     1
271
     1
  0
XRECORD
  5
23
102
{ACAD_REACTORS
330
22
102
}
330
22
100
AcDbXrecord
280
     1
270
     1
271
     1
  0
XRECORD
  5
27
102
{ACAD_REACTORS
330
22
102
}
330
22
100
AcDbXrecord
280
     1
270
     1
271
     1
  0
XRECORD
  5
26
102
{ACAD_REACTORS
330
22
102
}
330
22
100
AcDbXrecord
280
     1
270
     1
271
     1
  0
XRECORD
  5
28
102
{ACAD_REACTORS
330
22
102
}
330
22
100
AcDbXrecord
280
     1
270
     1
271
     1
  0
XRECORD
  5
25
102
{ACAD_REACTORS
330
22
102
}
330
22
100
AcDbXrecord
280
     1
270
     1
271
     1
  0
CELLSTYLEMAP
  5
316
102
{ACAD_REACTORS
330
315
102
}
330
315
100
AcDbCellStyleMap
 90
        3
300
CELLSTYLE
  1
TABLEFORMAT_BEGIN
 90
        5
170
     1
 91
        0
 92
    32768
 62
   257
 93
        1
300
CONTENTFORMAT
  1
CONTENTFORMAT_BEGIN
 90
        0
 91
        0
 92
      512
 93
        0
300

 40
0.0
140
1.0
 94
        5
 62
     0
340
5D
144
0.25
309
CONTENTFORMAT_END
171
     0
 94
        0
309
TABLEFORMAT_END
  1
CELLSTYLE_BEGIN
 90
        1
 91
        1
300
_TITLE
309
CELLSTYLE_END
300
CELLSTYLE
  1
TABLEFORMAT_BEGIN
 90
        5
170
     1
 91
        0
 92
        0
 62
   257
 93
        1
300
CONTENTFORMAT
  1
CONTENTFORMAT_BEGIN
 90
        0
 91
        0
 92
      512
 93
        0
300

 40
0.0
140
1.0
 94
        5
 62
     0
340
5D
144
0.18
309
CONTENTFORMAT_END
171
     0
 94
        0
309
TABLEFORMAT_END
  1
CELLSTYLE_BEGIN
 90
        2
 91
        1
300
_HEADER
309
CELLSTYLE_END
300
CELLSTYLE
  1
TABLEFORMAT_BEGIN
 90
        5
170
     1
 91
        0
 92
        0
 62
   257
 93
        1
300
CONTENTFORMAT
  1
CONTENTFORMAT_BEGIN
 90
        0
 91
        0
 92
      512
 93
        0
300

 40
0.0
140
1.0
 94
        2
 62
     0
340
5D
144
0.18
309
CONTENTFORMAT_END
171
     0
 94
        0
309
TABLEFORMAT_END
  1
CELLSTYLE_BEGIN
 90
        3
 91
        2
300
_DATA
309
CELLSTYLE_END
  0
XRECORD
  5
31C
102
{ACAD_REACTORS
330
315
102
}
330
315
100
AcDbXrecord
280
     1
102
ACAD_ROUNDTRIP_PRE2007_TABLESTYLE
 90
      512
 91
        0
  1

 92
      512
 93
        0
  2

 94
      512
 95
        0
  3

  0
ENDSEC
  0
EOF
