999
DXF file: C:\Users\sesa63760\Dev\_Creo\CAD\MCADPD0003857_3D-CAD\drw0001_5.dxf
999
Pro/ENGINEER 2019471 by Parametric Technology Corporation
  0
SECTION
  2
HEADER
  9
$ACADVER
  1
AC1024
  9
$DWGCODEPAGE
  3
ANSI_1252
  9
$EXTMAX
 10
206.4030497755
 20
291.9128846825
 30
0.0
  9
$EXTMIN
 10
0.0
 20
0.0
 30
0.0
  9
$LIMMIN
 10
0.0
 20
0.0
  9
$LIMMAX
 10
206.4030497755
 20
291.9128846825
  9
$VIEWCTR
 10
103.2015248877
 20
145.9564423412
  9
$VIEWSIZE
 40
291.9128846825
  9
$CLAYER
  8
0
  9
$LTSCALE
 40
19.028395446
  9
$CELTYPE
  6
BYLAYER
  9
$DIMSCALE
 40
1.0
  9
$DIMASZ
 40
2.457179164
  9
$DIMEXO
 40
1.0
  9
$DIMDLI
 40
13.146891399
  9
$DIMEXE
 40
1.0
  9
$DIMCEN
 40
3.1137374366
  9
$DIMLFAC
 40
1.0
  9
$DIMBLK
  1
_FILLED
  9
$DIMALT
 70
0
  9
$DIMALTF
 40
0.0393700787
  9
$DIMTXT
 40
3.4400508296
  9
$DIMTOL
 70
1
  9
$DIMLIM
 70
0
  9
$DIMTFAC
 40
1.0
  9
$DIMTP
 40
0.01
  9
$DIMTM
 40
0.01
  9
$DIMGAP
 40
0.625
  9
$DIMDSEP
 70
46
  9
$AUNITS
 70
0
  9
$PDMODE
 70
3
  9
$PDSIZE
 40
0.3125
  9
$HANDSEED
  5
287
  9
$TILEMODE
 70
1
  9
$MEASUREMENT
 70
1
  9
$INSUNITS
 70
4
  0
ENDSEC
  0
SECTION
  2
CLASSES
  0
CLASS
  1
ACDBDICTIONARYWDFLT
  2
AcDbDictionaryWithDefault
  3
AutoCAD 2000
 90
0
 91
1
280
0
281
0
  0
CLASS
  1
ACDBPLACEHOLDER
  2
AcDbPlaceHolder
  3
AutoCAD 2000
 90
0
 91
1
280
0
281
0
  0
CLASS
  1
LAYOUT
  2
AcDbLayout
  3
AutoCAD 2000
 90
0
 91
0
280
0
281
0
  0
ENDSEC
  0
SECTION
  2
TABLES
  0
TABLE
  2
VPORT
  5
8
100
AcDbSymbolTable
 70
2
  0
VPORT
  5
1F4
100
AcDbSymbolTableRecord
100
AcDbViewportTableRecord
  2
*ACTIVE
 70
0
 10
0.0
 20
0.0
 11
1.0
 21
1.0
 12
103.2015248877
 22
145.9564423412
 13
0.0
 23
0.0
 14
1.0
 24
1.0
 15
0.0
 25
0.0
 16
0.0
 26
0.0
 36
1.0
 17
0.0
 27
0.0
 37
0.0
 40
291.9128846825
 41
0.7070707071
 42
50.0
 43
0.0
 44
0.0
 50
0.0
 51
0.0
 71
0
 72
100
 73
1
 74
1
 75
0
 76
0
 77
0
 78
0
  0
ENDTAB
  0
TABLE
  2
LTYPE
  5
5
100
AcDbSymbolTable
 70
6
  0
LTYPE
  5
14
100
AcDbSymbolTableRecord
100
AcDbLinetypeTableRecord
  2
BYBLOCK
 70
0
  3

 72
65
 73
0
 40
0.0
  0
LTYPE
  5
15
100
AcDbSymbolTableRecord
100
AcDbLinetypeTableRecord
  2
BYLAYER
 70
0
  3

 72
65
 73
0
 40
0.0
  0
LTYPE
  5
16
100
AcDbSymbolTableRecord
100
AcDbLinetypeTableRecord
  2
CONTINUOUS
 70
64
  3
Solid line
 72
65
 73
0
 40
0.0
  0
LTYPE
  5
1F5
100
AcDbSymbolTableRecord
100
AcDbLinetypeTableRecord
  2
CENTER
 70
64
  3
____ _ ____ _ ____ _ ____ _ ____ _ ____ _ ____
 72
65
 73
4
 40
0.6
 49
0.375
 74
0
 49
-0.075
 74
0
 49
0.075
 74
0
 49
-0.075
 74
0
  0
LTYPE
  5
1F6
100
AcDbSymbolTableRecord
100
AcDbLinetypeTableRecord
  2
HIDDEN
 70
64
  3
- - - - - - - - - - - - - - - - - - - -
 72
65
 73
2
 40
0.2
 49
0.1
 74
0
 49
-0.1
 74
0
  0
LTYPE
  5
1F7
100
AcDbSymbolTableRecord
100
AcDbLinetypeTableRecord
  2
PHANTOM
 70
64
  3
_____ _ _ _____ _ _ _____ _ _ _____
 72
65
 73
6
 40
0.8
 49
0.45
 74
0
 49
-0.05
 74
0
 49
0.1
 74
0
 49
-0.05
 74
0
 49
0.1
 74
0
 49
-0.05
 74
0
  0
LTYPE
  5
1F8
100
AcDbSymbolTableRecord
100
AcDbLinetypeTableRecord
  2
DOT
 70
64
  3
. . . . . . . . . . . . . . . . . . . .
 72
65
 73
2
 40
0.2
 49
0.1
 74
0
 49
-0.1
 74
0
  0
LTYPE
  5
1F9
100
AcDbSymbolTableRecord
100
AcDbLinetypeTableRecord
  2
DASHED
 70
64
  3
- - - - - - - - - - - - - - - - - - - -
 72
65
 73
2
 40
0.2
 49
0.1
 74
0
 49
-0.1
 74
0
  0
ENDTAB
  0
TABLE
  2
LAYER
  5
2
100
AcDbSymbolTable
 70
36
  0
LAYER
  5
10
100
AcDbSymbolTableRecord
100
AcDbLayerTableRecord
  2
0
 70
0
 62
7
  6
CONTINUOUS
370
-3
390
F
  0
LAYER
  5
1FA
100
AcDbSymbolTableRecord
100
AcDbLayerTableRecord
  2
DEFAULT_1
 70
0
 62
7
  6
CENTER
370
-3
390
F
  0
LAYER
  5
1FB
100
AcDbSymbolTableRecord
100
AcDbLayerTableRecord
  2
DEFAULT_2
 70
0
 62
7
  6
HIDDEN
370
-3
390
F
  0
LAYER
  5
1FC
100
AcDbSymbolTableRecord
100
AcDbLayerTableRecord
  2
DEFAULT_3
 70
0
 62
7
  6
PHANTOM
370
-3
390
F
  0
LAYER
  5
1FD
100
AcDbSymbolTableRecord
100
AcDbLayerTableRecord
  2
00_COMPONENTS
 70
0
 62
7
  6
CONTINUOUS
370
-3
390
F
  0
LAYER
  5
1FE
100
AcDbSymbolTableRecord
100
AcDbLayerTableRecord
  2
01_1_DEFAULT_DATUMS
 70
0
 62
7
  6
CONTINUOUS
370
-3
390
F
  0
LAYER
  5
1FF
100
AcDbSymbolTableRecord
100
AcDbLayerTableRecord
  2
01_PLANES
 70
0
 62
7
  6
CONTINUOUS
370
-3
390
F
  0
LAYER
  5
200
100
AcDbSymbolTableRecord
100
AcDbLayerTableRecord
  2
02_COORD_SYS
 70
0
 62
7
  6
CONTINUOUS
370
-3
390
F
  0
LAYER
  5
201
100
AcDbSymbolTableRecord
100
AcDbLayerTableRecord
  2
03_AXES
 70
0
 62
7
  6
CONTINUOUS
370
-3
390
F
  0
LAYER
  5
202
100
AcDbSymbolTableRecord
100
AcDbLayerTableRecord
  2
04_POINTS
 70
0
 62
7
  6
CONTINUOUS
370
-3
390
F
  0
LAYER
  5
203
100
AcDbSymbolTableRecord
100
AcDbLayerTableRecord
  2
05_CURVES
 70
0
 62
7
  6
CONTINUOUS
370
-3
390
F
  0
LAYER
  5
204
100
AcDbSymbolTableRecord
100
AcDbLayerTableRecord
  2
06_SURFS
 70
0
 62
7
  6
CONTINUOUS
370
-3
390
F
  0
LAYER
  5
205
100
AcDbSymbolTableRecord
100
AcDbLayerTableRecord
  2
07_COSMETICS
 70
0
 62
7
  6
CONTINUOUS
370
-3
390
F
  0
LAYER
  5
206
100
AcDbSymbolTableRecord
100
AcDbLayerTableRecord
  2
10_NOTES
 70
0
 62
7
  6
CONTINUOUS
370
-3
390
F
  0
LAYER
  5
207
100
AcDbSymbolTableRecord
100
AcDbLayerTableRecord
  2
11_NOTES_PUB
 70
0
 62
7
  6
CONTINUOUS
370
-3
390
F
  0
LAYER
  5
208
100
AcDbSymbolTableRecord
100
AcDbLayerTableRecord
  2
13_REF_GTOL
 70
0
 62
7
  6
CONTINUOUS
370
-3
390
F
  0
LAYER
  5
209
100
AcDbSymbolTableRecord
100
AcDbLayerTableRecord
  2
16_MISC
 70
0
 62
7
  6
CONTINUOUS
370
-3
390
F
  0
LAYER
  5
20A
100
AcDbSymbolTableRecord
100
AcDbLayerTableRecord
  2
17_NO_PRINT
 70
0
 62
7
  6
CONTINUOUS
370
-3
390
F
  0
LAYER
  5
20B
100
AcDbSymbolTableRecord
100
AcDbLayerTableRecord
  2
18_DATUM_CAMS_JOINTS
 70
0
 62
7
  6
CONTINUOUS
370
-3
390
F
  0
LAYER
  5
20C
100
AcDbSymbolTableRecord
100
AcDbLayerTableRecord
  2
19_DATUM_FUNCTIONAL
 70
0
 62
7
  6
CONTINUOUS
370
-3
390
F
  0
LAYER
  5
20D
100
AcDbSymbolTableRecord
100
AcDbLayerTableRecord
  2
20_DATUM_KINEMATIC_SCHEME
 70
0
 62
7
  6
CONTINUOUS
370
-3
390
F
  0
ENDTAB
  0
TABLE
  2
STYLE
  5
3
100
AcDbSymbolTable
 70
1
  0
STYLE
  5
11
100
AcDbSymbolTableRecord
100
AcDbTextStyleTableRecord
  2
STANDARD
 70
0
 40
0.0
 41
1.0
 50
0.0
 71
0
 42
0.2
  3
ARIAL.TTF
  4

  0
STYLE
  5
20E
100
AcDbSymbolTableRecord
100
AcDbTextStyleTableRecord
  2
TEXTSTYLE_1
 70
0
 40
0.0
 41
0.8
 50
0.0
 71
0
 42
0.2
  3
gdt
  4

  0
ENDTAB
  0
TABLE
  2
VIEW
  5
6
100
AcDbSymbolTable
 70
0
  0
ENDTAB
  0
TABLE
  2
UCS
  5
7
100
AcDbSymbolTable
 70
0
  0
ENDTAB
  0
TABLE
  2
APPID
  5
9
100
AcDbSymbolTable
 70
1
  0
APPID
  5
20F
100
AcDbSymbolTableRecord
100
AcDbRegAppTableRecord
  2
ACAD
 70
0
  0
ENDTAB
  0
TABLE
  2
BLOCK_RECORD
  5
1
100
AcDbSymbolTable
 70
0
  0
BLOCK_RECORD
  5
210
100
AcDbSymbolTableRecord
100
AcDbBlockTableRecord
  2
*Model_Space
  0
BLOCK_RECORD
  5
211
100
AcDbSymbolTableRecord
100
AcDbBlockTableRecord
  2
*Paper_Space
  0
BLOCK_RECORD
  5
212
100
AcDbSymbolTableRecord
100
AcDbBlockTableRecord
  2
_FILLED
  0
ENDTAB
  0
TABLE
  2
DIMSTYLE
  5
A
100
AcDbSymbolTable
 70
1
100
AcDbDimStyleTable
 71
0
  0
DIMSTYLE
105
213
100
AcDbSymbolTableRecord
100
AcDbDimStyleTableRecord
  2
STANDARD
 70
0
  3

  4

 40
1.0
 41
2.457179164
 42
1.0
 43
0.38
 44
1.0
 45
0.0
 46
0.0
 47
0.01
 48
0.01
140
3.4400508296
141
0.09
142
0.0
143
25.4
144
1.0
145
0.0
146
1.0
147
0.625
 71
1
 72
0
 73
0
 74
0
 75
0
 76
0
 77
1
 78
8
 79
2
170
0
171
1
172
0
173
0
174
0
175
0
176
0
177
0
178
0
270
2
179
2
271
2
272
2
273
2
274
2
275
0
280
0
281
0
282
0
283
1
284
8
285
0
286
0
287
3
288
0
340
11
278
46
341
212
342
212
343
212
344
212
  0
ENDTAB
  0
ENDSEC
  0
SECTION
  2
BLOCKS
  0
BLOCK
  5
20
100
AcDbEntity
  8
0
100
AcDbBlockBegin
  2
*Model_Space
 70
0
 10
0.0
 20
0.0
 30
0.0
  3
*Model_Space
  1

  0
ENDBLK
  5
21
100
AcDbEntity
  8
0
100
AcDbBlockEnd
  0
BLOCK
  5
1C
100
AcDbEntity
  8
0
100
AcDbBlockBegin
  2
*Paper_Space
 70
0
 10
0.0
 20
0.0
 30
0.0
  3
*Paper_Space
  1

  0
ENDBLK
  5
1D
100
AcDbEntity
  8
0
100
AcDbBlockEnd
  0
BLOCK
  5
214
100
AcDbEntity
  8
0
100
AcDbBlockBegin
  2
_FILLED
 70
64
 10
0.0
 20
0.0
  3
_FILLED
  1

  0
SOLID
  5
215
100
AcDbEntity
  8
0
  6
BYBLOCK
 62
0
100
AcDbTrace
 10
0.0
 20
0.0
 11
-1.0
 21
0.25
 12
-1.0
 22
-0.25
 13
-1.0
 23
-0.25
  0
ENDBLK
  5
216
100
AcDbEntity
  8
0
  6
BYBLOCK
 62
0
100
AcDbBlockEnd
  0
ENDSEC
  0
SECTION
  2
ENTITIES
  0
LINE
  5
217
100
AcDbEntity
  8
0
100
AcDbLine
 62
7
  6
BYLAYER
 10
24.0599215978
 20
155.9737099448
 11
24.0599215978
 21
168.4690753196
  0
LWPOLYLINE
  5
218
100
AcDbEntity
  8
0
100
AcDbPolyline
 62
7
  6
BYLAYER
 90
4
 70
0
 10
24.0599222135
 20
155.9737099376
 10
24.2961492373
 20
155.0307865042
 10
25.1469859759
 20
154.1942305397
 10
26.0716321519
 20
153.9737442035
  0
LINE
  5
219
100
AcDbEntity
  8
0
100
AcDbLine
 62
7
  6
BYLAYER
 10
134.6099215978
 20
121.4663659818
 11
163.9099215978
 21
121.4663659818
  0
LINE
  5
21A
100
AcDbEntity
  8
0
100
AcDbLine
 62
7
  6
BYLAYER
 10
110.4599215978
 20
126.8663659818
 11
188.0599215978
 21
126.8663659818
  0
LINE
  5
21B
100
AcDbEntity
  8
0
100
AcDbLine
 62
7
  6
BYLAYER
 10
100.0599123381
 20
150.9662781794
 11
100.0599219587
 21
169.8959738054
  0
LINE
  5
21C
100
AcDbEntity
  8
0
100
AcDbLine
 62
7
  6
BYLAYER
 10
185.5093766542
 20
143.3663659818
 11
114.5099215978
 21
143.3663659818
  0
LINE
  5
21D
100
AcDbEntity
  8
0
100
AcDbLine
 62
7
  6
BYLAYER
 10
107.7484237074
 20
139.265756672
 11
103.0282734863
 21
150.0711799833
  0
LINE
  5
21E
100
AcDbEntity
  8
0
100
AcDbLine
 62
7
  6
BYLAYER
 10
76.0176570844
 20
154.5976746888
 11
76.8270892551
 21
154.5480581148
  0
LINE
  5
21F
100
AcDbEntity
  8
0
100
AcDbLine
 62
7
  6
BYLAYER
 10
76.7293256604
 20
154.554244021
 11
77.6531443809
 21
154.4936367127
  0
LINE
  5
220
100
AcDbEntity
  8
0
100
AcDbLine
 62
7
  6
BYLAYER
 10
77.3931356172
 20
154.5111844269
 11
78.4958961687
 21
154.4340762892
  0
LINE
  5
221
100
AcDbEntity
  8
0
100
AcDbLine
 62
7
  6
BYLAYER
 10
78.0669438405
 20
154.4649080333
 11
78.7515730098
 21
154.4151844762
  0
LINE
  5
222
100
AcDbEntity
  8
0
100
AcDbLine
 62
7
  6
BYLAYER
 10
78.4958961687
 20
154.4340762892
 11
79.4479173763
 21
154.3617558371
  0
LINE
  5
223
100
AcDbEntity
  8
0
100
AcDbLine
 62
7
  6
BYLAYER
 10
79.3553810825
 20
154.3690239141
 11
80.2316304466
 21
154.2981041187
  0
LINE
  5
224
100
AcDbEntity
  8
0
100
AcDbLine
 62
7
  6
BYLAYER
 10
80.1568675766
 20
154.3043393795
 11
81.1246697437
 21
154.2209167056
  0
LINE
  5
225
100
AcDbEntity
  8
0
100
AcDbLine
 62
7
  6
BYLAYER
 10
80.8793099871
 20
154.242625324
 11
82.034517421
 21
154.1370335961
  0
LINE
  5
226
100
AcDbEntity
  8
0
100
AcDbLine
 62
7
  6
BYLAYER
 10
81.6161259225
 20
154.1762743087
 11
82.3682339287
 21
154.1049080166
  0
LINE
  5
227
100
AcDbEntity
  8
0
100
AcDbLine
 62
7
  6
BYLAYER
 10
82.034517421
 20
154.1370335961
 11
83.1382384652
 21
154.0279324454
  0
LINE
  5
228
100
AcDbEntity
  8
0
100
AcDbLine
 62
7
  6
BYLAYER
 10
82.9632719419
 20
154.0457765624
 11
83.9309282708
 21
153.9444369537
  0
LINE
  5
229
100
AcDbEntity
  8
0
100
AcDbLine
 62
7
  6
BYLAYER
 10
83.9222783536
 20
153.945371799
 11
84.9253853449
 21
153.8333888605
  0
LWPOLYLINE
  5
22A
100
AcDbEntity
  8
0
100
AcDbPolyline
 62
7
  6
BYLAYER
 90
3
 70
0
 10
84.7512119812
 20
153.8533553386
 10
85.9863392916
 20
153.7068919488
 10
87.1112176058
 20
153.5633243229
  0
LWPOLYLINE
  5
22B
100
AcDbEntity
  8
0
100
AcDbPolyline
 62
7
  6
BYLAYER
 90
3
 70
0
 10
85.6039626128
 20
153.7534587297
 10
86.4934161002
 20
153.6434047206
 10
87.4137404103
 20
153.5229939821
  0
LINE
  5
22C
100
AcDbEntity
  8
0
100
AcDbLine
 62
7
  6
BYLAYER
 10
87.1112176058
 20
153.5633243229
 11
88.3507435979
 21
153.3932866224
  0
LINE
  5
22D
100
AcDbEntity
  8
0
100
AcDbLine
 62
7
  6
BYLAYER
 10
88.2650189087
 20
153.405459874
 11
89.3990952841
 21
153.2392586461
  0
LWPOLYLINE
  5
22E
100
AcDbEntity
  8
0
100
AcDbPolyline
 62
7
  6
BYLAYER
 90
8
 70
0
 10
89.2900384374
 20
153.2557337786
 10
90.4657328737
 20
153.0723807978
 10
91.4422906652
 20
152.9100893892
 10
92.3428367696
 20
152.7518989127
 10
93.1789381626
 20
152.5972408437
 10
93.9572743069
 20
152.4459779232
 10
94.6726405517
 20
152.3001440384
 10
95.3056000376
 20
152.1650493358
  0
LWPOLYLINE
  5
22F
100
AcDbEntity
  8
0
100
AcDbPolyline
 62
7
  6
BYLAYER
 90
7
 70
0
 10
90.2173988558
 20
153.1121792689
 10
91.1214529312
 20
152.9644441535
 10
91.9948111381
 20
152.8140345892
 10
92.8304545599
 20
152.66264891
 10
93.6217846959
 20
152.5120807541
 10
94.3601806328
 20
152.3646888808
 10
95.0379706095
 20
152.2229106702
  0
LINE
  5
230
100
AcDbEntity
  8
0
100
AcDbLine
 62
7
  6
BYLAYER
 10
95.0379706095
 20
152.2229106702
 11
95.7893902645
 21
152.0573415402
  0
LINE
  5
231
100
AcDbEntity
  8
0
100
AcDbLine
 62
7
  6
BYLAYER
 10
95.6340303759
 20
152.0924477312
 11
95.8530945664
 21
152.0429464772
  0
LWPOLYLINE
  5
232
100
AcDbEntity
  8
0
100
AcDbPolyline
 62
7
  6
BYLAYER
 90
4
 70
0
 10
95.8939708652
 20
152.0336043706
 10
97.3975510355
 20
151.6719190239
 10
98.8768709358
 20
151.2903470542
 10
100.0599110101
 20
150.9662785527
  0
LWPOLYLINE
  5
233
100
AcDbEntity
  8
0
100
AcDbPolyline
 62
7
  6
BYLAYER
 90
10
 70
0
 10
100.0599123381
 20
150.9662781794
 10
100.4553840313
 20
150.8535631316
 10
100.7989400532
 20
150.7531601974
 10
101.1398934818
 20
150.6512084602
 10
101.4782342261
 20
150.5477374812
 10
101.8139439537
 20
150.4427780366
 10
102.1469961898
 20
150.3363623331
 10
102.4773564393
 20
150.2285242122
 10
102.8049823333
 20
150.1192993401
 10
103.0424679554
 20
150.038685838
  0
LINE
  5
234
100
AcDbEntity
  8
0
100
AcDbLine
 62
7
  6
BYLAYER
 10
112.9114372472
 20
145.2440353375
 11
112.9554607143
 21
145.2124364902
  0
LWPOLYLINE
  5
235
100
AcDbEntity
  8
0
100
AcDbPolyline
 62
7
  6
BYLAYER
 90
16
 70
0
 10
112.9554607143
 20
145.2124364902
 10
113.1241977313
 20
145.0895115992
 10
113.2877873886
 20
144.9673916636
 10
113.4465041857
 20
144.8458492509
 10
113.6003341183
 20
144.7248451454
 10
113.7490031115
 20
144.6045263441
 10
113.8916792589
 20
144.4855013302
 10
114.027094106
 20
144.3688060805
 10
114.1573837168
 20
144.2524883382
 10
114.2837179863
 20
144.1351307377
 10
114.4058584549
 20
144.0163134743
 10
114.5224550347
 20
143.8964752725
 10
114.6311500247
 20
143.7769598591
 10
114.7275189767
 20
143.6615541204
 10
114.8169579116
 20
143.54065969
 10
114.8925553581
 20
143.4137784204
  0
LINE
  5
236
100
AcDbEntity
  8
0
100
AcDbLine
 62
7
  6
BYLAYER
 10
112.917977225
 20
145.2706796918
 11
111.5235325211
 21
139.5896086756
  0
LINE
  5
237
100
AcDbEntity
  8
0
100
AcDbLine
 62
7
  6
BYLAYER
 10
114.5099215978
 20
143.3663659818
 11
110.4599215978
 21
126.8663659818
  0
LINE
  5
238
100
AcDbEntity
  8
0
100
AcDbLine
 62
7
  6
BYLAYER
 10
41.6157326071
 20
154.3836767289
 11
50.9398877293
 21
154.7419873503
  0
LINE
  5
239
100
AcDbEntity
  8
0
100
AcDbLine
 62
7
  6
BYLAYER
 10
50.8900203235
 20
154.7402828975
 11
52.0414630986
 21
154.7779715306
  0
LINE
  5
23A
100
AcDbEntity
  8
0
100
AcDbLine
 62
7
  6
BYLAYER
 10
52.0310383133
 20
154.7776450583
 11
53.1453458663
 21
154.8110446223
  0
LINE
  5
23B
100
AcDbEntity
  8
0
100
AcDbLine
 62
7
  6
BYLAYER
 10
53.0407340817
 20
154.8080382669
 11
54.1913056322
 21
154.839604506
  0
LINE
  5
23C
100
AcDbEntity
  8
0
100
AcDbLine
 62
7
  6
BYLAYER
 10
54.0933303293
 20
154.8370462307
 11
55.206033661
 21
154.864646666
  0
LINE
  5
23D
100
AcDbEntity
  8
0
100
AcDbLine
 62
7
  6
BYLAYER
 10
55.0952783739
 20
154.8620437595
 11
56.1537859905
 21
154.8855835882
  0
LINE
  5
23E
100
AcDbEntity
  8
0
100
AcDbLine
 62
7
  6
BYLAYER
 10
55.9639691718
 20
154.8815839689
 11
57.1554204275
 21
154.905044952
  0
LWPOLYLINE
  5
23F
100
AcDbEntity
  8
0
100
AcDbPolyline
 62
7
  6
BYLAYER
 90
3
 70
0
 10
26.0817587256
 20
153.9738136826
 10
33.2865623788
 20
154.10251112
 10
41.6157326071
 20
154.3836767289
  0
LINE
  5
240
100
AcDbEntity
  8
0
100
AcDbLine
 62
7
  6
BYLAYER
 10
56.9874022502
 20
154.9019757501
 11
57.976051546
 21
154.9188789663
  0
LINE
  5
241
100
AcDbEntity
  8
0
100
AcDbLine
 62
7
  6
BYLAYER
 10
57.8572410551
 20
154.9169962034
 11
58.8186233661
 21
154.9310403451
  0
LINE
  5
242
100
AcDbEntity
  8
0
100
AcDbLine
 62
7
  6
BYLAYER
 10
58.7661144214
 20
154.9303441059
 11
59.7171049386
 21
154.9416566117
  0
LINE
  5
243
100
AcDbEntity
  8
0
100
AcDbLine
 62
7
  6
BYLAYER
 10
59.6839135844
 20
154.9413085187
 11
60.7147755232
 21
154.9505036859
  0
LINE
  5
244
100
AcDbEntity
  8
0
100
AcDbLine
 62
7
  6
BYLAYER
 10
60.5726765961
 20
154.9494368032
 11
61.4856082893
 21
154.9551440976
  0
LINE
  5
245
100
AcDbEntity
  8
0
100
AcDbLine
 62
7
  6
BYLAYER
 10
61.4141605272
 20
154.9547964247
 11
62.4237953478
 21
154.9581086332
  0
LINE
  5
246
100
AcDbEntity
  8
0
100
AcDbLine
 62
7
  6
BYLAYER
 10
62.1494812767
 20
154.9575527267
 11
62.9295037725
 21
154.9584467632
  0
LINE
  5
247
100
AcDbEntity
  8
0
100
AcDbLine
 62
7
  6
BYLAYER
 10
62.9092678156
 20
154.9584505155
 11
63.9627476622
 21
154.9562987735
  0
LINE
  5
248
100
AcDbEntity
  8
0
100
AcDbLine
 62
7
  6
BYLAYER
 10
63.7753588507
 20
154.9569766023
 11
64.8331472859
 21
154.9514329091
  0
LINE
  5
249
100
AcDbEntity
  8
0
100
AcDbLine
 62
7
  6
BYLAYER
 10
64.6983859751
 20
154.9523734293
 11
65.6798657255
 21
154.943920047
  0
LINE
  5
24A
100
AcDbEntity
  8
0
100
AcDbLine
 62
7
  6
BYLAYER
 10
65.4371474635
 20
154.9463591505
 11
66.1873661624
 21
154.9380662736
  0
LINE
  5
24B
100
AcDbEntity
  8
0
100
AcDbLine
 62
7
  6
BYLAYER
 10
66.0563392981
 20
154.9396760072
 11
67.2325236541
 21
154.922727986
  0
LINE
  5
24C
100
AcDbEntity
  8
0
100
AcDbLine
 62
7
  6
BYLAYER
 10
66.6899848353
 20
154.9312483058
 11
67.76910152
 21
154.9130940229
  0
LINE
  5
24D
100
AcDbEntity
  8
0
100
AcDbLine
 62
7
  6
BYLAYER
 10
67.3373454417
 20
154.920941027
 11
68.3142920934
 21
154.9020529366
  0
LINE
  5
24E
100
AcDbEntity
  8
0
100
AcDbLine
 62
7
  6
BYLAYER
 10
67.997681739
 20
154.9086198761
 11
68.8675549691
 21
154.8895340643
  0
LINE
  5
24F
100
AcDbEntity
  8
0
100
AcDbLine
 62
7
  6
BYLAYER
 10
68.6702536856
 20
154.8941518628
 11
69.4283494889
 21
154.8754689442
  0
LINE
  5
250
100
AcDbEntity
  8
0
100
AcDbLine
 62
7
  6
BYLAYER
 10
69.3543206588
 20
154.8774058878
 11
70.0491415361
 21
154.8582533348
  0
LINE
  5
251
100
AcDbEntity
  8
0
100
AcDbLine
 62
7
  6
BYLAYER
 10
69.996134782
 20
154.8597916372
 11
70.7540011271
 21
154.8365678088
  0
LINE
  5
252
100
AcDbEntity
  8
0
100
AcDbLine
 62
7
  6
BYLAYER
 10
70.5704782756
 20
154.8424356261
 11
71.4689187143
 21
154.812199934
  0
LINE
  5
253
100
AcDbEntity
  8
0
100
AcDbLine
 62
7
  6
BYLAYER
 10
71.1514987137
 20
154.8233174777
 11
72.1947271561
 21
154.7849619473
  0
LWPOLYLINE
  5
254
100
AcDbEntity
  8
0
100
AcDbPolyline
 62
7
  6
BYLAYER
 90
3
 70
0
 10
71.7394892426
 20
154.8023433219
 10
72.9323003288
 20
154.754645713
 10
73.6825105511
 20
154.7210224154
  0
LINE
  5
255
100
AcDbEntity
  8
0
100
AcDbLine
 62
7
  6
BYLAYER
 10
72.3347425706
 20
154.7794131078
 11
72.9375508423
 21
154.754420234
  0
LINE
  5
256
100
AcDbEntity
  8
0
100
AcDbLine
 62
7
  6
BYLAYER
 10
73.5482055761
 20
154.7272511486
 11
74.4462283021
 21
154.6838408562
  0
LINE
  5
257
100
AcDbEntity
  8
0
100
AcDbLine
 62
7
  6
BYLAYER
 10
74.1669975946
 20
154.6977849166
 11
75.2243218944
 21
154.6428255639
  0
LINE
  5
258
100
AcDbEntity
  8
0
100
AcDbLine
 62
7
  6
BYLAYER
 10
74.7942169435
 20
154.6658927517
 11
75.4301527975
 21
154.6314375078
  0
LINE
  5
259
100
AcDbEntity
  8
0
100
AcDbLine
 62
7
  6
BYLAYER
 10
75.2243218944
 20
154.6428255639
 11
76.075093347
 21
154.5942731243
  0
LINE
  5
25A
100
AcDbEntity
  8
0
100
AcDbLine
 62
7
  6
BYLAYER
 10
101.6457526503
 20
169.7416793455
 11
101.4598817448
 21
169.9664141676
  0
LINE
  5
25B
100
AcDbEntity
  8
0
100
AcDbLine
 62
7
  6
BYLAYER
 10
114.8925553581
 20
143.4137784204
 11
114.9133795249
 21
143.3663659818
  0
LINE
  5
25C
100
AcDbEntity
  8
0
100
AcDbLine
 62
7
  6
BYLAYER
 10
92.1767344741
 20
170.502810444
 11
91.2135676392
 21
170.5576958808
  0
LINE
  5
25D
100
AcDbEntity
  8
0
100
AcDbLine
 62
7
  6
BYLAYER
 10
91.2135676392
 20
170.5576958808
 11
90.6832410295
 21
170.5888496792
  0
LINE
  5
25E
100
AcDbEntity
  8
0
100
AcDbLine
 62
7
  6
BYLAYER
 10
92.1137409067
 20
170.4718539269
 11
91.6678780912
 21
170.5066931353
  0
LINE
  5
25F
100
AcDbEntity
  8
0
100
AcDbLine
 62
7
  6
BYLAYER
 10
101.1212532359
 20
169.7937170455
 11
101.6457526552
 21
169.7416793567
  0
LINE
  5
260
100
AcDbEntity
  8
0
100
AcDbLine
 62
7
  6
BYLAYER
 10
100.0599219609
 20
169.6522895403
 11
92.1137409067
 21
170.4718539269
  0
LINE
  5
261
100
AcDbEntity
  8
0
100
AcDbLine
 62
7
  6
BYLAYER
 10
134.6099215978
 20
126.8663659818
 11
134.6099215978
 21
121.4663659818
  0
LINE
  5
262
100
AcDbEntity
  8
0
100
AcDbLine
 62
7
  6
BYLAYER
 10
51.524458591
 20
170.7544028426
 11
51.1876635516
 21
170.7442650671
  0
LINE
  5
263
100
AcDbEntity
  8
0
100
AcDbLine
 62
7
  6
BYLAYER
 10
51.1876635516
 20
170.7442650671
 11
30.5791749125
 21
170.2219745037
  0
LWPOLYLINE
  5
264
100
AcDbEntity
  8
0
100
AcDbPolyline
 62
7
  6
BYLAYER
 90
3
 70
0
 10
55.073051969
 20
170.8612407301
 10
54.2357886505
 20
170.8444325317
 10
53.425610725
 20
170.8298226885
  0
LINE
  5
265
100
AcDbEntity
  8
0
100
AcDbLine
 62
7
  6
BYLAYER
 10
99.3003594708
 20
169.9663659818
 11
175.8846377225
 21
169.9663659818
  0
LWPOLYLINE
  5
266
100
AcDbEntity
  8
0
100
AcDbPolyline
 62
7
  6
BYLAYER
 90
3
 70
0
 10
92.1137423833
 20
170.4718390669
 10
69.2762855182
 20
171.1474808643
 10
51.1876791144
 20
170.743776416
  0
LINE
  5
267
100
AcDbEntity
  8
0
100
AcDbLine
 62
7
  6
BYLAYER
 10
163.9099215978
 20
126.8663659818
 11
163.9099215978
 21
121.4663659818
  0
LINE
  5
268
100
AcDbEntity
  8
0
100
AcDbLine
 62
7
  6
BYLAYER
 10
166.0129891798
 20
143.3663660069
 11
165.9926835751
 21
169.9663659818
  0
LINE
  5
269
100
AcDbEntity
  8
0
100
AcDbLine
 62
7
  6
BYLAYER
 10
185.5099216161
 20
143.3663659818
 11
175.884921599
 21
169.9663659818
  0
LINE
  5
26A
100
AcDbEntity
  8
0
100
AcDbLine
 62
7
  6
BYLAYER
 10
183.977547497
 20
143.3663659818
 11
175.7596611811
 21
169.9663659818
  0
LINE
  5
26B
100
AcDbEntity
  8
0
100
AcDbLine
 62
7
  6
BYLAYER
 10
184.0099215978
 20
143.3663659818
 11
188.0599215978
 21
126.8663659818
  0
ARC
  5
26C
100
AcDbEntity
  8
0
100
AcDbCircle
 62
7
  6
BYLAYER
 10
32.8814992266
 20
966.7335599697
 40
800.2070584722
100
AcDbArc
 50
269.8070196298
 51
269.9208897785
  0
ARC
  5
26D
100
AcDbEntity
  8
0
100
AcDbCircle
 62
7
  6
BYLAYER
 10
73.2356552027
 20
-114.0742361212
 40
285.2343271991
100
AcDbArc
 50
84.3895841077
 51
84.6037639075
  0
ARC
  5
26E
100
AcDbEntity
  8
0
100
AcDbCircle
 62
7
  6
BYLAYER
 10
80.4910901354
 20
-62.7575067582
 40
233.5451564643
100
AcDbArc
 50
85.1935307583
 51
85.3794331618
  0
ARC
  5
26F
100
AcDbEntity
  8
0
100
AcDbCircle
 62
7
  6
BYLAYER
 10
79.9188611267
 20
-43.3027642449
 40
214.1479964551
100
AcDbArc
 50
84.6032373578
 51
84.8073308586
  0
ARC
  5
270
100
AcDbEntity
  8
0
100
AcDbCircle
 62
7
  6
BYLAYER
 10
26.0599215956
 20
168.4690753196
 40
2.0000172184
100
AcDbArc
 50
90.1531846858
 51
179.9999999993
  0
ARC
  5
271
100
AcDbEntity
  8
0
100
AcDbCircle
 62
7
  6
BYLAYER
 10
109.5811879402
 20
140.0663659818
 40
2.0
100
AcDbArc
 50
203.5972253055
 51
346.2091331024
  0
SPLINE
  5
272
100
AcDbEntity
  8
0
100
AcDbSpline
 62
7
  6
BYLAYER
 70
0
 71
3
 72
9
 73
5
 74
0
 42
0.0000001
 43
0.0000001
 44
0.0000000001
 40
0.0
 40
0.0
 40
0.0
 40
0.0
 40
0.2469036104
 40
1.0
 40
1.0
 40
1.0
 40
1.0
 10
51.1870767439
 20
170.7917720965
 30
0.0
 10
49.1187589717
 20
170.7569000405
 30
0.0
 10
40.7418797052
 20
170.6105266892
 30
0.0
 10
32.3641562781
 20
170.4858148292
 30
0.0
 10
26.0545744925
 20
170.4690509531
 30
0.0
  0
SPLINE
  5
273
100
AcDbEntity
  8
0
100
AcDbSpline
 62
7
  6
BYLAYER
 70
0
 71
3
 72
9
 73
5
 74
0
 42
0.0000001
 43
0.0000001
 44
0.0000000001
 40
0.0
 40
0.0
 40
0.0
 40
0.0
 40
0.2487710966
 40
1.0
 40
1.0
 40
1.0
 40
1.0
 10
99.3047223669
 20
170.0286340453
 30
0.0
 10
98.714248654
 20
170.0763589037
 30
0.0
 10
96.3399671477
 20
170.2592572236
 30
0.0
 10
93.9630810269
 20
170.4078516386
 30
0.0
 10
92.1766995747
 20
170.5028060416
 30
0.0
  0
SPLINE
  5
274
100
AcDbEntity
  8
0
100
AcDbSpline
 62
7
  6
BYLAYER
 70
0
 71
3
 72
12
 73
8
 74
0
 42
0.0000001
 43
0.0000001
 44
0.0000000001
 40
0.0
 40
0.0
 40
0.0
 40
0.0
 40
0.2500098525
 40
0.5000084989
 40
0.7499898082
 40
0.8749967356
 40
1.0
 40
1.0
 40
1.0
 40
1.0
 10
103.0282734863
 20
150.0711799833
 30
0.0
 10
103.8986434987
 20
149.7760324287
 30
0.0
 10
105.6243872721
 20
149.1402096133
 30
0.0
 10
108.1543398577
 20
148.0409225945
 30
0.0
 10
110.199734925
 20
146.9893874581
 30
0.0
 10
111.7793384308
 20
146.0486957617
 30
0.0
 10
112.5446476443
 20
145.5386039698
 30
0.0
 10
112.917977225
 20
145.2706796918
 30
0.0
  0
SPLINE
  5
275
100
AcDbEntity
  8
0
100
AcDbSpline
 62
7
  6
BYLAYER
 70
0
 71
3
 72
14
 73
10
 74
0
 42
0.0000001
 43
0.0000001
 44
0.0000000001
 40
0.0
 40
0.0
 40
0.0
 40
0.0
 40
0.1517089044
 40
0.2884446925
 40
0.4134813797
 40
0.5310550855
 40
0.6454339828
 40
0.7602003471
 40
1.0
 40
1.0
 40
1.0
 40
1.0
 10
140.0088192189
 20
143.3669456071
 30
0.0
 10
138.1248243632
 20
144.3575259867
 30
0.0
 10
134.4823796079
 20
146.1289609502
 30
0.0
 10
129.1159091123
 20
148.3406134709
 30
0.0
 10
124.0931956754
 20
150.1072431049
 30
0.0
 10
119.3041019362
 20
151.577285384
 30
0.0
 10
114.613600304
 20
152.8692037884
 30
0.0
 10
108.2319949748
 20
154.4716597847
 30
0.0
 10
103.3668258049
 20
155.5228391922
 30
0.0
 10
100.0599268812
 20
156.142697339
 30
0.0
  0
SPLINE
  5
276
100
AcDbEntity
  8
0
100
AcDbSpline
 62
7
  6
BYLAYER
 70
0
 71
3
 72
15
 73
11
 74
0
 42
0.0000001
 43
0.0000001
 44
0.0000000001
 40
0.0
 40
0.0
 40
0.0
 40
0.0
 40
0.4028577143
 40
0.5742557424
 40
0.7211393529
 40
0.839999673
 40
0.9277598889
 40
0.9590772758
 40
0.9816838822
 40
1.0
 40
1.0
 40
1.0
 40
1.0
 10
28.8612824414
 20
162.2785192122
 30
0.0
 10
28.2556418302
 20
161.4031413376
 30
0.0
 10
27.3628614525
 20
160.1755915901
 30
0.0
 10
26.2075595581
 20
158.6603250973
 30
0.0
 10
25.4961558178
 20
157.7503060756
 30
0.0
 10
24.9128933017
 20
157.02071885
 30
0.0
 10
24.5166454827
 20
156.5326086163
 30
0.0
 10
24.2795719332
 20
156.2428613453
 30
0.0
 10
24.1595665274
 20
156.0944344979
 30
0.0
 10
24.0896666079
 20
156.0118874092
 30
0.0
 10
24.0599222144
 20
155.9737103752
 30
0.0
  0
SPLINE
  5
277
100
AcDbEntity
  8
0
100
AcDbSpline
 62
7
  6
BYLAYER
 70
0
 71
3
 72
11
 73
7
 74
0
 42
0.0000001
 43
0.0000001
 44
0.0000000001
 40
0.0
 40
0.0
 40
0.0
 40
0.0
 40
0.2193190435
 40
0.4634883164
 40
0.7266032181
 40
1.0
 40
1.0
 40
1.0
 40
1.0
 10
30.5472600421
 20
160.8690980707
 30
0.0
 10
30.7353437984
 20
161.2518447291
 30
0.0
 10
31.0744549338
 20
162.0896128174
 30
0.0
 10
31.4647507521
 20
163.4500397881
 30
0.0
 10
31.7191314697
 20
164.9497404748
 30
0.0
 10
31.7785077937
 20
165.9940517957
 30
0.0
 10
31.7765496497
 20
166.5256643691
 30
0.0
  0
SPLINE
  5
278
100
AcDbEntity
  8
0
100
AcDbSpline
 62
7
  6
BYLAYER
 70
0
 71
3
 72
11
 73
7
 74
0
 42
0.0000001
 43
0.0000001
 44
0.0000000001
 40
0.0
 40
0.0
 40
0.0
 40
0.0
 40
0.2695755227
 40
0.5300133029
 40
0.7748676043
 40
1.0
 40
1.0
 40
1.0
 40
1.0
 10
30.1862916724
 20
166.5308258836
 30
0.0
 10
30.1859957229
 20
166.1249072965
 30
0.0
 10
30.1198874101
 20
165.3253356419
 30
0.0
 10
29.8381795216
 20
164.1883440097
 30
0.0
 10
29.4150132394
 20
163.1691306803
 30
0.0
 10
29.0541172498
 20
162.5573273055
 30
0.0
 10
28.8612825949
 20
162.2785188566
 30
0.0
  0
SPLINE
  5
279
100
AcDbEntity
  8
0
100
AcDbSpline
 62
7
  6
BYLAYER
 70
0
 71
3
 72
13
 73
9
 74
0
 42
0.0000001
 43
0.0000001
 44
0.0000000001
 40
0.0
 40
0.0
 40
0.0
 40
0.0
 40
0.0985631378
 40
0.2015637853
 40
0.3137220689
 40
0.4351690558
 40
0.7045059293
 40
1.0
 40
1.0
 40
1.0
 40
1.0
 10
28.9360711877
 20
168.2233094314
 30
0.0
 10
29.0115135912
 20
168.2204579761
 30
0.0
 10
29.1657565517
 20
168.1951059606
 30
0.0
 10
29.3879070392
 20
168.098342103
 30
0.0
 10
29.5989978052
 20
167.9473907886
 30
0.0
 10
29.8667824668
 20
167.6677216839
 30
0.0
 10
30.1182488381
 20
167.193358808
 30
0.0
 10
30.1870316693
 20
166.7571638658
 30
0.0
 10
30.1862914106
 20
166.5308258878
 30
0.0
  0
SPLINE
  5
27A
100
AcDbEntity
  8
0
100
AcDbSpline
 62
7
  6
BYLAYER
 70
0
 71
3
 72
11
 73
7
 74
0
 42
0.0000001
 43
0.0000001
 44
0.0000000001
 40
0.0
 40
0.0
 40
0.0
 40
0.0
 40
0.2494919041
 40
0.4995587106
 40
0.749772475
 40
1.0
 40
1.0
 40
1.0
 40
1.0
 10
100.0599226165
 20
164.6562155609
 30
0.0
 10
94.4542279711
 20
165.6270614768
 30
0.0
 10
83.1013962688
 20
166.8456805496
 30
0.0
 10
66.0014237307
 20
167.2470933735
 30
0.0
 10
48.8889738504
 20
166.9279071873
 30
0.0
 10
37.4817651169
 20
166.615186233
 30
0.0
 10
31.7765495819
 20
166.5256644358
 30
0.0
  0
SPLINE
  5
27B
100
AcDbEntity
  8
0
100
AcDbSpline
 62
7
  6
BYLAYER
 70
0
 71
3
 72
15
 73
11
 74
0
 42
0.0000001
 43
0.0000001
 44
0.0000000001
 40
0.0
 40
0.0
 40
0.0
 40
0.0
 40
0.1790508644
 40
0.3515364603
 40
0.5111341585
 40
0.6529812065
 40
0.7735091938
 40
0.8252168759
 40
0.8710926033
 40
1.0
 40
1.0
 40
1.0
 40
1.0
 10
31.7765495819
 20
166.5256644358
 30
0.0
 10
31.7756001259
 20
166.7671673108
 30
0.0
 10
31.7563738606
 20
167.2414075785
 30
0.0
 10
31.68013185
 20
167.9271842449
 30
0.0
 10
31.5613844699
 20
168.5559660414
 30
0.0
 10
31.4078145384
 20
169.1050048277
 30
0.0
 10
31.2531247853
 20
169.4999244041
 30
0.0
 10
31.1136258296
 20
169.7608616099
 30
0.0
 10
30.9490127125
 20
170.0122030782
 30
0.0
 10
30.7521622455
 20
170.204260302
 30
0.0
 10
30.5791808342
 20
170.2218257687
 30
0.0
  0
SPLINE
  5
27C
100
AcDbEntity
  8
0
100
AcDbSpline
 62
7
  6
BYLAYER
 70
0
 71
3
 72
11
 73
7
 74
0
 42
0.0000001
 43
0.0000001
 44
0.0000000001
 40
0.0
 40
0.0
 40
0.0
 40
0.0
 40
0.2592097227
 40
0.5285129821
 40
0.7800395786
 40
1.0
 40
1.0
 40
1.0
 40
1.0
 10
28.9360693525
 20
168.223310379
 30
0.0
 10
28.9390306695
 20
168.4678761594
 30
0.0
 10
29.0217652196
 20
168.9689308429
 30
0.0
 10
29.3758217753
 20
169.6317476582
 30
0.0
 10
29.9262194203
 20
170.0943686682
 30
0.0
 10
30.3717727955
 20
170.2143374097
 30
0.0
 10
30.5791840456
 20
170.2218996598
 30
0.0
  0
SPLINE
  5
27D
100
AcDbEntity
  8
0
100
AcDbSpline
 62
7
  6
BYLAYER
 70
0
 71
3
 72
11
 73
7
 74
0
 42
0.0000001
 43
0.0000001
 44
0.0000000001
 40
0.0
 40
0.0
 40
0.0
 40
0.0
 40
0.2467865723
 40
0.4954783431
 40
0.7465847723
 40
1.0
 40
1.0
 40
1.0
 40
1.0
 10
100.0599274323
 20
156.1426977307
 30
0.0
 10
94.4190214935
 20
157.2000513295
 30
0.0
 10
83.0006593544
 20
158.8412099783
 30
0.0
 10
65.68430547
 20
160.2004796691
 30
0.0
 10
48.1737190914
 20
160.7812238597
 30
0.0
 10
36.4405478943
 20
160.856900524
 30
0.0
 10
30.5472600421
 20
160.8690980707
 30
0.0
  0
SPLINE
  5
27E
100
AcDbEntity
  8
0
100
AcDbSpline
 62
7
  6
BYLAYER
 70
0
 71
3
 72
27
 73
23
 74
0
 42
0.0000001
 43
0.0000001
 44
0.0000000001
 40
0.0
 40
0.0
 40
0.0
 40
0.0
 40
0.0002797481
 40
0.0011245205
 40
0.0025347795
 40
0.0045109746
 40
0.0070535539
 40
0.0101629594
 40
0.0180763028
 40
0.0282238375
 40
0.0405741507
 40
0.0550958293
 40
0.0717574604
 40
0.111374592
 40
0.1591396064
 40
0.214703586
 40
0.2777114201
 40
0.3477761198
 40
0.4244583895
 40
0.5959084071
 40
0.7886458104
 40
1.0
 40
1.0
 40
1.0
 40
1.0
 10
26.0741298271
 20
153.9743071825
 30
0.0
 10
26.0744060939
 20
153.9735921184
 30
0.0
 10
26.0766197436
 20
153.9793666935
 30
0.0
 10
26.0801807131
 20
153.9818970723
 30
0.0
 10
26.087060576
 20
153.9932090001
 30
0.0
 10
26.0962438161
 20
154.0057384715
 30
0.0
 10
26.1082293826
 20
154.0232029249
 30
0.0
 10
26.1294379794
 20
154.0535694047
 30
0.0
 10
26.1625579559
 20
154.10130324
 30
0.0
 10
26.210083776
 20
154.1697103863
 30
0.0
 10
26.2679187581
 20
154.2530676697
 30
0.0
 10
26.3359008854
 20
154.3510883203
 30
0.0
 10
26.4464196545
 20
154.5105446659
 30
0.0
 10
26.6087803083
 20
154.7449015669
 30
0.0
 10
26.8314657215
 20
155.0671530149
 30
0.0
 10
27.0892203949
 20
155.4430786152
 30
0.0
 10
27.3793663295
 20
155.8708790359
 30
0.0
 10
27.6993396577
 20
156.3483635065
 30
0.0
 10
28.1809216237
 20
157.0752416962
 30
0.0
 10
28.8417498202
 20
158.0866148638
 30
0.0
 10
29.6797482522
 20
159.4228194776
 30
0.0
 10
30.2499079717
 20
160.3720974319
 30
0.0
 10
30.547259785
 20
160.8690980712
 30
0.0
  0
SPLINE
  5
27F
100
AcDbEntity
  8
0
100
AcDbSpline
 62
7
  6
BYLAYER
 70
0
 71
3
 72
10
 73
6
 74
0
 42
0.0000001
 43
0.0000001
 44
0.0000000001
 40
0.0
 40
0.0
 40
0.0
 40
0.0
 40
0.2162112654
 40
0.468904055
 40
1.0
 40
1.0
 40
1.0
 40
1.0
 10
28.8612847756
 20
162.2785140899
 30
0.0
 10
28.9293192592
 20
162.1316265262
 30
0.0
 10
29.11841954
 20
161.8314453528
 30
0.0
 10
29.6413395684
 20
161.2917133154
 30
0.0
 10
30.1687197045
 20
160.9908336823
 30
0.0
 10
30.5472623672
 20
160.8691025055
 30
0.0
  0
SPLINE
  5
280
100
AcDbEntity
  8
0
100
AcDbSpline
 62
7
  6
BYLAYER
 70
0
 71
3
 72
25
 73
21
 74
0
 42
0.0000001
 43
0.0000001
 44
0.0000000001
 40
0.0
 40
0.0
 40
0.0
 40
0.0
 40
0.2290757119
 40
0.4302194879
 40
0.6022906718
 40
0.6771415583
 40
0.7444001643
 40
0.8039673542
 40
0.8557539861
 40
0.8996967049
 40
0.9357361987
 40
0.9507738387
 40
0.9638160602
 40
0.9748598717
 40
0.9839023378
 40
0.990940522
 40
0.9959714866
 40
0.9977333432
 40
0.9989922926
 40
1.0
 40
1.0
 40
1.0
 40
1.0
 10
28.9360711978
 20
168.2233103093
 30
0.0
 10
28.5635128728
 20
168.2371934603
 30
0.0
 10
27.8639268477
 20
168.2660768609
 30
0.0
 10
26.8847791342
 20
168.3119278654
 30
0.0
 10
26.1565007738
 20
168.3490120238
 30
0.0
 10
25.64592113
 20
168.3765934802
 30
0.0
 10
25.3182032564
 20
168.3948420856
 30
0.0
 10
25.0279857014
 20
168.4113885296
 30
0.0
 10
24.7756658463
 20
168.4259971641
 30
0.0
 10
24.5615835568
 20
168.4385860909
 30
0.0
 10
24.407216011
 20
168.4477965429
 30
0.0
 10
24.3030508726
 20
168.454090458
 30
0.0
 10
24.2394990777
 20
168.4579458325
 30
0.0
 10
24.1856724907
 20
168.4612723095
 30
0.0
 10
24.1416431654
 20
168.4639079996
 30
0.0
 10
24.1072695754
 20
168.4662502552
 30
0.0
 10
24.0849715432
 20
168.4672157483
 30
0.0
 10
24.0716675864
 20
168.468629217
 30
0.0
 10
24.0655201509
 20
168.4680049398
 30
0.0
 10
24.0610729666
 20
168.4702432401
 30
0.0
 10
24.0599215978
 20
168.4690753196
 30
0.0
  0
SPLINE
  5
281
100
AcDbEntity
  8
0
100
AcDbSpline
 62
7
  6
BYLAYER
 70
0
 71
3
 72
22
 73
18
 74
0
 42
0.0000001
 43
0.0000001
 44
0.0000000001
 40
0.0
 40
0.0
 40
0.0
 40
0.0
 40
0.2290047666
 40
0.430080986
 40
0.602213988
 40
0.7443829877
 40
0.8039245098
 40
0.8556735846
 40
0.8995851174
 40
0.9356139945
 40
0.9637150827
 40
0.974778597
 40
0.9838432304
 40
0.9909033362
 40
0.995953266
 40
0.9989873708
 40
1.0
 40
1.0
 40
1.0
 40
1.0
 10
30.5791720643
 20
170.2219744003
 30
0.0
 10
30.2335424578
 20
170.2359293537
 30
0.0
 10
29.5845218524
 20
170.2643515524
 30
0.0
 10
28.676023738
 20
170.3100789504
 30
0.0
 10
27.8987578794
 20
170.3535615597
 30
0.0
 10
27.3350907835
 20
170.3875460636
 30
0.0
 10
26.9529711346
 20
170.4111884884
 30
0.0
 10
26.7189993174
 20
170.4258721627
 30
0.0
 10
26.5204827352
 20
170.4385009676
 30
0.0
 10
26.3576292875
 20
170.4490268846
 30
0.0
 10
26.244281957
 20
170.4564011602
 30
0.0
 10
26.1716055616
 20
170.4612652685
 30
0.0
 10
26.1305966477
 20
170.4638687426
 30
0.0
 10
26.098765939
 20
170.46632511
 30
0.0
 10
26.0757565095
 20
170.4671406781
 30
0.0
 10
26.0623742612
 20
170.4693400143
 30
0.0
 10
26.0559372262
 20
170.46844014
 30
0.0
 10
26.0545503834
 20
170.4690853256
 30
0.0
  0
SPLINE
  5
282
100
AcDbEntity
  8
0
100
AcDbSpline
 62
7
  6
BYLAYER
 70
0
 71
3
 72
16
 73
12
 74
0
 42
0.0000001
 43
0.0000001
 44
0.0000000001
 40
0.0
 40
0.0
 40
0.0
 40
0.0
 40
0.1237005946
 40
0.2476987933
 40
0.4964365144
 40
0.621389951
 40
0.7468557632
 40
0.8098648394
 40
0.8731224603
 40
0.9365312184
 40
1.0
 40
1.0
 40
1.0
 40
1.0
 10
166.0119074776
 20
143.3660433392
 30
0.0
 10
163.5978108342
 20
145.0739309217
 30
0.0
 10
158.6732287388
 20
148.3684799152
 30
0.0
 10
148.4665234492
 20
154.4307356917
 30
0.0
 10
137.7218852167
 20
159.6216824206
 30
0.0
 10
126.5232611145
 20
163.7618145351
 30
0.0
 10
119.3333842461
 20
165.8927200272
 30
0.0
 10
113.4847215707
 20
167.3134292524
 30
0.0
 10
109.0442068239
 20
168.2352214856
 30
0.0
 10
104.5667935383
 20
169.0215725913
 30
0.0
 10
101.5646107671
 20
169.457329631
 30
0.0
 10
100.0599219608
 20
169.6522897379
 30
0.0
  0
SPLINE
  5
283
100
AcDbEntity
  8
0
100
AcDbSpline
 62
7
  6
BYLAYER
 70
0
 71
3
 72
17
 73
13
 74
0
 42
0.0000001
 43
0.0000001
 44
0.0000000001
 40
0.0
 40
0.0
 40
0.0
 40
0.0
 40
0.0528219781
 40
0.1078284173
 40
0.1648623666
 40
0.2236872257
 40
0.345676526
 40
0.4720928286
 40
0.6016215592
 40
0.7332809581
 40
0.8662979961
 40
1.0
 40
1.0
 40
1.0
 40
1.0
 10
166.0127779911
 20
143.3658175565
 30
0.0
 10
165.2397212518
 20
144.3531894659
 30
0.0
 10
163.5427676147
 20
146.277410404
 30
0.0
 10
160.6807966064
 20
148.9538216193
 30
0.0
 10
157.5011146434
 20
151.4788069585
 30
0.0
 10
152.8442655179
 20
154.6783000638
 30
0.0
 10
146.469362979
 20
158.2550852814
 30
0.0
 10
138.2412822579
 20
161.8624137622
 30
0.0
 10
129.5101688513
 20
164.8032072223
 30
0.0
 10
120.4187149129
 20
167.0618262557
 30
0.0
 10
111.0944903806
 20
168.6813503329
 30
0.0
 10
104.8040422681
 20
169.4252115273
 30
0.0
 10
101.6457526503
 20
169.7416793455
 30
0.0
  0
SPLINE
  5
284
100
AcDbEntity
  8
0
100
AcDbSpline
 62
7
  6
BYLAYER
 70
0
 71
3
 72
11
 73
7
 74
0
 42
0.0000001
 43
0.0000001
 44
0.0000000001
 40
0.0
 40
0.0
 40
0.0
 40
0.0
 40
0.2686889581
 40
0.5235541187
 40
0.7659237055
 40
1.0
 40
1.0
 40
1.0
 40
1.0
 10
149.2603798123
 20
143.3659865722
 30
0.0
 10
145.376001139
 20
146.2585819895
 30
0.0
 10
137.4588966723
 20
151.4454702833
 30
0.0
 10
125.053085793
 20
157.5747303013
 30
0.0
 10
112.6044431202
 20
161.9950991815
 30
0.0
 10
104.2172780399
 20
163.9364346574
 30
0.0
 10
100.0599223205
 20
164.656180609
 30
0.0
  0
ENDSEC
  0
SECTION
  2
OBJECTS
  0
DICTIONARY
  5
C
100
AcDbDictionary
280
0
281
1
  3
ACAD_GROUP
350
D
  3
ACAD_MLINESTYLE
350
17
  3
ACAD_LAYOUT
350
1A
  3
ACAD_PLOTSETTINGS
350
19
  3
ACAD_PLOTSTYLENAME
350
E
  0
DICTIONARY
  5
D
102
{ACAD_REACTORS
330
C
102
}
100
AcDbDictionary
280
0
281
1
  0
ACDBDICTIONARYWDFLT
  5
E
102
{ACAD_REACTORS
330
C
102
}
100
AcDbDictionary
281
1
  3
Normal
350
F
100
AcDbDictionaryWithDefault
340
F
  0
DICTIONARY
  5
17
102
{ACAD_REACTORS
330
C
102
}
100
AcDbDictionary
280
0
281
1
  3
Standard
350
18
  0
DICTIONARY
  5
19
102
{ACAD_REACTORS
330
C
102
}
100
AcDbDictionary
281
1
  0
DICTIONARY
  5
1A
102
{ACAD_REACTORS
330
C
102
}
100
AcDbDictionary
281
1
  3
Model
350
285
  3
Layout1
350
286
  0
ACDBPLACEHOLDER
  5
F
102
{ACAD_REACTORS
330
E
102
}
  0
MLINESTYLE
  5
18
102
{ACAD_REACTORS
330
17
102
}
100
AcDbMlineStyle
  2
STANDARD
 70
0
  3

 62
256
 51
90.0
 52
90.0
 71
2
 49
0.5
 62
256
  6
BYLAYER
 49
-0.5
 62
256
  6
BYLAYER
  0
LAYOUT
  5
285
102
{ACAD_REACTORS
330
1A
102
}
100
AcDbPlotSettings
  1

  2
none_device
  4

  6

 40
0.0
 41
0.0
 42
0.0
 43
0.0
 44
210.0
 45
297.0
 46
0.0
 47
0.0
 48
0.0
 49
0.0
140
0.0
141
0.0
142
1.0
143
1.0
 70
1024
 72
1
 73
0
 74
0
  7

 75
0
147
1.0
148
0.0
149
0.0
100
AcDbLayout
  1
Model
 70
0
 71
0
 10
0.0
 20
0.0
 11
210.0
 21
297.0
 12
0.0
 22
0.0
 32
0.0
 14
0.0
 24
0.0
 34
0.0
 15
0.0
 25
0.0
 35
0.0
146
0.0
 13
0.0
 23
0.0
 33
0.0
 16
1.0
 26
0.0
 36
0.0
 17
0.0
 27
1.0
 37
0.0
 76
0
330
210
345
0
346
0
  0
LAYOUT
  5
286
102
{ACAD_REACTORS
330
1A
102
}
100
AcDbPlotSettings
  1

  2
none_device
  4

  6

 40
0.0
 41
0.0
 42
0.0
 43
0.0
 44
210.0
 45
297.0
 46
0.0
 47
0.0
 48
0.0
 49
0.0
140
0.0
141
0.0
142
1.0
143
1.0
 70
0
 72
1
 73
0
 74
0
  7

 75
0
147
1.0
148
0.0
149
0.0
100
AcDbLayout
  1
Layout1
 70
0
 71
1
 10
0.0
 20
0.0
 11
210.0
 21
297.0
 12
0.0
 22
0.0
 32
0.0
 14
0.0
 24
0.0
 34
0.0
 15
0.0
 25
0.0
 35
0.0
146
0.0
 13
0.0
 23
0.0
 33
0.0
 16
1.0
 26
0.0
 36
0.0
 17
0.0
 27
1.0
 37
0.0
 76
0
330
211
345
0
346
0
  0
ENDSEC
  0
EOF
