999
DXF file: C:\Users\sesa63760\Dev\_Creo\CAD\MCADID0000953_3D-CAD\drw0001_3.dxf
999
Pro/ENGINEER 2019471 by Parametric Technology Corporation
  0
SECTION
  2
HEADER
  9
$ACADVER
  1
AC1024
  9
$DWGCODEPAGE
  3
ANSI_1252
  9
$EXTMAX
 10
227.53133082
 20
321.7943107312
 30
0.0
  9
$EXTMIN
 10
0.0
 20
0.0
 30
0.0
  9
$LIMMIN
 10
0.0
 20
0.0
  9
$LIMMAX
 10
227.53133082
 20
321.7943107312
  9
$VIEWCTR
 10
113.76566541
 20
160.8971553656
  9
$VIEWSIZE
 40
321.7943107312
  9
$CLAYER
  8
0
  9
$LTSCALE
 40
20.9762217366
  9
$CELTYPE
  6
BYLAYER
  9
$DIMSCALE
 40
1.0
  9
$DIMASZ
 40
2.7087063193
  9
$DIMEXO
 40
1.0
  9
$DIMDLI
 40
14.4926622907
  9
$DIMEXE
 40
1.0
  9
$DIMCEN
 40
3.4324726478
  9
$DIMLFAC
 40
1.0
  9
$DIMBLK
  1
_FILLED
  9
$DIMALT
 70
0
  9
$DIMALTF
 40
0.0393700787
  9
$DIMTXT
 40
3.792188847
  9
$DIMTOL
 70
1
  9
$DIMLIM
 70
0
  9
$DIMTFAC
 40
1.0
  9
$DIMTP
 40
0.01
  9
$DIMTM
 40
0.01
  9
$DIMGAP
 40
0.625
  9
$DIMDSEP
 70
46
  9
$AUNITS
 70
0
  9
$PDMODE
 70
3
  9
$PDSIZE
 40
0.3125
  9
$HANDSEED
  5
2EE
  9
$TILEMODE
 70
1
  9
$MEASUREMENT
 70
1
  9
$INSUNITS
 70
4
  0
ENDSEC
  0
SECTION
  2
CLASSES
  0
CLASS
  1
ACDBDICTIONARYWDFLT
  2
AcDbDictionaryWithDefault
  3
AutoCAD 2000
 90
0
 91
1
280
0
281
0
  0
CLASS
  1
ACDBPLACEHOLDER
  2
AcDbPlaceHolder
  3
AutoCAD 2000
 90
0
 91
1
280
0
281
0
  0
CLASS
  1
LAYOUT
  2
AcDbLayout
  3
AutoCAD 2000
 90
0
 91
0
280
0
281
0
  0
ENDSEC
  0
SECTION
  2
TABLES
  0
TABLE
  2
VPORT
  5
8
100
AcDbSymbolTable
 70
2
  0
VPORT
  5
1F4
100
AcDbSymbolTableRecord
100
AcDbViewportTableRecord
  2
*ACTIVE
 70
0
 10
0.0
 20
0.0
 11
1.0
 21
1.0
 12
113.76566541
 22
160.8971553656
 13
0.0
 23
0.0
 14
1.0
 24
1.0
 15
0.0
 25
0.0
 16
0.0
 26
0.0
 36
1.0
 17
0.0
 27
0.0
 37
0.0
 40
321.7943107312
 41
0.7070707071
 42
50.0
 43
0.0
 44
0.0
 50
0.0
 51
0.0
 71
0
 72
100
 73
1
 74
1
 75
0
 76
0
 77
0
 78
0
  0
ENDTAB
  0
TABLE
  2
LTYPE
  5
5
100
AcDbSymbolTable
 70
6
  0
LTYPE
  5
14
100
AcDbSymbolTableRecord
100
AcDbLinetypeTableRecord
  2
BYBLOCK
 70
0
  3

 72
65
 73
0
 40
0.0
  0
LTYPE
  5
15
100
AcDbSymbolTableRecord
100
AcDbLinetypeTableRecord
  2
BYLAYER
 70
0
  3

 72
65
 73
0
 40
0.0
  0
LTYPE
  5
16
100
AcDbSymbolTableRecord
100
AcDbLinetypeTableRecord
  2
CONTINUOUS
 70
64
  3
Solid line
 72
65
 73
0
 40
0.0
  0
LTYPE
  5
1F5
100
AcDbSymbolTableRecord
100
AcDbLinetypeTableRecord
  2
CENTER
 70
64
  3
____ _ ____ _ ____ _ ____ _ ____ _ ____ _ ____
 72
65
 73
4
 40
0.6
 49
0.375
 74
0
 49
-0.075
 74
0
 49
0.075
 74
0
 49
-0.075
 74
0
  0
LTYPE
  5
1F6
100
AcDbSymbolTableRecord
100
AcDbLinetypeTableRecord
  2
HIDDEN
 70
64
  3
- - - - - - - - - - - - - - - - - - - -
 72
65
 73
2
 40
0.2
 49
0.1
 74
0
 49
-0.1
 74
0
  0
LTYPE
  5
1F7
100
AcDbSymbolTableRecord
100
AcDbLinetypeTableRecord
  2
PHANTOM
 70
64
  3
_____ _ _ _____ _ _ _____ _ _ _____
 72
65
 73
6
 40
0.8
 49
0.45
 74
0
 49
-0.05
 74
0
 49
0.1
 74
0
 49
-0.05
 74
0
 49
0.1
 74
0
 49
-0.05
 74
0
  0
LTYPE
  5
1F8
100
AcDbSymbolTableRecord
100
AcDbLinetypeTableRecord
  2
DOT
 70
64
  3
. . . . . . . . . . . . . . . . . . . .
 72
65
 73
2
 40
0.2
 49
0.1
 74
0
 49
-0.1
 74
0
  0
LTYPE
  5
1F9
100
AcDbSymbolTableRecord
100
AcDbLinetypeTableRecord
  2
DASHED
 70
64
  3
- - - - - - - - - - - - - - - - - - - -
 72
65
 73
2
 40
0.2
 49
0.1
 74
0
 49
-0.1
 74
0
  0
ENDTAB
  0
TABLE
  2
LAYER
  5
2
100
AcDbSymbolTable
 70
36
  0
LAYER
  5
10
100
AcDbSymbolTableRecord
100
AcDbLayerTableRecord
  2
0
 70
0
 62
7
  6
CONTINUOUS
370
-3
390
F
  0
LAYER
  5
1FA
100
AcDbSymbolTableRecord
100
AcDbLayerTableRecord
  2
DEFAULT_1
 70
0
 62
7
  6
CENTER
370
-3
390
F
  0
LAYER
  5
1FB
100
AcDbSymbolTableRecord
100
AcDbLayerTableRecord
  2
DEFAULT_2
 70
0
 62
8
  6
HIDDEN
370
-3
390
F
  0
LAYER
  5
1FC
100
AcDbSymbolTableRecord
100
AcDbLayerTableRecord
  2
DEFAULT_3
 70
0
 62
7
  6
PHANTOM
370
-3
390
F
  0
LAYER
  5
1FD
100
AcDbSymbolTableRecord
100
AcDbLayerTableRecord
  2
00_COMPONENTS
 70
0
 62
7
  6
CONTINUOUS
370
-3
390
F
  0
LAYER
  5
1FE
100
AcDbSymbolTableRecord
100
AcDbLayerTableRecord
  2
01_1_DEFAULT_DATUMS
 70
0
 62
7
  6
CONTINUOUS
370
-3
390
F
  0
LAYER
  5
1FF
100
AcDbSymbolTableRecord
100
AcDbLayerTableRecord
  2
01_PLANES
 70
0
 62
7
  6
CONTINUOUS
370
-3
390
F
  0
LAYER
  5
200
100
AcDbSymbolTableRecord
100
AcDbLayerTableRecord
  2
02_COORD_SYS
 70
0
 62
7
  6
CONTINUOUS
370
-3
390
F
  0
LAYER
  5
201
100
AcDbSymbolTableRecord
100
AcDbLayerTableRecord
  2
03_AXES
 70
0
 62
7
  6
CONTINUOUS
370
-3
390
F
  0
LAYER
  5
202
100
AcDbSymbolTableRecord
100
AcDbLayerTableRecord
  2
04_POINTS
 70
0
 62
7
  6
CONTINUOUS
370
-3
390
F
  0
LAYER
  5
203
100
AcDbSymbolTableRecord
100
AcDbLayerTableRecord
  2
05_CURVES
 70
0
 62
7
  6
CONTINUOUS
370
-3
390
F
  0
LAYER
  5
204
100
AcDbSymbolTableRecord
100
AcDbLayerTableRecord
  2
06_SURFS
 70
0
 62
7
  6
CONTINUOUS
370
-3
390
F
  0
LAYER
  5
205
100
AcDbSymbolTableRecord
100
AcDbLayerTableRecord
  2
07_COSMETICS
 70
0
 62
7
  6
CONTINUOUS
370
-3
390
F
  0
LAYER
  5
206
100
AcDbSymbolTableRecord
100
AcDbLayerTableRecord
  2
10_NOTES
 70
0
 62
7
  6
CONTINUOUS
370
-3
390
F
  0
LAYER
  5
207
100
AcDbSymbolTableRecord
100
AcDbLayerTableRecord
  2
11_NOTES_PUB
 70
0
 62
7
  6
CONTINUOUS
370
-3
390
F
  0
LAYER
  5
208
100
AcDbSymbolTableRecord
100
AcDbLayerTableRecord
  2
13_REF_GTOL
 70
0
 62
7
  6
CONTINUOUS
370
-3
390
F
  0
LAYER
  5
209
100
AcDbSymbolTableRecord
100
AcDbLayerTableRecord
  2
16_MISC
 70
0
 62
7
  6
CONTINUOUS
370
-3
390
F
  0
LAYER
  5
20A
100
AcDbSymbolTableRecord
100
AcDbLayerTableRecord
  2
17_NO_PRINT
 70
0
 62
7
  6
CONTINUOUS
370
-3
390
F
  0
LAYER
  5
20B
100
AcDbSymbolTableRecord
100
AcDbLayerTableRecord
  2
18_DATUM_CAMS_JOINTS
 70
0
 62
7
  6
CONTINUOUS
370
-3
390
F
  0
LAYER
  5
20C
100
AcDbSymbolTableRecord
100
AcDbLayerTableRecord
  2
19_DATUM_FUNCTIONAL
 70
0
 62
7
  6
CONTINUOUS
370
-3
390
F
  0
LAYER
  5
20D
100
AcDbSymbolTableRecord
100
AcDbLayerTableRecord
  2
20_DATUM_KINEMATIC_SCHEME
 70
0
 62
7
  6
CONTINUOUS
370
-3
390
F
  0
LAYER
  5
20E
100
AcDbSymbolTableRecord
100
AcDbLayerTableRecord
  2
5
 70
0
 62
7
  6
CONTINUOUS
370
-3
390
F
  0
ENDTAB
  0
TABLE
  2
STYLE
  5
3
100
AcDbSymbolTable
 70
1
  0
STYLE
  5
11
100
AcDbSymbolTableRecord
100
AcDbTextStyleTableRecord
  2
STANDARD
 70
0
 40
0.0
 41
0.8
 50
0.0
 71
0
 42
0.2
  3
txt
  4

  0
STYLE
  5
20F
100
AcDbSymbolTableRecord
100
AcDbTextStyleTableRecord
  2
TEXTSTYLE_1
 70
0
 40
0.0
 41
0.8
 50
0.0
 71
0
 42
0.2
  3
gdt
  4

  0
ENDTAB
  0
TABLE
  2
VIEW
  5
6
100
AcDbSymbolTable
 70
0
  0
ENDTAB
  0
TABLE
  2
UCS
  5
7
100
AcDbSymbolTable
 70
0
  0
ENDTAB
  0
TABLE
  2
APPID
  5
9
100
AcDbSymbolTable
 70
1
  0
APPID
  5
210
100
AcDbSymbolTableRecord
100
AcDbRegAppTableRecord
  2
ACAD
 70
0
  0
ENDTAB
  0
TABLE
  2
BLOCK_RECORD
  5
1
100
AcDbSymbolTable
 70
0
  0
BLOCK_RECORD
  5
211
100
AcDbSymbolTableRecord
100
AcDbBlockTableRecord
  2
*Model_Space
  0
BLOCK_RECORD
  5
212
100
AcDbSymbolTableRecord
100
AcDbBlockTableRecord
  2
*Paper_Space
  0
BLOCK_RECORD
  5
213
100
AcDbSymbolTableRecord
100
AcDbBlockTableRecord
  2
_FILLED
  0
ENDTAB
  0
TABLE
  2
DIMSTYLE
  5
A
100
AcDbSymbolTable
 70
1
100
AcDbDimStyleTable
 71
0
  0
DIMSTYLE
105
214
100
AcDbSymbolTableRecord
100
AcDbDimStyleTableRecord
  2
STANDARD
 70
0
  3

  4

 40
1.0
 41
2.7087063193
 42
1.0
 43
0.38
 44
1.0
 45
0.0
 46
0.0
 47
0.01
 48
0.01
140
3.792188847
141
0.09
142
0.0
143
25.4
144
1.0
145
0.0
146
1.0
147
0.625
 71
1
 72
0
 73
0
 74
0
 75
0
 76
0
 77
1
 78
8
 79
2
170
0
171
1
172
0
173
0
174
0
175
0
176
0
177
0
178
0
270
2
179
2
271
2
272
2
273
2
274
2
275
0
280
0
281
0
282
0
283
1
284
8
285
0
286
0
287
3
288
0
340
11
278
46
341
213
342
213
343
213
344
213
  0
ENDTAB
  0
ENDSEC
  0
SECTION
  2
BLOCKS
  0
BLOCK
  5
20
100
AcDbEntity
  8
0
100
AcDbBlockBegin
  2
*Model_Space
 70
0
 10
0.0
 20
0.0
 30
0.0
  3
*Model_Space
  1

  0
ENDBLK
  5
21
100
AcDbEntity
  8
0
100
AcDbBlockEnd
  0
BLOCK
  5
1C
100
AcDbEntity
  8
0
100
AcDbBlockBegin
  2
*Paper_Space
 70
0
 10
0.0
 20
0.0
 30
0.0
  3
*Paper_Space
  1

  0
ENDBLK
  5
1D
100
AcDbEntity
  8
0
100
AcDbBlockEnd
  0
BLOCK
  5
215
100
AcDbEntity
  8
0
100
AcDbBlockBegin
  2
_FILLED
 70
64
 10
0.0
 20
0.0
  3
_FILLED
  1

  0
SOLID
  5
216
100
AcDbEntity
  8
0
  6
BYBLOCK
 62
0
100
AcDbTrace
 10
0.0
 20
0.0
 11
-1.0
 21
0.25
 12
-1.0
 22
-0.25
 13
-1.0
 23
-0.25
  0
ENDBLK
  5
217
100
AcDbEntity
  8
0
  6
BYBLOCK
 62
0
100
AcDbBlockEnd
  0
ENDSEC
  0
SECTION
  2
ENTITIES
  0
LINE
  5
218
100
AcDbEntity
  8
5
100
AcDbLine
 62
7
  6
CONTINUOUS
 10
31.9166500903
 20
37.1849015363
 11
201.9166500903
 21
37.1849015363
  0
LINE
  5
219
100
AcDbEntity
  8
5
100
AcDbLine
 62
7
  6
CONTINUOUS
 10
33.9166500903
 20
38.6849015363
 11
71.9166500903
 21
38.6849015363
  0
LINE
  5
21A
100
AcDbEntity
  8
5
100
AcDbLine
 62
7
  6
CONTINUOUS
 10
161.9166500903
 20
38.6849015363
 11
199.9166500903
 21
38.6849015363
  0
LINE
  5
21B
100
AcDbEntity
  8
5
100
AcDbLine
 62
7
  6
CONTINUOUS
 10
126.1166500903
 20
279.4920812133
 11
126.8666500903
 21
279.9250939152
  0
LINE
  5
21C
100
AcDbEntity
  8
5
100
AcDbLine
 62
7
  6
CONTINUOUS
 10
26.9166500903
 20
124.1849015363
 11
26.9166500903
 21
277.1849015363
  0
LINE
  5
21D
100
AcDbEntity
  8
5
100
AcDbLine
 62
7
  6
CONTINUOUS
 10
29.9807399491
 20
189.9249015363
 11
29.9807399491
 21
190.1849015363
  0
LINE
  5
21E
100
AcDbEntity
  8
5
100
AcDbLine
 62
7
  6
CONTINUOUS
 10
31.9166500903
 20
124.1849015363
 11
31.9166500903
 21
37.1849015363
  0
LINE
  5
21F
100
AcDbEntity
  8
5
100
AcDbLine
 62
7
  6
CONTINUOUS
 10
33.9166500903
 20
38.6849015363
 11
33.9166500903
 21
37.1849015363
  0
LINE
  5
220
100
AcDbEntity
  8
5
100
AcDbLine
 62
7
  6
CONTINUOUS
 10
36.9166500903
 20
37.1849015363
 11
36.9166500903
 21
38.6849015363
  0
LINE
  5
221
100
AcDbEntity
  8
5
100
AcDbLine
 62
7
  6
CONTINUOUS
 10
36.9166500903
 20
145.2349037515
 11
36.9166500903
 21
189.9249015363
  0
LINE
  5
222
100
AcDbEntity
  8
5
100
AcDbLine
 62
7
  6
CONTINUOUS
 10
36.9166500903
 20
190.1849015363
 11
36.9166500903
 21
277.1849015363
  0
LINE
  5
223
100
AcDbEntity
  8
5
100
AcDbLine
 62
7
  6
CONTINUOUS
 10
42.4166500903
 20
37.1849015363
 11
42.4166500903
 21
38.6849015363
  0
LINE
  5
224
100
AcDbEntity
  8
5
100
AcDbLine
 62
7
  6
CONTINUOUS
 10
43.9166500903
 20
37.1849015363
 11
43.9166500903
 21
38.6849015363
  0
LINE
  5
225
100
AcDbEntity
  8
5
100
AcDbLine
 62
7
  6
CONTINUOUS
 10
49.9166500903
 20
37.1849015363
 11
49.9166500903
 21
38.6849015363
  0
LINE
  5
226
100
AcDbEntity
  8
5
100
AcDbLine
 62
7
  6
CONTINUOUS
 10
50.9166500903
 20
141.8849015363
 11
50.9166500903
 21
140.1849015363
  0
LINE
  5
227
100
AcDbEntity
  8
5
100
AcDbLine
 62
7
  6
CONTINUOUS
 10
50.9402126333
 20
189.9249015363
 11
50.9402126333
 21
190.1849015363
  0
LINE
  5
228
100
AcDbEntity
  8
5
100
AcDbLine
 62
7
  6
CONTINUOUS
 10
51.4166500903
 20
37.1849015363
 11
51.4166500903
 21
38.6849015363
  0
LINE
  5
229
100
AcDbEntity
  8
5
100
AcDbLine
 62
7
  6
CONTINUOUS
 10
53.7849562734
 20
198.1846332796
 11
53.7849444694
 21
190.1849015363
  0
LINE
  5
22A
100
AcDbEntity
  8
5
100
AcDbLine
 62
7
  6
CONTINUOUS
 10
54.2842592364
 20
190.1849015363
 11
54.2842592843
 21
198.1849015353
  0
LINE
  5
22B
100
AcDbEntity
  8
5
100
AcDbLine
 62
7
  6
CONTINUOUS
 10
54.4166500903
 20
198.1849015363
 11
54.4166500903
 21
190.1849015363
  0
LINE
  5
22C
100
AcDbEntity
  8
5
100
AcDbLine
 62
7
  6
CONTINUOUS
 10
57.416650089
 20
201.1849015363
 11
57.4166500903
 21
201.8166071575
  0
LINE
  5
22D
100
AcDbEntity
  8
5
100
AcDbLine
 62
7
  6
CONTINUOUS
 10
60.4166500903
 20
38.6849015363
 11
60.4166500903
 21
124.1849015363
  0
LINE
  5
22E
100
AcDbEntity
  8
5
100
AcDbLine
 62
7
  6
CONTINUOUS
 10
63.4166500903
 20
201.8166071575
 11
63.416650089
 21
201.1849015363
  0
LINE
  5
22F
100
AcDbEntity
  8
5
100
AcDbLine
 62
7
  6
CONTINUOUS
 10
64.1055284971
 20
155.2937813852
 11
64.1055284971
 21
150.3737799431
  0
LINE
  5
230
100
AcDbEntity
  8
5
100
AcDbLine
 62
7
  6
CONTINUOUS
 10
66.4166500903
 20
198.1849015376
 11
66.4166500903
 21
190.1849015363
  0
LINE
  5
231
100
AcDbEntity
  8
5
100
AcDbLine
 62
7
  6
CONTINUOUS
 10
66.5490408963
 20
198.1849015373
 11
66.5490409441
 21
190.1849015363
  0
LINE
  5
232
100
AcDbEntity
  8
5
100
AcDbLine
 62
7
  6
CONTINUOUS
 10
67.0483557112
 20
190.1849015363
 11
67.0483439075
 21
198.1844543362
  0
LINE
  5
233
100
AcDbEntity
  8
5
100
AcDbLine
 62
7
  6
CONTINUOUS
 10
68.7849562731
 20
198.1844543451
 11
68.7849444694
 21
190.1849015363
  0
LINE
  5
234
100
AcDbEntity
  8
5
100
AcDbLine
 62
7
  6
CONTINUOUS
 10
69.2842592364
 20
190.1849015363
 11
69.2842592843
 21
198.1849015353
  0
LINE
  5
235
100
AcDbEntity
  8
5
100
AcDbLine
 62
7
  6
CONTINUOUS
 10
69.4166500903
 20
190.1849015363
 11
69.4166500903
 21
198.184901535
  0
LINE
  5
236
100
AcDbEntity
  8
5
100
AcDbLine
 62
7
  6
CONTINUOUS
 10
70.4166500903
 20
37.1849015363
 11
70.4166500903
 21
38.6849015363
  0
LINE
  5
237
100
AcDbEntity
  8
5
100
AcDbLine
 62
7
  6
CONTINUOUS
 10
71.9166500903
 20
37.1849015363
 11
71.9166500903
 21
38.6849015363
  0
LINE
  5
238
100
AcDbEntity
  8
5
100
AcDbLine
 62
7
  6
CONTINUOUS
 10
72.416650089
 20
201.1849015363
 11
72.4166500903
 21
201.8166071575
  0
LINE
  5
239
100
AcDbEntity
  8
5
100
AcDbLine
 62
7
  6
CONTINUOUS
 10
76.0586217617
 20
150.3737799431
 11
76.0586217617
 21
155.2937813852
  0
LINE
  5
23A
100
AcDbEntity
  8
5
100
AcDbLine
 62
7
  6
CONTINUOUS
 10
78.4166500903
 20
201.8166071575
 11
78.416650089
 21
201.1849015363
  0
LINE
  5
23B
100
AcDbEntity
  8
5
100
AcDbLine
 62
7
  6
CONTINUOUS
 10
79.1232316886
 20
155.2937813852
 11
79.1232316886
 21
150.3737799431
  0
LINE
  5
23C
100
AcDbEntity
  8
5
100
AcDbLine
 62
7
  6
CONTINUOUS
 10
81.4166500903
 20
190.1849015363
 11
81.4166500903
 21
198.1849015363
  0
LINE
  5
23D
100
AcDbEntity
  8
5
100
AcDbLine
 62
7
  6
CONTINUOUS
 10
81.5490408963
 20
198.1849015373
 11
81.5490409441
 21
190.1849015363
  0
LINE
  5
23E
100
AcDbEntity
  8
5
100
AcDbLine
 62
7
  6
CONTINUOUS
 10
82.0483557112
 20
190.1849015363
 11
82.0483439075
 21
198.1844543362
  0
LINE
  5
23F
100
AcDbEntity
  8
5
100
AcDbLine
 62
7
  6
CONTINUOUS
 10
83.7849562731
 20
198.1844543451
 11
83.7849444694
 21
190.1849015363
  0
LINE
  5
240
100
AcDbEntity
  8
5
100
AcDbLine
 62
7
  6
CONTINUOUS
 10
84.2842592364
 20
190.1849015363
 11
84.2842592843
 21
198.1849015353
  0
LINE
  5
241
100
AcDbEntity
  8
5
100
AcDbLine
 62
7
  6
CONTINUOUS
 10
84.4166500903
 20
198.1849015363
 11
84.4166500903
 21
190.1849015363
  0
LINE
  5
242
100
AcDbEntity
  8
5
100
AcDbLine
 62
7
  6
CONTINUOUS
 10
87.416650089
 20
201.1849015363
 11
87.4166500903
 21
201.8166071575
  0
LINE
  5
243
100
AcDbEntity
  8
5
100
AcDbLine
 62
7
  6
CONTINUOUS
 10
26.9166500903
 20
124.1849015363
 11
60.4166500903
 21
124.1849015363
  0
LINE
  5
244
100
AcDbEntity
  8
5
100
AcDbLine
 62
7
  6
CONTINUOUS
 10
173.4166500903
 20
124.1849015363
 11
206.9166500903
 21
124.1849015363
  0
LINE
  5
245
100
AcDbEntity
  8
5
100
AcDbLine
 62
7
  6
CONTINUOUS
 10
90.8107006585
 20
150.3737799431
 11
90.8107006585
 21
155.2937813852
  0
LINE
  5
246
100
AcDbEntity
  8
5
100
AcDbLine
 62
7
  6
CONTINUOUS
 10
93.4166500903
 20
201.8166071575
 11
93.416650089
 21
201.1849015363
  0
LINE
  5
247
100
AcDbEntity
  8
5
100
AcDbLine
 62
7
  6
CONTINUOUS
 10
94.0142906379
 20
155.2937813852
 11
94.0142906379
 21
150.3737799431
  0
LINE
  5
248
100
AcDbEntity
  8
5
100
AcDbLine
 62
7
  6
CONTINUOUS
 10
96.4166500903
 20
190.1849015363
 11
96.4166500903
 21
198.1849015363
  0
LINE
  5
249
100
AcDbEntity
  8
5
100
AcDbLine
 62
7
  6
CONTINUOUS
 10
96.5490408963
 20
198.1849015373
 11
96.5490409441
 21
190.1849015363
  0
LINE
  5
24A
100
AcDbEntity
  8
5
100
AcDbLine
 62
7
  6
CONTINUOUS
 10
97.0483557112
 20
190.1849015363
 11
97.0483439075
 21
198.1844543362
  0
LINE
  5
24B
100
AcDbEntity
  8
5
100
AcDbLine
 62
7
  6
CONTINUOUS
 10
50.9166500903
 20
140.1849015363
 11
182.9463237007
 21
140.1849015363
  0
LINE
  5
24C
100
AcDbEntity
  8
5
100
AcDbLine
 62
7
  6
CONTINUOUS
 10
182.9463237007
 20
141.8849015363
 11
50.9166500903
 21
141.8849015363
  0
LINE
  5
24D
100
AcDbEntity
  8
5
100
AcDbLine
 62
7
  6
CONTINUOUS
 10
98.7849562731
 20
198.1844543451
 11
98.7849444694
 21
190.1849015363
  0
LINE
  5
24E
100
AcDbEntity
  8
5
100
AcDbLine
 62
7
  6
CONTINUOUS
 10
99.2842592364
 20
190.1849015363
 11
99.2842592843
 21
198.1849015353
  0
LINE
  5
24F
100
AcDbEntity
  8
5
100
AcDbLine
 62
7
  6
CONTINUOUS
 10
99.4166500903
 20
198.1849015363
 11
99.4166500903
 21
190.1849015363
  0
LINE
  5
250
100
AcDbEntity
  8
5
100
AcDbLine
 62
7
  6
CONTINUOUS
 10
102.416650089
 20
201.1849015363
 11
102.4166500903
 21
201.8166071575
  0
LINE
  5
251
100
AcDbEntity
  8
5
100
AcDbLine
 62
7
  6
CONTINUOUS
 10
105.7017596077
 20
150.3737799431
 11
105.7017596077
 21
155.2937813852
  0
LINE
  5
252
100
AcDbEntity
  8
5
100
AcDbLine
 62
7
  6
CONTINUOUS
 10
172.6589150633
 20
281.7241320208
 11
171.8568424692
 21
280.3349015363
  0
LINE
  5
253
100
AcDbEntity
  8
5
100
AcDbLine
 62
7
  6
CONTINUOUS
 10
26.9166500903
 20
145.2349037515
 11
36.9166500903
 21
145.2349037515
  0
LINE
  5
254
100
AcDbEntity
  8
5
100
AcDbLine
 62
7
  6
CONTINUOUS
 10
196.9166500903
 20
145.2349037515
 11
206.9166500903
 21
145.2349037515
  0
LINE
  5
255
100
AcDbEntity
  8
5
100
AcDbLine
 62
7
  6
CONTINUOUS
 10
67.1055284971
 20
147.3737799431
 11
73.0586217617
 21
147.3737799431
  0
LINE
  5
256
100
AcDbEntity
  8
5
100
AcDbLine
 62
7
  6
CONTINUOUS
 10
82.1232316886
 20
147.3737799431
 11
87.8107006585
 21
147.3737799431
  0
LINE
  5
257
100
AcDbEntity
  8
5
100
AcDbLine
 62
7
  6
CONTINUOUS
 10
97.0142906379
 20
147.3737799431
 11
102.7017596077
 21
147.3737799431
  0
LINE
  5
258
100
AcDbEntity
  8
5
100
AcDbLine
 62
7
  6
CONTINUOUS
 10
112.056273189
 20
147.3737799431
 11
117.7437421588
 21
147.3737799431
  0
LINE
  5
259
100
AcDbEntity
  8
5
100
AcDbLine
 62
7
  6
CONTINUOUS
 10
127.1485626645
 20
147.3737799431
 11
133.1016559292
 21
147.3737799431
  0
LINE
  5
25A
100
AcDbEntity
  8
5
100
AcDbLine
 62
7
  6
CONTINUOUS
 10
142.2408520831
 20
147.3737799431
 11
147.928321053
 21
147.3737799431
  0
LINE
  5
25B
100
AcDbEntity
  8
5
100
AcDbLine
 62
7
  6
CONTINUOUS
 10
157.1822186639
 20
147.3737799431
 11
162.8696876338
 21
147.3737799431
  0
LINE
  5
25C
100
AcDbEntity
  8
5
100
AcDbLine
 62
7
  6
CONTINUOUS
 10
108.4166500903
 20
201.8166071575
 11
108.416650089
 21
201.1849015363
  0
LINE
  5
25D
100
AcDbEntity
  8
5
100
AcDbLine
 62
7
  6
CONTINUOUS
 10
109.056273189
 20
155.2937813852
 11
109.056273189
 21
150.3737799431
  0
LINE
  5
25E
100
AcDbEntity
  8
5
100
AcDbLine
 62
7
  6
CONTINUOUS
 10
111.4166500903
 20
190.1849015363
 11
111.4166500903
 21
198.1849015363
  0
LINE
  5
25F
100
AcDbEntity
  8
5
100
AcDbLine
 62
7
  6
CONTINUOUS
 10
111.5490408963
 20
198.1849015373
 11
111.5490409441
 21
190.1849015363
  0
LINE
  5
260
100
AcDbEntity
  8
5
100
AcDbLine
 62
7
  6
CONTINUOUS
 10
112.0483557112
 20
190.1849015363
 11
112.0483439075
 21
198.1844543362
  0
LINE
  5
261
100
AcDbEntity
  8
5
100
AcDbLine
 62
7
  6
CONTINUOUS
 10
125.094101442
 20
281.6497847266
 11
124.573021711
 21
277.6207697719
  0
LINE
  5
262
100
AcDbEntity
  8
5
100
AcDbLine
 62
7
  6
CONTINUOUS
 10
162.8696876338
 20
158.2937813852
 11
157.1822186639
 21
158.2937813852
  0
LINE
  5
263
100
AcDbEntity
  8
5
100
AcDbLine
 62
7
  6
CONTINUOUS
 10
147.928321053
 20
158.2937813852
 11
142.2408520831
 21
158.2937813852
  0
LINE
  5
264
100
AcDbEntity
  8
5
100
AcDbLine
 62
7
  6
CONTINUOUS
 10
133.1016559292
 20
158.2937813852
 11
127.1485626645
 21
158.2937813852
  0
LINE
  5
265
100
AcDbEntity
  8
5
100
AcDbLine
 62
7
  6
CONTINUOUS
 10
117.7437421588
 20
158.2937813852
 11
112.056273189
 21
158.2937813852
  0
LINE
  5
266
100
AcDbEntity
  8
5
100
AcDbLine
 62
7
  6
CONTINUOUS
 10
102.7017596077
 20
158.2937813852
 11
97.0142906379
 21
158.2937813852
  0
LINE
  5
267
100
AcDbEntity
  8
5
100
AcDbLine
 62
7
  6
CONTINUOUS
 10
87.8107006585
 20
158.2937813852
 11
82.1232316886
 21
158.2937813852
  0
LINE
  5
268
100
AcDbEntity
  8
5
100
AcDbLine
 62
7
  6
CONTINUOUS
 10
73.0586217617
 20
158.2937813852
 11
67.1055284971
 21
158.2937813852
  0
LINE
  5
269
100
AcDbEntity
  8
5
100
AcDbLine
 62
7
  6
CONTINUOUS
 10
120.7437421588
 20
150.3737799431
 11
120.7437421588
 21
155.2937813852
  0
LINE
  5
26A
100
AcDbEntity
  8
5
100
AcDbLine
 62
7
  6
CONTINUOUS
 10
121.9166500903
 20
277.1849015363
 11
121.9166500903
 21
286.1849015363
  0
LINE
  5
26B
100
AcDbEntity
  8
5
100
AcDbLine
 62
7
  6
CONTINUOUS
 10
123.1166500903
 20
277.1849015363
 11
123.1166500903
 21
286.1849015363
  0
LINE
  5
26C
100
AcDbEntity
  8
5
100
AcDbLine
 62
7
  6
CONTINUOUS
 10
123.2913126074
 20
280.1849015363
 11
123.2913126074
 21
283.1849015363
  0
LINE
  5
26D
100
AcDbEntity
  8
5
100
AcDbLine
 62
7
  6
CONTINUOUS
 10
124.1485626645
 20
155.2937813852
 11
124.1485626645
 21
150.3737799431
  0
LINE
  5
26E
100
AcDbEntity
  8
5
100
AcDbLine
 62
7
  6
CONTINUOUS
 10
125.995735927
 20
277.1849015363
 11
126.1166500903
 21
279.4920812133
  0
LINE
  5
26F
100
AcDbEntity
  8
5
100
AcDbLine
 62
7
  6
CONTINUOUS
 10
136.1016559292
 20
150.3737799431
 11
136.1016559292
 21
155.2937813852
  0
LINE
  5
270
100
AcDbEntity
  8
5
100
AcDbLine
 62
7
  6
CONTINUOUS
 10
139.2408520831
 20
155.2937813852
 11
139.2408520831
 21
150.3737799431
  0
LINE
  5
271
100
AcDbEntity
  8
5
100
AcDbLine
 62
7
  6
CONTINUOUS
 10
26.9166500903
 20
189.9249015363
 11
206.9166500903
 21
189.9249015363
  0
LINE
  5
272
100
AcDbEntity
  8
5
100
AcDbLine
 62
7
  6
CONTINUOUS
 10
206.9166500903
 20
190.1849015363
 11
111.4166500903
 21
190.1849015363
  0
LINE
  5
273
100
AcDbEntity
  8
5
100
AcDbLine
 62
7
  6
CONTINUOUS
 10
99.4166500903
 20
190.1849015363
 11
96.4166500903
 21
190.1849015363
  0
LINE
  5
274
100
AcDbEntity
  8
5
100
AcDbLine
 62
7
  6
CONTINUOUS
 10
84.4166500903
 20
190.1849015363
 11
81.4166500903
 21
190.1849015363
  0
LINE
  5
275
100
AcDbEntity
  8
5
100
AcDbLine
 62
7
  6
CONTINUOUS
 10
69.4166500903
 20
190.1849015363
 11
66.4166500903
 21
190.1849015363
  0
LINE
  5
276
100
AcDbEntity
  8
5
100
AcDbLine
 62
7
  6
CONTINUOUS
 10
54.4166500903
 20
190.1849015363
 11
26.9166500903
 21
190.1849015363
  0
LINE
  5
277
100
AcDbEntity
  8
5
100
AcDbLine
 62
7
  6
CONTINUOUS
 10
54.4166500903
 20
191.9849015363
 11
66.4166500903
 21
191.9849015363
  0
LINE
  5
278
100
AcDbEntity
  8
5
100
AcDbLine
 62
7
  6
CONTINUOUS
 10
69.4166500903
 20
191.9849015363
 11
81.4166500903
 21
191.9849015363
  0
LINE
  5
279
100
AcDbEntity
  8
5
100
AcDbLine
 62
7
  6
CONTINUOUS
 10
84.4166500903
 20
191.9849015363
 11
96.4166500903
 21
191.9849015363
  0
LINE
  5
27A
100
AcDbEntity
  8
5
100
AcDbLine
 62
7
  6
CONTINUOUS
 10
99.4166500903
 20
191.9849015363
 11
111.4166500903
 21
191.9849015363
  0
LINE
  5
27B
100
AcDbEntity
  8
5
100
AcDbLine
 62
7
  6
CONTINUOUS
 10
150.928321053
 20
150.3737799431
 11
150.928321053
 21
155.2937813852
  0
LINE
  5
27C
100
AcDbEntity
  8
5
100
AcDbLine
 62
7
  6
CONTINUOUS
 10
154.1822186639
 20
155.2937813852
 11
154.1822186639
 21
150.3737799431
  0
LINE
  5
27D
100
AcDbEntity
  8
5
100
AcDbLine
 62
7
  6
CONTINUOUS
 10
53.7849444691
 20
198.1849015363
 11
54.4166500903
 21
198.184901535
  0
LINE
  5
27E
100
AcDbEntity
  8
5
100
AcDbLine
 62
7
  6
CONTINUOUS
 10
66.4166500903
 20
198.1849015376
 11
67.0483557115
 21
198.1849015363
  0
LINE
  5
27F
100
AcDbEntity
  8
5
100
AcDbLine
 62
7
  6
CONTINUOUS
 10
68.7849444691
 20
198.1849015363
 11
69.4166500903
 21
198.184901535
  0
LINE
  5
280
100
AcDbEntity
  8
5
100
AcDbLine
 62
7
  6
CONTINUOUS
 10
81.4166500903
 20
198.1849015376
 11
82.0483557115
 21
198.1849015363
  0
LINE
  5
281
100
AcDbEntity
  8
5
100
AcDbLine
 62
7
  6
CONTINUOUS
 10
83.7849444691
 20
198.1849015363
 11
84.4166500903
 21
198.184901535
  0
LINE
  5
282
100
AcDbEntity
  8
5
100
AcDbLine
 62
7
  6
CONTINUOUS
 10
96.4166500903
 20
198.1849015376
 11
97.0483557115
 21
198.1849015363
  0
LINE
  5
283
100
AcDbEntity
  8
5
100
AcDbLine
 62
7
  6
CONTINUOUS
 10
98.7849444691
 20
198.1849015363
 11
99.4166500903
 21
198.184901535
  0
LINE
  5
284
100
AcDbEntity
  8
5
100
AcDbLine
 62
7
  6
CONTINUOUS
 10
111.4166500903
 20
198.1849015376
 11
112.0483557115
 21
198.1849015363
  0
LINE
  5
285
100
AcDbEntity
  8
5
100
AcDbLine
 62
7
  6
CONTINUOUS
 10
108.4166500903
 20
201.1849015363
 11
102.4166500903
 21
201.1849015363
  0
LINE
  5
286
100
AcDbEntity
  8
5
100
AcDbLine
 62
7
  6
CONTINUOUS
 10
93.4166500903
 20
201.1849015363
 11
87.4166500903
 21
201.1849015363
  0
LINE
  5
287
100
AcDbEntity
  8
5
100
AcDbLine
 62
7
  6
CONTINUOUS
 10
78.4166500903
 20
201.1849015363
 11
72.4166500903
 21
201.1849015363
  0
LINE
  5
288
100
AcDbEntity
  8
5
100
AcDbLine
 62
7
  6
CONTINUOUS
 10
63.4166500903
 20
201.1849015363
 11
57.4166500903
 21
201.1849015363
  0
LINE
  5
289
100
AcDbEntity
  8
5
100
AcDbLine
 62
7
  6
CONTINUOUS
 10
57.4166500893
 20
201.3172923423
 11
63.4166500893
 21
201.3172923423
  0
LINE
  5
28A
100
AcDbEntity
  8
5
100
AcDbLine
 62
7
  6
CONTINUOUS
 10
72.4166500893
 20
201.3172923423
 11
78.4166500893
 21
201.3172923423
  0
LINE
  5
28B
100
AcDbEntity
  8
5
100
AcDbLine
 62
7
  6
CONTINUOUS
 10
87.4166500893
 20
201.3172923423
 11
93.4166500893
 21
201.3172923423
  0
LINE
  5
28C
100
AcDbEntity
  8
5
100
AcDbLine
 62
7
  6
CONTINUOUS
 10
102.4166500893
 20
201.3172923423
 11
108.4166500893
 21
201.3172923423
  0
LINE
  5
28D
100
AcDbEntity
  8
5
100
AcDbLine
 62
7
  6
CONTINUOUS
 10
108.4162029103
 20
201.8165953527
 11
102.4170972767
 21
201.8165953527
  0
LINE
  5
28E
100
AcDbEntity
  8
5
100
AcDbLine
 62
7
  6
CONTINUOUS
 10
93.4162029103
 20
201.8165953527
 11
87.4170972767
 21
201.8165953527
  0
LINE
  5
28F
100
AcDbEntity
  8
5
100
AcDbLine
 62
7
  6
CONTINUOUS
 10
78.4162029103
 20
201.8165953527
 11
72.4170972767
 21
201.8165953527
  0
LINE
  5
290
100
AcDbEntity
  8
5
100
AcDbLine
 62
7
  6
CONTINUOUS
 10
63.4162029103
 20
201.8165953527
 11
57.4170972824
 21
201.8165953527
  0
LINE
  5
291
100
AcDbEntity
  8
5
100
AcDbLine
 62
7
  6
CONTINUOUS
 10
161.9166500903
 20
37.1849015363
 11
161.9166500903
 21
38.6849015363
  0
LINE
  5
292
100
AcDbEntity
  8
5
100
AcDbLine
 62
7
  6
CONTINUOUS
 10
163.4166500903
 20
37.1849015363
 11
163.4166500903
 21
38.6849015363
  0
LINE
  5
293
100
AcDbEntity
  8
5
100
AcDbLine
 62
7
  6
CONTINUOUS
 10
165.8696876338
 20
150.3737799431
 11
165.8696876338
 21
155.2937813852
  0
LINE
  5
294
100
AcDbEntity
  8
5
100
AcDbLine
 62
7
  6
CONTINUOUS
 10
172.7166500903
 20
279.4920812133
 11
172.8375642535
 21
277.1849015365
  0
LINE
  5
295
100
AcDbEntity
  8
5
100
AcDbLine
 62
7
  6
CONTINUOUS
 10
173.4166500903
 20
38.6849015363
 11
173.4166500903
 21
124.1849015363
  0
LINE
  5
296
100
AcDbEntity
  8
5
100
AcDbLine
 62
7
  6
CONTINUOUS
 10
182.4166500903
 20
37.1849015363
 11
182.4166500903
 21
38.6849015363
  0
LINE
  5
297
100
AcDbEntity
  8
5
100
AcDbLine
 62
7
  6
CONTINUOUS
 10
182.8930875472
 20
189.9249015363
 11
182.8930875472
 21
190.1849015363
  0
LINE
  5
298
100
AcDbEntity
  8
5
100
AcDbLine
 62
7
  6
CONTINUOUS
 10
182.9463237007
 20
140.1849015363
 11
182.9463237007
 21
141.8849015363
  0
LINE
  5
299
100
AcDbEntity
  8
5
100
AcDbLine
 62
7
  6
CONTINUOUS
 10
183.9166500903
 20
37.1849015363
 11
183.9166500903
 21
38.6849015363
  0
LINE
  5
29A
100
AcDbEntity
  8
5
100
AcDbLine
 62
7
  6
CONTINUOUS
 10
189.9166500903
 20
37.1849015363
 11
189.9166500903
 21
38.6849015363
  0
LINE
  5
29B
100
AcDbEntity
  8
5
100
AcDbLine
 62
7
  6
CONTINUOUS
 10
126.9764577114
 20
280.3349015363
 11
126.1743851172
 21
281.7241320208
  0
LINE
  5
29C
100
AcDbEntity
  8
5
100
AcDbLine
 62
7
  6
CONTINUOUS
 10
174.2602784705
 20
277.6207697601
 11
173.7388364473
 21
281.6525859812
  0
LINE
  5
29D
100
AcDbEntity
  8
5
100
AcDbLine
 62
7
  6
CONTINUOUS
 10
191.4166500903
 20
37.1849015363
 11
191.4166500903
 21
38.6849015363
  0
LINE
  5
29E
100
AcDbEntity
  8
5
100
AcDbLine
 62
7
  6
CONTINUOUS
 10
196.9166500903
 20
277.1849015363
 11
196.9166500903
 21
190.1849015363
  0
LINE
  5
29F
100
AcDbEntity
  8
5
100
AcDbLine
 62
7
  6
CONTINUOUS
 10
196.9166500903
 20
189.9249015363
 11
196.9166500903
 21
145.2349037515
  0
LINE
  5
2A0
100
AcDbEntity
  8
5
100
AcDbLine
 62
7
  6
CONTINUOUS
 10
196.9166500903
 20
38.6849015363
 11
196.9166500903
 21
37.1849015363
  0
LINE
  5
2A1
100
AcDbEntity
  8
5
100
AcDbLine
 62
7
  6
CONTINUOUS
 10
199.9166500903
 20
37.1849015363
 11
199.9166500903
 21
38.6849015363
  0
LINE
  5
2A2
100
AcDbEntity
  8
5
100
AcDbLine
 62
7
  6
CONTINUOUS
 10
201.9166500903
 20
124.1849015363
 11
201.9166500903
 21
37.1849015363
  0
LINE
  5
2A3
100
AcDbEntity
  8
5
100
AcDbLine
 62
7
  6
CONTINUOUS
 10
203.323068928
 20
189.9249015363
 11
203.323068928
 21
190.1849015363
  0
LINE
  5
2A4
100
AcDbEntity
  8
5
100
AcDbLine
 62
7
  6
CONTINUOUS
 10
206.9166500903
 20
124.1849015363
 11
206.9166500903
 21
277.1849015363
  0
LINE
  5
2A5
100
AcDbEntity
  8
5
100
AcDbLine
 62
7
  6
CONTINUOUS
 10
26.9166500903
 20
277.1849015363
 11
206.9166500903
 21
277.1849015363
  0
LINE
  5
2A6
100
AcDbEntity
  8
5
100
AcDbLine
 62
7
  6
CONTINUOUS
 10
123.1166500903
 20
280.1849015363
 11
121.9166500903
 21
280.1849015363
  0
LINE
  5
2A7
100
AcDbEntity
  8
5
100
AcDbLine
 62
7
  6
CONTINUOUS
 10
125.2896248808
 20
281.8241320208
 11
126.0011800364
 21
281.8241320208
  0
LINE
  5
2A8
100
AcDbEntity
  8
5
100
AcDbLine
 62
7
  6
CONTINUOUS
 10
172.8321201441
 20
281.8241320208
 11
173.5408507144
 21
281.8241320208
  0
LINE
  5
2A9
100
AcDbEntity
  8
5
100
AcDbLine
 62
7
  6
CONTINUOUS
 10
121.9166500903
 20
283.1849015363
 11
123.1166500903
 21
283.1849015363
  0
LINE
  5
2AA
100
AcDbEntity
  8
5
100
AcDbLine
 62
7
  6
CONTINUOUS
 10
123.1166500903
 20
286.1849015363
 11
121.9166500903
 21
286.1849015363
  0
LINE
  5
2AB
100
AcDbEntity
  8
5
100
AcDbLine
 62
7
  6
CONTINUOUS
 10
171.9666500903
 20
279.9250939151
 11
172.7166500903
 21
279.4920812133
  0
ARC
  5
2AC
100
AcDbEntity
  8
5
100
AcDbCircle
 62
7
  6
CONTINUOUS
 10
108.4166500903
 20
198.1849015363
 40
3.6316702085
100
AcDbArc
 50
359.992944704
 51
90.0070549795
  0
ARC
  5
2AD
100
AcDbEntity
  8
5
100
AcDbCircle
 62
7
  6
CONTINUOUS
 10
102.4166500903
 20
198.1849015363
 40
3.6316702085
100
AcDbArc
 50
89.9929449193
 51
180.0070551559
  0
ARC
  5
2AE
100
AcDbEntity
  8
5
100
AcDbCircle
 62
7
  6
CONTINUOUS
 10
93.4166500903
 20
198.1849015363
 40
3.6316702085
100
AcDbArc
 50
359.9929447035
 51
90.0070549795
  0
ARC
  5
2AF
100
AcDbEntity
  8
5
100
AcDbCircle
 62
7
  6
CONTINUOUS
 10
87.4166500903
 20
198.1849015363
 40
3.6316702085
100
AcDbArc
 50
89.9929449193
 51
180.0070551559
  0
ARC
  5
2B0
100
AcDbEntity
  8
5
100
AcDbCircle
 62
7
  6
CONTINUOUS
 10
78.4166500903
 20
198.1849015363
 40
3.6316702085
100
AcDbArc
 50
359.9929447035
 51
90.0070549795
  0
ARC
  5
2B1
100
AcDbEntity
  8
5
100
AcDbCircle
 62
7
  6
CONTINUOUS
 10
72.4166500903
 20
198.1849015363
 40
3.6316702085
100
AcDbArc
 50
89.9929449193
 51
180.0070551559
  0
ARC
  5
2B2
100
AcDbEntity
  8
5
100
AcDbCircle
 62
7
  6
CONTINUOUS
 10
63.4166500903
 20
198.1849015363
 40
3.6316702085
100
AcDbArc
 50
359.9929447035
 51
90.0070549795
  0
ARC
  5
2B3
100
AcDbEntity
  8
5
100
AcDbCircle
 62
7
  6
CONTINUOUS
 10
57.4166500903
 20
198.1849015363
 40
3.6316702085
100
AcDbArc
 50
89.9929448292
 51
180.0042321782
  0
ARC
  5
2B4
100
AcDbEntity
  8
5
100
AcDbCircle
 62
7
  6
CONTINUOUS
 10
57.4166500903
 20
198.1849015363
 40
3.1323907581
100
AcDbArc
 50
90.0000000213
 51
180.0000000208
  0
ARC
  5
2B5
100
AcDbEntity
  8
5
100
AcDbCircle
 62
7
  6
CONTINUOUS
 10
78.4166500903
 20
198.1849015363
 40
3.1323907581
100
AcDbArc
 50
0.0000000213
 51
90.0000000208
  0
ARC
  5
2B6
100
AcDbEntity
  8
5
100
AcDbCircle
 62
7
  6
CONTINUOUS
 10
102.4166500903
 20
198.1849015363
 40
3.1323907581
100
AcDbArc
 50
90.0000000213
 51
180.0000000208
  0
ARC
  5
2B7
100
AcDbEntity
  8
5
100
AcDbCircle
 62
7
  6
CONTINUOUS
 10
93.4166500903
 20
198.1849015363
 40
3.1323907581
100
AcDbArc
 50
0.0000000213
 51
90.0000000208
  0
ARC
  5
2B8
100
AcDbEntity
  8
5
100
AcDbCircle
 62
7
  6
CONTINUOUS
 10
87.4166500903
 20
198.1849015363
 40
3.1323907581
100
AcDbArc
 50
90.0000000213
 51
180.0000000208
  0
ARC
  5
2B9
100
AcDbEntity
  8
5
100
AcDbCircle
 62
7
  6
CONTINUOUS
 10
108.4166500903
 20
198.1849015363
 40
3.1323907581
100
AcDbArc
 50
0.0000000213
 51
90.0000000208
  0
ARC
  5
2BA
100
AcDbEntity
  8
5
100
AcDbCircle
 62
7
  6
CONTINUOUS
 10
72.4166500903
 20
198.1849015363
 40
3.1323907581
100
AcDbArc
 50
90.0000000213
 51
180.0000000208
  0
ARC
  5
2BB
100
AcDbEntity
  8
5
100
AcDbCircle
 62
7
  6
CONTINUOUS
 10
63.4166500903
 20
198.1849015363
 40
3.1323907581
100
AcDbArc
 50
0.0000000213
 51
90.0000000208
  0
ARC
  5
2BC
100
AcDbEntity
  8
5
100
AcDbCircle
 62
7
  6
CONTINUOUS
 10
57.4166500903
 20
198.1849015363
 40
3.0
100
AcDbArc
 50
90.0
 51
180.0
  0
ARC
  5
2BD
100
AcDbEntity
  8
5
100
AcDbCircle
 62
7
  6
CONTINUOUS
 10
63.4166500903
 20
198.1849015363
 40
3.0
100
AcDbArc
 50
0.0
 51
90.0
  0
ARC
  5
2BE
100
AcDbEntity
  8
5
100
AcDbCircle
 62
7
  6
CONTINUOUS
 10
72.4166500903
 20
198.1849015363
 40
3.0
100
AcDbArc
 50
90.0
 51
180.0
  0
ARC
  5
2BF
100
AcDbEntity
  8
5
100
AcDbCircle
 62
7
  6
CONTINUOUS
 10
78.4166500903
 20
198.1849015363
 40
3.0
100
AcDbArc
 50
0.0
 51
90.0
  0
ARC
  5
2C0
100
AcDbEntity
  8
5
100
AcDbCircle
 62
7
  6
CONTINUOUS
 10
87.4166500903
 20
198.1849015363
 40
3.0
100
AcDbArc
 50
90.0
 51
180.0
  0
ARC
  5
2C1
100
AcDbEntity
  8
5
100
AcDbCircle
 62
7
  6
CONTINUOUS
 10
93.4166500903
 20
198.1849015363
 40
3.0
100
AcDbArc
 50
0.0
 51
90.0
  0
ARC
  5
2C2
100
AcDbEntity
  8
5
100
AcDbCircle
 62
7
  6
CONTINUOUS
 10
102.4166500903
 20
198.1849015363
 40
3.0
100
AcDbArc
 50
90.0
 51
180.0
  0
ARC
  5
2C3
100
AcDbEntity
  8
5
100
AcDbCircle
 62
7
  6
CONTINUOUS
 10
108.4166500903
 20
198.1849015363
 40
3.0
100
AcDbArc
 50
0.0
 51
90.0
  0
ARC
  5
2C4
100
AcDbEntity
  8
5
100
AcDbCircle
 62
7
  6
CONTINUOUS
 10
67.1055284971
 20
150.3737799431
 40
3.0
100
AcDbArc
 50
180.0
 51
270.0
  0
ARC
  5
2C5
100
AcDbEntity
  8
5
100
AcDbCircle
 62
7
  6
CONTINUOUS
 10
67.1055284971
 20
155.2937813852
 40
3.0
100
AcDbArc
 50
90.0
 51
180.0
  0
ARC
  5
2C6
100
AcDbEntity
  8
5
100
AcDbCircle
 62
7
  6
CONTINUOUS
 10
73.0586217617
 20
155.2937813852
 40
3.0
100
AcDbArc
 50
0.0
 51
90.0
  0
ARC
  5
2C7
100
AcDbEntity
  8
5
100
AcDbCircle
 62
7
  6
CONTINUOUS
 10
73.0586217617
 20
150.3737799431
 40
3.0
100
AcDbArc
 50
270.0
 51
360.0
  0
ARC
  5
2C8
100
AcDbEntity
  8
5
100
AcDbCircle
 62
7
  6
CONTINUOUS
 10
82.1232316886
 20
150.3737799431
 40
3.0
100
AcDbArc
 50
180.0
 51
270.0
  0
ARC
  5
2C9
100
AcDbEntity
  8
5
100
AcDbCircle
 62
7
  6
CONTINUOUS
 10
82.1232316886
 20
155.2937813852
 40
3.0
100
AcDbArc
 50
90.0
 51
180.0
  0
ARC
  5
2CA
100
AcDbEntity
  8
5
100
AcDbCircle
 62
7
  6
CONTINUOUS
 10
87.8107006585
 20
155.2937813852
 40
3.0
100
AcDbArc
 50
0.0
 51
90.0
  0
ARC
  5
2CB
100
AcDbEntity
  8
5
100
AcDbCircle
 62
7
  6
CONTINUOUS
 10
87.8107006585
 20
150.3737799431
 40
3.0
100
AcDbArc
 50
270.0
 51
360.0
  0
ARC
  5
2CC
100
AcDbEntity
  8
5
100
AcDbCircle
 62
7
  6
CONTINUOUS
 10
97.0142906379
 20
150.3737799431
 40
3.0
100
AcDbArc
 50
180.0
 51
270.0
  0
ARC
  5
2CD
100
AcDbEntity
  8
5
100
AcDbCircle
 62
7
  6
CONTINUOUS
 10
97.0142906379
 20
155.2937813852
 40
3.0
100
AcDbArc
 50
90.0
 51
180.0
  0
ARC
  5
2CE
100
AcDbEntity
  8
5
100
AcDbCircle
 62
7
  6
CONTINUOUS
 10
102.7017596077
 20
155.2937813852
 40
3.0
100
AcDbArc
 50
0.0
 51
90.0
  0
ARC
  5
2CF
100
AcDbEntity
  8
5
100
AcDbCircle
 62
7
  6
CONTINUOUS
 10
102.7017596077
 20
150.3737799431
 40
3.0
100
AcDbArc
 50
270.0
 51
360.0
  0
ARC
  5
2D0
100
AcDbEntity
  8
5
100
AcDbCircle
 62
7
  6
CONTINUOUS
 10
112.056273189
 20
150.3737799431
 40
3.0
100
AcDbArc
 50
180.0
 51
270.0
  0
ARC
  5
2D1
100
AcDbEntity
  8
5
100
AcDbCircle
 62
7
  6
CONTINUOUS
 10
112.056273189
 20
155.2937813852
 40
3.0
100
AcDbArc
 50
90.0
 51
180.0
  0
ARC
  5
2D2
100
AcDbEntity
  8
5
100
AcDbCircle
 62
7
  6
CONTINUOUS
 10
142.2408520831
 20
150.3737799431
 40
3.0
100
AcDbArc
 50
180.0
 51
270.0
  0
ARC
  5
2D3
100
AcDbEntity
  8
5
100
AcDbCircle
 62
7
  6
CONTINUOUS
 10
142.2408520831
 20
155.2937813852
 40
3.0
100
AcDbArc
 50
90.0
 51
180.0
  0
ARC
  5
2D4
100
AcDbEntity
  8
5
100
AcDbCircle
 62
7
  6
CONTINUOUS
 10
147.928321053
 20
155.2937813852
 40
3.0
100
AcDbArc
 50
0.0
 51
90.0
  0
ARC
  5
2D5
100
AcDbEntity
  8
5
100
AcDbCircle
 62
7
  6
CONTINUOUS
 10
147.928321053
 20
150.3737799431
 40
3.0
100
AcDbArc
 50
270.0
 51
360.0
  0
ARC
  5
2D6
100
AcDbEntity
  8
5
100
AcDbCircle
 62
7
  6
CONTINUOUS
 10
157.1822186639
 20
150.3737799431
 40
3.0
100
AcDbArc
 50
180.0
 51
270.0
  0
ARC
  5
2D7
100
AcDbEntity
  8
5
100
AcDbCircle
 62
7
  6
CONTINUOUS
 10
157.1822186639
 20
155.2937813852
 40
3.0
100
AcDbArc
 50
90.0
 51
180.0
  0
ARC
  5
2D8
100
AcDbEntity
  8
5
100
AcDbCircle
 62
7
  6
CONTINUOUS
 10
162.8696876338
 20
155.2937813852
 40
3.0
100
AcDbArc
 50
0.0
 51
90.0
  0
ARC
  5
2D9
100
AcDbEntity
  8
5
100
AcDbCircle
 62
7
  6
CONTINUOUS
 10
162.8696876338
 20
150.3737799431
 40
3.0
100
AcDbArc
 50
270.0
 51
360.0
  0
ARC
  5
2DA
100
AcDbEntity
  8
5
100
AcDbCircle
 62
7
  6
CONTINUOUS
 10
117.7437421588
 20
155.2937813852
 40
3.0
100
AcDbArc
 50
0.0
 51
90.0
  0
ARC
  5
2DB
100
AcDbEntity
  8
5
100
AcDbCircle
 62
7
  6
CONTINUOUS
 10
117.7437421588
 20
150.3737799431
 40
3.0
100
AcDbArc
 50
270.0
 51
360.0
  0
ARC
  5
2DC
100
AcDbEntity
  8
5
100
AcDbCircle
 62
7
  6
CONTINUOUS
 10
127.1485626645
 20
150.3737799431
 40
3.0
100
AcDbArc
 50
179.9999999998
 51
270.0
  0
ARC
  5
2DD
100
AcDbEntity
  8
5
100
AcDbCircle
 62
7
  6
CONTINUOUS
 10
127.1485626645
 20
155.2937813852
 40
3.0
100
AcDbArc
 50
90.0
 51
180.0000000001
  0
ARC
  5
2DE
100
AcDbEntity
  8
5
100
AcDbCircle
 62
7
  6
CONTINUOUS
 10
133.1016559292
 20
155.2937813852
 40
3.0
100
AcDbArc
 50
0.0
 51
90.0
  0
ARC
  5
2DF
100
AcDbEntity
  8
5
100
AcDbCircle
 62
7
  6
CONTINUOUS
 10
133.1016559292
 20
150.3737799431
 40
3.0
100
AcDbArc
 50
270.0
 51
360.0
  0
ARC
  5
2E0
100
AcDbEntity
  8
5
100
AcDbCircle
 62
7
  6
CONTINUOUS
 10
124.0771516506
 20
277.6849015363
 40
0.5
100
AcDbArc
 50
270.0
 51
352.6307402116
  0
ARC
  5
2E1
100
AcDbEntity
  8
5
100
AcDbCircle
 62
7
  6
CONTINUOUS
 10
174.7561485253
 20
277.6849015363
 40
0.4999999967
100
AcDbArc
 50
187.3692612138
 51
270.0000018715
  0
ARC
  5
2E2
100
AcDbEntity
  8
5
100
AcDbCircle
 62
7
  6
CONTINUOUS
 10
172.1166500903
 20
280.1849015363
 40
0.3
100
AcDbArc
 50
149.9999999872
 51
240.0000000021
  0
ARC
  5
2E3
100
AcDbEntity
  8
5
100
AcDbCircle
 62
7
  6
CONTINUOUS
 10
126.7166500903
 20
280.1849015363
 40
0.3
100
AcDbArc
 50
300.0000000002
 51
29.9999999999
  0
ARC
  5
2E4
100
AcDbEntity
  8
5
100
AcDbCircle
 62
7
  6
CONTINUOUS
 10
173.5408507144
 20
281.6241320208
 40
0.2
100
AcDbArc
 50
8.1783900881
 51
90.0
  0
ARC
  5
2E5
100
AcDbEntity
  8
5
100
AcDbCircle
 62
7
  6
CONTINUOUS
 10
172.8321201441
 20
281.6241320208
 40
0.2
100
AcDbArc
 50
90.0
 51
150.0000000147
  0
ARC
  5
2E6
100
AcDbEntity
  8
5
100
AcDbCircle
 62
7
  6
CONTINUOUS
 10
125.2924494661
 20
281.6241320208
 40
0.2
100
AcDbArc
 50
90.8091302993
 51
172.6307402127
  0
ARC
  5
2E7
100
AcDbEntity
  8
5
100
AcDbCircle
 62
7
  6
CONTINUOUS
 10
126.0011800364
 20
281.6241320208
 40
0.2
100
AcDbArc
 50
29.9999999996
 51
90.0
  0
SPLINE
  5
2E8
100
AcDbEntity
  8
5
100
AcDbSpline
 62
7
  6
CONTINUOUS
 70
0
 71
3
 72
8
 73
4
 74
0
 42
0.0000001
 43
0.0000001
 44
0.0000000001
 40
0.0
 40
0.0
 40
0.0
 40
0.0
 40
1.0
 40
1.0
 40
1.0
 40
1.0
 10
124.2970572354
 20
277.1910185374
 30
0.0
 10
124.1706088847
 20
277.2064627883
 30
0.0
 10
124.0440299717
 20
277.2563424227
 30
0.0
 10
123.9421988524
 20
277.3328808668
 30
0.0
  0
SPLINE
  5
2E9
100
AcDbEntity
  8
5
100
AcDbSpline
 62
7
  6
CONTINUOUS
 70
0
 71
3
 72
9
 73
5
 74
0
 42
0.0000001
 43
0.0000001
 44
0.0000000001
 40
0.0
 40
0.0
 40
0.0
 40
0.0
 40
0.229430577
 40
1.0
 40
1.0
 40
1.0
 40
1.0
 10
123.9421988524
 20
277.3328808668
 30
0.0
 10
123.9105562001
 20
277.35666416
 30
0.0
 10
123.7807455393
 20
277.4712689442
 30
0.0
 10
123.6866293207
 20
277.6215002682
 30
0.0
 10
123.6294667884
 20
277.7415318771
 30
0.0
  0
SPLINE
  5
2EA
100
AcDbEntity
  8
5
100
AcDbSpline
 62
7
  6
CONTINUOUS
 70
0
 71
3
 72
10
 73
6
 74
0
 42
0.0000001
 43
0.0000001
 44
0.0000000001
 40
0.0
 40
0.0
 40
0.0
 40
0.0
 40
0.2035555045
 40
0.4447763682
 40
1.0
 40
1.0
 40
1.0
 40
1.0
 10
123.6294667884
 20
277.7415318771
 30
0.0
 10
123.5570825757
 20
277.8935264296
 30
0.0
 10
123.4464156357
 20
278.2476794162
 30
0.0
 10
123.3150066649
 20
279.0649232259
 30
0.0
 10
123.2913126074
 20
279.725704638
 30
0.0
 10
123.2913126074
 20
280.1849015363
 30
0.0
  0
SPLINE
  5
2EB
100
AcDbEntity
  8
5
100
AcDbSpline
 62
7
  6
CONTINUOUS
 70
0
 71
3
 72
11
 73
7
 74
0
 42
0.0000001
 43
0.0000001
 44
0.0000000001
 40
0.0
 40
0.0
 40
0.0
 40
0.0
 40
0.1682709132
 40
0.4052890545
 40
0.6904349409
 40
1.0
 40
1.0
 40
1.0
 40
1.0
 10
123.1166500903
 20
285.9085628303
 30
0.0
 10
123.1166500903
 20
285.7554223136
 30
0.0
 10
123.1512548918
 20
285.3874157215
 30
0.0
 10
123.2166473594
 20
284.7628971276
 30
0.0
 10
123.2760774709
 20
284.0079562228
 30
0.0
 10
123.2913126074
 20
283.4666314694
 30
0.0
 10
123.2913126074
 20
283.1849015363
 30
0.0
  0
ENDSEC
  0
SECTION
  2
OBJECTS
  0
DICTIONARY
  5
C
100
AcDbDictionary
280
0
281
1
  3
ACAD_GROUP
350
D
  3
ACAD_MLINESTYLE
350
17
  3
ACAD_LAYOUT
350
1A
  3
ACAD_PLOTSETTINGS
350
19
  3
ACAD_PLOTSTYLENAME
350
E
  0
DICTIONARY
  5
D
102
{ACAD_REACTORS
330
C
102
}
100
AcDbDictionary
280
0
281
1
  0
ACDBDICTIONARYWDFLT
  5
E
102
{ACAD_REACTORS
330
C
102
}
100
AcDbDictionary
281
1
  3
Normal
350
F
100
AcDbDictionaryWithDefault
340
F
  0
DICTIONARY
  5
17
102
{ACAD_REACTORS
330
C
102
}
100
AcDbDictionary
280
0
281
1
  3
Standard
350
18
  0
DICTIONARY
  5
19
102
{ACAD_REACTORS
330
C
102
}
100
AcDbDictionary
281
1
  0
DICTIONARY
  5
1A
102
{ACAD_REACTORS
330
C
102
}
100
AcDbDictionary
281
1
  3
Model
350
2EC
  3
Layout1
350
2ED
  0
ACDBPLACEHOLDER
  5
F
102
{ACAD_REACTORS
330
E
102
}
  0
MLINESTYLE
  5
18
102
{ACAD_REACTORS
330
17
102
}
100
AcDbMlineStyle
  2
STANDARD
 70
0
  3

 62
256
 51
90.0
 52
90.0
 71
2
 49
0.5
 62
256
  6
BYLAYER
 49
-0.5
 62
256
  6
BYLAYER
  0
LAYOUT
  5
2EC
102
{ACAD_REACTORS
330
1A
102
}
100
AcDbPlotSettings
  1

  2
none_device
  4

  6

 40
0.0
 41
0.0
 42
0.0
 43
0.0
 44
210.0
 45
297.0
 46
0.0
 47
0.0
 48
0.0
 49
0.0
140
0.0
141
0.0
142
1.0
143
1.0
 70
1024
 72
1
 73
0
 74
0
  7

 75
0
147
1.0
148
0.0
149
0.0
100
AcDbLayout
  1
Model
 70
0
 71
0
 10
0.0
 20
0.0
 11
210.0
 21
297.0
 12
0.0
 22
0.0
 32
0.0
 14
0.0
 24
0.0
 34
0.0
 15
0.0
 25
0.0
 35
0.0
146
0.0
 13
0.0
 23
0.0
 33
0.0
 16
1.0
 26
0.0
 36
0.0
 17
0.0
 27
1.0
 37
0.0
 76
0
330
211
345
0
346
0
  0
LAYOUT
  5
2ED
102
{ACAD_REACTORS
330
1A
102
}
100
AcDbPlotSettings
  1

  2
none_device
  4

  6

 40
0.0
 41
0.0
 42
0.0
 43
0.0
 44
210.0
 45
297.0
 46
0.0
 47
0.0
 48
0.0
 49
0.0
140
0.0
141
0.0
142
1.0
143
1.0
 70
0
 72
1
 73
0
 74
0
  7

 75
0
147
1.0
148
0.0
149
0.0
100
AcDbLayout
  1
Layout1
 70
0
 71
1
 10
0.0
 20
0.0
 11
210.0
 21
297.0
 12
0.0
 22
0.0
 32
0.0
 14
0.0
 24
0.0
 34
0.0
 15
0.0
 25
0.0
 35
0.0
146
0.0
 13
0.0
 23
0.0
 33
0.0
 16
1.0
 26
0.0
 36
0.0
 17
0.0
 27
1.0
 37
0.0
 76
0
330
212
345
0
346
0
  0
ENDSEC
  0
EOF
