999
DXF file: C:\Users\sesa63760\Dev\_Creo\CAD\MCADID0005807_3D-CAD\mcadid0005807_3d-simplified_1.dxf
999
Pro/ENGINEER 2019471 by Parametric Technology Corporation
  0
SECTION
  2
HEADER
  9
$ACADVER
  1
AC1024
  9
$DWGCODEPAGE
  3
ANSI_1252
  9
$EXTMAX
 10
101.4955307066
 20
143.5436791422
 30
0.0
  9
$EXTMIN
 10
0.0
 20
0.0
 30
0.0
  9
$LIMMIN
 10
0.0
 20
0.0
  9
$LIMMAX
 10
101.4955307066
 20
143.5436791422
  9
$VIEWCTR
 10
50.7477653533
 20
71.7718395711
  9
$VIEWSIZE
 40
143.5436791422
  9
$CLAYER
  8
0
  9
$LTSCALE
 40
9.356921307
  9
$CELTYPE
  6
BYLAYER
  9
$DIMSCALE
 40
1.0
  9
$DIMASZ
 40
1.2082801275
  9
$DIMEXO
 40
1.0
  9
$DIMDLI
 40
6.464781994
  9
$DIMEXE
 40
1.0
  9
$DIMCEN
 40
1.5311325775
  9
$DIMLFAC
 40
1.0
  9
$DIMBLK
  1
_FILLED
  9
$DIMALT
 70
0
  9
$DIMALTF
 40
0.0393700787
  9
$DIMTXT
 40
1.6915921784
  9
$DIMTOL
 70
1
  9
$DIMLIM
 70
0
  9
$DIMTFAC
 40
1.0
  9
$DIMTP
 40
0.01
  9
$DIMTM
 40
0.01
  9
$DIMGAP
 40
0.625
  9
$DIMDSEP
 70
46
  9
$AUNITS
 70
0
  9
$PDMODE
 70
3
  9
$PDSIZE
 40
0.3125
  9
$HANDSEED
  5
332
  9
$TILEMODE
 70
1
  9
$MEASUREMENT
 70
1
  9
$INSUNITS
 70
4
  0
ENDSEC
  0
SECTION
  2
CLASSES
  0
CLASS
  1
ACDBDICTIONARYWDFLT
  2
AcDbDictionaryWithDefault
  3
AutoCAD 2000
 90
0
 91
1
280
0
281
0
  0
CLASS
  1
ACDBPLACEHOLDER
  2
AcDbPlaceHolder
  3
AutoCAD 2000
 90
0
 91
1
280
0
281
0
  0
CLASS
  1
LAYOUT
  2
AcDbLayout
  3
AutoCAD 2000
 90
0
 91
0
280
0
281
0
  0
ENDSEC
  0
SECTION
  2
TABLES
  0
TABLE
  2
VPORT
  5
8
100
AcDbSymbolTable
 70
2
  0
VPORT
  5
1F4
100
AcDbSymbolTableRecord
100
AcDbViewportTableRecord
  2
*ACTIVE
 70
0
 10
0.0
 20
0.0
 11
1.0
 21
1.0
 12
50.7477653533
 22
71.7718395711
 13
0.0
 23
0.0
 14
1.0
 24
1.0
 15
0.0
 25
0.0
 16
0.0
 26
0.0
 36
1.0
 17
0.0
 27
0.0
 37
0.0
 40
143.5436791422
 41
0.7070707071
 42
50.0
 43
0.0
 44
0.0
 50
0.0
 51
0.0
 71
0
 72
100
 73
1
 74
1
 75
0
 76
0
 77
0
 78
0
  0
ENDTAB
  0
TABLE
  2
LTYPE
  5
5
100
AcDbSymbolTable
 70
6
  0
LTYPE
  5
14
100
AcDbSymbolTableRecord
100
AcDbLinetypeTableRecord
  2
BYBLOCK
 70
0
  3

 72
65
 73
0
 40
0.0
  0
LTYPE
  5
15
100
AcDbSymbolTableRecord
100
AcDbLinetypeTableRecord
  2
BYLAYER
 70
0
  3

 72
65
 73
0
 40
0.0
  0
LTYPE
  5
16
100
AcDbSymbolTableRecord
100
AcDbLinetypeTableRecord
  2
CONTINUOUS
 70
64
  3
Solid line
 72
65
 73
0
 40
0.0
  0
LTYPE
  5
1F5
100
AcDbSymbolTableRecord
100
AcDbLinetypeTableRecord
  2
CENTER
 70
64
  3
____ _ ____ _ ____ _ ____ _ ____ _ ____ _ ____
 72
65
 73
4
 40
0.6
 49
0.375
 74
0
 49
-0.075
 74
0
 49
0.075
 74
0
 49
-0.075
 74
0
  0
LTYPE
  5
1F6
100
AcDbSymbolTableRecord
100
AcDbLinetypeTableRecord
  2
HIDDEN
 70
64
  3
- - - - - - - - - - - - - - - - - - - -
 72
65
 73
2
 40
0.2
 49
0.1
 74
0
 49
-0.1
 74
0
  0
LTYPE
  5
1F7
100
AcDbSymbolTableRecord
100
AcDbLinetypeTableRecord
  2
PHANTOM
 70
64
  3
_____ _ _ _____ _ _ _____ _ _ _____
 72
65
 73
6
 40
0.8
 49
0.45
 74
0
 49
-0.05
 74
0
 49
0.1
 74
0
 49
-0.05
 74
0
 49
0.1
 74
0
 49
-0.05
 74
0
  0
LTYPE
  5
1F8
100
AcDbSymbolTableRecord
100
AcDbLinetypeTableRecord
  2
DOT
 70
64
  3
. . . . . . . . . . . . . . . . . . . .
 72
65
 73
2
 40
0.2
 49
0.1
 74
0
 49
-0.1
 74
0
  0
LTYPE
  5
1F9
100
AcDbSymbolTableRecord
100
AcDbLinetypeTableRecord
  2
DASHED
 70
64
  3
- - - - - - - - - - - - - - - - - - - -
 72
65
 73
2
 40
0.2
 49
0.1
 74
0
 49
-0.1
 74
0
  0
ENDTAB
  0
TABLE
  2
LAYER
  5
2
100
AcDbSymbolTable
 70
36
  0
LAYER
  5
10
100
AcDbSymbolTableRecord
100
AcDbLayerTableRecord
  2
0
 70
0
 62
7
  6
CONTINUOUS
370
-3
390
F
  0
LAYER
  5
1FA
100
AcDbSymbolTableRecord
100
AcDbLayerTableRecord
  2
DEFAULT_1
 70
0
 62
7
  6
CENTER
370
-3
390
F
  0
LAYER
  5
1FB
100
AcDbSymbolTableRecord
100
AcDbLayerTableRecord
  2
DEFAULT_2
 70
0
 62
7
  6
HIDDEN
370
-3
390
F
  0
LAYER
  5
1FC
100
AcDbSymbolTableRecord
100
AcDbLayerTableRecord
  2
DEFAULT_3
 70
0
 62
7
  6
PHANTOM
370
-3
390
F
  0
LAYER
  5
1FD
100
AcDbSymbolTableRecord
100
AcDbLayerTableRecord
  2
00_COMPONENTS
 70
0
 62
7
  6
CONTINUOUS
370
-3
390
F
  0
LAYER
  5
1FE
100
AcDbSymbolTableRecord
100
AcDbLayerTableRecord
  2
01_1_DEFAULT_DATUMS
 70
0
 62
7
  6
CONTINUOUS
370
-3
390
F
  0
LAYER
  5
1FF
100
AcDbSymbolTableRecord
100
AcDbLayerTableRecord
  2
01_PLANES
 70
0
 62
7
  6
CONTINUOUS
370
-3
390
F
  0
LAYER
  5
200
100
AcDbSymbolTableRecord
100
AcDbLayerTableRecord
  2
02_COORD_SYS
 70
0
 62
7
  6
CONTINUOUS
370
-3
390
F
  0
LAYER
  5
201
100
AcDbSymbolTableRecord
100
AcDbLayerTableRecord
  2
03_AXES
 70
0
 62
7
  6
CONTINUOUS
370
-3
390
F
  0
LAYER
  5
202
100
AcDbSymbolTableRecord
100
AcDbLayerTableRecord
  2
04_POINTS
 70
0
 62
7
  6
CONTINUOUS
370
-3
390
F
  0
LAYER
  5
203
100
AcDbSymbolTableRecord
100
AcDbLayerTableRecord
  2
05_CURVES
 70
0
 62
7
  6
CONTINUOUS
370
-3
390
F
  0
LAYER
  5
204
100
AcDbSymbolTableRecord
100
AcDbLayerTableRecord
  2
06_SURFS
 70
0
 62
7
  6
CONTINUOUS
370
-3
390
F
  0
LAYER
  5
205
100
AcDbSymbolTableRecord
100
AcDbLayerTableRecord
  2
07_COSMETICS
 70
0
 62
7
  6
CONTINUOUS
370
-3
390
F
  0
LAYER
  5
206
100
AcDbSymbolTableRecord
100
AcDbLayerTableRecord
  2
1
 70
0
 62
7
  6
CONTINUOUS
370
-3
390
F
  0
LAYER
  5
207
100
AcDbSymbolTableRecord
100
AcDbLayerTableRecord
  2
10_NOTES
 70
0
 62
7
  6
CONTINUOUS
370
-3
390
F
  0
LAYER
  5
208
100
AcDbSymbolTableRecord
100
AcDbLayerTableRecord
  2
11_NOTES_PUB
 70
0
 62
7
  6
CONTINUOUS
370
-3
390
F
  0
LAYER
  5
209
100
AcDbSymbolTableRecord
100
AcDbLayerTableRecord
  2
13_REF_GTOL
 70
0
 62
7
  6
CONTINUOUS
370
-3
390
F
  0
LAYER
  5
20A
100
AcDbSymbolTableRecord
100
AcDbLayerTableRecord
  2
16_MISC
 70
0
 62
7
  6
CONTINUOUS
370
-3
390
F
  0
LAYER
  5
20B
100
AcDbSymbolTableRecord
100
AcDbLayerTableRecord
  2
17_NO_PRINT
 70
0
 62
7
  6
CONTINUOUS
370
-3
390
F
  0
LAYER
  5
20C
100
AcDbSymbolTableRecord
100
AcDbLayerTableRecord
  2
18_DATUM_CAMS_JOINTS
 70
0
 62
7
  6
CONTINUOUS
370
-3
390
F
  0
LAYER
  5
20D
100
AcDbSymbolTableRecord
100
AcDbLayerTableRecord
  2
19_DATUM_FUNCTIONAL
 70
0
 62
7
  6
CONTINUOUS
370
-3
390
F
  0
LAYER
  5
20E
100
AcDbSymbolTableRecord
100
AcDbLayerTableRecord
  2
20_DATUM_KINEMATIC_SCHEME
 70
0
 62
7
  6
CONTINUOUS
370
-3
390
F
  0
LAYER
  5
20F
100
AcDbSymbolTableRecord
100
AcDbLayerTableRecord
  2
3
 70
0
 62
7
  6
CONTINUOUS
370
-3
390
F
  0
ENDTAB
  0
TABLE
  2
STYLE
  5
3
100
AcDbSymbolTable
 70
1
  0
STYLE
  5
11
100
AcDbSymbolTableRecord
100
AcDbTextStyleTableRecord
  2
STANDARD
 70
0
 40
0.0
 41
1.0
 50
0.0
 71
0
 42
0.2
  3
ARIAL.TTF
  4

  0
STYLE
  5
210
100
AcDbSymbolTableRecord
100
AcDbTextStyleTableRecord
  2
TEXTSTYLE_1
 70
0
 40
0.0
 41
0.8
 50
0.0
 71
0
 42
0.2
  3
gdt
  4

  0
ENDTAB
  0
TABLE
  2
VIEW
  5
6
100
AcDbSymbolTable
 70
0
  0
ENDTAB
  0
TABLE
  2
UCS
  5
7
100
AcDbSymbolTable
 70
0
  0
ENDTAB
  0
TABLE
  2
APPID
  5
9
100
AcDbSymbolTable
 70
1
  0
APPID
  5
211
100
AcDbSymbolTableRecord
100
AcDbRegAppTableRecord
  2
ACAD
 70
0
  0
ENDTAB
  0
TABLE
  2
BLOCK_RECORD
  5
1
100
AcDbSymbolTable
 70
0
  0
BLOCK_RECORD
  5
212
100
AcDbSymbolTableRecord
100
AcDbBlockTableRecord
  2
*Model_Space
  0
BLOCK_RECORD
  5
213
100
AcDbSymbolTableRecord
100
AcDbBlockTableRecord
  2
*Paper_Space
  0
BLOCK_RECORD
  5
214
100
AcDbSymbolTableRecord
100
AcDbBlockTableRecord
  2
_FILLED
  0
ENDTAB
  0
TABLE
  2
DIMSTYLE
  5
A
100
AcDbSymbolTable
 70
1
100
AcDbDimStyleTable
 71
0
  0
DIMSTYLE
105
215
100
AcDbSymbolTableRecord
100
AcDbDimStyleTableRecord
  2
STANDARD
 70
0
  3

  4

 40
1.0
 41
1.2082801275
 42
1.0
 43
0.38
 44
1.0
 45
0.0
 46
0.0
 47
0.01
 48
0.01
140
1.6915921784
141
0.09
142
0.0
143
25.4
144
1.0
145
0.0
146
1.0
147
0.625
 71
1
 72
0
 73
0
 74
0
 75
0
 76
0
 77
1
 78
8
 79
2
170
0
171
1
172
0
173
0
174
0
175
0
176
0
177
0
178
0
270
2
179
2
271
2
272
2
273
2
274
2
275
0
280
0
281
0
282
0
283
1
284
8
285
0
286
0
287
3
288
0
340
11
278
46
341
214
342
214
343
214
344
214
  0
ENDTAB
  0
ENDSEC
  0
SECTION
  2
BLOCKS
  0
BLOCK
  5
20
100
AcDbEntity
  8
0
100
AcDbBlockBegin
  2
*Model_Space
 70
0
 10
0.0
 20
0.0
 30
0.0
  3
*Model_Space
  1

  0
ENDBLK
  5
21
100
AcDbEntity
  8
0
100
AcDbBlockEnd
  0
BLOCK
  5
1C
100
AcDbEntity
  8
0
100
AcDbBlockBegin
  2
*Paper_Space
 70
0
 10
0.0
 20
0.0
 30
0.0
  3
*Paper_Space
  1

  0
ENDBLK
  5
1D
100
AcDbEntity
  8
0
100
AcDbBlockEnd
  0
BLOCK
  5
216
100
AcDbEntity
  8
0
100
AcDbBlockBegin
  2
_FILLED
 70
64
 10
0.0
 20
0.0
  3
_FILLED
  1

  0
SOLID
  5
217
100
AcDbEntity
  8
0
  6
BYBLOCK
 62
0
100
AcDbTrace
 10
0.0
 20
0.0
 11
-1.0
 21
0.25
 12
-1.0
 22
-0.25
 13
-1.0
 23
-0.25
  0
ENDBLK
  5
218
100
AcDbEntity
  8
0
  6
BYBLOCK
 62
0
100
AcDbBlockEnd
  0
ENDSEC
  0
SECTION
  2
ENTITIES
  0
LINE
  5
219
100
AcDbEntity
  8
3
100
AcDbLine
 62
7
  6
BYLAYER
 10
30.5984327196
 20
48.6159673162
 11
30.2536428773
 21
48.9053818213
  0
LINE
  5
21A
100
AcDbEntity
  8
3
100
AcDbLine
 62
7
  6
BYLAYER
 10
30.6071947959
 20
49.1095038982
 11
30.667832457
 21
49.0586050128
  0
LINE
  5
21B
100
AcDbEntity
  8
3
100
AcDbLine
 62
7
  6
BYLAYER
 10
31.5843584794
 20
50.8479002234
 11
30.7399531156
 21
51.2388969721
  0
LINE
  5
21C
100
AcDbEntity
  8
3
100
AcDbLine
 62
7
  6
BYLAYER
 10
30.2536428773
 20
48.9053818213
 11
30.757371241
 21
47.3875614583
  0
LINE
  5
21D
100
AcDbEntity
  8
3
100
AcDbLine
 62
7
  6
BYLAYER
 10
31.0935050342
 20
51.4430190491
 11
31.937910398
 21
51.0520223003
  0
LINE
  5
21E
100
AcDbEntity
  8
1
100
AcDbLine
 62
7
  6
BYLAYER
 10
50.8119230242
 20
97.6885127806
 11
52.4382618498
 21
98.6274743346
  0
LINE
  5
21F
100
AcDbEntity
  8
1
100
AcDbLine
 62
7
  6
BYLAYER
 10
53.0164729711
 20
97.8854484201
 11
54.6428117967
 21
98.824409974
  0
LINE
  5
220
100
AcDbEntity
  8
1
100
AcDbLine
 62
7
  6
BYLAYER
 10
67.3466799983
 20
105.2547686579
 11
63.1989459422
 21
102.8600875784
  0
LINE
  5
221
100
AcDbEntity
  8
1
100
AcDbLine
 62
7
  6
BYLAYER
 10
65.2025953319
 20
102.3518498126
 11
68.6911074266
 21
104.3855936975
  0
LINE
  5
222
100
AcDbEntity
  8
1
100
AcDbLine
 62
7
  6
BYLAYER
 10
63.9060556673
 20
102.4518468238
 11
56.1329749257
 21
97.9640833535
  0
LINE
  5
223
100
AcDbEntity
  8
1
100
AcDbLine
 62
7
  6
BYLAYER
 10
52.441832255
 20
95.2615468239
 11
53.8701820062
 21
96.0862000148
  0
LINE
  5
224
100
AcDbEntity
  8
1
100
AcDbLine
 62
7
  6
BYLAYER
 10
15.7926213894
 20
72.6903276348
 11
17.6290328418
 21
73.7505739524
  0
LINE
  5
225
100
AcDbEntity
  8
1
100
AcDbLine
 62
7
  6
BYLAYER
 10
50.0341023265
 20
90.7890558565
 11
50.8119230242
 21
91.238128165
  0
LINE
  5
226
100
AcDbEntity
  8
1
100
AcDbLine
 62
7
  6
BYLAYER
 10
61.0560803899
 20
100.8064226521
 11
63.1989459422
 21
102.8600875784
  0
LINE
  5
227
100
AcDbEntity
  8
1
100
AcDbLine
 62
7
  6
BYLAYER
 10
73.1086579029
 20
101.7906607658
 11
69.672914598
 21
99.7876801979
  0
LINE
  5
228
100
AcDbEntity
  8
1
100
AcDbLine
 62
7
  6
BYLAYER
 10
59.4970593523
 20
96.0218722429
 11
57.8707205268
 21
95.082910689
  0
LINE
  5
229
100
AcDbEntity
  8
1
100
AcDbLine
 62
7
  6
BYLAYER
 10
55.606148275
 20
93.4346694475
 11
57.0344980262
 21
94.2593226383
  0
LINE
  5
22A
100
AcDbEntity
  8
1
100
AcDbLine
 62
7
  6
BYLAYER
 10
55.9597031376
 20
92.5234372347
 11
57.3880528888
 21
93.3480904255
  0
LINE
  5
22B
100
AcDbEntity
  8
1
100
AcDbLine
 62
7
  6
BYLAYER
 10
37.1082303622
 20
81.2468690082
 11
40.6434722162
 21
83.2879296608
  0
LINE
  5
22C
100
AcDbEntity
  8
1
100
AcDbLine
 62
7
  6
BYLAYER
 10
57.9120756272
 20
92.8544804153
 11
57.3880528888
 21
92.5519375522
  0
LINE
  5
22D
100
AcDbEntity
  8
1
100
AcDbLine
 62
7
  6
BYLAYER
 10
69.4215115235
 20
99.2675689386
 11
62.5997888757
 21
95.3290690412
  0
LINE
  5
22E
100
AcDbEntity
  8
1
100
AcDbLine
 62
7
  6
BYLAYER
 10
26.945105038
 20
74.5183151074
 11
36.950695178
 21
80.2950107859
  0
LINE
  5
22F
100
AcDbEntity
  8
1
100
AcDbLine
 62
7
  6
BYLAYER
 10
26.2231229977
 20
73.6316698125
 11
27.4897680019
 21
74.3629632814
  0
LINE
  5
230
100
AcDbEntity
  8
1
100
AcDbLine
 62
7
  6
BYLAYER
 10
74.2763553048
 20
101.2540092636
 11
70.1286212486
 21
98.8593281841
  0
LINE
  5
231
100
AcDbEntity
  8
1
100
AcDbLine
 62
7
  6
BYLAYER
 10
49.3249330084
 20
86.383800859
 11
45.0823099851
 21
83.9343359357
  0
LINE
  5
232
100
AcDbEntity
  8
1
100
AcDbLine
 62
7
  6
BYLAYER
 10
63.8457631604
 20
57.9715851553
 11
62.1751814553
 21
57.5721543518
  0
LINE
  5
233
100
AcDbEntity
  8
1
100
AcDbLine
 62
7
  6
BYLAYER
 10
52.441832255
 20
95.2615468239
 11
52.0882773924
 21
94.7585553657
  0
LINE
  5
234
100
AcDbEntity
  8
1
100
AcDbLine
 62
7
  6
BYLAYER
 10
60.4993268475
 20
92.000944582
 11
59.4386710917
 21
91.3885783512
  0
LINE
  5
235
100
AcDbEntity
  8
1
100
AcDbLine
 62
7
  6
BYLAYER
 10
57.3880528888
 20
89.4419636042
 11
58.5194190283
 21
90.0951542504
  0
LINE
  5
236
100
AcDbEntity
  8
1
100
AcDbLine
 62
7
  6
BYLAYER
 10
60.414494406
 20
90.6586323167
 11
61.8428441572
 21
91.4832855075
  0
LINE
  5
237
100
AcDbEntity
  8
1
100
AcDbLine
 62
7
  6
BYLAYER
 10
55.9597031376
 20
87.8971186804
 11
58.5194190283
 21
89.3749625174
  0
LINE
  5
238
100
AcDbEntity
  8
1
100
AcDbLine
 62
7
  6
BYLAYER
 10
63.2693539357
 20
91.9660787492
 11
64.8956927613
 21
92.9050403031
  0
LINE
  5
239
100
AcDbEntity
  8
1
100
AcDbLine
 62
7
  6
BYLAYER
 10
77.2966660835
 20
63.81794442
 11
84.2354602653
 21
64.5868477832
  0
LINE
  5
23A
100
AcDbEntity
  8
1
100
AcDbLine
 62
7
  6
BYLAYER
 10
65.3607150398
 20
59.8478078847
 11
65.7214059491
 21
59.8767307973
  0
LINE
  5
23B
100
AcDbEntity
  8
1
100
AcDbLine
 62
7
  6
BYLAYER
 10
63.9894873822
 20
94.0616625551
 11
69.4215115235
 21
99.2675689386
  0
LINE
  5
23C
100
AcDbEntity
  8
1
100
AcDbLine
 62
7
  6
BYLAYER
 10
70.1286212486
 20
98.8593281841
 11
64.4754190304
 21
93.4414506581
  0
LINE
  5
23D
100
AcDbEntity
  8
1
100
AcDbLine
 62
7
  6
BYLAYER
 10
63.5788104261
 20
88.8317549402
 11
65.0071601772
 21
89.6564081311
  0
LINE
  5
23E
100
AcDbEntity
  8
1
100
AcDbLine
 62
7
  6
BYLAYER
 10
63.9323652886
 20
87.9205227275
 11
65.3607150398
 21
88.7451759183
  0
LINE
  5
23F
100
AcDbEntity
  8
1
100
AcDbLine
 62
7
  6
BYLAYER
 10
65.7620110186
 20
88.3224206328
 11
65.3607150398
 21
88.0907336744
  0
LINE
  5
240
100
AcDbEntity
  8
1
100
AcDbLine
 62
7
  6
BYLAYER
 10
81.453519015
 20
97.1103656052
 11
77.3057849589
 21
94.7156845257
  0
LINE
  5
241
100
AcDbEntity
  8
1
100
AcDbLine
 62
7
  6
BYLAYER
 10
68.1236014914
 20
89.1635410181
 11
69.749940317
 21
90.102502572
  0
LINE
  5
242
100
AcDbEntity
  8
1
100
AcDbLine
 62
7
  6
BYLAYER
 10
62.1751814553
 20
57.5721543518
 11
60.703987925
 21
58.4215291172
  0
LINE
  5
243
100
AcDbEntity
  8
1
100
AcDbLine
 62
7
  6
BYLAYER
 10
68.6911074266
 20
104.3855936975
 11
66.7975792193
 21
101.4369690229
  0
LINE
  5
244
100
AcDbEntity
  8
1
100
AcDbLine
 62
7
  6
BYLAYER
 10
60.414494406
 20
90.6586323167
 11
60.0609395434
 21
90.1556408585
  0
LINE
  5
245
100
AcDbEntity
  8
1
100
AcDbLine
 62
7
  6
BYLAYER
 10
78.012894684
 20
94.3074437712
 11
70.0605057864
 21
89.7161573067
  0
LINE
  5
246
100
AcDbEntity
  8
1
100
AcDbLine
 62
7
  6
BYLAYER
 10
65.5835122387
 20
84.9676803519
 11
65.3607150398
 21
84.839049097
  0
LINE
  5
247
100
AcDbEntity
  8
1
100
AcDbLine
 62
7
  6
BYLAYER
 10
66.6458724761
 20
84.3286493502
 11
67.7065282319
 21
84.941015581
  0
LINE
  5
248
100
AcDbEntity
  8
1
100
AcDbLine
 62
7
  6
BYLAYER
 10
70.3281514383
 20
86.4210679559
 11
71.9544902639
 21
87.3600295098
  0
LINE
  5
249
100
AcDbEntity
  8
1
100
AcDbLine
 62
7
  6
BYLAYER
 10
82.3830496943
 20
96.4362093024
 11
78.9137645961
 21
94.4525936598
  0
LINE
  5
24A
100
AcDbEntity
  8
1
100
AcDbLine
 62
7
  6
BYLAYER
 10
70.3988624108
 20
55.3531520295
 11
64.8546234792
 21
58.5540474552
  0
LINE
  5
24B
100
AcDbEntity
  8
1
100
AcDbLine
 62
7
  6
BYLAYER
 10
63.7151676133
 20
60.7469979549
 11
63.9323652886
 21
60.6216016554
  0
LINE
  5
24C
100
AcDbEntity
  8
1
100
AcDbLine
 62
7
  6
BYLAYER
 10
50.0341023265
 20
86.7139462779
 11
50.0341023265
 21
90.7890558565
  0
LINE
  5
24D
100
AcDbEntity
  8
1
100
AcDbLine
 62
7
  6
BYLAYER
 10
50.8119230242
 20
90.3399910265
 11
50.8119230242
 21
97.6885127806
  0
LINE
  5
24E
100
AcDbEntity
  8
1
100
AcDbLine
 62
7
  6
BYLAYER
 10
63.9323652886
 20
82.5038664345
 11
65.57748973
 21
83.453673804
  0
LINE
  5
24F
100
AcDbEntity
  8
1
100
AcDbLine
 62
7
  6
BYLAYER
 10
83.5283505402
 20
91.1231658859
 11
74.9632175328
 21
86.1781135564
  0
LINE
  5
250
100
AcDbEntity
  8
1
100
AcDbLine
 62
7
  6
BYLAYER
 10
88.3831943214
 20
93.1096062109
 11
84.2354602653
 21
90.7149251314
  0
LINE
  5
251
100
AcDbEntity
  8
1
100
AcDbLine
 62
7
  6
BYLAYER
 10
86.8777064127
 20
93.8857934145
 11
83.355137364
 21
91.8717118763
  0
LINE
  5
252
100
AcDbEntity
  8
1
100
AcDbLine
 62
7
  6
BYLAYER
 10
67.6418973771
 20
72.4556913802
 11
67.6870956532
 21
72.4606999026
  0
LINE
  5
253
100
AcDbEntity
  8
1
100
AcDbLine
 62
7
  6
BYLAYER
 10
31.9437303848
 20
74.898229433
 11
31.2052096736
 21
74.9988905484
  0
LINE
  5
254
100
AcDbEntity
  8
1
100
AcDbLine
 62
7
  6
BYLAYER
 10
71.1059721359
 20
59.6806252943
 11
70.3988624108
 21
60.0888660489
  0
LINE
  5
255
100
AcDbEntity
  8
1
100
AcDbLine
 62
7
  6
BYLAYER
 10
52.2489730909
 20
89.2491234668
 11
52.2604600004
 21
87.0168300857
  0
LINE
  5
256
100
AcDbEntity
  8
1
100
AcDbLine
 62
7
  6
BYLAYER
 10
53.3189409283
 20
86.8324770707
 11
53.309656514
 21
88.6367514607
  0
LINE
  5
257
100
AcDbEntity
  8
1
100
AcDbLine
 62
7
  6
BYLAYER
 10
54.3752772818
 20
88.2842486499
 11
54.3841342703
 21
86.5630374904
  0
LINE
  5
258
100
AcDbEntity
  8
1
100
AcDbLine
 62
7
  6
BYLAYER
 10
52.0882773924
 20
89.3418990727
 11
52.0882773924
 21
94.7585553657
  0
LINE
  5
259
100
AcDbEntity
  8
1
100
AcDbLine
 62
7
  6
BYLAYER
 10
45.1802546815
 20
51.9717599838
 11
44.8981658426
 21
51.2818531872
  0
LINE
  5
25A
100
AcDbEntity
  8
1
100
AcDbLine
 62
7
  6
BYLAYER
 10
75.1629194066
 20
92.6620195994
 11
77.3057849589
 21
94.7156845257
  0
LINE
  5
25B
100
AcDbEntity
  8
1
100
AcDbLine
 62
7
  6
BYLAYER
 10
74.9632175328
 20
83.1570546131
 11
75.5996109863
 21
83.5244743515
  0
LINE
  5
25C
100
AcDbEntity
  8
1
100
AcDbLine
 62
7
  6
BYLAYER
 10
74.6096715021
 20
82.1364476277
 11
76.3067207114
 21
83.116233597
  0
LINE
  5
25D
100
AcDbEntity
  8
1
100
AcDbLine
 62
7
  6
BYLAYER
 10
70.3281514383
 20
79.0725462017
 11
73.8495285476
 21
81.105602088
  0
LINE
  5
25E
100
AcDbEntity
  8
1
100
AcDbLine
 62
7
  6
BYLAYER
 10
76.8900815243
 20
67.3839034373
 11
74.6273492453
 21
68.0824000342
  0
LINE
  5
25F
100
AcDbEntity
  8
1
100
AcDbLine
 62
7
  6
BYLAYER
 10
74.6273492453
 20
68.2438649721
 11
76.289038258
 21
67.7309080786
  0
LINE
  5
260
100
AcDbEntity
  8
1
100
AcDbLine
 62
7
  6
BYLAYER
 10
55.9597031376
 20
92.5234372347
 11
55.9597031376
 21
87.8971186804
  0
LINE
  5
261
100
AcDbEntity
  8
1
100
AcDbLine
 62
7
  6
BYLAYER
 10
57.3880528888
 20
93.3480904255
 11
57.3880528888
 21
89.4419636042
  0
LINE
  5
262
100
AcDbEntity
  8
1
100
AcDbLine
 62
7
  6
BYLAYER
 10
58.5194190283
 20
90.0951542504
 11
58.5194190283
 21
89.3749625174
  0
LINE
  5
263
100
AcDbEntity
  8
3
100
AcDbLine
 62
7
  6
BYLAYER
 10
30.757371241
 20
47.3875614583
 11
31.4256744107
 21
47.9202117407
  0
LINE
  5
264
100
AcDbEntity
  8
3
100
AcDbLine
 62
7
  6
BYLAYER
 10
31.7792263293
 20
48.1243338177
 11
31.1109231596
 21
47.5916835352
  0
LINE
  5
265
100
AcDbEntity
  8
1
100
AcDbLine
 62
7
  6
BYLAYER
 10
71.1059721359
 20
78.6234813718
 11
74.6273492453
 21
80.656537258
  0
LINE
  5
266
100
AcDbEntity
  8
1
100
AcDbLine
 62
7
  6
BYLAYER
 10
74.6273492453
 20
68.6584157611
 11
77.2966660835
 21
67.7913834403
  0
LINE
  5
267
100
AcDbEntity
  8
1
100
AcDbLine
 62
7
  6
BYLAYER
 10
77.2966660835
 20
63.81794442
 11
76.8900815243
 21
64.0526808142
  0
LINE
  5
268
100
AcDbEntity
  8
1
100
AcDbLine
 62
7
  6
BYLAYER
 10
60.0609395434
 20
90.1556408585
 11
60.0609395434
 21
85.5293223042
  0
LINE
  5
269
100
AcDbEntity
  8
1
100
AcDbLine
 62
7
  6
BYLAYER
 10
75.5996109863
 20
83.5244743515
 11
83.5283505402
 21
91.1231658859
  0
LINE
  5
26A
100
AcDbEntity
  8
1
100
AcDbLine
 62
7
  6
BYLAYER
 10
84.2354602653
 20
90.7149251314
 11
76.3067207114
 21
83.116233597
  0
LINE
  5
26B
100
AcDbEntity
  8
3
100
AcDbLine
 62
7
  6
BYLAYER
 10
30.7399531156
 20
51.2388969721
 11
31.0935050342
 21
51.4430190491
  0
LINE
  5
26C
100
AcDbEntity
  8
3
100
AcDbLine
 62
7
  6
BYLAYER
 10
31.937910398
 20
51.0520223003
 11
31.5843584794
 21
50.8479002234
  0
LINE
  5
26D
100
AcDbEntity
  8
3
100
AcDbLine
 62
7
  6
BYLAYER
 10
30.2536428773
 20
48.9053818213
 11
30.6071947959
 21
49.1095038982
  0
LINE
  5
26E
100
AcDbEntity
  8
3
100
AcDbLine
 62
7
  6
BYLAYER
 10
31.4256744107
 20
47.9202117407
 11
31.7792263293
 21
48.1243338177
  0
LINE
  5
26F
100
AcDbEntity
  8
3
100
AcDbLine
 62
7
  6
BYLAYER
 10
30.757371241
 20
47.3875614583
 11
31.1109231596
 21
47.5916835352
  0
LINE
  5
270
100
AcDbEntity
  8
1
100
AcDbLine
 62
7
  6
BYLAYER
 10
76.8900815243
 20
67.3839034373
 11
76.289038258
 21
67.7309080786
  0
LINE
  5
271
100
AcDbEntity
  8
1
100
AcDbLine
 62
7
  6
BYLAYER
 10
63.9323652886
 20
82.5038664345
 11
63.9323652886
 21
87.9205227275
  0
LINE
  5
272
100
AcDbEntity
  8
1
100
AcDbLine
 62
7
  6
BYLAYER
 10
65.3607150398
 20
58.8462378097
 11
65.3607150398
 21
61.2572072675
  0
LINE
  5
273
100
AcDbEntity
  8
1
100
AcDbLine
 62
7
  6
BYLAYER
 10
65.3607150398
 20
84.839049097
 11
65.3607150398
 21
88.7451759183
  0
LINE
  5
274
100
AcDbEntity
  8
1
100
AcDbLine
 62
7
  6
BYLAYER
 10
65.5852267234
 20
84.9482984801
 11
65.5295647317
 21
74.1955703316
  0
LINE
  5
275
100
AcDbEntity
  8
1
100
AcDbLine
 62
7
  6
BYLAYER
 10
65.4717191855
 20
63.0210252934
 11
65.4644557177
 21
61.6178758218
  0
LINE
  5
276
100
AcDbEntity
  8
1
100
AcDbLine
 62
7
  6
BYLAYER
 10
63.9323652886
 20
60.6216016554
 11
63.8457631604
 21
57.9715851553
  0
LINE
  5
277
100
AcDbEntity
  8
1
100
AcDbLine
 62
7
  6
BYLAYER
 10
82.3830496943
 20
96.4362093024
 11
80.4471812374
 21
93.561525226
  0
LINE
  5
278
100
AcDbEntity
  8
1
100
AcDbLine
 62
7
  6
BYLAYER
 10
45.6171137
 20
54.1222966178
 11
50.4503642623
 21
56.9127584742
  0
LINE
  5
279
100
AcDbEntity
  8
1
100
AcDbLine
 62
7
  6
BYLAYER
 10
51.3534635007
 20
56.573254166
 11
54.8887053546
 21
58.6143148185
  0
LINE
  5
27A
100
AcDbEntity
  8
1
100
AcDbLine
 62
7
  6
BYLAYER
 10
55.9597031376
 20
92.5234372347
 11
55.606148275
 21
93.4346694475
  0
LINE
  5
27B
100
AcDbEntity
  8
1
100
AcDbLine
 62
7
  6
BYLAYER
 10
57.0344980262
 20
94.2593226383
 11
57.3880528888
 21
93.3480904255
  0
LINE
  5
27C
100
AcDbEntity
  8
1
100
AcDbLine
 62
7
  6
BYLAYER
 10
66.5251014704
 20
60.998226692
 11
66.5502062331
 21
65.8479397593
  0
LINE
  5
27D
100
AcDbEntity
  8
1
100
AcDbLine
 62
7
  6
BYLAYER
 10
66.5724646389
 20
70.1477964302
 11
66.6458724761
 21
84.3286493502
  0
LINE
  5
27E
100
AcDbEntity
  8
1
100
AcDbLine
 62
7
  6
BYLAYER
 10
67.7065282319
 20
84.941015581
 11
67.5857572262
 21
61.6105929228
  0
LINE
  5
27F
100
AcDbEntity
  8
1
100
AcDbLine
 62
7
  6
BYLAYER
 10
63.8248680936
 20
61.2690266708
 11
59.5822450703
 21
58.8195617475
  0
LINE
  5
280
100
AcDbEntity
  8
1
100
AcDbLine
 62
7
  6
BYLAYER
 10
63.7151676133
 20
60.7469979549
 11
65.4651777679
 21
61.7573607578
  0
LINE
  5
281
100
AcDbEntity
  8
1
100
AcDbLine
 62
7
  6
BYLAYER
 10
41.2269419961
 20
47.6531125855
 11
42.4897008487
 21
48.3821623971
  0
LINE
  5
282
100
AcDbEntity
  8
1
100
AcDbLine
 62
7
  6
BYLAYER
 10
65.4278732615
 20
61.4850284322
 11
63.9323652886
 21
60.6216016554
  0
LINE
  5
283
100
AcDbEntity
  8
1
100
AcDbLine
 62
7
  6
BYLAYER
 10
67.5857572262
 20
61.6105929228
 11
66.5251014704
 21
60.998226692
  0
LINE
  5
284
100
AcDbEntity
  8
1
100
AcDbLine
 62
7
  6
BYLAYER
 10
66.0591278049
 20
59.9791403204
 11
67.1197835607
 21
60.5915065512
  0
LINE
  5
285
100
AcDbEntity
  8
1
100
AcDbLine
 62
7
  6
BYLAYER
 10
65.7214059491
 20
59.8767307973
 11
66.0590934802
 21
59.979199724
  0
LINE
  5
286
100
AcDbEntity
  8
1
100
AcDbLine
 62
7
  6
BYLAYER
 10
91.2973220604
 20
93.5673149768
 11
88.3831943214
 21
93.1096062109
  0
LINE
  5
287
100
AcDbEntity
  8
1
100
AcDbLine
 62
7
  6
BYLAYER
 10
73.5124511323
 20
87.0575604566
 11
71.9544902639
 21
87.1967290264
  0
LINE
  5
288
100
AcDbEntity
  8
1
100
AcDbLine
 62
7
  6
BYLAYER
 10
53.7639817236
 20
88.3744526126
 11
54.8432978841
 21
88.2151866186
  0
LINE
  5
289
100
AcDbEntity
  8
1
100
AcDbLine
 62
7
  6
BYLAYER
 10
54.8432978841
 20
88.2151866186
 11
55.9597031376
 21
87.8971186804
  0
LINE
  5
28A
100
AcDbEntity
  8
1
100
AcDbLine
 62
7
  6
BYLAYER
 10
53.7639817236
 20
88.3744526126
 11
52.0882773924
 21
89.3418990727
  0
LINE
  5
28B
100
AcDbEntity
  8
1
100
AcDbLine
 62
7
  6
BYLAYER
 10
62.2566609575
 20
83.4713128946
 11
63.9323652886
 21
82.5038664345
  0
LINE
  5
28C
100
AcDbEntity
  8
1
100
AcDbLine
 62
7
  6
BYLAYER
 10
50.0341023265
 20
90.7890558565
 11
50.8119230242
 21
90.3399910265
  0
LINE
  5
28D
100
AcDbEntity
  8
1
100
AcDbLine
 62
7
  6
BYLAYER
 10
70.3281514383
 20
79.0725462017
 11
71.1059721359
 21
78.6234813718
  0
LINE
  5
28E
100
AcDbEntity
  8
1
100
AcDbLine
 62
7
  6
BYLAYER
 10
60.0609395434
 20
85.5293223042
 11
61.177344797
 21
84.558305658
  0
LINE
  5
28F
100
AcDbEntity
  8
1
100
AcDbLine
 62
7
  6
BYLAYER
 10
61.177344797
 20
84.558305658
 11
62.2566609575
 21
83.4713128946
  0
LINE
  5
290
100
AcDbEntity
  8
1
100
AcDbLine
 62
7
  6
BYLAYER
 10
63.9323652886
 20
87.9205227275
 11
63.5788104261
 21
88.8317549402
  0
LINE
  5
291
100
AcDbEntity
  8
1
100
AcDbLine
 62
7
  6
BYLAYER
 10
70.3281514383
 20
86.4210679559
 11
70.3281514383
 21
79.0725462017
  0
LINE
  5
292
100
AcDbEntity
  8
1
100
AcDbLine
 62
7
  6
BYLAYER
 10
70.3988624108
 20
60.0888660489
 11
70.3988624108
 21
55.3531520295
  0
LINE
  5
293
100
AcDbEntity
  8
1
100
AcDbLine
 62
7
  6
BYLAYER
 10
71.1059721359
 20
78.6234813718
 11
71.1059721359
 21
59.6806252943
  0
LINE
  5
294
100
AcDbEntity
  8
1
100
AcDbLine
 62
7
  6
BYLAYER
 10
71.9544902639
 20
87.3600295098
 11
71.9544902639
 21
87.1967290264
  0
LINE
  5
295
100
AcDbEntity
  8
1
100
AcDbLine
 62
7
  6
BYLAYER
 10
65.3607150398
 20
58.8462378097
 11
63.8457631604
 21
57.9715851553
  0
LINE
  5
296
100
AcDbEntity
  8
1
100
AcDbLine
 62
7
  6
BYLAYER
 10
35.1925345379
 20
39.0884918244
 11
37.0289459903
 21
40.148738142
  0
LINE
  5
297
100
AcDbEntity
  8
1
100
AcDbLine
 62
7
  6
BYLAYER
 10
71.1059721359
 20
59.6806252943
 11
76.8900815243
 21
63.020062473
  0
LINE
  5
298
100
AcDbEntity
  8
1
100
AcDbLine
 62
7
  6
BYLAYER
 10
81.453519015
 20
97.1103656052
 11
84.3676467539
 21
97.5680743711
  0
LINE
  5
299
100
AcDbEntity
  8
1
100
AcDbLine
 62
7
  6
BYLAYER
 10
57.3880528888
 20
90.812521233
 11
59.4386710917
 21
90.1360209755
  0
LINE
  5
29A
100
AcDbEntity
  8
1
100
AcDbLine
 62
7
  6
BYLAYER
 10
59.4386710917
 20
91.3885783512
 11
57.3880528888
 21
92.0650786087
  0
LINE
  5
29B
100
AcDbEntity
  8
1
100
AcDbLine
 62
7
  6
BYLAYER
 10
73.8495285476
 20
81.105602088
 11
74.6273492453
 21
80.656537258
  0
LINE
  5
29C
100
AcDbEntity
  8
1
100
AcDbLine
 62
7
  6
BYLAYER
 10
58.5194190283
 20
90.0951542504
 11
57.3880528888
 21
90.7483340187
  0
LINE
  5
29D
100
AcDbEntity
  8
1
100
AcDbLine
 62
7
  6
BYLAYER
 10
73.8495285476
 20
82.4120059554
 11
73.5666870127
 21
82.5753092607
  0
LINE
  5
29E
100
AcDbEntity
  8
1
100
AcDbLine
 62
7
  6
BYLAYER
 10
73.5646972545
 20
82.7397501424
 11
74.6096715021
 21
82.1364476277
  0
LINE
  5
29F
100
AcDbEntity
  8
1
100
AcDbLine
 62
7
  6
BYLAYER
 10
63.5788104261
 20
88.8317549402
 11
60.414494406
 21
90.6586323167
  0
LINE
  5
2A0
100
AcDbEntity
  8
1
100
AcDbLine
 62
7
  6
BYLAYER
 10
52.441832255
 20
95.2615468239
 11
55.606148275
 21
93.4346694475
  0
LINE
  5
2A1
100
AcDbEntity
  8
1
100
AcDbLine
 62
7
  6
BYLAYER
 10
57.3880528888
 20
93.1570182401
 11
57.9120756272
 21
92.8544804153
  0
LINE
  5
2A2
100
AcDbEntity
  8
1
100
AcDbLine
 62
7
  6
BYLAYER
 10
65.3607150398
 20
88.5541037329
 11
65.7620110186
 21
88.3224206328
  0
LINE
  5
2A3
100
AcDbEntity
  8
1
100
AcDbLine
 62
7
  6
BYLAYER
 10
59.4386710917
 20
90.1360209755
 11
60.0609395434
 21
89.6227902748
  0
LINE
  5
2A4
100
AcDbEntity
  8
1
100
AcDbLine
 62
7
  6
BYLAYER
 10
60.3777349145
 20
90.614063136
 11
59.4386710917
 21
91.3885783512
  0
LINE
  5
2A5
100
AcDbEntity
  8
1
100
AcDbLine
 62
7
  6
BYLAYER
 10
60.4993268475
 20
92.000944582
 11
61.4217400305
 21
91.2401623779
  0
LINE
  5
2A6
100
AcDbEntity
  8
1
100
AcDbLine
 62
7
  6
BYLAYER
 10
65.0071601772
 20
89.6564081311
 11
65.3607150398
 21
88.7451759183
  0
LINE
  5
2A7
100
AcDbEntity
  8
1
100
AcDbLine
 62
7
  6
BYLAYER
 10
73.5666870127
 20
82.5753092607
 11
73.5124511323
 21
87.0575604566
  0
LINE
  5
2A8
100
AcDbEntity
  8
1
100
AcDbLine
 62
7
  6
BYLAYER
 10
73.8495285476
 20
82.4120059554
 11
73.8495285476
 21
81.105602088
  0
LINE
  5
2A9
100
AcDbEntity
  8
1
100
AcDbLine
 62
7
  6
BYLAYER
 10
74.6096715021
 20
82.1364476277
 11
74.6096715021
 21
80.6667432769
  0
LINE
  5
2AA
100
AcDbEntity
  8
1
100
AcDbLine
 62
7
  6
BYLAYER
 10
74.6273492453
 20
80.656537258
 11
74.6273492453
 21
68.0824000342
  0
LINE
  5
2AB
100
AcDbEntity
  8
1
100
AcDbLine
 62
7
  6
BYLAYER
 10
74.9632175328
 20
86.1781135564
 11
74.9632175328
 21
83.1570546131
  0
LINE
  5
2AC
100
AcDbEntity
  8
1
100
AcDbLine
 62
7
  6
BYLAYER
 10
76.1829717992
 20
62.6118149198
 11
76.1829717992
 21
59.6284033469
  0
LINE
  5
2AD
100
AcDbEntity
  8
1
100
AcDbLine
 62
7
  6
BYLAYER
 10
84.2354602653
 20
64.5868477832
 11
88.3831943214
 21
66.9815288628
  0
LINE
  5
2AE
100
AcDbEntity
  8
1
100
AcDbLine
 62
7
  6
BYLAYER
 10
70.3988624108
 20
55.3531520295
 11
71.5867968573
 21
56.039002208
  0
LINE
  5
2AF
100
AcDbEntity
  8
1
100
AcDbLine
 62
7
  6
BYLAYER
 10
57.9120756272
 20
92.8544804153
 11
60.4993268475
 21
92.000944582
  0
LINE
  5
2B0
100
AcDbEntity
  8
1
100
AcDbLine
 62
7
  6
BYLAYER
 10
73.549773686
 20
83.9730883373
 11
74.9632175328
 21
83.1570546131
  0
LINE
  5
2B1
100
AcDbEntity
  8
1
100
AcDbLine
 62
7
  6
BYLAYER
 10
76.3067207114
 20
83.116233597
 11
75.5996109863
 21
83.5244743515
  0
LINE
  5
2B2
100
AcDbEntity
  8
1
100
AcDbLine
 62
7
  6
BYLAYER
 10
65.0071601772
 20
89.6564081311
 11
61.8428441572
 21
91.4832855075
  0
LINE
  5
2B3
100
AcDbEntity
  8
1
100
AcDbLine
 62
7
  6
BYLAYER
 10
53.8701820062
 20
96.0862000148
 11
57.0344980262
 21
94.2593226383
  0
LINE
  5
2B4
100
AcDbEntity
  8
1
100
AcDbLine
 62
7
  6
BYLAYER
 10
53.0164729711
 20
97.8854484201
 11
57.8707205268
 21
95.082910689
  0
LINE
  5
2B5
100
AcDbEntity
  8
1
100
AcDbLine
 62
7
  6
BYLAYER
 10
63.2693539357
 20
91.9660787492
 11
68.1236014914
 21
89.1635410181
  0
LINE
  5
2B6
100
AcDbEntity
  8
1
100
AcDbLine
 62
7
  6
BYLAYER
 10
73.5129612743
 20
87.0154004557
 11
74.9632175328
 21
86.1781135564
  0
LINE
  5
2B7
100
AcDbEntity
  8
1
100
AcDbLine
 62
7
  6
BYLAYER
 10
73.5124511323
 20
87.0575604566
 11
71.0589933491
 21
88.4740329233
  0
LINE
  5
2B8
100
AcDbEntity
  8
1
100
AcDbLine
 62
7
  6
BYLAYER
 10
70.3281514383
 20
86.4210679559
 11
68.1236014914
 21
89.1635410181
  0
LINE
  5
2B9
100
AcDbEntity
  8
1
100
AcDbLine
 62
7
  6
BYLAYER
 10
76.5895563584
 20
67.5574077976
 11
76.5895563584
 21
68.0210628014
  0
LINE
  5
2BA
100
AcDbEntity
  8
1
100
AcDbLine
 62
7
  6
BYLAYER
 10
76.8900815243
 20
67.3839034373
 11
76.8900815243
 21
63.020062473
  0
LINE
  5
2BB
100
AcDbEntity
  8
1
100
AcDbLine
 62
7
  6
BYLAYER
 10
77.1904830437
 20
94.6051822597
 11
77.1904830437
 21
101.7117180295
  0
LINE
  5
2BC
100
AcDbEntity
  8
1
100
AcDbLine
 62
7
  6
BYLAYER
 10
77.2966660835
 20
63.81794442
 11
77.2966660835
 21
67.7913834403
  0
LINE
  5
2BD
100
AcDbEntity
  8
1
100
AcDbLine
 62
7
  6
BYLAYER
 10
71.5867968573
 20
56.039002208
 11
76.1829717992
 21
59.6284033469
  0
LINE
  5
2BE
100
AcDbEntity
  8
1
100
AcDbLine
 62
7
  6
BYLAYER
 10
77.1904830437
 20
101.7117180295
 11
74.2763553048
 21
101.2540092636
  0
LINE
  5
2BF
100
AcDbEntity
  8
1
100
AcDbLine
 62
7
  6
BYLAYER
 10
53.0164729711
 20
97.8854484201
 11
50.8119230242
 21
97.6885127806
  0
LINE
  5
2C0
100
AcDbEntity
  8
1
100
AcDbLine
 62
7
  6
BYLAYER
 10
52.4382618498
 20
98.6274743346
 11
54.6428117967
 21
98.824409974
  0
LINE
  5
2C1
100
AcDbEntity
  8
1
100
AcDbLine
 62
7
  6
BYLAYER
 10
54.6428117967
 20
98.824409974
 11
59.4970593523
 21
96.0218722429
  0
LINE
  5
2C2
100
AcDbEntity
  8
1
100
AcDbLine
 62
7
  6
BYLAYER
 10
64.8956927613
 20
92.9050403031
 11
69.749940317
 21
90.102502572
  0
LINE
  5
2C3
100
AcDbEntity
  8
1
100
AcDbLine
 62
7
  6
BYLAYER
 10
69.749940317
 20
90.102502572
 11
71.9544902639
 21
87.3600295098
  0
LINE
  5
2C4
100
AcDbEntity
  8
1
100
AcDbLine
 62
7
  6
BYLAYER
 10
88.3831943214
 20
66.9815288628
 11
91.2973220604
 21
69.88874488
  0
LINE
  5
2C5
100
AcDbEntity
  8
1
100
AcDbLine
 62
7
  6
BYLAYER
 10
67.3466799983
 20
105.2547686579
 11
70.2608077372
 21
105.7124774238
  0
LINE
  5
2C6
100
AcDbEntity
  8
1
100
AcDbLine
 62
7
  6
BYLAYER
 10
69.672914598
 20
99.7876801979
 11
65.2025953319
 21
102.3518498126
  0
LINE
  5
2C7
100
AcDbEntity
  8
1
100
AcDbLine
 62
7
  6
BYLAYER
 10
84.2354602653
 20
90.7149251314
 11
83.5283505402
 21
91.1231658859
  0
LINE
  5
2C8
100
AcDbEntity
  8
1
100
AcDbLine
 62
7
  6
BYLAYER
 10
70.1286212486
 20
98.8593281841
 11
69.4215115235
 21
99.2675689386
  0
LINE
  5
2C9
100
AcDbEntity
  8
1
100
AcDbLine
 62
7
  6
BYLAYER
 10
63.1989459422
 20
102.8600875784
 11
63.9060556673
 21
102.4518468238
  0
LINE
  5
2CA
100
AcDbEntity
  8
1
100
AcDbLine
 62
7
  6
BYLAYER
 10
77.3057849589
 20
94.7156845257
 11
78.012894684
 21
94.3074437712
  0
LINE
  5
2CB
100
AcDbEntity
  8
1
100
AcDbLine
 62
7
  6
BYLAYER
 10
83.355137364
 20
91.8717118763
 11
78.9137645961
 21
94.4525936598
  0
LINE
  5
2CC
100
AcDbEntity
  8
1
100
AcDbLine
 62
7
  6
BYLAYER
 10
82.3830496943
 20
96.4362093024
 11
86.8777064127
 21
93.8857934145
  0
LINE
  5
2CD
100
AcDbEntity
  8
1
100
AcDbLine
 62
7
  6
BYLAYER
 10
74.2763553048
 20
101.2540092636
 11
67.3466799983
 21
105.2547686579
  0
LINE
  5
2CE
100
AcDbEntity
  8
1
100
AcDbLine
 62
7
  6
BYLAYER
 10
81.453519015
 20
97.1103656052
 11
88.3831943214
 21
93.1096062109
  0
LINE
  5
2CF
100
AcDbEntity
  8
1
100
AcDbLine
 62
7
  6
BYLAYER
 10
77.1904830437
 20
101.7117180295
 11
70.2608077372
 21
105.7124774238
  0
LINE
  5
2D0
100
AcDbEntity
  8
1
100
AcDbLine
 62
7
  6
BYLAYER
 10
84.3676467539
 20
97.5680743711
 11
91.2973220604
 21
93.5673149768
  0
LINE
  5
2D1
100
AcDbEntity
  8
1
100
AcDbLine
 62
7
  6
BYLAYER
 10
68.6911074266
 20
104.3855936975
 11
73.1086579029
 21
101.7906607658
  0
LINE
  5
2D2
100
AcDbEntity
  8
1
100
AcDbLine
 62
7
  6
BYLAYER
 10
91.2973220604
 20
69.88874488
 11
91.2973220604
 21
93.5673149768
  0
ARC
  5
2D3
100
AcDbEntity
  8
1
100
AcDbCircle
 62
7
  6
BYLAYER
 10
27.8534566843
 20
60.0847694647
 40
12.8168715276
100
AcDbArc
 50
182.6492692046
 51
182.8216522127
  0
ARC
  5
2D4
100
AcDbEntity
  8
1
100
AcDbCircle
 62
7
  6
BYLAYER
 10
27.213824046
 20
60.0610769323
 40
12.1768288458
100
AcDbArc
 50
180.0096964478
 51
182.6770206074
  0
ARC
  5
2D5
100
AcDbEntity
  8
1
100
AcDbCircle
 62
7
  6
BYLAYER
 10
57.3342949918
 20
67.1683932025
 40
9.0687207864
100
AcDbArc
 50
253.9740266826
 51
254.4034704261
  0
ARC
  5
2D6
100
AcDbEntity
  8
1
100
AcDbCircle
 62
7
  6
BYLAYER
 10
36.7761082975
 20
54.5473602963
 40
8.755403496
100
AcDbArc
 50
342.9626254632
 51
343.4029208393
  0
ARC
  5
2D7
100
AcDbEntity
  8
1
100
AcDbCircle
 62
7
  6
BYLAYER
 10
65.2481825273
 20
69.0820122373
 40
6.9670465221
100
AcDbArc
 50
267.7401327706
 51
271.9597240814
  0
ARC
  5
2D8
100
AcDbEntity
  8
1
100
AcDbCircle
 62
7
  6
BYLAYER
 10
29.8356536184
 20
46.4866395605
 40
5.1854167981
100
AcDbArc
 50
296.2667046671
 51
297.1862269952
  0
ARC
  5
2D9
100
AcDbEntity
  8
1
100
AcDbCircle
 62
7
  6
BYLAYER
 10
47.5028037259
 20
79.7419386708
 40
4.8409583452
100
AcDbArc
 50
120.0001236326
 51
124.6584699313
  0
ARC
  5
2DA
100
AcDbEntity
  8
1
100
AcDbCircle
 62
7
  6
BYLAYER
 10
26.1992573894
 20
49.7718202648
 40
2.8486879322
100
AcDbArc
 50
295.1389794311
 51
296.7832309718
  0
SPLINE
  5
2DB
100
AcDbEntity
  8
3
100
AcDbSpline
 62
7
  6
BYLAYER
 70
0
 71
3
 72
9
 73
5
 74
0
 42
0.0000001
 43
0.0000001
 44
0.0000000001
 40
0.0
 40
0.0
 40
0.0
 40
0.0
 40
0.2456161997
 40
1.0
 40
1.0
 40
1.0
 40
1.0
 10
15.1074821302
 20
59.4213106403
 30
0.0
 10
15.1074821302
 20
59.3424286755
 30
0.0
 10
15.1109335634
 20
59.0212750949
 30
0.0
 10
15.1279193984
 20
58.7002946791
 30
0.0
 10
15.147642301
 20
58.4588213071
 30
0.0
  0
SPLINE
  5
2DC
100
AcDbEntity
  8
3
100
AcDbSpline
 62
7
  6
BYLAYER
 70
0
 71
3
 72
10
 73
6
 74
0
 42
0.0000001
 43
0.0000001
 44
0.0000000001
 40
0.0
 40
0.0
 40
0.0
 40
0.0
 40
0.4848953365
 40
0.7387268536
 40
1.0
 40
1.0
 40
1.0
 40
1.0
 10
15.3063263697
 20
61.3865097898
 30
0.0
 10
15.2382445612
 20
61.0740719536
 30
0.0
 10
15.1640537794
 20
60.5911969822
 30
0.0
 10
15.1154510467
 20
59.9333924964
 30
0.0
 10
15.1074821302
 20
59.5936100574
 30
0.0
 10
15.1074821302
 20
59.4213106403
 30
0.0
  0
SPLINE
  5
2DD
100
AcDbEntity
  8
3
100
AcDbSpline
 62
7
  6
BYLAYER
 70
0
 71
3
 72
10
 73
6
 74
0
 42
0.0000001
 43
0.0000001
 44
0.0000000001
 40
0.0
 40
0.0
 40
0.0
 40
0.0
 40
0.2612731464
 40
0.5151046635
 40
1.0
 40
1.0
 40
1.0
 40
1.0
 10
31.9780705688
 20
50.0895329671
 30
0.0
 10
31.9780705688
 20
49.91723355
 30
0.0
 10
31.9701016524
 20
49.577451111
 30
0.0
 10
31.9214989196
 20
48.9196466252
 30
0.0
 10
31.8473081378
 20
48.4367716538
 30
0.0
 10
31.7792263293
 20
48.1243338177
 30
0.0
  0
SPLINE
  5
2DE
100
AcDbEntity
  8
3
100
AcDbSpline
 62
7
  6
BYLAYER
 70
0
 71
3
 72
9
 73
5
 74
0
 42
0.0000001
 43
0.0000001
 44
0.0000000001
 40
0.0
 40
0.0
 40
0.0
 40
0.0
 40
0.2543849666
 40
1.0
 40
1.0
 40
1.0
 40
1.0
 10
31.937910398
 20
51.0520223003
 30
0.0
 10
31.944561113
 20
50.9705956151
 30
0.0
 10
31.967608027
 20
50.6502614249
 30
0.0
 10
31.9780705688
 20
50.3289934139
 30
0.0
 10
31.9780705688
 20
50.0895329671
 30
0.0
  0
SPLINE
  5
2DF
100
AcDbEntity
  8
3
100
AcDbSpline
 62
7
  6
BYLAYER
 70
0
 71
3
 72
10
 73
6
 74
0
 42
0.0000001
 43
0.0000001
 44
0.0000000001
 40
0.0
 40
0.0
 40
0.0
 40
0.0
 40
0.2612438437
 40
0.5150654477
 40
1.0
 40
1.0
 40
1.0
 40
1.0
 10
30.7759869801
 20
50.3752997956
 30
0.0
 10
30.7759869801
 20
50.2210724585
 30
0.0
 10
30.7688706613
 20
49.9169184899
 30
0.0
 10
30.725469457
 20
49.3280360337
 30
0.0
 10
30.6592215408
 20
48.8957239186
 30
0.0
 10
30.5984327196
 20
48.6159673162
 30
0.0
  0
SPLINE
  5
2E0
100
AcDbEntity
  8
3
100
AcDbSpline
 62
7
  6
BYLAYER
 70
0
 71
3
 72
9
 73
5
 74
0
 42
0.0000001
 43
0.0000001
 44
0.0000000001
 40
0.0
 40
0.0
 40
0.0
 40
0.0
 40
0.2543849666
 40
1.0
 40
1.0
 40
1.0
 40
1.0
 10
30.7399531156
 20
51.2388969721
 30
0.0
 10
30.7459204947
 20
51.1658365724
 30
0.0
 10
30.766599425
 20
50.8784155146
 30
0.0
 10
30.7759869801
 20
50.5901565827
 30
0.0
 10
30.7759869801
 20
50.3752997956
 30
0.0
  0
SPLINE
  5
2E1
100
AcDbEntity
  8
3
100
AcDbSpline
 62
7
  6
BYLAYER
 70
0
 71
3
 72
9
 73
5
 74
0
 42
0.0000001
 43
0.0000001
 44
0.0000000001
 40
0.0
 40
0.0
 40
0.0
 40
0.0
 40
0.2456161997
 40
1.0
 40
1.0
 40
1.0
 40
1.0
 10
31.6245186502
 20
49.8854108902
 30
0.0
 10
31.6245186502
 20
49.964292855
 30
0.0
 10
31.621067217
 20
50.2854464356
 30
0.0
 10
31.604081382
 20
50.6064268514
 30
0.0
 10
31.5843584794
 20
50.8479002234
 30
0.0
  0
SPLINE
  5
2E2
100
AcDbEntity
  8
3
100
AcDbSpline
 62
7
  6
BYLAYER
 70
0
 71
3
 72
10
 73
6
 74
0
 42
0.0000001
 43
0.0000001
 44
0.0000000001
 40
0.0
 40
0.0
 40
0.0
 40
0.0
 40
0.4848953365
 40
0.7387268536
 40
1.0
 40
1.0
 40
1.0
 40
1.0
 10
31.4256744107
 20
47.9202117407
 30
0.0
 10
31.4937562192
 20
48.2326495769
 30
0.0
 10
31.567947001
 20
48.7155245483
 30
0.0
 10
31.6165497338
 20
49.3733290341
 30
0.0
 10
31.6245186502
 20
49.7131114731
 30
0.0
 10
31.6245186502
 20
49.8854108902
 30
0.0
  0
SPLINE
  5
2E3
100
AcDbEntity
  8
1
100
AcDbSpline
 62
7
  6
BYLAYER
 70
0
 71
3
 72
9
 73
5
 74
0
 42
0.0000001
 43
0.0000001
 44
0.0000000001
 40
0.0
 40
0.0
 40
0.0
 40
0.0
 40
0.2523352006
 40
1.0
 40
1.0
 40
1.0
 40
1.0
 10
60.7039299453
 20
58.421562591
 30
0.0
 10
60.6561661772
 20
58.4840267323
 30
0.0
 10
60.4644738865
 20
58.7297201422
 30
0.0
 10
60.2631742224
 20
58.9679365319
 30
0.0
 10
60.1073485545
 20
59.1411469441
 30
0.0
  0
SPLINE
  5
2E4
100
AcDbEntity
  8
1
100
AcDbSpline
 62
7
  6
BYLAYER
 70
0
 71
3
 72
9
 73
5
 74
0
 42
0.0000001
 43
0.0000001
 44
0.0000000001
 40
0.0
 40
0.0
 40
0.0
 40
0.0
 40
0.2531281175
 40
1.0
 40
1.0
 40
1.0
 40
1.0
 10
62.9274445548
 20
60.6800000185
 30
0.0
 10
62.9941530885
 20
60.6816270404
 30
0.0
 10
63.2575758147
 20
60.6919474102
 30
0.0
 10
63.5204148969
 20
60.7180889741
 30
0.0
 10
63.7151676133
 20
60.7469979549
 30
0.0
  0
SPLINE
  5
2E5
100
AcDbEntity
  8
1
100
AcDbSpline
 62
7
  6
BYLAYER
 70
0
 71
3
 72
12
 73
8
 74
0
 42
0.0000001
 43
0.0000001
 44
0.0000000001
 40
0.0
 40
0.0
 40
0.0
 40
0.0
 40
0.289233136
 40
0.5481841042
 40
0.7813259566
 40
0.8916681233
 40
1.0
 40
1.0
 40
1.0
 40
1.0
 10
67.5857572262
 20
61.6105929228
 30
0.0
 10
67.5851730275
 20
61.4977379983
 30
0.0
 10
67.5669687456
 20
61.2831727282
 30
0.0
 10
67.4787914259
 20
60.9886908936
 30
0.0
 10
67.3531892851
 20
60.7855910922
 30
0.0
 10
67.22679114
 20
60.6617048937
 30
0.0
 10
67.1563902564
 20
60.6126422962
 30
0.0
 10
67.1197839922
 20
60.5915057569
 30
0.0
  0
SPLINE
  5
2E6
100
AcDbEntity
  8
1
100
AcDbSpline
 62
7
  6
BYLAYER
 70
0
 71
3
 72
15
 73
11
 74
0
 42
0.0000001
 43
0.0000001
 44
0.0000000001
 40
0.0
 40
0.0
 40
0.0
 40
0.0
 40
0.1142286942
 40
0.2375042446
 40
0.3672631883
 40
0.5003733138
 40
0.6334314828
 40
0.7630386491
 40
0.8860752079
 40
1.0
 40
1.0
 40
1.0
 40
1.0
 10
65.7620110186
 20
88.3224206328
 30
0.0
 10
65.8956568123
 20
88.2452619434
 30
0.0
 10
66.1596043312
 20
88.0601061763
 30
0.0
 10
66.522609691
 20
87.719960668
 30
0.0
 10
66.8569219865
 20
87.3178375692
 30
0.0
 10
67.1498553314
 20
86.8689333727
 30
0.0
 10
67.3904260647
 20
86.3901514896
 30
0.0
 10
67.5695526179
 20
85.8994774899
 30
0.0
 10
67.6804924767
 20
85.4154960181
 30
0.0
 10
67.7073249405
 20
85.0949229523
 30
0.0
 10
67.7065282319
 20
84.941015581
 30
0.0
  0
SPLINE
  5
2E7
100
AcDbEntity
  8
1
100
AcDbSpline
 62
7
  6
BYLAYER
 70
0
 71
3
 72
11
 73
7
 74
0
 42
0.0000001
 43
0.0000001
 44
0.0000000001
 40
0.0
 40
0.0
 40
0.0
 40
0.0
 40
0.2893542791
 40
0.5486200625
 40
0.7818730117
 40
1.0
 40
1.0
 40
1.0
 40
1.0
 10
65.4644557177
 20
61.6178758218
 30
0.0
 10
65.464261051
 20
61.580270301
 30
0.0
 10
65.4581975354
 20
61.5087569873
 30
0.0
 10
65.4287475637
 20
61.4105627341
 30
0.0
 10
65.379633915
 20
61.330872788
 30
0.0
 10
65.3336840908
 20
61.2923513357
 30
0.0
 10
65.3091305409
 20
61.2781814402
 30
0.0
  0
SPLINE
  5
2E8
100
AcDbEntity
  8
1
100
AcDbSpline
 62
7
  6
BYLAYER
 70
0
 71
3
 72
10
 73
6
 74
0
 42
0.0000001
 43
0.0000001
 44
0.0000000001
 40
0.0
 40
0.0
 40
0.0
 40
0.0
 40
0.5251716853
 40
0.7712756493
 40
1.0
 40
1.0
 40
1.0
 40
1.0
 10
65.3637380745
 20
85.7580256326
 30
0.0
 10
65.4332063947
 20
85.6271421691
 30
0.0
 10
65.5163432103
 20
85.4234493048
 30
0.0
 10
65.5752282053
 20
85.1469994149
 30
0.0
 10
65.585560784
 20
85.0128319685
 30
0.0
 10
65.5852267234
 20
84.9482984801
 30
0.0
  0
SPLINE
  5
2E9
100
AcDbEntity
  8
1
100
AcDbSpline
 62
7
  6
BYLAYER
 70
0
 71
3
 72
12
 73
8
 74
0
 42
0.0000001
 43
0.0000001
 44
0.0000000001
 40
0.0
 40
0.0
 40
0.0
 40
0.0
 40
0.1083318767
 40
0.2186740434
 40
0.4518158958
 40
0.710766864
 40
1.0
 40
1.0
 40
1.0
 40
1.0
 10
66.0591282364
 20
59.9791395261
 30
0.0
 10
66.0957345006
 20
60.0002760654
 30
0.0
 10
66.1661353842
 20
60.0493386629
 30
0.0
 10
66.2925335293
 20
60.1732248614
 30
0.0
 10
66.4181356701
 20
60.3763246628
 30
0.0
 10
66.5063129898
 20
60.6708064974
 30
0.0
 10
66.5245172717
 20
60.8853717675
 30
0.0
 10
66.5251014704
 20
60.998226692
 30
0.0
  0
SPLINE
  5
2EA
100
AcDbEntity
  8
1
100
AcDbSpline
 62
7
  6
BYLAYER
 70
0
 71
3
 72
15
 73
11
 74
0
 42
0.0000001
 43
0.0000001
 44
0.0000000001
 40
0.0
 40
0.0
 40
0.0
 40
0.0
 40
0.1110027342
 40
0.2293877431
 40
0.3537125639
 40
0.482327145
 40
0.6132947148
 40
0.7445818214
 40
0.8741433403
 40
1.0
 40
1.0
 40
1.0
 40
1.0
 10
66.6458724761
 20
84.3286493502
 30
0.0
 10
66.6464870793
 20
84.4473777795
 30
0.0
 10
66.6308311137
 20
84.6929905191
 30
0.0
 10
66.5635214738
 20
85.0659811876
 30
0.0
 10
66.4530583032
 20
85.4481668261
 30
0.0
 10
66.3021049841
 20
85.8306628569
 30
0.0
 10
66.1140771118
 20
86.2046866057
 30
0.0
 10
65.8933448332
 20
86.5615897415
 30
0.0
 10
65.6450443497
 20
86.8930581248
 30
0.0
 10
65.4613702186
 20
87.0959811327
 30
0.0
 10
65.36605385
 20
87.1910431657
 30
0.0
  0
SPLINE
  5
2EB
100
AcDbEntity
  8
1
100
AcDbSpline
 62
7
  6
BYLAYER
 70
0
 71
3
 72
13
 73
9
 74
0
 42
0.0000001
 43
0.0000001
 44
0.0000000001
 40
0.0
 40
0.0
 40
0.0
 40
0.0
 40
0.2734681985
 40
0.5277316579
 40
0.6491997945
 40
0.7677949679
 40
0.8844046199
 40
1.0
 40
1.0
 40
1.0
 40
1.0
 10
54.8960652903
 20
58.4335931118
 30
0.0
 10
55.3198305177
 20
58.3153067206
 30
0.0
 10
56.1561300319
 20
58.1461378809
 30
0.0
 10
57.207179767
 20
58.1226504386
 30
0.0
 10
57.9968392153
 20
58.227662148
 30
0.0
 10
58.5554718378
 20
58.363928984
 30
0.0
 10
59.0865179789
 20
58.558374398
 30
0.0
 10
59.421178403
 20
58.726590348
 30
0.0
 10
59.5822395484
 20
58.8195713298
 30
0.0
  0
SPLINE
  5
2EC
100
AcDbEntity
  8
1
100
AcDbSpline
 62
7
  6
BYLAYER
 70
0
 71
3
 72
27
 73
23
 74
0
 42
0.0000001
 43
0.0000001
 44
0.0000000001
 40
0.0
 40
0.0
 40
0.0
 40
0.0
 40
0.0623772493
 40
0.12870718
 40
0.198292364
 40
0.2702604824
 40
0.3436295663
 40
0.4173529909
 40
0.4903692394
 40
0.5616479954
 40
0.6302380647
 40
0.6953189631
 40
0.7562603651
 40
0.8126920024
 40
0.8392146013
 40
0.8646352345
 40
0.8890194077
 40
0.9124665691
 40
0.9351088422
 40
0.9571119293
 40
0.9786701673
 40
1.0
 40
1.0
 40
1.0
 40
1.0
 10
56.574900551
 20
85.6656988133
 30
0.0
 10
57.0958713879
 20
85.3649229648
 30
0.0
 10
58.1307993652
 20
84.6733234779
 30
0.0
 10
59.5963785105
 20
83.4399375789
 30
0.0
 10
60.9973442881
 20
82.0015654608
 30
0.0
 10
62.3037172956
 20
80.3889108715
 30
0.0
 10
63.4878536864
 20
78.6362531952
 30
0.0
 10
64.5244733863
 20
76.7809659008
 30
0.0
 10
65.3914741064
 20
74.8626315171
 30
0.0
 10
66.0703696017
 20
72.9221093858
 30
0.0
 10
66.5467024457
 20
71.0006376862
 30
0.0
 10
66.8102540815
 20
69.1386395557
 30
0.0
 10
66.8551628764
 20
67.3754388658
 30
0.0
 10
66.7057526155
 20
65.9902780955
 30
0.0
 10
66.4697532747
 20
64.9710102768
 30
0.0
 10
66.2426473062
 20
64.2697732158
 30
0.0
 10
65.9628255205
 20
63.6199127729
 30
0.0
 10
65.6317287846
 20
63.0249332013
 30
0.0
 10
65.2508937302
 20
62.4882549877
 30
0.0
 10
64.822313753
 20
62.012927749
 30
0.0
 10
64.348337148
 20
61.6019279977
 30
0.0
 10
64.0030104465
 20
61.3718819576
 30
0.0
 10
63.8248623866
 20
61.2690365695
 30
0.0
  0
SPLINE
  5
2ED
100
AcDbEntity
  8
1
100
AcDbSpline
 62
7
  6
BYLAYER
 70
0
 71
3
 72
15
 73
11
 74
0
 42
0.0000001
 43
0.0000001
 44
0.0000000001
 40
0.0
 40
0.0
 40
0.0
 40
0.0
 40
0.1080130911
 40
0.2180628849
 40
0.3320001981
 40
0.4513585005
 40
0.5772794187
 40
0.7104943475
 40
0.8514113284
 40
1.0
 40
1.0
 40
1.0
 40
1.0
 10
49.3249387153
 20
86.3837909602
 30
0.0
 10
49.5626735646
 20
86.5210359735
 30
0.0
 10
50.0674058591
 20
86.7574251028
 30
0.0
 10
50.884115298
 20
86.9832373189
 30
0.0
 10
51.7547326738
 20
87.0803522999
 30
0.0
 10
52.670010921
 20
87.0485277914
 30
0.0
 10
53.6211044955
 20
86.8889647671
 30
0.0
 10
54.5991930722
 20
86.6038467371
 30
0.0
 10
55.5950163675
 20
86.1962695051
 30
0.0
 10
56.247864448
 20
85.8545089239
 30
0.0
 10
56.574900551
 20
85.6656988133
 30
0.0
  0
SPLINE
  5
2EE
100
AcDbEntity
  8
1
100
AcDbSpline
 62
7
  6
BYLAYER
 70
0
 71
3
 72
15
 73
11
 74
0
 42
0.0000001
 43
0.0000001
 44
0.0000000001
 40
0.0
 40
0.0
 40
0.0
 40
0.0
 40
0.1485886151
 40
0.2895050956
 40
0.4227198066
 40
0.5486406503
 40
0.6679989189
 40
0.781936388
 40
0.8919865003
 40
1.0
 40
1.0
 40
1.0
 40
1.0
 10
52.3322775277
 20
83.21623389
 30
0.0
 10
52.0052415404
 20
83.4050439339
 30
0.0
 10
51.3523948719
 20
83.7468041985
 30
0.0
 10
50.3565733259
 20
84.1543806225
 30
0.0
 10
49.3784867705
 20
84.439498277
 30
0.0
 10
48.4273942885
 20
84.5990628552
 30
0.0
 10
47.512115865
 20
84.6308880868
 30
0.0
 10
46.6414973507
 20
84.5337732764
 30
0.0
 10
45.8247854045
 20
84.307961586
 30
0.0
 10
45.3200513139
 20
84.0715717994
 30
0.0
 10
45.082315507
 20
83.9343263535
 30
0.0
  0
SPLINE
  5
2EF
100
AcDbEntity
  8
1
100
AcDbSpline
 62
7
  6
BYLAYER
 70
0
 71
3
 72
27
 73
23
 74
0
 42
0.0000001
 43
0.0000001
 44
0.0000000001
 40
0.0
 40
0.0
 40
0.0
 40
0.0
 40
0.0213298773
 40
0.0428881587
 40
0.0648912948
 40
0.0875336206
 40
0.1109808522
 40
0.1353651064
 40
0.1607858348
 40
0.1873085264
 40
0.2437403038
 40
0.3046816951
 40
0.3697624177
 40
0.4383522339
 40
0.5096307486
 40
0.5826467767
 40
0.6563699797
 40
0.729738919
 40
0.8017070696
 40
0.8712924208
 40
0.9376225896
 40
1.0
 40
1.0
 40
1.0
 40
1.0
 10
59.5822395484
 20
58.8195713298
 30
0.0
 10
59.760388021
 20
58.922416866
 30
0.0
 10
60.1057149155
 20
59.1524641358
 30
0.0
 10
60.5796929737
 20
59.5634642152
 30
0.0
 10
61.0082730332
 20
60.0387933125
 30
0.0
 10
61.389109031
 20
60.5754728754
 30
0.0
 10
61.7202057066
 20
61.1704547625
 30
0.0
 10
62.0000279522
 20
61.820317592
 30
0.0
 10
62.2271334296
 20
62.521557556
 30
0.0
 10
62.463132358
 20
63.5408287099
 30
0.0
 10
62.6125406254
 20
64.9259918927
 30
0.0
 10
62.5676296161
 20
66.6891920422
 30
0.0
 10
62.3040767817
 20
68.5511856966
 30
0.0
 10
61.8277444814
 20
70.4726508368
 30
0.0
 10
61.1488509499
 20
72.4131663267
 30
0.0
 10
60.281853237
 20
74.3314948172
 30
0.0
 10
59.2452370513
 20
76.1867775739
 30
0.0
 10
58.0611035661
 20
77.9394333198
 30
0.0
 10
56.7547313217
 20
79.5520892072
 30
0.0
 10
55.3537636625
 20
80.9904654216
 30
0.0
 10
53.8881807324
 20
82.2238553572
 30
0.0
 10
52.8532497113
 20
82.915457264
 30
0.0
 10
52.3322775277
 20
83.21623389
 30
0.0
  0
SPLINE
  5
2F0
100
AcDbEntity
  8
1
100
AcDbSpline
 62
7
  6
BYLAYER
 70
0
 71
3
 72
9
 73
5
 74
0
 42
0.0000001
 43
0.0000001
 44
0.0000000001
 40
0.0
 40
0.0
 40
0.0
 40
0.0
 40
0.2547561882
 40
1.0
 40
1.0
 40
1.0
 40
1.0
 10
67.7472009415
 20
71.9893495759
 30
0.0
 10
67.7472009415
 20
71.9211200047
 30
0.0
 10
67.7443243639
 20
71.6533087192
 30
0.0
 10
67.7297736304
 20
71.3855913819
 30
0.0
 10
67.7116970877
 20
71.186818188
 30
0.0
  0
SPLINE
  5
2F1
100
AcDbEntity
  8
1
100
AcDbSpline
 62
7
  6
BYLAYER
 70
0
 71
3
 72
16
 73
12
 74
0
 42
0.0000001
 43
0.0000001
 44
0.0000000001
 40
0.0
 40
0.0
 40
0.0
 40
0.0
 40
0.0951617928
 40
0.146081054
 40
0.1994062668
 40
0.3134184292
 40
0.4371181565
 40
0.5694734242
 40
0.7088367193
 40
0.8531299225
 40
1.0
 40
1.0
 40
1.0
 40
1.0
 10
57.1186818797
 20
85.3919424025
 30
0.0
 10
57.4680631257
 20
85.4115137734
 30
0.0
 10
58.0096705716
 20
85.3742533933
 30
0.0
 10
58.7261840748
 20
85.2159889312
 30
0.0
 10
59.4917068303
 20
84.9712358159
 30
0.0
 10
60.4651387901
 20
84.5153703924
 30
0.0
 10
61.6078034315
 20
83.7697553572
 30
0.0
 10
62.7233957928
 20
82.8322802723
 30
0.0
 10
63.7843037478
 20
81.7264545885
 30
0.0
 10
64.7641339699
 20
80.4800414418
 30
0.0
 10
65.3453008678
 20
79.5786841977
 30
0.0
 10
65.6168360454
 20
79.1118383792
 30
0.0
  0
SPLINE
  5
2F2
100
AcDbEntity
  8
1
100
AcDbSpline
 62
7
  6
BYLAYER
 70
0
 71
3
 72
9
 73
5
 74
0
 42
0.0000001
 43
0.0000001
 44
0.0000000001
 40
0.0
 40
0.0
 40
0.0
 40
0.0
 40
0.2542070728
 40
1.0
 40
1.0
 40
1.0
 40
1.0
 10
67.7169480071
 20
72.766615575
 30
0.0
 10
67.7219574209
 20
72.7008853243
 30
0.0
 10
67.7393233822
 20
72.4421451092
 30
0.0
 10
67.7472009415
 20
72.182748258
 30
0.0
 10
67.7472009415
 20
71.9893495759
 30
0.0
  0
SPLINE
  5
2F3
100
AcDbEntity
  8
1
100
AcDbSpline
 62
7
  6
BYLAYER
 70
0
 71
3
 72
17
 73
13
 74
0
 42
0.0000001
 43
0.0000001
 44
0.0000000001
 40
0.0
 40
0.0
 40
0.0
 40
0.0
 40
0.0453742578
 40
0.0919617876
 40
0.1907333281
 40
0.2439902442
 40
0.3001057353
 40
0.4211229212
 40
0.553602886
 40
0.6959666023
 40
0.8457687181
 40
1.0
 40
1.0
 40
1.0
 40
1.0
 10
59.4970593523
 20
96.0218722429
 30
0.0
 10
59.5896421023
 20
96.0633280107
 30
0.0
 10
59.784277857
 20
96.132556128
 30
0.0
 10
60.204187557
 20
96.2138322365
 30
0.0
 10
60.6541013959
 20
96.2021800166
 30
0.0
 10
61.1107902043
 20
96.1103260389
 30
0.0
 10
61.6031558487
 20
95.9559563155
 30
0.0
 10
62.2299486518
 20
95.6533750746
 30
0.0
 10
62.9603120274
 20
95.1486580616
 30
0.0
 10
63.6654754696
 20
94.5093364754
 30
0.0
 10
64.3230460995
 20
93.7560107453
 30
0.0
 10
64.7131469936
 20
93.1975597293
 30
0.0
 10
64.8956927613
 20
92.9050403031
 30
0.0
  0
SPLINE
  5
2F4
100
AcDbEntity
  8
1
100
AcDbSpline
 62
7
  6
BYLAYER
 70
0
 71
3
 72
17
 73
13
 74
0
 42
0.0000001
 43
0.0000001
 44
0.0000000001
 40
0.0
 40
0.0
 40
0.0
 40
0.0
 40
0.1542312931
 40
0.3040334198
 40
0.4463971389
 40
0.5788771036
 40
0.6998942856
 40
0.756009774
 40
0.8092666875
 40
0.9080382194
 40
0.9546257441
 40
1.0
 40
1.0
 40
1.0
 40
1.0
 10
63.2693539357
 20
91.9660787492
 30
0.0
 10
63.0868081547
 20
92.2585981967
 30
0.0
 10
62.6967072268
 20
92.81704925
 30
0.0
 10
62.0391365545
 20
93.5703750179
 30
0.0
 10
61.3339730734
 20
94.2096966074
 30
0.0
 10
60.6036096881
 20
94.7144136025
 30
0.0
 10
59.9768168886
 20
95.0169948164
 30
0.0
 10
59.4844512594
 20
95.1713645203
 30
0.0
 10
59.0277624766
 20
95.2632184687
 30
0.0
 10
58.5778486761
 20
95.2748706768
 30
0.0
 10
58.1579390098
 20
95.1935945749
 30
0.0
 10
57.9633032729
 20
95.1243664551
 30
0.0
 10
57.8707205268
 20
95.082910689
 30
0.0
  0
SPLINE
  5
2F5
100
AcDbEntity
  8
1
100
AcDbSpline
 62
7
  6
BYLAYER
 70
0
 71
3
 72
22
 73
18
 74
0
 42
0.0000001
 43
0.0000001
 44
0.0000000001
 40
0.0
 40
0.0
 40
0.0
 40
0.0
 40
0.0991530933
 40
0.1541186048
 40
0.2125137103
 40
0.2740589822
 40
0.3383450426
 40
0.4048618934
 40
0.4730248949
 40
0.5421980006
 40
0.6117150014
 40
0.6808992135
 40
0.7490832243
 40
0.8156321378
 40
0.8799555419
 40
0.9415554369
 40
1.0
 40
1.0
 40
1.0
 40
1.0
 10
31.9437328221
 20
74.8982206523
 30
0.0
 10
32.7695871501
 20
74.7856399967
 30
0.0
 10
34.027260139
 20
74.3958408074
 30
0.0
 10
35.6195373151
 20
73.5839661556
 30
0.0
 10
36.8554115052
 20
72.7820160737
 30
0.0
 10
38.0717844035
 20
71.8205485491
 30
0.0
 10
39.252328236
 20
70.7130291031
 30
0.0
 10
40.3798391045
 20
69.4755257401
 30
0.0
 10
41.4381649175
 20
68.1258771709
 30
0.0
 10
42.4119990924
 20
66.6836014265
 30
0.0
 10
43.2872575756
 20
65.169560429
 30
0.0
 10
44.0512593488
 20
63.6056706054
 30
0.0
 10
44.6929585225
 20
62.014546633
 30
0.0
 10
45.2030297065
 20
60.4192213514
 30
0.0
 10
45.5742267665
 20
58.8425674218
 30
0.0
 10
45.8009631935
 20
57.307529505
 30
0.0
 10
45.8551953261
 20
56.2979135502
 30
0.0
 10
45.8551953261
 20
55.8066217069
 30
0.0
  0
SPLINE
  5
2F6
100
AcDbEntity
  8
1
100
AcDbSpline
 62
7
  6
BYLAYER
 70
0
 71
3
 72
15
 73
11
 74
0
 42
0.0000001
 43
0.0000001
 44
0.0000000001
 40
0.0
 40
0.0
 40
0.0
 40
0.0
 40
0.148564251
 40
0.2895086087
 40
0.4227272572
 40
0.5486377312
 40
0.6680001701
 40
0.7819380615
 40
0.891986882
 40
1.0
 40
1.0
 40
1.0
 40
1.0
 10
29.1716795108
 20
51.0733767029
 30
0.0
 10
29.1716795108
 20
50.8520399988
 30
0.0
 10
29.1538034239
 20
50.4204236014
 30
0.0
 10
29.068887652
 20
49.7953799326
 30
0.0
 10
28.9269488891
 20
49.2152137723
 30
0.0
 10
28.7291418656
 20
48.6856115425
 30
0.0
 10
28.4770757748
 20
48.2115917042
 30
0.0
 10
28.1725546589
 20
47.7980726421
 30
0.0
 10
27.8185392966
 20
47.4496206384
 30
0.0
 10
27.5505805476
 20
47.2626743441
 30
0.0
 10
27.4112228932
 20
47.1822047327
 30
0.0
  0
SPLINE
  5
2F7
100
AcDbEntity
  8
1
100
AcDbSpline
 62
7
  6
BYLAYER
 70
0
 71
3
 72
25
 73
21
 74
0
 42
0.0000001
 43
0.0000001
 44
0.0000000001
 40
0.0
 40
0.0
 40
0.0
 40
0.0
 40
0.0623811738
 40
0.1287238645
 40
0.1983144383
 40
0.270291616
 40
0.3436682738
 40
0.4173996893
 40
0.4904238572
 40
0.5617103501
 40
0.6303076689
 40
0.6953953449
 40
0.7563430483
 40
0.8127805259
 40
0.8646813801
 40
0.912456622
 40
0.9351017569
 40
0.9571070889
 40
0.9786678202
 40
1.0
 40
1.0
 40
1.0
 40
1.0
 10
16.5504485295
 20
58.4833386347
 30
0.0
 10
16.5504485295
 20
58.0892329765
 30
0.0
 10
16.6038550665
 20
57.2754525535
 30
0.0
 10
16.8235396279
 20
56.0398494223
 30
0.0
 10
17.1807747978
 20
54.7737489559
 30
0.0
 10
17.6678158568
 20
53.5042474839
 30
0.0
 10
18.2743689456
 20
52.2582366848
 30
0.0
 10
18.9874570302
 20
51.0623057999
 30
0.0
 10
19.7918885198
 20
49.9419610368
 30
0.0
 10
20.6705223306
 20
48.9210786579
 30
0.0
 10
21.6047176367
 20
48.0213633013
 30
0.0
 10
22.5748238205
 20
47.2618920952
 30
0.0
 10
23.5606629707
 20
46.6587506239
 30
0.0
 10
24.5423185846
 20
46.2249519979
 30
0.0
 10
25.4998876355
 20
45.9704331072
 30
0.0
 10
26.2765305966
 20
45.9134439888
 30
0.0
 10
26.8590284526
 20
45.9680660691
 30
0.0
 10
27.2691349711
 20
46.0555681993
 30
0.0
 10
27.6576034575
 20
46.1898322492
 30
0.0
 10
27.901253744
 20
46.3104150344
 30
0.0
 10
28.0179641465
 20
46.377807391
 30
0.0
  0
SPLINE
  5
2F8
100
AcDbEntity
  8
1
100
AcDbSpline
 62
7
  6
BYLAYER
 70
0
 71
3
 72
9
 73
5
 74
0
 42
0.0000001
 43
0.0000001
 44
0.0000000001
 40
0.0
 40
0.0
 40
0.0
 40
0.0
 40
0.2462800364
 40
1.0
 40
1.0
 40
1.0
 40
1.0
 10
15.0521242603
 20
59.4538305418
 30
0.0
 10
15.0559586674
 20
59.3760308509
 30
0.0
 10
15.0744003676
 20
59.0602777013
 30
0.0
 10
15.1041285125
 20
58.7451997257
 30
0.0
 10
15.1323910601
 20
58.5084923969
 30
0.0
  0
SPLINE
  5
2F9
100
AcDbEntity
  8
1
100
AcDbSpline
 62
7
  6
BYLAYER
 70
0
 71
3
 72
25
 73
21
 74
0
 42
0.0000001
 43
0.0000001
 44
0.0000000001
 40
0.0
 40
0.0
 40
0.0
 40
0.0
 40
0.0662151445
 40
0.1355276898
 40
0.2071865655
 40
0.2803381479
 40
0.3540715718
 40
0.427452736
 40
0.499561365
 40
0.5695271446
 40
0.6365684269
 40
0.7000348039
 40
0.7594562014
 40
0.8146011104
 40
0.8655450002
 40
0.9127427911
 40
0.9352290662
 40
0.9571483206
 40
0.9786746224
 40
1.0
 40
1.0
 40
1.0
 40
1.0
 10
15.1323910601
 20
58.5084923969
 30
0.0
 10
15.1935869415
 20
57.9959585009
 30
0.0
 10
15.3749827178
 20
56.953064675
 30
0.0
 10
15.7996638447
 20
55.3927093851
 30
0.0
 10
16.3761200755
 20
53.8240980195
 30
0.0
 10
17.0935153561
 20
52.276847463
 30
0.0
 10
17.9383702334
 20
50.7799376294
 30
0.0
 10
18.8948156839
 20
49.3615151515
 30
0.0
 10
19.9448871721
 20
48.0482144166
 30
0.0
 10
21.0689156124
 20
46.8646642395
 30
0.0
 10
22.2459448572
 20
45.8330036599
 30
0.0
 10
23.4542369186
 20
44.9724979792
 30
0.0
 10
24.6717311281
 20
44.2992564036
 30
0.0
 10
25.876790611
 20
43.8262299577
 30
0.0
 10
27.0477982704
 20
43.5632643382
 30
0.0
 10
27.9940407204
 20
43.5251043961
 30
0.0
 10
28.7043337326
 20
43.6098261898
 30
0.0
 10
29.2059813842
 20
43.7267836267
 30
0.0
 10
29.6822342168
 20
43.8977681504
 30
0.0
 10
29.981862364
 20
44.0475676299
 30
0.0
 10
30.1258344781
 20
44.1306808147
 30
0.0
  0
SPLINE
  5
2FA
100
AcDbEntity
  8
1
100
AcDbSpline
 62
7
  6
BYLAYER
 70
0
 71
3
 72
11
 73
7
 74
0
 42
0.0000001
 43
0.0000001
 44
0.0000000001
 40
0.0
 40
0.0
 40
0.0
 40
0.0
 40
0.2662210922
 40
0.5190091788
 40
0.762068331
 40
1.0
 40
1.0
 40
1.0
 40
1.0
 10
44.8981508166
 20
51.2818684893
 30
0.0
 10
44.7693380636
 20
50.9668175576
 30
0.0
 10
44.4769714093
 20
50.3681502183
 30
0.0
 10
43.9185852672
 20
49.5646935164
 30
0.0
 10
43.2585473842
 20
48.8915892817
 30
0.0
 10
42.7531371202
 20
48.5342749425
 30
0.0
 10
42.4896928262
 20
48.3821762927
 30
0.0
  0
SPLINE
  5
2FB
100
AcDbEntity
  8
1
100
AcDbSpline
 62
7
  6
BYLAYER
 70
0
 71
3
 72
15
 73
11
 74
0
 42
0.0000001
 43
0.0000001
 44
0.0000000001
 40
0.0
 40
0.0
 40
0.0
 40
0.0
 40
0.1485846647
 40
0.2895068885
 40
0.4227214545
 40
0.5486407511
 40
0.6680001328
 40
0.7819379016
 40
0.8919871991
 40
1.0
 40
1.0
 40
1.0
 40
1.0
 10
35.3452690489
 20
48.9222608541
 30
0.0
 10
35.3452690489
 20
48.5185910782
 30
0.0
 10
35.3127165328
 20
47.7315267357
 30
0.0
 10
35.1577998399
 20
46.5917636071
 30
0.0
 10
34.8989842112
 20
45.5338640714
 30
0.0
 10
34.538336807
 20
44.5680847095
 30
0.0
 10
34.0786001717
 20
43.7037266094
 30
0.0
 10
33.5233682224
 20
42.9496181883
 30
0.0
 10
32.8777677976
 20
42.3142469751
 30
0.0
 10
32.3891570031
 20
41.973315162
 30
0.0
 10
32.1350253233
 20
41.8265931177
 30
0.0
  0
SPLINE
  5
2FC
100
AcDbEntity
  8
1
100
AcDbSpline
 62
7
  6
BYLAYER
 70
0
 71
3
 72
11
 73
7
 74
0
 42
0.0000001
 43
0.0000001
 44
0.0000000001
 40
0.0
 40
0.0
 40
0.0
 40
0.0
 40
0.2379323292
 40
0.4809924519
 40
0.7337825462
 40
1.0
 40
1.0
 40
1.0
 40
1.0
 10
27.4897760245
 20
74.3629493859
 30
0.0
 10
27.7532208854
 20
74.5150483631
 30
0.0
 10
28.3153719304
 20
74.7740873589
 30
0.0
 10
29.228321785
 20
75.0091418346
 30
0.0
 10
30.2033280752
 20
75.0909757691
 30
0.0
 10
30.8679700163
 20
75.0448456759
 30
0.0
 10
31.2052136955
 20
74.9988760672
 30
0.0
  0
SPLINE
  5
2FD
100
AcDbEntity
  8
1
100
AcDbSpline
 62
7
  6
BYLAYER
 70
0
 71
3
 72
26
 73
22
 74
0
 42
0.0000001
 43
0.0000001
 44
0.0000000001
 40
0.0
 40
0.0
 40
0.0
 40
0.0
 40
0.0620776872
 40
0.1275057395
 40
0.1957584597
 40
0.2661029504
 40
0.3376723316
 40
0.4095230325
 40
0.4806947321
 40
0.5502683598
 40
0.6174255715
 40
0.681511469
 40
0.7421009544
 40
0.7990636562
 40
0.8526165787
 40
0.8783090735
 40
0.9033917355
 40
0.9279823465
 40
0.9521963968
 40
0.9761462727
 40
1.0
 40
1.0
 40
1.0
 40
1.0
 10
41.4862534962
 20
49.6421465413
 30
0.0
 10
41.4862534962
 20
50.4461260006
 30
0.0
 10
41.378317708
 20
52.0986339659
 30
0.0
 10
40.9329133948
 20
54.5988620362
 30
0.0
 10
40.2116760005
 20
57.1451745733
 30
0.0
 10
39.2306747246
 20
59.6880233015
 30
0.0
 10
38.0106529151
 20
62.1770492545
 30
0.0
 10
36.5768007286
 20
64.5617902701
 30
0.0
 10
34.9582824145
 20
66.7935479256
 30
0.0
 10
33.187282137
 20
68.8267424071
 30
0.0
 10
31.2977556773
 20
70.6200801737
 30
0.0
 10
29.3240478119
 20
72.1372106143
 30
0.0
 10
27.2990537129
 20
73.3466027483
 30
0.0
 10
25.2544565362
 20
74.220205537
 30
0.0
 10
23.5338963164
 20
74.6516378646
 30
0.0
 10
22.188153397
 20
74.7924170493
 30
0.0
 10
21.2102757216
 20
74.7961143423
 30
0.0
 10
20.2565992561
 20
74.69631007
 30
0.0
 10
19.3345992254
 20
74.4916404726
 30
0.0
 10
18.4526278244
 20
74.1815187714
 30
0.0
 10
17.8965779126
 20
73.905040249
 30
0.0
 10
17.6290328418
 20
73.7505739524
 30
0.0
  0
SPLINE
  5
2FE
100
AcDbEntity
  8
1
100
AcDbSpline
 62
7
  6
BYLAYER
 70
0
 71
3
 72
16
 73
12
 74
0
 42
0.0000001
 43
0.0000001
 44
0.0000000001
 40
0.0
 40
0.0
 40
0.0
 40
0.0
 40
0.1142357179
 40
0.2295099102
 40
0.3470242745
 40
0.467790812
 40
0.5297415978
 40
0.5928601547
 40
0.7228884678
 40
0.8585425889
 40
1.0
 40
1.0
 40
1.0
 40
1.0
 10
37.0289459903
 20
40.148738142
 30
0.0
 10
37.3911175438
 20
40.3578367377
 30
0.0
 10
38.0846371843
 20
40.840371056
 30
0.0
 10
38.9968653545
 20
41.7321605219
 30
0.0
 10
39.7724663608
 20
42.7745436088
 30
0.0
 10
40.2952611849
 20
43.7456189409
 30
0.0
 10
40.6424152955
 20
44.5764538083
 30
0.0
 10
40.9480987087
 20
45.4594576671
 30
0.0
 10
41.2390552998
 20
46.6303606047
 30
0.0
 10
41.4433778686
 20
48.1091007905
 30
0.0
 10
41.4862534962
 20
49.124293124
 30
0.0
 10
41.4862534962
 20
49.6421465413
 30
0.0
  0
SPLINE
  5
2FF
100
AcDbEntity
  8
1
100
AcDbSpline
 62
7
  6
BYLAYER
 70
0
 71
3
 72
10
 73
6
 74
0
 42
0.0000001
 43
0.0000001
 44
0.0000000001
 40
0.0
 40
0.0
 40
0.0
 40
0.0
 40
0.2694209508
 40
0.5260142672
 40
1.0
 40
1.0
 40
1.0
 40
1.0
 10
45.8551953261
 20
55.8066217069
 30
0.0
 10
45.8551953261
 20
55.455131809
 30
0.0
 10
45.8286816548
 20
54.7682851599
 30
0.0
 10
45.6661151522
 20
53.4732463604
 30
0.0
 10
45.4142727565
 20
52.5441475135
 30
0.0
 10
45.1802355078
 20
51.9717795361
 30
0.0
  0
SPLINE
  5
300
100
AcDbEntity
  8
1
100
AcDbSpline
 62
7
  6
BYLAYER
 70
0
 71
3
 72
25
 73
21
 74
0
 42
0.0000001
 43
0.0000001
 44
0.0000000001
 40
0.0
 40
0.0
 40
0.0
 40
0.0
 40
0.0213321798
 40
0.0428929111
 40
0.0648982431
 40
0.087543378
 40
0.1353186199
 40
0.1872194741
 40
0.2436569517
 40
0.3046046551
 40
0.3696923311
 40
0.4382896499
 40
0.5095761428
 40
0.5826003107
 40
0.6563317262
 40
0.729708384
 40
0.8016855617
 40
0.8712761355
 40
0.9376188262
 40
1.0
 40
1.0
 40
1.0
 40
1.0
 10
18.9112708008
 20
61.9046414999
 30
0.0
 10
19.0156958979
 20
61.9649399242
 30
0.0
 10
19.2336987858
 20
62.0728297847
 30
0.0
 10
19.5812758525
 20
62.1929607766
 30
0.0
 10
19.9482132638
 20
62.2712521563
 30
0.0
 10
20.4693955561
 20
62.320124544
 30
0.0
 10
21.1642866265
 20
62.2691342801
 30
0.0
 10
22.0210589352
 20
62.0414068516
 30
0.0
 10
22.8993823792
 20
61.6532712389
 30
0.0
 10
23.7814489872
 20
61.1136183435
 30
0.0
 10
24.6494387307
 20
60.4340914749
 30
0.0
 10
25.4852976888
 20
59.629082998
 30
0.0
 10
26.27144373
 20
58.7156619221
 30
0.0
 10
26.9911982207
 20
57.7132481867
 30
0.0
 10
27.6292244017
 20
56.6432047633
 30
0.0
 10
28.1719297969
 20
55.5283529957
 30
0.0
 10
28.607703376
 20
54.3924832576
 30
0.0
 10
28.9273348438
 20
53.2596565245
 30
0.0
 10
29.1238947146
 20
52.1541168808
 30
0.0
 10
29.1716795108
 20
51.425997555
 30
0.0
 10
29.1716795108
 20
51.0733767029
 30
0.0
  0
SPLINE
  5
301
100
AcDbEntity
  8
1
100
AcDbSpline
 62
7
  6
BYLAYER
 70
0
 71
3
 72
15
 73
11
 74
0
 42
0.0000001
 43
0.0000001
 44
0.0000000001
 40
0.0
 40
0.0
 40
0.0
 40
0.0
 40
0.112071177
 40
0.2255970988
 40
0.3419396945
 40
0.4622970542
 40
0.5876517747
 40
0.7187493215
 40
0.8560928421
 40
1.0
 40
1.0
 40
1.0
 40
1.0
 10
15.7926262701
 20
72.6903191813
 30
0.0
 10
15.5298017378
 20
72.5385662897
 30
0.0
 10
15.0216236978
 20
72.1952155693
 30
0.0
 10
14.3319411018
 20
71.5732110827
 30
0.0
 10
13.7170632889
 20
70.8475454912
 30
0.0
 10
13.1812423915
 20
70.0235903553
 30
0.0
 10
12.7275478467
 20
69.1072218889
 30
0.0
 10
12.3586595539
 20
68.1046614325
 30
0.0
 10
12.0766225753
 20
67.0226236395
 30
0.0
 10
11.9504955931
 20
66.270427407
 30
0.0
 10
11.9013258277
 20
65.8838406771
 30
0.0
  0
SPLINE
  5
302
100
AcDbEntity
  8
1
100
AcDbSpline
 62
7
  6
BYLAYER
 70
0
 71
3
 72
15
 73
11
 74
0
 42
0.0000001
 43
0.0000001
 44
0.0000000001
 40
0.0
 40
0.0
 40
0.0
 40
0.0
 40
0.108013118
 40
0.2180619385
 40
0.3319998299
 40
0.4513622688
 40
0.5772727428
 40
0.7104913913
 40
0.851435749
 40
1.0
 40
1.0
 40
1.0
 40
1.0
 10
18.5180176904
 20
62.8322955426
 30
0.0
 10
18.3622650178
 20
62.7423589181
 30
0.0
 10
18.0627817101
 20
62.5334189421
 30
0.0
 10
17.6671174817
 20
62.143972585
 30
0.0
 10
17.3267703521
 20
61.6818042214
 30
0.0
 10
17.0450494271
 20
61.1520173433
 30
0.0
 10
16.8239709891
 20
60.5601089689
 30
0.0
 10
16.6653335481
 20
59.9116879662
 30
0.0
 10
16.5704276854
 20
59.2131097482
 30
0.0
 10
16.5504485295
 20
58.7307149511
 30
0.0
 10
16.5504485295
 20
58.4833386347
 30
0.0
  0
SPLINE
  5
303
100
AcDbEntity
  8
1
100
AcDbSpline
 62
7
  6
BYLAYER
 70
0
 71
3
 72
14
 73
10
 74
0
 42
0.0000001
 43
0.0000001
 44
0.0000000001
 40
0.0
 40
0.0
 40
0.0
 40
0.0
 40
0.1123407037
 40
0.2261045731
 40
0.3426265224
 40
0.4630833447
 40
0.5884492054
 40
0.7194565548
 40
1.0
 40
1.0
 40
1.0
 40
1.0
 10
17.6258993999
 20
65.7813326972
 30
0.0
 10
17.4586280996
 20
65.6847692023
 30
0.0
 10
17.1351303312
 20
65.466563626
 30
0.0
 10
16.6953731698
 20
65.072058834
 30
0.0
 10
16.3026147816
 20
64.6122483814
 30
0.0
 10
15.959373336
 20
64.0905884291
 30
0.0
 10
15.6677171558
 20
63.510526709
 30
0.0
 10
15.3424137502
 20
62.6452602813
 30
0.0
 10
15.1931096718
 20
61.9484740956
 30
0.0
 10
15.1284365322
 20
61.4705023444
 30
0.0
  0
SPLINE
  5
304
100
AcDbEntity
  8
1
100
AcDbSpline
 62
7
  6
BYLAYER
 70
0
 71
3
 72
9
 73
5
 74
0
 42
0.0000001
 43
0.0000001
 44
0.0000000001
 40
0.0
 40
0.0
 40
0.0
 40
0.0
 40
0.2429521714
 40
1.0
 40
1.0
 40
1.0
 40
1.0
 10
15.1284365322
 20
61.4705023444
 30
0.0
 10
15.1130707498
 20
61.3569403624
 30
0.0
 10
15.0584209595
 20
60.8883705192
 30
0.0
 10
15.0369953746
 20
60.4161040572
 30
0.0
 10
15.0369953746
 20
60.0590161875
 30
0.0
  0
SPLINE
  5
305
100
AcDbEntity
  8
1
100
AcDbSpline
 62
7
  6
BYLAYER
 70
0
 71
3
 72
9
 73
5
 74
0
 42
0.0000001
 43
0.0000001
 44
0.0000000001
 40
0.0
 40
0.0
 40
0.0
 40
0.0
 40
0.2454663006
 40
1.0
 40
1.0
 40
1.0
 40
1.0
 10
11.9013255979
 20
65.883840846
 30
0.0
 10
11.8786923499
 20
65.7059335314
 30
0.0
 10
11.7988385722
 20
64.9796168934
 30
0.0
 10
11.7670669697
 20
64.2482247584
 30
0.0
 10
11.7670669697
 20
63.6969515251
 30
0.0
  0
SPLINE
  5
306
100
AcDbEntity
  8
1
100
AcDbSpline
 62
7
  6
BYLAYER
 70
0
 71
3
 72
14
 73
10
 74
0
 42
0.0000001
 43
0.0000001
 44
0.0000000001
 40
0.0
 40
0.0
 40
0.0
 40
0.0
 40
0.2810523084
 40
0.4121854954
 40
0.5375744035
 40
0.6579646503
 40
0.7743406685
 40
0.8878977963
 40
1.0
 40
1.0
 40
1.0
 40
1.0
 10
27.3522946513
 20
39.1218300081
 30
0.0
 10
28.053977639
 20
38.8275886785
 30
0.0
 10
29.120706563
 20
38.4736915536
 30
0.0
 10
30.5568695552
 20
38.2256548224
 30
0.0
 10
31.5773965172
 20
38.1603310119
 30
0.0
 10
32.5588441718
 20
38.2124528218
 30
0.0
 10
33.4947520169
 20
38.3820291171
 30
0.0
 10
34.3782402492
 20
38.6683842294
 30
0.0
 10
34.929705462
 20
38.9367475811
 30
0.0
 10
35.1925296572
 20
39.0885002779
 30
0.0
  0
SPLINE
  5
307
100
AcDbEntity
  8
1
100
AcDbSpline
 62
7
  6
BYLAYER
 70
0
 71
3
 72
25
 73
21
 74
0
 42
0.0000001
 43
0.0000001
 44
0.0000000001
 40
0.0
 40
0.0
 40
0.0
 40
0.0
 40
0.0213321927
 40
0.0428928946
 40
0.0648983036
 40
0.0875433305
 40
0.1353186254
 40
0.1872195872
 40
0.2436571799
 40
0.3046049308
 40
0.3696925322
 40
0.4382896941
 40
0.5095760724
 40
0.5826002604
 40
0.6563316887
 40
0.7297087497
 40
0.8016851308
 40
0.8712779901
 40
0.9376159434
 40
1.0
 40
1.0
 40
1.0
 40
1.0
 10
16.6351112949
 20
68.6733919807
 30
0.0
 10
16.8255407978
 20
68.7833357941
 30
0.0
 10
17.2230583062
 20
68.9801076553
 30
0.0
 10
17.856884115
 20
69.1991563812
 30
0.0
 10
18.5260051109
 20
69.3419137162
 30
0.0
 10
19.4763948517
 20
69.431058513
 30
0.0
 10
20.7435515166
 20
69.338063085
 30
0.0
 10
22.3059028407
 20
68.9227936758
 30
0.0
 10
23.9075518811
 20
68.2150075968
 30
0.0
 10
25.5160243568
 20
67.2309289852
 30
0.0
 10
27.0988272455
 20
65.991791236
 30
0.0
 10
28.6230421309
 20
64.5238403648
 30
0.0
 10
30.0566076649
 20
62.8581965707
 30
0.0
 10
31.3691042645
 20
61.0302680774
 30
0.0
 10
32.5325761199
 20
59.0790126155
 30
0.0
 10
33.5221998588
 20
57.0460444418
 30
0.0
 10
34.3168807962
 20
54.9747425736
 30
0.0
 10
34.8996744262
 20
52.9090163952
 30
0.0
 10
35.2581584194
 20
50.8930368996
 30
0.0
 10
35.3452690489
 20
49.5653053333
 30
0.0
 10
35.3452690489
 20
48.9222608541
 30
0.0
  0
SPLINE
  5
308
100
AcDbEntity
  8
1
100
AcDbSpline
 62
7
  6
BYLAYER
 70
0
 71
3
 72
23
 73
19
 74
0
 42
0.0000001
 43
0.0000001
 44
0.0000000001
 40
0.0
 40
0.0
 40
0.0
 40
0.0
 40
0.0578661364
 40
0.1178346738
 40
0.1797074809
 40
0.2432669329
 40
0.3081900184
 40
0.3741059323
 40
0.4406067273
 40
0.5072614875
 40
0.5736337812
 40
0.6392977135
 40
0.7038537707
 40
0.7669465985
 40
0.8282797297
 40
0.887626032
 40
0.9448877427
 40
1.0
 40
1.0
 40
1.0
 40
1.0
 10
11.7670669697
 20
63.6969515251
 30
0.0
 10
11.7670669697
 20
63.1081019619
 30
0.0
 10
11.822776998
 20
61.9084959035
 30
0.0
 10
12.0585136399
 20
60.0932354003
 30
0.0
 10
12.4437350333
 20
58.2445616078
 30
0.0
 10
12.9728332568
 20
56.3795697193
 30
0.0
 10
13.6398221269
 20
54.5156779297
 30
0.0
 10
14.4372955521
 20
52.6712041313
 30
0.0
 10
15.3567496715
 20
50.8646540948
 30
0.0
 10
16.3886016576
 20
49.1144803893
 30
0.0
 10
17.5222670922
 20
47.4387191322
 30
0.0
 10
18.746350672
 20
45.8546633517
 30
0.0
 10
20.0489073725
 20
44.3785924453
 30
0.0
 10
21.4177845459
 20
43.025612846
 30
0.0
 10
22.8408462105
 20
41.8096386228
 30
0.0
 10
24.3065048941
 20
40.7428606869
 30
0.0
 10
25.8035363928
 20
39.8373392117
 30
0.0
 10
26.8351025709
 20
39.3386932842
 30
0.0
 10
27.3522963448
 20
39.1218147395
 30
0.0
  0
SPLINE
  5
309
100
AcDbEntity
  8
1
100
AcDbSpline
 62
7
  6
BYLAYER
 70
0
 71
3
 72
15
 73
11
 74
0
 42
0.0000001
 43
0.0000001
 44
0.0000000001
 40
0.0
 40
0.0
 40
0.0
 40
0.0
 40
0.1485846647
 40
0.2895068885
 40
0.4227214545
 40
0.5486407511
 40
0.6680001328
 40
0.7819379016
 40
0.8919871991
 40
1.0
 40
1.0
 40
1.0
 40
1.0
 10
13.4248675693
 20
61.5777242443
 30
0.0
 10
13.4248675693
 20
61.9813940202
 30
0.0
 10
13.4574200854
 20
62.7684583627
 30
0.0
 10
13.6123367783
 20
63.9082214913
 30
0.0
 10
13.8711524069
 20
64.966121027
 30
0.0
 10
14.2317998112
 20
65.9319003889
 30
0.0
 10
14.6915364465
 20
66.796258489
 30
0.0
 10
15.2467683958
 20
67.5503669101
 30
0.0
 10
15.8923688205
 20
68.1857381234
 30
0.0
 10
16.3809796151
 20
68.5266699364
 30
0.0
 10
16.6351112949
 20
68.6733919807
 30
0.0
  0
SPLINE
  5
30A
100
AcDbEntity
  8
1
100
AcDbSpline
 62
7
  6
BYLAYER
 70
0
 71
3
 72
39
 73
35
 74
0
 42
0.0000001
 43
0.0000001
 44
0.0000000001
 40
0.0
 40
0.0
 40
0.0
 40
0.0
 40
0.0309887878
 40
0.0603774906
 40
0.0881599544
 40
0.1014790543
 40
0.1144339781
 40
0.1393266909
 40
0.163088809
 40
0.1860400755
 40
0.2085665643
 40
0.2310929997
 40
0.2540440357
 40
0.2778060754
 40
0.3026985855
 40
0.3156528842
 40
0.3289721418
 40
0.3567558979
 40
0.3861396982
 40
0.4171316309
 40
0.4496813728
 40
0.4836899614
 40
0.5190177661
 40
0.5554918399
 40
0.5929131896
 40
0.6310624493
 40
0.708565102
 40
0.7860679122
 40
0.824217078
 40
0.8616388661
 40
0.8981133589
 40
0.9334394013
 40
0.9674530656
 40
1.0
 40
1.0
 40
1.0
 40
1.0
 10
37.8700357558
 20
48.1257050753
 30
0.0
 10
37.8700357558
 20
47.6501240604
 30
0.0
 10
37.8316915829
 20
46.7228581245
 30
0.0
 10
37.6491906793
 20
45.3801859641
 30
0.0
 10
37.39151749
 20
44.3269517584
 30
0.0
 10
37.1230482267
 20
43.5414830679
 30
0.0
 10
36.8232818459
 20
42.8152631348
 30
0.0
 10
36.3777435306
 20
41.9776382366
 30
0.0
 10
35.7237021687
 20
41.0893125418
 30
0.0
 10
34.9629247512
 20
40.3406121598
 30
0.0
 10
34.1029334214
 20
39.7404327882
 30
0.0
 10
33.1531724041
 20
39.2957520063
 30
0.0
 10
32.124414889
 20
39.0111896777
 30
0.0
 10
31.0280875263
 20
38.8889003314
 30
0.0
 10
30.0799331306
 20
38.9219065978
 30
0.0
 10
29.3011236778
 20
39.0253215543
 30
0.0
 10
28.4866473608
 20
39.1856090514
 30
0.0
 10
27.445743327
 20
39.4890103113
 30
0.0
 10
26.1916161178
 20
40.0022851564
 30
0.0
 10
24.9264854979
 20
40.6646198069
 30
0.0
 10
23.6622765437
 20
41.4695439005
 30
0.0
 10
22.4108214264
 20
42.4093694965
 30
0.0
 10
21.183959527
 20
43.475141222
 30
0.0
 10
19.9933193166
 20
44.6566586512
 30
0.0
 10
18.8501830009
 20
45.9426825899
 30
0.0
 10
17.3966842387
 20
47.7897192699
 30
0.0
 10
15.7692734176
 20
50.2755096177
 30
0.0
 10
14.4302086435
 20
52.9277776165
 30
0.0
 10
13.5573747593
 20
55.1100685676
 30
0.0
 10
13.0151775779
 20
56.7430684828
 30
0.0
 10
12.5872810282
 20
58.3649315221
 30
0.0
 10
12.277690684
 20
59.9603908285
 30
0.0
 10
12.0895373329
 20
61.5140087076
 30
0.0
 10
12.0451517423
 20
62.5358778151
 30
0.0
 10
12.0451517423
 20
63.0353715106
 30
0.0
  0
SPLINE
  5
30B
100
AcDbEntity
  8
1
100
AcDbSpline
 62
7
  6
BYLAYER
 70
0
 71
3
 72
39
 73
35
 74
0
 42
0.0000001
 43
0.0000001
 44
0.0000000001
 40
0.0
 40
0.0
 40
0.0
 40
0.0
 40
0.0309887878
 40
0.0603774906
 40
0.0881599544
 40
0.1014790543
 40
0.1144339781
 40
0.1393266909
 40
0.163088809
 40
0.1860400755
 40
0.2085665643
 40
0.2310929997
 40
0.2540440357
 40
0.2778060754
 40
0.3026985855
 40
0.3156528842
 40
0.3289721418
 40
0.3567558979
 40
0.3861396982
 40
0.4171316309
 40
0.4496813728
 40
0.4836899614
 40
0.5190177661
 40
0.5554918399
 40
0.5929131896
 40
0.6310624493
 40
0.708565102
 40
0.7860679122
 40
0.824217078
 40
0.8616388661
 40
0.8981133589
 40
0.9334394013
 40
0.9674530656
 40
1.0
 40
1.0
 40
1.0
 40
1.0
 10
12.0451517423
 20
63.0353715106
 30
0.0
 10
12.0451517423
 20
63.5109525256
 30
0.0
 10
12.0834959151
 20
64.4382184614
 30
0.0
 10
12.2659968187
 20
65.7808906218
 30
0.0
 10
12.523670008
 20
66.8341248276
 30
0.0
 10
12.7921392713
 20
67.6195935181
 30
0.0
 10
13.0919056522
 20
68.3458134511
 30
0.0
 10
13.5374439674
 20
69.1834383493
 30
0.0
 10
14.1914853293
 20
70.0717640441
 30
0.0
 10
14.9522627469
 20
70.8204644262
 30
0.0
 10
15.8122540766
 20
71.4206437978
 30
0.0
 10
16.762015094
 20
71.8653245797
 30
0.0
 10
17.7907726091
 20
72.1498869082
 30
0.0
 10
18.8870999718
 20
72.2721762546
 30
0.0
 10
19.8352543675
 20
72.2391699882
 30
0.0
 10
20.6140638203
 20
72.1357550317
 30
0.0
 10
21.4285401373
 20
71.9754675346
 30
0.0
 10
22.469444171
 20
71.6720662746
 30
0.0
 10
23.7235713802
 20
71.1587914296
 30
0.0
 10
24.9887020001
 20
70.4964567791
 30
0.0
 10
26.2529109544
 20
69.6915326854
 30
0.0
 10
27.5043660717
 20
68.7517070894
 30
0.0
 10
28.731227971
 20
67.685935364
 30
0.0
 10
29.9218681815
 20
66.5044179347
 30
0.0
 10
31.0650044971
 20
65.218393996
 30
0.0
 10
32.5185032593
 20
63.3713573161
 30
0.0
 10
34.1459140804
 20
60.8855669683
 30
0.0
 10
35.4849788545
 20
58.2332989695
 30
0.0
 10
36.3578127387
 20
56.0510080183
 30
0.0
 10
36.9000099201
 20
54.4180081032
 30
0.0
 10
37.3279064698
 20
52.7961450639
 30
0.0
 10
37.637496814
 20
51.2006857574
 30
0.0
 10
37.8256501652
 20
49.6470678784
 30
0.0
 10
37.8700357558
 20
48.6251987709
 30
0.0
 10
37.8700357558
 20
48.1257050753
 30
0.0
  0
SPLINE
  5
30C
100
AcDbEntity
  8
1
100
AcDbSpline
 62
7
  6
BYLAYER
 70
0
 71
3
 72
27
 73
23
 74
0
 42
0.0000001
 43
0.0000001
 44
0.0000000001
 40
0.0
 40
0.0
 40
0.0
 40
0.0
 40
0.0623783058
 40
0.128709177
 40
0.1982953811
 40
0.2702645952
 40
0.3436344075
 40
0.4173585355
 40
0.4903755061
 40
0.5616548611
 40
0.6302452947
 40
0.6953265429
 40
0.7562683673
 40
0.7850762181
 40
0.8127376593
 40
0.8646335624
 40
0.8890179951
 40
0.9124654414
 40
0.9351080144
 40
0.9571113966
 40
0.9786699051
 40
1.0
 40
1.0
 40
1.0
 40
1.0
 10
39.2105066315
 20
47.9695390919
 30
0.0
 10
39.2105066315
 20
48.7743870433
 30
0.0
 10
39.1014806506
 20
50.4361916716
 30
0.0
 10
38.652787519
 20
52.9594167145
 30
0.0
 10
37.9233609196
 20
55.5449022671
 30
0.0
 10
36.9287233031
 20
58.1373704717
 30
0.0
 10
35.6900982581
 20
60.681858712
 30
0.0
 10
34.2338832377
 20
63.1240736993
 30
0.0
 10
32.5911424955
 20
65.4119359281
 30
0.0
 10
30.7968905196
 20
67.4966679267
 30
0.0
 10
28.8891090707
 20
69.3340156738
 30
0.0
 10
26.9082442054
 20
70.8848086036
 30
0.0
 10
25.1993121532
 20
71.9303967804
 30
0.0
 10
23.8322242107
 20
72.5860720613
 30
0.0
 10
22.5304022552
 20
73.0982000331
 30
0.0
 10
21.2265129026
 20
73.4444154027
 30
0.0
 10
19.9467867393
 20
73.5948658637
 30
0.0
 10
19.035863473
 20
73.6092536059
 30
0.0
 10
18.1592733578
 20
73.5270080235
 30
0.0
 10
17.3218148481
 20
73.3484021237
 30
0.0
 10
16.5285266493
 20
73.0741613803
 30
0.0
 10
16.0309656265
 20
72.8279345179
 30
0.0
 10
15.7926262701
 20
72.6903191813
 30
0.0
  0
SPLINE
  5
30D
100
AcDbEntity
  8
1
100
AcDbSpline
 62
7
  6
BYLAYER
 70
0
 71
3
 72
25
 73
21
 74
0
 42
0.0000001
 43
0.0000001
 44
0.0000000001
 40
0.0
 40
0.0
 40
0.0
 40
0.0
 40
0.0623811738
 40
0.1287238645
 40
0.1983144383
 40
0.270291616
 40
0.3436682738
 40
0.4173996893
 40
0.4904238572
 40
0.5617103501
 40
0.6303076689
 40
0.6953953449
 40
0.7563430483
 40
0.8127805259
 40
0.8646813801
 40
0.912456622
 40
0.9351017569
 40
0.9571070889
 40
0.9786678202
 40
1.0
 40
1.0
 40
1.0
 40
1.0
 10
29.9855333074
 20
50.7267642988
 30
0.0
 10
29.9855333074
 20
51.1208699571
 30
0.0
 10
29.9321267704
 20
51.9346503801
 30
0.0
 10
29.712442209
 20
53.1702535113
 30
0.0
 10
29.3552070391
 20
54.4363539777
 30
0.0
 10
28.8681659801
 20
55.7058554497
 30
0.0
 10
28.2616128913
 20
56.9518662488
 30
0.0
 10
27.5485248067
 20
58.1477971337
 30
0.0
 10
26.7440933171
 20
59.2681418968
 30
0.0
 10
25.8654595063
 20
60.2890242757
 30
0.0
 10
24.9312642002
 20
61.1887396323
 30
0.0
 10
23.9611580164
 20
61.9482108384
 30
0.0
 10
22.9753188662
 20
62.5513523097
 30
0.0
 10
21.9936632523
 20
62.9851509357
 30
0.0
 10
21.0360942014
 20
63.2396698264
 30
0.0
 10
20.2594512403
 20
63.2966589448
 30
0.0
 10
19.6769533843
 20
63.2420368645
 30
0.0
 10
19.2668468658
 20
63.1545347342
 30
0.0
 10
18.8783783794
 20
63.0202706844
 30
0.0
 10
18.6347280929
 20
62.8996878992
 30
0.0
 10
18.5180176904
 20
62.8322955426
 30
0.0
  0
SPLINE
  5
30E
100
AcDbEntity
  8
1
100
AcDbSpline
 62
7
  6
BYLAYER
 70
0
 71
3
 72
15
 73
11
 74
0
 42
0.0000001
 43
0.0000001
 44
0.0000000001
 40
0.0
 40
0.0
 40
0.0
 40
0.0
 40
0.1485890847
 40
0.2895057845
 40
0.422720599
 40
0.5486415436
 40
0.668000107
 40
0.7819375604
 40
0.891987106
 40
1.0
 40
1.0
 40
1.0
 40
1.0
 10
41.0469180839
 20
49.0297854095
 30
0.0
 10
41.0469180839
 20
48.5245319532
 30
0.0
 10
41.0061861694
 20
47.5394348986
 30
0.0
 10
40.812275212
 20
46.1128964876
 30
0.0
 10
40.4883324013
 20
44.7888310504
 30
0.0
 10
40.0369667618
 20
43.5800355041
 30
0.0
 10
39.4615417859
 20
42.498195229
 30
0.0
 10
38.7665894975
 20
41.5543629614
 30
0.0
 10
37.9585743638
 20
40.7590946029
 30
0.0
 10
37.3470096335
 20
40.3323969487
 30
0.0
 10
37.0289411096
 20
40.1487465955
 30
0.0
  0
SPLINE
  5
30F
100
AcDbEntity
  8
1
100
AcDbSpline
 62
7
  6
BYLAYER
 70
0
 71
3
 72
15
 73
11
 74
0
 42
0.0000001
 43
0.0000001
 44
0.0000000001
 40
0.0
 40
0.0
 40
0.0
 40
0.0
 40
0.148564251
 40
0.2895086087
 40
0.4227272572
 40
0.5486377312
 40
0.6680001701
 40
0.7819380615
 40
0.891986882
 40
1.0
 40
1.0
 40
1.0
 40
1.0
 10
17.1508141833
 20
58.0134695297
 30
0.0
 10
17.1508141833
 20
58.2348062338
 30
0.0
 10
17.1686902701
 20
58.6664226312
 30
0.0
 10
17.253606042
 20
59.2914663
 30
0.0
 10
17.3955448049
 20
59.8716324603
 30
0.0
 10
17.5933518284
 20
60.40123469
 30
0.0
 10
17.8454179192
 20
60.8752545283
 30
0.0
 10
18.1499390352
 20
61.2887735905
 30
0.0
 10
18.5039543974
 20
61.6372255942
 30
0.0
 10
18.7719131464
 20
61.8241718885
 30
0.0
 10
18.9112708008
 20
61.9046414999
 30
0.0
  0
SPLINE
  5
310
100
AcDbEntity
  8
1
100
AcDbSpline
 62
7
  6
BYLAYER
 70
0
 71
3
 72
9
 73
5
 74
0
 42
0.0000001
 43
0.0000001
 44
0.0000000001
 40
0.0
 40
0.0
 40
0.0
 40
0.0
 40
0.2463538469
 40
1.0
 40
1.0
 40
1.0
 40
1.0
 10
31.2052136955
 20
74.9988760672
 30
0.0
 10
31.2627165353
 20
74.9910378683
 30
0.0
 10
31.4957676461
 20
74.9565848485
 30
0.0
 10
31.7272648344
 20
74.9117526532
 30
0.0
 10
31.9004459415
 20
74.8726554557
 30
0.0
  0
SPLINE
  5
311
100
AcDbEntity
  8
1
100
AcDbSpline
 62
7
  6
BYLAYER
 70
0
 71
3
 72
23
 73
19
 74
0
 42
0.0000001
 43
0.0000001
 44
0.0000000001
 40
0.0
 40
0.0
 40
0.0
 40
0.0
 40
0.0493998483
 40
0.1021739938
 40
0.1583017863
 40
0.2175995972
 40
0.2797526389
 40
0.3443424359
 40
0.4108705475
 40
0.4787799794
 40
0.5474742406
 40
0.6163351252
 40
0.6847396669
 40
0.7520771781
 40
0.817768536
 40
0.8812773907
 40
0.9421513496
 40
1.0
 40
1.0
 40
1.0
 40
1.0
 10
31.9004459415
 20
74.8726554557
 30
0.0
 10
32.3082447252
 20
74.7805912008
 30
0.0
 10
33.1386233962
 20
74.5290371202
 30
0.0
 10
34.366449527
 20
73.9864868789
 30
0.0
 10
35.6016616548
 20
73.2741103811
 30
0.0
 10
36.8277955602
 20
72.401677988
 30
0.0
 10
38.0287977265
 20
71.3808810029
 30
0.0
 10
39.1886652615
 20
70.2254032843
 30
0.0
 10
40.2919036819
 20
68.9507544842
 30
0.0
 10
41.3237077481
 20
67.5740672884
 30
0.0
 10
42.270202859
 20
66.1138638345
 30
0.0
 10
43.1186439079
 20
64.5898021885
 30
0.0
 10
43.8575932209
 20
63.0224057449
 30
0.0
 10
44.4771170992
 20
61.4327647047
 30
0.0
 10
44.968840035
 20
59.8422846904
 30
0.0
 10
45.3262514913
 20
58.2721849077
 30
0.0
 10
45.5443590538
 20
56.7437210428
 30
0.0
 10
45.5963803025
 20
55.7385139838
 30
0.0
 10
45.5963803025
 20
55.2489515215
 30
0.0
  0
SPLINE
  5
312
100
AcDbEntity
  8
1
100
AcDbSpline
 62
7
  6
BYLAYER
 70
0
 71
3
 72
9
 73
5
 74
0
 42
0.0000001
 43
0.0000001
 44
0.0000000001
 40
0.0
 40
0.0
 40
0.0
 40
0.0
 40
0.5198651353
 40
1.0
 40
1.0
 40
1.0
 40
1.0
 10
45.5963803025
 20
55.2489515215
 30
0.0
 10
45.5963803025
 20
54.6875713472
 30
0.0
 10
45.532538142
 20
53.6062672998
 30
0.0
 10
45.3148375794
 20
52.5433459967
 30
0.0
 10
45.1667366181
 20
52.046471102
 30
0.0
  0
SPLINE
  5
313
100
AcDbEntity
  8
1
100
AcDbSpline
 62
7
  6
BYLAYER
 70
0
 71
3
 72
9
 73
5
 74
0
 42
0.0000001
 43
0.0000001
 44
0.0000000001
 40
0.0
 40
0.0
 40
0.0
 40
0.0
 40
0.2539355811
 40
1.0
 40
1.0
 40
1.0
 40
1.0
 10
45.1472707189
 20
51.982066923
 30
0.0
 10
45.128835064
 20
51.9219084718
 30
0.0
 10
45.0536716066
 20
51.6858004393
 30
0.0
 10
44.9681111579
 20
51.4529778723
 30
0.0
 10
44.8981508166
 20
51.2818684893
 30
0.0
  0
SPLINE
  5
314
100
AcDbEntity
  8
1
100
AcDbSpline
 62
7
  6
BYLAYER
 70
0
 71
3
 72
15
 73
11
 74
0
 42
0.0000001
 43
0.0000001
 44
0.0000000001
 40
0.0
 40
0.0
 40
0.0
 40
0.0
 40
0.108012894
 40
0.2180624396
 40
0.331999893
 40
0.4513584564
 40
0.577279401
 40
0.7104942155
 40
0.8514109153
 40
1.0
 40
1.0
 40
1.0
 40
1.0
 10
35.1925296572
 20
39.0885002779
 30
0.0
 10
35.5105981811
 20
39.2721506312
 30
0.0
 10
36.1221629114
 20
39.6988482853
 30
0.0
 10
36.9301780451
 20
40.4941166438
 30
0.0
 10
37.6251303334
 20
41.4379489114
 30
0.0
 10
38.2005553094
 20
42.5197891865
 30
0.0
 10
38.6519209489
 20
43.7285847328
 30
0.0
 10
38.9758637596
 20
45.05265017
 30
0.0
 10
39.169774717
 20
46.479188581
 30
0.0
 10
39.2105066315
 20
47.4642856356
 30
0.0
 10
39.2105066315
 20
47.9695390919
 30
0.0
  0
SPLINE
  5
315
100
AcDbEntity
  8
1
100
AcDbSpline
 62
7
  6
BYLAYER
 70
0
 71
3
 72
25
 73
21
 74
0
 42
0.0000001
 43
0.0000001
 44
0.0000000001
 40
0.0
 40
0.0
 40
0.0
 40
0.0
 40
0.0213321798
 40
0.0428929111
 40
0.0648982431
 40
0.087543378
 40
0.1353186199
 40
0.1872194741
 40
0.2436569517
 40
0.3046046551
 40
0.3696923311
 40
0.4382896499
 40
0.5095761428
 40
0.5826003107
 40
0.6563317262
 40
0.729708384
 40
0.8016855617
 40
0.8712761355
 40
0.9376188262
 40
1.0
 40
1.0
 40
1.0
 40
1.0
 10
27.4112228932
 20
47.1822047327
 30
0.0
 10
27.3067977961
 20
47.1219063084
 30
0.0
 10
27.0887949082
 20
47.0140164479
 30
0.0
 10
26.7412178415
 20
46.8938854559
 30
0.0
 10
26.3742804302
 20
46.8155940763
 30
0.0
 10
25.853098138
 20
46.7667216886
 30
0.0
 10
25.1582070675
 20
46.8177119524
 30
0.0
 10
24.3014347588
 20
47.0454393809
 30
0.0
 10
23.4231113148
 20
47.4335749937
 30
0.0
 10
22.5410447068
 20
47.973227889
 30
0.0
 10
21.6730549634
 20
48.6527547577
 30
0.0
 10
20.8371960053
 20
49.4577632346
 30
0.0
 10
20.051049964
 20
50.3711843105
 30
0.0
 10
19.3312954733
 20
51.3735980459
 30
0.0
 10
18.6932692923
 20
52.4436414693
 30
0.0
 10
18.1505638971
 20
53.5584932368
 30
0.0
 10
17.714790318
 20
54.694362975
 30
0.0
 10
17.3951588502
 20
55.827189708
 30
0.0
 10
17.1985989794
 20
56.9327293517
 30
0.0
 10
17.1508141833
 20
57.6608486776
 30
0.0
 10
17.1508141833
 20
58.0134695297
 30
0.0
  0
SPLINE
  5
316
100
AcDbEntity
  8
1
100
AcDbSpline
 62
7
  6
BYLAYER
 70
0
 71
3
 72
27
 73
23
 74
0
 42
0.0000001
 43
0.0000001
 44
0.0000000001
 40
0.0
 40
0.0
 40
0.0
 40
0.0
 40
0.0213300949
 40
0.0428886034
 40
0.0648919856
 40
0.0875345586
 40
0.1109820049
 40
0.1353664376
 40
0.1872623407
 40
0.2149237819
 40
0.2437316327
 40
0.3046734571
 40
0.3697547053
 40
0.4383451389
 40
0.5096244939
 40
0.5826414645
 40
0.6563655925
 40
0.7297354048
 40
0.8017046189
 40
0.871290823
 40
0.9376216942
 40
1.0
 40
1.0
 40
1.0
 40
1.0
 10
17.6290377225
 20
73.7505654988
 30
0.0
 10
17.8673770789
 20
73.8881808354
 30
0.0
 10
18.3649381018
 20
74.1344076979
 30
0.0
 10
19.1582263005
 20
74.4086484413
 30
0.0
 10
19.9956848103
 20
74.587254341
 30
0.0
 10
20.8722749255
 20
74.6694999235
 30
0.0
 10
21.7831981917
 20
74.6551121812
 30
0.0
 10
23.062924355
 20
74.5046617203
 30
0.0
 10
24.3668137076
 20
74.1584463507
 30
0.0
 10
25.6686356631
 20
73.6463183789
 30
0.0
 10
27.0357236056
 20
72.990643098
 30
0.0
 10
28.7446556578
 20
71.9450549212
 30
0.0
 10
30.7255205231
 20
70.3942619914
 30
0.0
 10
32.633301972
 20
68.5569142443
 30
0.0
 10
34.4275539479
 20
66.4721822457
 30
0.0
 10
36.0702946901
 20
64.1843200169
 30
0.0
 10
37.5265097105
 20
61.7421050296
 30
0.0
 10
38.7651347555
 20
59.1976167893
 30
0.0
 10
39.759772372
 20
56.6051485847
 30
0.0
 10
40.4891989714
 20
54.019663032
 30
0.0
 10
40.937892103
 20
51.4964379892
 30
0.0
 10
41.0469180839
 20
49.8346333609
 30
0.0
 10
41.0469180839
 20
49.0297854095
 30
0.0
  0
SPLINE
  5
317
100
AcDbEntity
  8
1
100
AcDbSpline
 62
7
  6
BYLAYER
 70
0
 71
3
 72
25
 73
21
 74
0
 42
0.0000001
 43
0.0000001
 44
0.0000000001
 40
0.0
 40
0.0
 40
0.0
 40
0.0
 40
0.0623834167
 40
0.1287223197
 40
0.1983147282
 40
0.270291273
 40
0.3436682841
 40
0.4173997393
 40
0.4904239378
 40
0.5617103371
 40
0.6303075204
 40
0.6953951438
 40
0.7563429146
 40
0.8127805236
 40
0.8646814972
 40
0.9124567995
 40
0.9351016069
 40
0.9571071723
 40
0.9786677518
 40
1.0
 40
1.0
 40
1.0
 40
1.0
 10
32.7147385033
 20
49.8529973244
 30
0.0
 10
32.7147385033
 20
50.3715763294
 30
0.0
 10
32.6444841503
 20
51.4423297929
 30
0.0
 10
32.3553938619
 20
53.0681205832
 30
0.0
 10
31.8853898825
 20
54.7340323283
 30
0.0
 10
31.2445241019
 20
56.4044363581
 30
0.0
 10
30.4464378468
 20
58.0439273036
 30
0.0
 10
29.5081553212
 20
59.6175211971
 30
0.0
 10
28.4496897989
 20
61.0916576448
 30
0.0
 10
27.2935884987
 20
62.4349195903
 30
0.0
 10
26.0643825483
 20
63.6187515611
 30
0.0
 10
24.7879281371
 20
64.6180570425
 30
0.0
 10
23.490772488
 20
65.4116685699
 30
0.0
 10
22.1991191841
 20
65.9824664429
 30
0.0
 10
20.9391590198
 20
66.3173532599
 30
0.0
 10
19.9172569946
 20
66.3923713517
 30
0.0
 10
19.1508197342
 20
66.3204384305
 30
0.0
 10
18.6111990098
 20
66.2053496385
 30
0.0
 10
18.1000594335
 20
66.0286622315
 30
0.0
 10
17.7794759791
 20
65.8699904119
 30
0.0
 10
17.6258993999
 20
65.7813326972
 30
0.0
  0
SPLINE
  5
318
100
AcDbEntity
  8
1
100
AcDbSpline
 62
7
  6
BYLAYER
 70
0
 71
3
 72
14
 73
10
 74
0
 42
0.0000001
 43
0.0000001
 44
0.0000000001
 40
0.0
 40
0.0
 40
0.0
 40
0.0
 40
0.107756441
 40
0.2181883469
 40
0.3328087304
 40
0.4528426443
 40
0.5791697228
 40
0.7123803121
 40
1.0
 40
1.0
 40
1.0
 40
1.0
 10
18.9196863633
 20
61.8977063163
 30
0.0
 10
18.7950680536
 20
61.8109003091
 30
0.0
 10
18.5564386871
 20
61.6145680333
 30
0.0
 10
18.2432830598
 20
61.2631243429
 30
0.0
 10
17.9744457888
 20
60.8559139478
 30
0.0
 10
17.7521997431
 20
60.3967763285
 30
0.0
 10
17.5779330675
 20
59.8897265114
 30
0.0
 10
17.407053745
 20
59.1365978774
 30
0.0
 10
17.3624061729
 20
58.5410020083
 30
0.0
 10
17.3624061729
 20
58.1356314927
 30
0.0
  0
SPLINE
  5
319
100
AcDbEntity
  8
1
100
AcDbSpline
 62
7
  6
BYLAYER
 70
0
 71
3
 72
15
 73
11
 74
0
 42
0.0000001
 43
0.0000001
 44
0.0000000001
 40
0.0
 40
0.0
 40
0.0
 40
0.0
 40
0.108013118
 40
0.2180619385
 40
0.3319998299
 40
0.4513622688
 40
0.5772727428
 40
0.7104913913
 40
0.851435749
 40
1.0
 40
1.0
 40
1.0
 40
1.0
 10
28.0179641465
 20
46.377807391
 30
0.0
 10
28.1737168191
 20
46.4677440155
 30
0.0
 10
28.4732001268
 20
46.6766839915
 30
0.0
 10
28.8688643552
 20
47.0661303486
 30
0.0
 10
29.2092114848
 20
47.5282987121
 30
0.0
 10
29.4909324098
 20
48.0580855903
 30
0.0
 10
29.7120108478
 20
48.6499939647
 30
0.0
 10
29.8706482887
 20
49.2984149674
 30
0.0
 10
29.9655541515
 20
49.9969931854
 30
0.0
 10
29.9855333074
 20
50.4793879825
 30
0.0
 10
29.9855333074
 20
50.7267642988
 30
0.0
  0
SPLINE
  5
31A
100
AcDbEntity
  8
1
100
AcDbSpline
 62
7
  6
BYLAYER
 70
0
 71
3
 72
14
 73
10
 74
0
 42
0.0000001
 43
0.0000001
 44
0.0000000001
 40
0.0
 40
0.0
 40
0.0
 40
0.0
 40
0.2876187417
 40
0.420829069
 40
0.5471560609
 40
0.6671900748
 40
0.7818107343
 40
0.8922430571
 40
1.0
 40
1.0
 40
1.0
 40
1.0
 10
23.3728388366
 20
47.7253145336
 30
0.0
 10
23.7238908189
 20
47.5226391623
 30
0.0
 10
24.2620012449
 20
47.2635203829
 30
0.0
 10
24.9996484768
 20
47.0349549344
 30
0.0
 10
25.5258851605
 20
46.9323560117
 30
0.0
 10
26.034619076
 20
46.8952616132
 30
0.0
 10
26.5216793397
 20
46.9244769761
 30
0.0
 10
26.9826047577
 20
47.0199534533
 30
0.0
 10
27.271941461
 20
47.1284427298
 30
0.0
 10
27.4094238945
 20
47.1929600582
 30
0.0
  0
SPLINE
  5
31B
100
AcDbEntity
  8
1
100
AcDbSpline
 62
7
  6
BYLAYER
 70
0
 71
3
 72
15
 73
11
 74
0
 42
0.0000001
 43
0.0000001
 44
0.0000000001
 40
0.0
 40
0.0
 40
0.0
 40
0.0
 40
0.148564251
 40
0.2895086087
 40
0.4227272572
 40
0.5486377312
 40
0.6680001701
 40
0.7819380615
 40
0.891986882
 40
1.0
 40
1.0
 40
1.0
 40
1.0
 10
30.1976644585
 20
50.849237545
 30
0.0
 10
30.1976644585
 20
50.6018612287
 30
0.0
 10
30.1776853027
 20
50.1194664316
 30
0.0
 10
30.0827794399
 20
49.4208882135
 30
0.0
 10
29.924141999
 20
48.7724672108
 30
0.0
 10
29.703063561
 20
48.1805588364
 30
0.0
 10
29.421342636
 20
47.6507719583
 30
0.0
 10
29.0809955064
 20
47.1886035947
 30
0.0
 10
28.685331278
 20
46.7991572377
 30
0.0
 10
28.3858479703
 20
46.5902172617
 30
0.0
 10
28.2300952977
 20
46.5002806372
 30
0.0
  0
SPLINE
  5
31C
100
AcDbEntity
  8
1
100
AcDbSpline
 62
7
  6
BYLAYER
 70
0
 71
3
 72
15
 73
11
 74
0
 42
0.0000001
 43
0.0000001
 44
0.0000000001
 40
0.0
 40
0.0
 40
0.0
 40
0.0
 40
0.114158703
 40
0.2373259923
 40
0.3669769309
 40
0.500001082
 40
0.6330250826
 40
0.7626755816
 40
0.8858421784
 40
1.0
 40
1.0
 40
1.0
 40
1.0
 10
17.3624061729
 20
58.1356314927
 30
0.0
 10
17.3624061729
 20
57.660501691
 30
0.0
 10
17.449421282
 20
56.6718239013
 30
0.0
 10
17.7963680754
 20
55.1802963535
 30
0.0
 10
18.3520880477
 20
53.6694953363
 30
0.0
 10
19.0958950539
 20
52.1962209199
 30
0.0
 10
19.9998901737
 20
50.815433758
 30
0.0
 10
21.030425354
 20
49.5787751193
 30
0.0
 10
22.1486532689
 20
48.5325593904
 30
0.0
 10
22.9613652081
 20
47.9628735695
 30
0.0
 10
23.3728388366
 20
47.7253145336
 30
0.0
  0
SPLINE
  5
31D
100
AcDbEntity
  8
1
100
AcDbSpline
 62
7
  6
BYLAYER
 70
0
 71
3
 72
25
 73
21
 74
0
 42
0.0000001
 43
0.0000001
 44
0.0000000001
 40
0.0
 40
0.0
 40
0.0
 40
0.0
 40
0.0213321798
 40
0.0428929111
 40
0.0648982431
 40
0.087543378
 40
0.1353186199
 40
0.1872194741
 40
0.2436569517
 40
0.3046046551
 40
0.3696923311
 40
0.4382896499
 40
0.5095761428
 40
0.5826003107
 40
0.6563317262
 40
0.729708384
 40
0.8016855617
 40
0.8712761355
 40
0.9376188262
 40
1.0
 40
1.0
 40
1.0
 40
1.0
 10
18.7301488415
 20
62.9547687888
 30
0.0
 10
18.8468592441
 20
63.0221611453
 30
0.0
 10
19.0905095306
 20
63.1427439306
 30
0.0
 10
19.478978017
 20
63.2770079804
 30
0.0
 10
19.8890845355
 20
63.3645101106
 30
0.0
 10
20.4715823915
 20
63.419132191
 30
0.0
 10
21.2482253526
 20
63.3621430726
 30
0.0
 10
22.2057944035
 20
63.1076241819
 30
0.0
 10
23.1874500173
 20
62.6738255559
 30
0.0
 10
24.1732891675
 20
62.0706840846
 30
0.0
 10
25.1433953513
 20
61.3112128784
 30
0.0
 10
26.0775906574
 20
60.4114975219
 30
0.0
 10
26.9562244683
 20
59.390615143
 30
0.0
 10
27.7606559578
 20
58.2702703799
 30
0.0
 10
28.4737440425
 20
57.0743394949
 30
0.0
 10
29.0802971313
 20
55.8283286959
 30
0.0
 10
29.5673381903
 20
54.5588272238
 30
0.0
 10
29.9245733601
 20
53.2927267575
 30
0.0
 10
30.1442579216
 20
52.0571236263
 30
0.0
 10
30.1976644585
 20
51.2433432033
 30
0.0
 10
30.1976644585
 20
50.849237545
 30
0.0
  0
SPLINE
  5
31E
100
AcDbEntity
  8
1
100
AcDbSpline
 62
7
  6
BYLAYER
 70
0
 71
3
 72
15
 73
11
 74
0
 42
0.0000001
 43
0.0000001
 44
0.0000000001
 40
0.0
 40
0.0
 40
0.0
 40
0.0
 40
0.1080129409
 40
0.2180616712
 40
0.3319996741
 40
0.4513602843
 40
0.5772771589
 40
0.7104921156
 40
0.8514207612
 40
1.0
 40
1.0
 40
1.0
 40
1.0
 10
30.1258344781
 20
44.1306808147
 30
0.0
 10
30.3307849018
 20
44.2489959659
 30
0.0
 10
30.724801399
 20
44.5239754051
 30
0.0
 10
31.2454694839
 20
45.0363424193
 30
0.0
 10
31.6932368885
 20
45.6445011943
 30
0.0
 10
32.0639719895
 20
46.3415705076
 30
0.0
 10
32.3548380089
 20
47.1204141193
 30
0.0
 10
32.5635576172
 20
47.9735706608
 30
0.0
 10
32.6884772565
 20
48.8927384126
 30
0.0
 10
32.7147385033
 20
49.5274691591
 30
0.0
 10
32.7147385033
 20
49.8529973244
 30
0.0
  0
SPLINE
  5
31F
100
AcDbEntity
  8
1
100
AcDbSpline
 62
7
  6
BYLAYER
 70
0
 71
3
 72
25
 73
21
 74
0
 42
0.0000001
 43
0.0000001
 44
0.0000000001
 40
0.0
 40
0.0
 40
0.0
 40
0.0
 40
0.0213322482
 40
0.0428928277
 40
0.0648983931
 40
0.0875432005
 40
0.1353185028
 40
0.1872194764
 40
0.2436570854
 40
0.3046048562
 40
0.3696924796
 40
0.4382896629
 40
0.5095760622
 40
0.5826002607
 40
0.6563317159
 40
0.729708727
 40
0.8016852718
 40
0.8712776803
 40
0.9376165833
 40
1.0
 40
1.0
 40
1.0
 40
1.0
 10
17.9151303514
 20
65.9483192681
 30
0.0
 10
18.0687069306
 20
66.0369769828
 30
0.0
 10
18.3892903851
 20
66.1956488024
 30
0.0
 10
18.9004299613
 20
66.3723362095
 30
0.0
 10
19.4400506857
 20
66.4874250015
 30
0.0
 10
20.2064879461
 20
66.5593579227
 30
0.0
 10
21.2283899713
 20
66.4843398308
 30
0.0
 10
22.4883501357
 20
66.1494530139
 30
0.0
 10
23.7800034395
 20
65.5786551408
 30
0.0
 10
25.0771590886
 20
64.7850436135
 30
0.0
 10
26.3536134999
 20
63.785738132
 30
0.0
 10
27.5828194503
 20
62.6019061613
 30
0.0
 10
28.7389207504
 20
61.2586442157
 30
0.0
 10
29.7973862727
 20
59.7845077681
 30
0.0
 10
30.7356687984
 20
58.2109138746
 30
0.0
 10
31.5337550534
 20
56.5714229291
 30
0.0
 10
32.1746208341
 20
54.9010188993
 30
0.0
 10
32.6446248134
 20
53.2351071541
 30
0.0
 10
32.9337151018
 20
51.6093163639
 30
0.0
 10
33.0039694548
 20
50.5385629004
 30
0.0
 10
33.0039694548
 20
50.0199838954
 30
0.0
  0
SPLINE
  5
320
100
AcDbEntity
  8
1
100
AcDbSpline
 62
7
  6
BYLAYER
 70
0
 71
3
 72
25
 73
21
 74
0
 42
0.0000001
 43
0.0000001
 44
0.0000000001
 40
0.0
 40
0.0
 40
0.0
 40
0.0
 40
0.0213321927
 40
0.0428928946
 40
0.0648983036
 40
0.0875433305
 40
0.1353186254
 40
0.1872195872
 40
0.2436571799
 40
0.3046049308
 40
0.3696925322
 40
0.4382896941
 40
0.5095760724
 40
0.5826002604
 40
0.6563316887
 40
0.7297087497
 40
0.8016851308
 40
0.8712779901
 40
0.9376159434
 40
1.0
 40
1.0
 40
1.0
 40
1.0
 10
32.1350253233
 20
41.8265931177
 30
0.0
 10
31.9445958203
 20
41.7166493043
 30
0.0
 10
31.547078312
 20
41.5198774431
 30
0.0
 10
30.9132525032
 20
41.3008287172
 30
0.0
 10
30.2441315072
 20
41.1580713822
 30
0.0
 10
29.2937417665
 20
41.0689265854
 30
0.0
 10
28.0265851016
 20
41.1619220134
 30
0.0
 10
26.4642337774
 20
41.5771914226
 30
0.0
 10
24.8625847371
 20
42.2849775016
 30
0.0
 10
23.2541122614
 20
43.2690561132
 30
0.0
 10
21.6713093726
 20
44.5081938625
 30
0.0
 10
20.1470944873
 20
45.9761447336
 30
0.0
 10
18.7135289532
 20
47.6417885277
 30
0.0
 10
17.4010323537
 20
49.4697170211
 30
0.0
 10
16.2375604983
 20
51.4209724829
 30
0.0
 10
15.2479367594
 20
53.4539406566
 30
0.0
 10
14.453255822
 20
55.5252425248
 30
0.0
 10
13.870462192
 20
57.5909687032
 30
0.0
 10
13.5119781988
 20
59.6069481988
 30
0.0
 10
13.4248675693
 20
60.9346797651
 30
0.0
 10
13.4248675693
 20
61.5777242443
 30
0.0
  0
SPLINE
  5
321
100
AcDbEntity
  8
1
100
AcDbSpline
 62
7
  6
BYLAYER
 70
0
 71
3
 72
15
 73
11
 74
0
 42
0.0000001
 43
0.0000001
 44
0.0000000001
 40
0.0
 40
0.0
 40
0.0
 40
0.0
 40
0.1485792388
 40
0.2895078844
 40
0.4227228411
 40
0.5486397157
 40
0.6680003259
 40
0.7819383288
 40
0.8919870591
 40
1.0
 40
1.0
 40
1.0
 40
1.0
 10
33.0039694548
 20
50.0199838954
 30
0.0
 10
33.0039694548
 20
49.69445573
 30
0.0
 10
32.9777082081
 20
49.0597249836
 30
0.0
 10
32.8527885687
 20
48.1405572318
 30
0.0
 10
32.6440689605
 20
47.2874006903
 30
0.0
 10
32.3532029411
 20
46.5085570786
 30
0.0
 10
31.9824678401
 20
45.8114877653
 30
0.0
 10
31.5347004354
 20
45.2033289903
 30
0.0
 10
31.0140323505
 20
44.6909619761
 30
0.0
 10
30.6200158533
 20
44.4159825369
 30
0.0
 10
30.4150654296
 20
44.2976673857
 30
0.0
  0
SPLINE
  5
322
100
AcDbEntity
  8
1
100
AcDbSpline
 62
7
  6
BYLAYER
 70
0
 71
3
 72
15
 73
11
 74
0
 42
0.0000001
 43
0.0000001
 44
0.0000000001
 40
0.0
 40
0.0
 40
0.0
 40
0.0
 40
0.107767572
 40
0.2180632192
 40
0.3324836013
 40
0.4523264349
 40
0.5785383091
 40
0.7117315505
 40
0.8522444539
 40
1.0
 40
1.0
 40
1.0
 40
1.0
 10
16.6492020491
 20
68.6695186357
 30
0.0
 10
16.4152152211
 20
68.5138745167
 30
0.0
 10
15.9667743752
 20
68.1595402539
 30
0.0
 10
15.3772132693
 20
67.5194383664
 30
0.0
 10
14.8709658155
 20
66.7734107209
 30
0.0
 10
14.4522164021
 20
65.9289209077
 30
0.0
 10
14.1238948816
 20
64.9936881004
 30
0.0
 10
13.8883868843
 20
63.9758088278
 30
0.0
 10
13.7474273675
 20
62.8842818613
 30
0.0
 10
13.717717554
 20
62.1321014074
 30
0.0
 10
13.717717554
 20
61.7468002525
 30
0.0
  0
SPLINE
  5
323
100
AcDbEntity
  8
1
100
AcDbSpline
 62
7
  6
BYLAYER
 70
0
 71
3
 72
25
 73
21
 74
0
 42
0.0000001
 43
0.0000001
 44
0.0000000001
 40
0.0
 40
0.0
 40
0.0
 40
0.0
 40
0.0620289523
 40
0.1279386062
 40
0.197059267
 40
0.2685573834
 40
0.3414906344
 40
0.4148538796
 40
0.4876238619
 40
0.5588024995
 40
0.627461495
 40
0.6927901626
 40
0.7541493312
 40
0.8111347648
 40
0.8636531664
 40
0.9120088764
 40
0.9348830123
 40
0.9570523136
 40
0.978691577
 40
1.0
 40
1.0
 40
1.0
 40
1.0
 10
13.717717554
 20
61.7468002525
 30
0.0
 10
13.717717554
 20
61.1143653357
 30
0.0
 10
13.801959636
 20
59.809075861
 30
0.0
 10
14.149149037
 20
57.8268097232
 30
0.0
 10
14.7139454271
 20
55.7949741748
 30
0.0
 10
15.4846722393
 20
53.7556606682
 30
0.0
 10
16.445416021
 20
51.7507452654
 30
0.0
 10
17.5763344484
 20
49.8216693148
 30
0.0
 10
18.8540528605
 20
48.0082906791
 30
0.0
 10
20.2521973495
 20
46.3480579302
 30
0.0
 10
21.7420026511
 20
44.8751784453
 30
0.0
 10
23.2930548144
 20
43.6199167529
 30
0.0
 10
24.8739993354
 20
42.6080310458
 30
0.0
 10
26.4537225839
 20
41.8605424593
 30
0.0
 10
28.0010217955
 20
41.3937436253
 30
0.0
 10
29.2629702198
 20
41.2466838768
 30
0.0
 10
30.216055824
 20
41.2875597271
 30
0.0
 10
30.8893896295
 20
41.3922962596
 30
0.0
 10
31.5302978291
 20
41.5713279996
 30
0.0
 10
31.9356374396
 20
41.7405021836
 30
0.0
 10
32.1304606311
 20
41.8366494374
 30
0.0
  0
SPLINE
  5
324
100
AcDbEntity
  8
1
100
AcDbSpline
 62
7
  6
BYLAYER
 70
0
 71
3
 72
15
 73
11
 74
0
 42
0.0000001
 43
0.0000001
 44
0.0000000001
 40
0.0
 40
0.0
 40
0.0
 40
0.0
 40
0.1485793867
 40
0.2895084936
 40
0.4227236469
 40
0.5486404537
 40
0.6680006471
 40
0.7819380059
 40
0.8919867578
 40
1.0
 40
1.0
 40
1.0
 40
1.0
 10
57.8390767701
 20
65.1356114795
 30
0.0
 10
57.8390767701
 20
64.7646316062
 30
0.0
 10
57.8091482831
 20
64.0412761117
 30
0.0
 10
57.6667866393
 20
62.9937690869
 30
0.0
 10
57.4289236849
 20
62.0214906395
 30
0.0
 10
57.0974439871
 20
61.1339038338
 30
0.0
 10
56.6749473181
 20
60.3395096804
 30
0.0
 10
56.1646614578
 20
59.6464406041
 30
0.0
 10
55.571295602
 20
59.0625368204
 30
0.0
 10
55.1222647209
 20
58.7491630649
 30
0.0
 10
54.8886976069
 20
58.6143282729
 30
0.0
  0
SPLINE
  5
325
100
AcDbEntity
  8
1
100
AcDbSpline
 62
7
  6
BYLAYER
 70
0
 71
3
 72
15
 73
11
 74
0
 42
0.0000001
 43
0.0000001
 44
0.0000000001
 40
0.0
 40
0.0
 40
0.0
 40
0.0
 40
0.1221281848
 40
0.2472951097
 40
0.3744286618
 40
0.5024018706
 40
0.6300642824
 40
0.7562728397
 40
0.8799290468
 40
1.0
 40
1.0
 40
1.0
 40
1.0
 10
51.7195957052
 20
79.3475707919
 30
0.0
 10
52.0486940531
 20
79.0181336314
 30
0.0
 10
52.6895716178
 20
78.3251344927
 30
0.0
 10
53.5822322773
 20
77.2095958294
 30
0.0
 10
54.40894241
 20
76.0170762849
 30
0.0
 10
55.1585683288
 20
74.7636048502
 30
0.0
 10
55.8210785293
 20
73.4659374293
 30
0.0
 10
56.3876419509
 20
72.1414181294
 30
0.0
 10
56.8506266317
 20
70.8078644205
 30
0.0
 10
57.0903298345
 20
69.9089083047
 30
0.0
 10
57.1904435457
 20
69.4621776891
 30
0.0
  0
SPLINE
  5
326
100
AcDbEntity
  8
1
100
AcDbSpline
 62
7
  6
BYLAYER
 70
0
 71
3
 72
25
 73
21
 74
0
 42
0.0000001
 43
0.0000001
 44
0.0000000001
 40
0.0
 40
0.0
 40
0.0
 40
0.0
 40
0.0213171439
 40
0.0428442325
 40
0.0647814588
 40
0.0873096225
 40
0.1346779598
 40
0.1859200093
 40
0.2414775893
 40
0.301393614
 40
0.3653915033
 40
0.4329486894
 40
0.503358668
 40
0.575783309
 40
0.6492983378
 40
0.7229351726
 40
0.7957194829
 40
0.8667137809
 40
0.9350501127
 40
1.0
 40
1.0
 40
1.0
 40
1.0
 10
40.6434799639
 20
83.2879162064
 30
0.0
 10
40.8112847725
 20
83.3847874058
 30
0.0
 10
41.1608702577
 20
83.5589653814
 30
0.0
 10
41.7171209516
 20
83.7561320347
 30
0.0
 10
42.30349549
 20
83.8888512799
 30
0.0
 10
43.1346486202
 20
83.9807436446
 30
0.0
 10
44.2422770337
 20
83.9235063988
 30
0.0
 10
45.6113496155
 20
83.5967078965
 30
0.0
 10
47.0184881145
 20
83.0205808094
 30
0.0
 10
48.4373551605
 20
82.2075249242
 30
0.0
 10
49.8415881084
 20
81.1738124226
 30
0.0
 10
51.2043604345
 20
79.9396421162
 30
0.0
 10
52.4993375087
 20
78.5290999139
 30
0.0
 10
53.701261877
 20
76.9697718694
 30
0.0
 10
54.7865908231
 20
75.292233165
 30
0.0
 10
55.7340054093
 20
73.5294145588
 30
0.0
 10
56.5249243446
 20
71.7159585899
 30
0.0
 10
57.1437748523
 20
69.8873465099
 30
0.0
 10
57.5785140136
 20
68.0795654038
 30
0.0
 10
57.7445512493
 20
66.8768219046
 30
0.0
 10
57.791783675
 20
66.2883626203
 30
0.0
  0
SPLINE
  5
327
100
AcDbEntity
  8
1
100
AcDbSpline
 62
7
  6
BYLAYER
 70
0
 71
3
 72
9
 73
5
 74
0
 42
0.0000001
 43
0.0000001
 44
0.0000000001
 40
0.0
 40
0.0
 40
0.0
 40
0.0
 40
0.2544123387
 40
1.0
 40
1.0
 40
1.0
 40
1.0
 10
57.791783675
 20
66.2883626203
 30
0.0
 10
57.7996127675
 20
66.1908215322
 30
0.0
 10
57.8267395285
 20
65.8071442721
 30
0.0
 10
57.8390767701
 20
65.4223873458
 30
0.0
 10
57.8390767701
 20
65.1356114795
 30
0.0
  0
SPLINE
  5
328
100
AcDbEntity
  8
1
100
AcDbSpline
 62
7
  6
BYLAYER
 70
0
 71
3
 72
9
 73
5
 74
0
 42
0.0000001
 43
0.0000001
 44
0.0000000001
 40
0.0
 40
0.0
 40
0.0
 40
0.0
 40
0.496935701
 40
1.0
 40
1.0
 40
1.0
 40
1.0
 10
26.9451123461
 20
74.5183024305
 30
0.0
 10
26.7669140955
 20
74.4154312325
 30
0.0
 10
26.422198815
 20
74.1834126304
 30
0.0
 10
26.1122097722
 20
73.9068444141
 30
0.0
 10
25.9660632032
 20
73.7584227586
 30
0.0
  0
SPLINE
  5
329
100
AcDbEntity
  8
1
100
AcDbSpline
 62
7
  6
BYLAYER
 70
0
 71
3
 72
11
 73
7
 74
0
 42
0.0000001
 43
0.0000001
 44
0.0000000001
 40
0.0
 40
0.0
 40
0.0
 40
0.0
 40
0.2437463365
 40
0.4900729075
 40
0.7414226913
 40
1.0
 40
1.0
 40
1.0
 40
1.0
 10
37.1082354682
 20
81.2468601641
 30
0.0
 10
36.9342559955
 20
81.1464241306
 30
0.0
 10
36.596958938
 20
80.9219185283
 30
0.0
 10
36.1337175541
 20
80.5211101821
 30
0.0
 10
35.7145114504
 20
80.0579206551
 30
0.0
 10
35.4699153976
 20
79.7148940882
 30
0.0
 10
35.3556212365
 20
79.5350232069
 30
0.0
  0
SPLINE
  5
32A
100
AcDbEntity
  8
1
100
AcDbSpline
 62
7
  6
BYLAYER
 70
0
 71
3
 72
11
 73
7
 74
0
 42
0.0000001
 43
0.0000001
 44
0.0000000001
 40
0.0
 40
0.0
 40
0.0
 40
0.0
 40
0.258481087
 40
0.5098166676
 40
0.756182498
 40
1.0
 40
1.0
 40
1.0
 40
1.0
 10
49.010422112
 20
55.912073081
 30
0.0
 10
49.2218825049
 20
55.921600313
 30
0.0
 10
49.6383772542
 20
55.9626879677
 30
0.0
 10
50.2449138842
 20
56.0943618175
 30
0.0
 10
50.819788361
 20
56.2945382233
 30
0.0
 10
51.1805372626
 20
56.4734379426
 30
0.0
 10
51.3534583947
 20
56.5732630102
 30
0.0
  0
SPLINE
  5
32B
100
AcDbEntity
  8
1
100
AcDbSpline
 62
7
  6
BYLAYER
 70
0
 71
3
 72
15
 73
11
 74
0
 42
0.0000001
 43
0.0000001
 44
0.0000000001
 40
0.0
 40
0.0
 40
0.0
 40
0.0
 40
0.1080129409
 40
0.2180616712
 40
0.3319996741
 40
0.4513602843
 40
0.5772771589
 40
0.7104921156
 40
0.8514207612
 40
1.0
 40
1.0
 40
1.0
 40
1.0
 10
51.3534583947
 20
56.5732630102
 30
0.0
 10
51.5870247658
 20
56.7080977668
 30
0.0
 10
52.036055325
 20
57.0214708673
 30
0.0
 10
52.6294210421
 20
57.6053764869
 30
0.0
 10
53.1397074123
 20
58.2984486726
 30
0.0
 10
53.5622059394
 20
59.0928454195
 30
0.0
 10
53.8936837641
 20
59.9804340993
 30
0.0
 10
54.1315455874
 20
60.9527115591
 30
0.0
 10
54.2739069756
 20
62.000216962
 30
0.0
 10
54.3038349162
 20
62.7235711975
 30
0.0
 10
54.3038349162
 20
63.094550827
 30
0.0
  0
SPLINE
  5
32C
100
AcDbEntity
  8
1
100
AcDbSpline
 62
7
  6
BYLAYER
 70
0
 71
3
 72
25
 73
21
 74
0
 42
0.0000001
 43
0.0000001
 44
0.0000000001
 40
0.0
 40
0.0
 40
0.0
 40
0.0
 40
0.0623834167
 40
0.1287223197
 40
0.1983147282
 40
0.270291273
 40
0.3436682841
 40
0.4173997393
 40
0.4904239378
 40
0.5617103371
 40
0.6303075204
 40
0.6953951438
 40
0.7563429146
 40
0.8127805236
 40
0.8646814972
 40
0.9124567995
 40
0.9351016069
 40
0.9571071723
 40
0.9786677518
 40
1.0
 40
1.0
 40
1.0
 40
1.0
 10
54.3038349162
 20
63.094550827
 30
0.0
 10
54.3038349162
 20
63.6855357789
 30
0.0
 10
54.2237713868
 20
64.9057918596
 30
0.0
 10
53.8943172273
 20
66.7585816616
 30
0.0
 10
53.3586895284
 20
68.6570942568
 30
0.0
 10
52.6283436623
 20
70.5607263664
 30
0.0
 10
51.7188256091
 20
72.4291291907
 30
0.0
 10
50.6495365558
 20
74.2224341694
 30
0.0
 10
49.4432841048
 20
75.9023950803
 30
0.0
 10
48.1257636022
 20
77.4332083001
 30
0.0
 10
46.7249313038
 20
78.7823313335
 30
0.0
 10
45.270253537
 20
79.9211635967
 30
0.0
 10
43.791984148
 20
80.825582144
 30
0.0
 10
42.3199853622
 20
81.4760769583
 30
0.0
 10
40.8841048311
 20
81.8577219295
 30
0.0
 10
39.7195210098
 20
81.9432143288
 30
0.0
 10
38.8460709027
 20
81.8612378632
 30
0.0
 10
38.2311063075
 20
81.7300799421
 30
0.0
 10
37.6485995053
 20
81.5287227762
 30
0.0
 10
37.2832549858
 20
81.3478966016
 30
0.0
 10
37.1082354682
 20
81.2468601641
 30
0.0
  0
SPLINE
  5
32D
100
AcDbEntity
  8
1
100
AcDbSpline
 62
7
  6
BYLAYER
 70
0
 71
3
 72
11
 73
7
 74
0
 42
0.0000001
 43
0.0000001
 44
0.0000000001
 40
0.0
 40
0.0
 40
0.0
 40
0.0
 40
0.267174808
 40
0.5201622641
 40
0.76281493
 40
1.0
 40
1.0
 40
1.0
 40
1.0
 10
30.4209754909
 20
75.0713433392
 30
0.0
 10
30.1055092474
 20
75.1204814062
 30
0.0
 10
29.4836758947
 20
75.1748450449
 30
0.0
 10
28.5702659324
 20
75.1113597515
 30
0.0
 10
27.7157634319
 20
74.8999563113
 30
0.0
 10
27.1905793912
 20
74.6600069025
 30
0.0
 10
26.9451123461
 20
74.5183024305
 30
0.0
  0
SPLINE
  5
32E
100
AcDbEntity
  8
1
100
AcDbSpline
 62
7
  6
BYLAYER
 70
0
 71
3
 72
25
 73
21
 74
0
 42
0.0000001
 43
0.0000001
 44
0.0000000001
 40
0.0
 40
0.0
 40
0.0
 40
0.0
 40
0.0213322482
 40
0.0428928277
 40
0.0648983931
 40
0.0875432005
 40
0.1353185028
 40
0.1872194764
 40
0.2436570854
 40
0.3046048562
 40
0.3696924796
 40
0.4382896629
 40
0.5095760622
 40
0.5826002607
 40
0.6563317159
 40
0.729708727
 40
0.8016852718
 40
0.8712776803
 40
0.9376165833
 40
1.0
 40
1.0
 40
1.0
 40
1.0
 10
36.9507000168
 20
80.2950024046
 30
0.0
 10
37.1165593992
 20
80.3907508181
 30
0.0
 10
37.4627825931
 20
80.5621129499
 30
0.0
 10
38.0148022753
 20
80.7529315263
 30
0.0
 10
38.5975809811
 20
80.8772249313
 30
0.0
 10
39.4253166379
 20
80.9549109297
 30
0.0
 10
40.5289487129
 20
80.8738930138
 30
0.0
 10
41.889678427
 20
80.5122224978
 30
0.0
 10
43.2846360459
 20
79.8957731461
 30
0.0
 10
44.6855360786
 20
79.0386898689
 30
0.0
 10
46.0640792225
 20
77.9594615723
 30
0.0
 10
47.391595051
 20
76.68094866
 30
0.0
 10
48.640159439
 20
75.2302548248
 30
0.0
 10
49.7832792997
 20
73.6382193591
 30
0.0
 10
50.7966041245
 20
71.9387720041
 30
0.0
 10
51.6585200107
 20
70.1681572588
 30
0.0
 10
52.3506411866
 20
68.3641570514
 30
0.0
 10
52.8582353141
 20
66.5650084141
 30
0.0
 10
53.1704465702
 20
64.8091895401
 30
0.0
 10
53.2463197513
 20
63.6527989688
 30
0.0
 10
53.2463197513
 20
63.0927448646
 30
0.0
  0
SPLINE
  5
32F
100
AcDbEntity
  8
1
100
AcDbSpline
 62
7
  6
BYLAYER
 70
0
 71
3
 72
15
 73
11
 74
0
 42
0.0000001
 43
0.0000001
 44
0.0000000001
 40
0.0
 40
0.0
 40
0.0
 40
0.0
 40
0.1485792388
 40
0.2895078844
 40
0.4227228411
 40
0.5486397157
 40
0.6680003259
 40
0.7819383288
 40
0.8919870591
 40
1.0
 40
1.0
 40
1.0
 40
1.0
 10
53.2463197513
 20
63.0927448646
 30
0.0
 10
53.2463197513
 20
62.7411814899
 30
0.0
 10
53.217958173
 20
62.0556860182
 30
0.0
 10
53.0830476656
 20
61.0630047356
 30
0.0
 10
52.857635005
 20
60.1416141316
 30
0.0
 10
52.5435059979
 20
59.3004798838
 30
0.0
 10
52.1431201109
 20
58.5476601089
 30
0.0
 10
51.6595410028
 20
57.8908617914
 30
0.0
 10
51.0972307375
 20
57.3375165028
 30
0.0
 10
50.6717014464
 20
57.0405446587
 30
0.0
 10
50.4503594236
 20
56.9127668555
 30
0.0
  0
ENDSEC
  0
SECTION
  2
OBJECTS
  0
DICTIONARY
  5
C
100
AcDbDictionary
280
0
281
1
  3
ACAD_GROUP
350
D
  3
ACAD_MLINESTYLE
350
17
  3
ACAD_LAYOUT
350
1A
  3
ACAD_PLOTSETTINGS
350
19
  3
ACAD_PLOTSTYLENAME
350
E
  0
DICTIONARY
  5
D
102
{ACAD_REACTORS
330
C
102
}
100
AcDbDictionary
280
0
281
1
  0
ACDBDICTIONARYWDFLT
  5
E
102
{ACAD_REACTORS
330
C
102
}
100
AcDbDictionary
281
1
  3
Normal
350
F
100
AcDbDictionaryWithDefault
340
F
  0
DICTIONARY
  5
17
102
{ACAD_REACTORS
330
C
102
}
100
AcDbDictionary
280
0
281
1
  3
Standard
350
18
  0
DICTIONARY
  5
19
102
{ACAD_REACTORS
330
C
102
}
100
AcDbDictionary
281
1
  0
DICTIONARY
  5
1A
102
{ACAD_REACTORS
330
C
102
}
100
AcDbDictionary
281
1
  3
Model
350
330
  3
Layout1
350
331
  0
ACDBPLACEHOLDER
  5
F
102
{ACAD_REACTORS
330
E
102
}
  0
MLINESTYLE
  5
18
102
{ACAD_REACTORS
330
17
102
}
100
AcDbMlineStyle
  2
STANDARD
 70
0
  3

 62
256
 51
90.0
 52
90.0
 71
2
 49
0.5
 62
256
  6
BYLAYER
 49
-0.5
 62
256
  6
BYLAYER
  0
LAYOUT
  5
330
102
{ACAD_REACTORS
330
1A
102
}
100
AcDbPlotSettings
  1

  2
none_device
  4

  6

 40
0.0
 41
0.0
 42
0.0
 43
0.0
 44
210.0
 45
297.0
 46
0.0
 47
0.0
 48
0.0
 49
0.0
140
0.0
141
0.0
142
1.0
143
1.0
 70
1024
 72
1
 73
0
 74
0
  7

 75
0
147
1.0
148
0.0
149
0.0
100
AcDbLayout
  1
Model
 70
0
 71
0
 10
0.0
 20
0.0
 11
210.0
 21
297.0
 12
0.0
 22
0.0
 32
0.0
 14
0.0
 24
0.0
 34
0.0
 15
0.0
 25
0.0
 35
0.0
146
0.0
 13
0.0
 23
0.0
 33
0.0
 16
1.0
 26
0.0
 36
0.0
 17
0.0
 27
1.0
 37
0.0
 76
0
330
212
345
0
346
0
  0
LAYOUT
  5
331
102
{ACAD_REACTORS
330
1A
102
}
100
AcDbPlotSettings
  1

  2
none_device
  4

  6

 40
0.0
 41
0.0
 42
0.0
 43
0.0
 44
210.0
 45
297.0
 46
0.0
 47
0.0
 48
0.0
 49
0.0
140
0.0
141
0.0
142
1.0
143
1.0
 70
0
 72
1
 73
0
 74
0
  7

 75
0
147
1.0
148
0.0
149
0.0
100
AcDbLayout
  1
Layout1
 70
0
 71
1
 10
0.0
 20
0.0
 11
210.0
 21
297.0
 12
0.0
 22
0.0
 32
0.0
 14
0.0
 24
0.0
 34
0.0
 15
0.0
 25
0.0
 35
0.0
146
0.0
 13
0.0
 23
0.0
 33
0.0
 16
1.0
 26
0.0
 36
0.0
 17
0.0
 27
1.0
 37
0.0
 76
0
330
213
345
0
346
0
  0
ENDSEC
  0
EOF
