  0
SECTION
  2
HEADER
  9
$ACADVER
  1
AC1009
  9
$DWGCODEPAGE
  3
ansi_1250
  9
$INSBASE
 10
0.0
 20
0.0
 30
0.0
  9
$EXTMIN
 10
-0.295
 20
-0.797
 30
0.0
  9
$EXTMAX
 10
1.125
 20
0.797
 30
0.0
  9
$LIMMIN
 10
0.0
 20
0.0
  9
$LIMMAX
 10
0.0
 20
0.0
  9
$ORTHOMODE
 70
     0
  9
$REGENMODE
 70
     1
  9
$FILLMODE
 70
     1
  9
$QTEXTMODE
 70
     0
  9
$MIRRTEXT
 70
     1
  9
$DRAGMODE
 70
     2
  9
$LTSCALE
 40
1.0
  9
$OSMODE
 70
     0
  9
$ATTMODE
 70
     1
  9
$TEXTSIZE
 40
0.2
  9
$TRACEWID
 40
0.05
  9
$TEXTSTYLE
  7
STANDARD
  9
$CLAYER
  8
0
  9
$CELTYPE
  6
CONTINUOUS
  9
$CECOLOR
 62
   256
  9
$DIMSCALE
 40
1.0
  9
$DIMASZ
 40
0.18
  9
$DIMEXO
 40
0.0625
  9
$DIMDLI
 40
0.38
  9
$DIMRND
 40
0.0
  9
$DIMDLE
 40
0.0
  9
$DIMEXE
 40
0.18
  9
$DIMTP
 40
0.0
  9
$DIMTM
 40
0.0
  9
$DIMTXT
 40
0.18
  9
$DIMCEN
 40
0.09
  9
$DIMTSZ
 40
0.0
  9
$DIMTOL
 70
     0
  9
$DIMLIM
 70
     0
  9
$DIMTIH
 70
     1
  9
$DIMTOH
 70
     1
  9
$DIMSE1
 70
     0
  9
$DIMSE2
 70
     0
  9
$DIMTAD
 70
     0
  9
$DIMZIN
 70
     0
  9
$DIMBLK
  1

  9
$DIMASO
 70
     1
  9
$DIMSHO
 70
     1
  9
$DIMPOST
  1

  9
$DIMAPOST
  1

  9
$DIMALT
 70
     0
  9
$DIMALTD
 70
     2
  9
$DIMALTF
 40
25.4
  9
$DIMLFAC
 40
1.0
  9
$DIMTOFL
 70
     0
  9
$DIMTVP
 40
0.0
  9
$DIMTIX
 70
     0
  9
$DIMSOXD
 70
     0
  9
$DIMSAH
 70
     0
  9
$DIMBLK1
  1

  9
$DIMBLK2
  1

  9
$DIMSTYLE
  2
STANDARD
  9
$DIMCLRD
 70
     0
  9
$DIMCLRE
 70
     0
  9
$DIMCLRT
 70
     0
  9
$DIMTFAC
 40
1.0
  9
$DIMGAP
 40
0.09
  9
$LUNITS
 70
     2
  9
$LUPREC
 70
     4
  9
$AXISMODE
 70
     0
  9
$AXISUNIT
 10
0.0
 20
0.0
  9
$SKETCHINC
 40
0.1
  9
$FILLETRAD
 40
0.0
  9
$AUNITS
 70
     0
  9
$AUPREC
 70
     0
  9
$MENU
  1
acad
  9
$ELEVATION
 40
0.0
  9
$PELEVATION
 40
0.0
  9
$THICKNESS
 40
0.0
  9
$LIMCHECK
 70
     0
  9
$BLIPMODE
 70
     1
  9
$CHAMFERA
 40
0.0
  9
$CHAMFERB
 40
0.0
  9
$SKPOLY
 70
     0
  9
$TDCREATE
 40
0.000000000
  9
$TDUPDATE
 40
0.000000000
  9
$TDINDWG
 40
0.0000000000
  9
$TDUSRTIMER
 40
0.0000000000
  9
$USRTIMER
 70
     1
  9
$ANGBASE
 50
0.0
  9
$ANGDIR
 70
     0
  9
$PDMODE
 70
     0
  9
$PDSIZE
 40
0.0
  9
$PLINEWID
 40
0.0
  9
$COORDS
 70
     0
  9
$SPLFRAME
 70
     0
  9
$SPLINETYPE
 70
     6
  9
$SPLINESEGS
 70
     8
  9
$ATTDIA
 70
     0
  9
$ATTREQ
 70
     1
  9
$HANDLING
 70
     1
  9
$HANDSEED
  5
1AD
  9
$SURFTAB1
 70
     6
  9
$SURFTAB2
 70
     6
  9
$SURFTYPE
 70
     6
  9
$SURFU
 70
     6
  9
$SURFV
 70
     6
  9
$UCSNAME
  2

  9
$UCSORG
 10
0.0
 20
0.0
 30
0.0
  9
$UCSXDIR
 10
1.0
 20
0.0
 30
0.0
  9
$UCSYDIR
 10
0.0
 20
1.0
 30
0.0
  9
$PUCSNAME
  2

  9
$PUCSORG
 10
0.0
 20
0.0
 30
0.0
  9
$PUCSXDIR
 10
1.0
 20
0.0
 30
0.0
  9
$PUCSYDIR
 10
0.0
 20
1.0
 30
0.0
  9
$USERI1
 70
     0
  9
$USERI2
 70
     0
  9
$USERI3
 70
     0
  9
$USERI4
 70
     0
  9
$USERI5
 70
     0
  9
$USERR1
 40
0.0
  9
$USERR2
 40
0.0
  9
$USERR3
 40
0.0
  9
$USERR4
 40
0.0
  9
$USERR5
 40
0.0
  9
$WORLDVIEW
 70
     1
  9
$SHADEDGE
 70
     3
  9
$SHADEDIF
 70
    70
  9
$TILEMODE
 70
     1
  9
$MAXACTVP
 70
    16
  9
$PINSBASE
 10
0.0
 20
0.0
 30
0.0
  9
$PLIMCHECK
 70
     0
  9
$PEXTMIN
 10
1.000000E+20
 20
1.000000E+20
 30
1.000000E+20
  9
$PEXTMAX
 10
-1.000000E+20
 20
-1.000000E+20
 30
-1.000000E+20
  9
$PLIMMIN
 10
0.0
 20
0.0
  9
$PLIMMAX
 10
12.0
 20
9.0
  9
$UNITMODE
 70
     0
  9
$VISRETAIN
 70
     0
  9
$PLINEGEN
 70
     1
  9
$PSLTSCALE
 70
     0
  9
$TREEDEPTH
 70
  3020
  0
ENDSEC
  0
SECTION
  2
TABLES
  0
TABLE
  2
VPORT
 70
     1
  0
VPORT
  2
*ACTIVE
 70
     0
 10
0.0
 20
0.0
 11
1.0
 21
1.0
 12
6.591288
 22
4.579184
 13
0.0
 23
0.0
 14
1.0
 24
1.0
 15
0.0
 25
0.0
 16
0.0
 26
0.0
 36
1.0
 17
0.0
 27
0.0
 37
0.0
 40
9.158369
 41
0.688564
 42
50.0
 43
0.0
 44
0.0
 50
0.0
 51
0.0
 71
     0
 72
   100
 73
     1
 74
     1
 75
     0
 76
     0
 77
     0
 78
     0
  0
ENDTAB
  0
TABLE
  2
LTYPE
 70
     5
  0
LTYPE
  2
CONTINUOUS
 70
    64
  3
Solid line
 72
    65
 73
     0
 40
0.0
  0
LTYPE
  2
CENTER
 70
    64
  3
Center ____ _ ____ _ ____ _ ____ _ ____ _ ____
 72
    65
 73
     4
 40
50.8
 49
31.75
 49
-6.35
 49
6.35
 49
-6.35
  0
LTYPE
  2
HIDDEN
 70
    64
  3
Hidden __ __ __ __ __ __ __ __ __ __ __ __ __ __
 72
    65
 73
     2
 40
9.525
 49
6.35
 49
-3.175
  0
LTYPE
  2
CENTER2
 70
    64
  3
Center (.5x) ___ _ ___ _ ___ _ ___ _ ___ _ ___
 72
    65
 73
     4
 40
28.575
 49
19.05
 49
-3.175
 49
3.175
 49
-3.175
  0
LTYPE
  2
HIDDEN2
 70
    64
  3
Hidden (.5x) _ _ _ _ _ _ _ _ _ _ _ _ _ _ _ _ _
 72
    65
 73
     2
 40
4.7625
 49
3.175
 49
-1.5875
  0
ENDTAB
  0
TABLE
  2
LAYER
 70
     1
  0
LAYER
  2
0
 70
     0
 62
     7
  6
CONTINUOUS
  0
ENDTAB
  0
TABLE
  2
STYLE
 70
     1
  0
STYLE
  2
STANDARD
 70
     0
 40
0.0
 41
1.0
 50
0.0
 71
     0
 42
0.0
  3
txt
  4

  0
ENDTAB
  0
TABLE
  2
VIEW
 70
     0
  0
ENDTAB
  0
TABLE
  2
UCS
 70
     0
  0
ENDTAB
  0
TABLE
  2
APPID
 70
     1
  0
APPID
  2
ACAD
 70
     0
  0
ENDTAB
  0
TABLE
  2
DIMSTYLE
 70
     1
  0
DIMSTYLE
  2
STANDARD
 70
     0
  3

  4

  5

  6

  7

 40
1.0
 41
0.18
 42
0.0625
 43
0.38
 44
0.18
 45
0.0
 46
0.0
 47
0.0
 48
0.0
 71
     0
 72
     0
 73
     1
 74
     1
 75
     0
 76
     0
 77
     0
 78
     0
140
0.18
141
0.09
142
0.0
143
25.4
144
1.0
145
0.0
146
1.0
147
0.09
170
     0
171
     2
172
     0
173
     0
174
     0
175
     0
176
     0
177
     0
178
     0
  0
ENDTAB
  0
ENDSEC
  0
SECTION
  2
BLOCKS
  0
ENDSEC
  0
SECTION
  2
ENTITIES
  0
LINE
  8
0
  6
CONTINUOUS
 62
     7
  5
FD
 10
0.897895
 20
-0.363933
 30
0.0
 11
0.788967
 21
-0.531667
 31
0.0
  0
LINE
  8
0
  6
CONTINUOUS
 62
     7
  5
FE
 10
0.684134
 20
-0.463588
 30
0.0
 11
0.793061
 21
-0.295853
 31
0.0
  0
LINE
  8
0
  6
CONTINUOUS
 62
     7
  5
FF
 10
0.818222
 20
-0.312193
 30
0.0
 11
0.709294
 21
-0.479927
 31
0.0
  0
LINE
  8
0
  6
CONTINUOUS
 62
     7
  5
100
 10
0.612847
 20
-0.417293
 30
0.0
 11
0.709294
 21
-0.479927
 31
0.0
  0
LINE
  8
0
  6
CONTINUOUS
 62
     7
  5
101
 10
0.818222
 20
-0.312193
 30
0.0
 11
0.721774
 21
-0.249559
 31
0.0
  0
LINE
  8
0
  6
CONTINUOUS
 62
     7
  5
102
 10
0.723127
 20
-0.476986
 30
0.0
 11
0.821162
 21
-0.326026
 31
0.0
  0
LINE
  8
0
  6
CONTINUOUS
 62
     7
  5
103
 10
0.73539
 20
-0.228592
 30
0.0
 11
0.831838
 21
-0.291226
 31
0.0
  0
ARC
  8
0
  6
CONTINUOUS
 62
     7
  5
104
 10
0.812775
 20
-0.320579
 30
0.0
 40
0.035
 50
327.0
 51
57.0
  0
ARC
  8
0
  6
CONTINUOUS
 62
     7
  5
105
 10
0.71474
 20
-0.47154
 30
0.0
 40
0.035
 50
237.0
 51
327.0
  0
LINE
  8
0
  6
CONTINUOUS
 62
     7
  5
106
 10
0.695678
 20
-0.500894
 30
0.0
 11
0.599231
 21
-0.43826
 31
0.0
  0
LINE
  8
0
  6
CONTINUOUS
 62
     7
  5
107
 10
0.599231
 20
-0.43826
 30
0.0
 11
0.612847
 21
-0.417293
 31
0.0
  0
ARC
  8
0
  6
CONTINUOUS
 62
     7
  5
108
 10
0.71474
 20
-0.47154
 30
0.0
 40
0.01
 50
237.0
 51
327.0
  0
ARC
  8
0
  6
CONTINUOUS
 62
     7
  5
109
 10
0.812775
 20
-0.320579
 30
0.0
 40
0.01
 50
327.0
 51
57.0
  0
LINE
  8
0
  6
CONTINUOUS
 62
     7
  5
10A
 10
0.721774
 20
-0.249559
 30
0.0
 11
0.73539
 21
-0.228592
 31
0.0
  0
LINE
  8
0
  6
CONTINUOUS
 62
     7
  5
10B
 10
0.842129
 20
-0.339642
 30
0.0
 11
0.744094
 21
-0.490602
 31
0.0
  0
LINE
  8
0
  6
CONTINUOUS
 62
     7
  5
10C
 10
0.610893
 20
-0.236693
 30
0.0
 11
0.555994
 21
-0.321231
 31
0.0
  0
LINE
  8
0
  6
CONTINUOUS
 62
     7
  5
10D
 10
0.636623
 20
-0.231224
 30
0.0
 11
0.561463
 21
-0.346961
 31
0.0
  0
LINE
  8
0
  6
CONTINUOUS
 62
     7
  5
10E
 10
0.899675
 20
-0.405259
 30
0.0
 11
0.929867
 21
-0.424866
 31
0.0
  0
LINE
  8
0
  6
CONTINUOUS
 62
     7
  5
10F
 10
0.929867
 20
-0.424866
 30
0.0
 11
0.911
 21
-0.453919
 31
0.0
  0
LINE
  8
0
  6
CONTINUOUS
 62
     7
  5
110
 10
0.880808
 20
-0.434312
 30
0.0
 11
0.899675
 21
-0.405259
 31
0.0
  0
LINE
  8
0
  6
CONTINUOUS
 62
     7
  5
111
 10
0.911
 20
-0.453919
 30
0.0
 11
0.880808
 21
-0.434312
 31
0.0
  0
LINE
  8
0
  6
CONTINUOUS
 62
     7
  5
112
 10
0.911
 20
-0.453919
 30
0.0
 11
0.839288
 21
-0.564346
 31
0.0
  0
LINE
  8
0
  6
CONTINUOUS
 62
     7
  5
113
 10
0.948215
 20
-0.396612
 30
0.0
 11
0.929867
 21
-0.424866
 31
0.0
  0
LINE
  8
0
  6
CONTINUOUS
 62
     7
  5
114
 10
0.788967
 20
0.531667
 30
0.0
 11
0.897895
 21
0.363933
 31
0.0
  0
LINE
  8
0
  6
CONTINUOUS
 62
     7
  5
115
 10
0.793061
 20
0.295853
 30
0.0
 11
0.684134
 21
0.463588
 31
0.0
  0
LINE
  8
0
  6
CONTINUOUS
 62
     7
  5
116
 10
0.709294
 20
0.479927
 30
0.0
 11
0.818222
 21
0.312193
 31
0.0
  0
LINE
  8
0
  6
CONTINUOUS
 62
     7
  5
117
 10
0.721774
 20
0.249559
 30
0.0
 11
0.818222
 21
0.312193
 31
0.0
  0
LINE
  8
0
  6
CONTINUOUS
 62
     7
  5
118
 10
0.709294
 20
0.479927
 30
0.0
 11
0.612847
 21
0.417293
 31
0.0
  0
LINE
  8
0
  6
CONTINUOUS
 62
     7
  5
119
 10
0.821162
 20
0.326026
 30
0.0
 11
0.723127
 21
0.476986
 31
0.0
  0
LINE
  8
0
  6
CONTINUOUS
 62
     7
  5
11A
 10
0.599231
 20
0.43826
 30
0.0
 11
0.695678
 21
0.500894
 31
0.0
  0
ARC
  8
0
  6
CONTINUOUS
 62
     7
  5
11B
 10
0.71474
 20
0.47154
 30
0.0
 40
0.035
 50
33.0
 51
123.0
  0
ARC
  8
0
  6
CONTINUOUS
 62
     7
  5
11C
 10
0.812775
 20
0.320579
 30
0.0
 40
0.035
 50
303.0
 51
33.0
  0
LINE
  8
0
  6
CONTINUOUS
 62
     7
  5
11D
 10
0.831838
 20
0.291226
 30
0.0
 11
0.73539
 21
0.228592
 31
0.0
  0
LINE
  8
0
  6
CONTINUOUS
 62
     7
  5
11E
 10
0.73539
 20
0.228592
 30
0.0
 11
0.721774
 21
0.249559
 31
0.0
  0
ARC
  8
0
  6
CONTINUOUS
 62
     7
  5
11F
 10
0.812775
 20
0.320579
 30
0.0
 40
0.01
 50
303.0
 51
33.0
  0
ARC
  8
0
  6
CONTINUOUS
 62
     7
  5
120
 10
0.71474
 20
0.47154
 30
0.0
 40
0.01
 50
33.0
 51
123.0
  0
LINE
  8
0
  6
CONTINUOUS
 62
     7
  5
121
 10
0.612847
 20
0.417293
 30
0.0
 11
0.599231
 21
0.43826
 31
0.0
  0
LINE
  8
0
  6
CONTINUOUS
 62
     7
  5
122
 10
0.744094
 20
0.490602
 30
0.0
 11
0.842129
 21
0.339642
 31
0.0
  0
LINE
  8
0
  6
CONTINUOUS
 62
     7
  5
123
 10
0.555994
 20
0.321231
 30
0.0
 11
0.610893
 21
0.236693
 31
0.0
  0
LINE
  8
0
  6
CONTINUOUS
 62
     7
  5
124
 10
0.561463
 20
0.346961
 30
0.0
 11
0.636623
 21
0.231224
 31
0.0
  0
LINE
  8
0
  6
CONTINUOUS
 62
     7
  5
125
 10
0.827444
 20
0.516484
 30
0.0
 11
0.857636
 21
0.536091
 31
0.0
  0
LINE
  8
0
  6
CONTINUOUS
 62
     7
  5
126
 10
0.857636
 20
0.536091
 30
0.0
 11
0.876503
 21
0.507039
 31
0.0
  0
LINE
  8
0
  6
CONTINUOUS
 62
     7
  5
127
 10
0.846311
 20
0.487432
 30
0.0
 11
0.827444
 21
0.516484
 31
0.0
  0
LINE
  8
0
  6
CONTINUOUS
 62
     7
  5
128
 10
0.876503
 20
0.507039
 30
0.0
 11
0.846311
 21
0.487432
 31
0.0
  0
LINE
  8
0
  6
CONTINUOUS
 62
     7
  5
129
 10
0.876503
 20
0.507039
 30
0.0
 11
0.948215
 21
0.396612
 31
0.0
  0
LINE
  8
0
  6
CONTINUOUS
 62
     7
  5
12A
 10
0.839288
 20
0.564346
 30
0.0
 11
0.857636
 21
0.536091
 31
0.0
  0
LINE
  8
0
  6
CONTINUOUS
 62
     7
  5
12B
 10
0.407895
 20
-0.363933
 30
0.0
 11
0.298967
 21
-0.531667
 31
0.0
  0
LINE
  8
0
  6
CONTINUOUS
 62
     7
  5
12C
 10
0.194134
 20
-0.463588
 30
0.0
 11
0.303061
 21
-0.295853
 31
0.0
  0
LINE
  8
0
  6
CONTINUOUS
 62
     7
  5
12D
 10
0.328222
 20
-0.312193
 30
0.0
 11
0.219294
 21
-0.479927
 31
0.0
  0
LINE
  8
0
  6
CONTINUOUS
 62
     7
  5
12E
 10
0.122847
 20
-0.417293
 30
0.0
 11
0.219294
 21
-0.479927
 31
0.0
  0
LINE
  8
0
  6
CONTINUOUS
 62
     7
  5
12F
 10
0.328222
 20
-0.312193
 30
0.0
 11
0.231774
 21
-0.249559
 31
0.0
  0
LINE
  8
0
  6
CONTINUOUS
 62
     7
  5
130
 10
0.233127
 20
-0.476986
 30
0.0
 11
0.331162
 21
-0.326026
 31
0.0
  0
LINE
  8
0
  6
CONTINUOUS
 62
     7
  5
131
 10
0.24539
 20
-0.228592
 30
0.0
 11
0.341838
 21
-0.291226
 31
0.0
  0
ARC
  8
0
  6
CONTINUOUS
 62
     7
  5
132
 10
0.322775
 20
-0.320579
 30
0.0
 40
0.035
 50
327.0
 51
57.0
  0
ARC
  8
0
  6
CONTINUOUS
 62
     7
  5
133
 10
0.22474
 20
-0.47154
 30
0.0
 40
0.035
 50
237.0
 51
327.0
  0
LINE
  8
0
  6
CONTINUOUS
 62
     7
  5
134
 10
0.205678
 20
-0.500894
 30
0.0
 11
0.109231
 21
-0.43826
 31
0.0
  0
LINE
  8
0
  6
CONTINUOUS
 62
     7
  5
135
 10
0.109231
 20
-0.43826
 30
0.0
 11
0.122847
 21
-0.417293
 31
0.0
  0
ARC
  8
0
  6
CONTINUOUS
 62
     7
  5
136
 10
0.22474
 20
-0.47154
 30
0.0
 40
0.01
 50
237.0
 51
327.0
  0
ARC
  8
0
  6
CONTINUOUS
 62
     7
  5
137
 10
0.322775
 20
-0.320579
 30
0.0
 40
0.01
 50
327.0
 51
57.0
  0
LINE
  8
0
  6
CONTINUOUS
 62
     7
  5
138
 10
0.231774
 20
-0.249559
 30
0.0
 11
0.24539
 21
-0.228592
 31
0.0
  0
LINE
  8
0
  6
CONTINUOUS
 62
     7
  5
139
 10
0.352129
 20
-0.339642
 30
0.0
 11
0.254094
 21
-0.490602
 31
0.0
  0
LINE
  8
0
  6
CONTINUOUS
 62
     7
  5
13A
 10
0.120893
 20
-0.236693
 30
0.0
 11
0.065994
 21
-0.321231
 31
0.0
  0
LINE
  8
0
  6
CONTINUOUS
 62
     7
  5
13B
 10
0.146623
 20
-0.231224
 30
0.0
 11
0.071463
 21
-0.346961
 31
0.0
  0
LINE
  8
0
  6
CONTINUOUS
 62
     7
  5
13C
 10
0.409675
 20
-0.405259
 30
0.0
 11
0.439867
 21
-0.424866
 31
0.0
  0
LINE
  8
0
  6
CONTINUOUS
 62
     7
  5
13D
 10
0.439867
 20
-0.424866
 30
0.0
 11
0.421
 21
-0.453919
 31
0.0
  0
LINE
  8
0
  6
CONTINUOUS
 62
     7
  5
13E
 10
0.390808
 20
-0.434312
 30
0.0
 11
0.409675
 21
-0.405259
 31
0.0
  0
LINE
  8
0
  6
CONTINUOUS
 62
     7
  5
13F
 10
0.421
 20
-0.453919
 30
0.0
 11
0.390808
 21
-0.434312
 31
0.0
  0
LINE
  8
0
  6
CONTINUOUS
 62
     7
  5
140
 10
0.421
 20
-0.453919
 30
0.0
 11
0.349288
 21
-0.564346
 31
0.0
  0
LINE
  8
0
  6
CONTINUOUS
 62
     7
  5
141
 10
0.458215
 20
-0.396612
 30
0.0
 11
0.439867
 21
-0.424866
 31
0.0
  0
LINE
  8
0
  6
CONTINUOUS
 62
     7
  5
142
 10
0.298967
 20
0.531667
 30
0.0
 11
0.407895
 21
0.363933
 31
0.0
  0
LINE
  8
0
  6
CONTINUOUS
 62
     7
  5
143
 10
0.303061
 20
0.295853
 30
0.0
 11
0.194134
 21
0.463588
 31
0.0
  0
LINE
  8
0
  6
CONTINUOUS
 62
     7
  5
144
 10
0.219294
 20
0.479927
 30
0.0
 11
0.328222
 21
0.312193
 31
0.0
  0
LINE
  8
0
  6
CONTINUOUS
 62
     7
  5
145
 10
0.231774
 20
0.249559
 30
0.0
 11
0.328222
 21
0.312193
 31
0.0
  0
LINE
  8
0
  6
CONTINUOUS
 62
     7
  5
146
 10
0.219294
 20
0.479927
 30
0.0
 11
0.122847
 21
0.417293
 31
0.0
  0
LINE
  8
0
  6
CONTINUOUS
 62
     7
  5
147
 10
0.331162
 20
0.326026
 30
0.0
 11
0.233127
 21
0.476986
 31
0.0
  0
LINE
  8
0
  6
CONTINUOUS
 62
     7
  5
148
 10
0.109231
 20
0.43826
 30
0.0
 11
0.205678
 21
0.500894
 31
0.0
  0
ARC
  8
0
  6
CONTINUOUS
 62
     7
  5
149
 10
0.22474
 20
0.47154
 30
0.0
 40
0.035
 50
33.0
 51
123.0
  0
ARC
  8
0
  6
CONTINUOUS
 62
     7
  5
14A
 10
0.322775
 20
0.320579
 30
0.0
 40
0.035
 50
303.0
 51
33.0
  0
LINE
  8
0
  6
CONTINUOUS
 62
     7
  5
14B
 10
0.341838
 20
0.291226
 30
0.0
 11
0.24539
 21
0.228592
 31
0.0
  0
LINE
  8
0
  6
CONTINUOUS
 62
     7
  5
14C
 10
0.24539
 20
0.228592
 30
0.0
 11
0.231774
 21
0.249559
 31
0.0
  0
ARC
  8
0
  6
CONTINUOUS
 62
     7
  5
14D
 10
0.322775
 20
0.320579
 30
0.0
 40
0.01
 50
303.0
 51
33.0
  0
ARC
  8
0
  6
CONTINUOUS
 62
     7
  5
14E
 10
0.22474
 20
0.47154
 30
0.0
 40
0.01
 50
33.0
 51
123.0
  0
LINE
  8
0
  6
CONTINUOUS
 62
     7
  5
14F
 10
0.122847
 20
0.417293
 30
0.0
 11
0.109231
 21
0.43826
 31
0.0
  0
LINE
  8
0
  6
CONTINUOUS
 62
     7
  5
150
 10
0.254094
 20
0.490602
 30
0.0
 11
0.352129
 21
0.339642
 31
0.0
  0
LINE
  8
0
  6
CONTINUOUS
 62
     7
  5
151
 10
0.065994
 20
0.321231
 30
0.0
 11
0.120893
 21
0.236693
 31
0.0
  0
LINE
  8
0
  6
CONTINUOUS
 62
     7
  5
152
 10
0.071463
 20
0.346961
 30
0.0
 11
0.146623
 21
0.231224
 31
0.0
  0
LINE
  8
0
  6
CONTINUOUS
 62
     7
  5
153
 10
0.337444
 20
0.516484
 30
0.0
 11
0.367636
 21
0.536091
 31
0.0
  0
LINE
  8
0
  6
CONTINUOUS
 62
     7
  5
154
 10
0.367636
 20
0.536091
 30
0.0
 11
0.386503
 21
0.507039
 31
0.0
  0
LINE
  8
0
  6
CONTINUOUS
 62
     7
  5
155
 10
0.356311
 20
0.487432
 30
0.0
 11
0.337444
 21
0.516484
 31
0.0
  0
LINE
  8
0
  6
CONTINUOUS
 62
     7
  5
156
 10
0.386503
 20
0.507039
 30
0.0
 11
0.356311
 21
0.487432
 31
0.0
  0
LINE
  8
0
  6
CONTINUOUS
 62
     7
  5
157
 10
0.386503
 20
0.507039
 30
0.0
 11
0.458215
 21
0.396612
 31
0.0
  0
LINE
  8
0
  6
CONTINUOUS
 62
     7
  5
158
 10
0.349288
 20
0.564346
 30
0.0
 11
0.367636
 21
0.536091
 31
0.0
  0
LINE
  8
0
  6
CONTINUOUS
 62
     7
  5
159
 10
0.875074
 20
0.192
 30
0.0
 11
1.125
 21
0.367
 31
0.0
  0
LINE
  8
0
  6
CONTINUOUS
 62
     7
  5
15A
 10
0.0
 20
0.192
 30
0.0
 11
0.875074
 21
0.192
 31
0.0
  0
LINE
  8
0
  6
CONTINUOUS
 62
     7
  5
15B
 10
1.125
 20
0.367
 30
0.0
 11
1.125
 21
-0.367
 31
0.0
  0
LINE
  8
0
  6
CONTINUOUS
 62
     7
  5
15C
 10
1.125
 20
0.367
 30
0.0
 11
1.105
 21
0.367
 31
0.0
  0
LINE
  8
0
  6
CONTINUOUS
 62
     7
  5
15D
 10
1.105
 20
0.367
 30
0.0
 11
1.105
 21
0.757
 31
0.0
  0
LINE
  8
0
  6
CONTINUOUS
 62
     7
  5
15E
 10
0.01
 20
0.757
 30
0.0
 11
0.01
 21
0.192
 31
0.0
  0
LINE
  8
0
  6
CONTINUOUS
 62
     7
  5
15F
 10
1.125
 20
-0.367
 30
0.0
 11
0.875074
 21
-0.192
 31
0.0
  0
LINE
  8
0
  6
CONTINUOUS
 62
     7
  5
160
 10
0.0
 20
-0.192
 30
0.0
 11
0.875074
 21
-0.192
 31
0.0
  0
LINE
  8
0
  6
CONTINUOUS
 62
     7
  5
161
 10
0.0
 20
-0.192
 30
0.0
 11
0.0
 21
0.192
 31
0.0
  0
LINE
  8
0
  6
CONTINUOUS
 62
     7
  5
162
 10
1.105
 20
-0.757
 30
0.0
 11
1.105
 21
-0.367
 31
0.0
  0
LINE
  8
0
  6
CONTINUOUS
 62
     7
  5
163
 10
1.105
 20
-0.797
 30
0.0
 11
1.105
 21
-0.757
 31
0.0
  0
LINE
  8
0
  6
CONTINUOUS
 62
     7
  5
164
 10
1.105
 20
-0.367
 30
0.0
 11
1.125
 21
-0.367
 31
0.0
  0
LINE
  8
0
  6
CONTINUOUS
 62
     7
  5
165
 10
0.01
 20
-0.757
 30
0.0
 11
0.01
 21
-0.797
 31
0.0
  0
LINE
  8
0
  6
CONTINUOUS
 62
     7
  5
166
 10
1.105
 20
-0.797
 30
0.0
 11
0.01
 21
-0.797
 31
0.0
  0
LINE
  8
0
  6
CONTINUOUS
 62
     7
  5
167
 10
0.01
 20
-0.192
 30
0.0
 11
0.01
 21
-0.757
 31
0.0
  0
LINE
  8
0
  6
CONTINUOUS
 62
     7
  5
168
 10
1.105
 20
0.757
 30
0.0
 11
1.105
 21
0.797
 31
0.0
  0
LINE
  8
0
  6
CONTINUOUS
 62
     7
  5
169
 10
1.105
 20
0.797
 30
0.0
 11
0.01
 21
0.797
 31
0.0
  0
LINE
  8
0
  6
CONTINUOUS
 62
     7
  5
16A
 10
0.01
 20
0.797
 30
0.0
 11
0.01
 21
0.757
 31
0.0
  0
LINE
  8
0
  6
CONTINUOUS
 62
     7
  5
16B
 10
1.124
 20
0.367
 30
0.0
 11
1.124
 21
0.796
 31
0.0
  0
LINE
  8
0
  6
CONTINUOUS
 62
     7
  5
16C
 10
1.105
 20
0.796
 30
0.0
 11
1.124
 21
0.796
 31
0.0
  0
LINE
  8
0
  6
CONTINUOUS
 62
     7
  5
16D
 10
0.001
 20
0.796
 30
0.0
 11
0.01
 21
0.796
 31
0.0
  0
LINE
  8
0
  6
CONTINUOUS
 62
     7
  5
16E
 10
0.001
 20
0.192
 30
0.0
 11
0.001
 21
0.796
 31
0.0
  0
LINE
  8
0
  6
CONTINUOUS
 62
     7
  5
16F
 10
1.124
 20
-0.796
 30
0.0
 11
1.105
 21
-0.796
 31
0.0
  0
LINE
  8
0
  6
CONTINUOUS
 62
     7
  5
170
 10
1.124
 20
-0.796
 30
0.0
 11
1.124
 21
-0.367
 31
0.0
  0
LINE
  8
0
  6
CONTINUOUS
 62
     7
  5
171
 10
-0.11
 20
0.557
 30
0.0
 11
-0.11
 21
0.661
 31
0.0
  0
LINE
  8
0
  6
CONTINUOUS
 62
     7
  5
172
 10
0.0
 20
-0.797
 30
0.0
 11
0.0
 21
-0.192
 31
0.0
  0
LINE
  8
0
  6
CONTINUOUS
 62
     7
  5
173
 10
0.0
 20
0.192
 30
0.0
 11
0.0
 21
0.797
 31
0.0
  0
LINE
  8
0
  6
CONTINUOUS
 62
     7
  5
174
 10
0.0
 20
0.797
 30
0.0
 11
1.125
 21
0.797
 31
0.0
  0
LINE
  8
0
  6
CONTINUOUS
 62
     7
  5
175
 10
-0.295
 20
0.093
 30
0.0
 11
0.0
 21
0.093
 31
0.0
  0
LINE
  8
0
  6
CONTINUOUS
 62
     7
  5
176
 10
-0.295
 20
-0.093
 30
0.0
 11
-0.295
 21
0.093
 31
0.0
  0
LINE
  8
0
  6
CONTINUOUS
 62
     7
  5
177
 10
-0.295
 20
-0.093
 30
0.0
 11
0.0
 21
-0.093
 31
0.0
  0
LINE
  8
0
  6
CONTINUOUS
 62
     7
  5
178
 10
0.01
 20
-0.796
 30
0.0
 11
0.001
 21
-0.796
 31
0.0
  0
LINE
  8
0
  6
CONTINUOUS
 62
     7
  5
179
 10
0.001
 20
-0.796
 30
0.0
 11
0.001
 21
-0.192
 31
0.0
  0
LINE
  8
0
  6
CONTINUOUS
 62
     7
  5
17A
 10
0.01
 20
-0.797
 30
0.0
 11
0.0
 21
-0.797
 31
0.0
  0
LINE
  8
0
  6
CONTINUOUS
 62
     7
  5
17B
 10
1.125
 20
-0.797
 30
0.0
 11
1.105
 21
-0.797
 31
0.0
  0
LINE
  8
0
  6
CONTINUOUS
 62
     7
  5
17C
 10
1.125
 20
-0.797
 30
0.0
 11
1.125
 21
0.797
 31
0.0
  0
LINE
  8
0
  6
CONTINUOUS
 62
     7
  5
17D
 10
0.897895
 20
-0.363933
 30
0.0
 11
0.830691
 21
-0.357254
 31
0.0
  0
LINE
  8
0
  6
CONTINUOUS
 62
     7
  5
17E
 10
0.755531
 20
-0.47299
 30
0.0
 11
0.788967
 21
-0.531667
 31
0.0
  0
LINE
  8
0
  6
CONTINUOUS
 62
     7
  5
17F
 10
0.809724
 20
-0.343638
 30
0.0
 11
0.801338
 21
-0.338191
 31
0.0
  0
LINE
  8
0
  6
CONTINUOUS
 62
     7
  5
180
 10
0.726178
 20
-0.453928
 30
0.0
 11
0.734564
 21
-0.459374
 31
0.0
  0
LINE
  8
0
  6
CONTINUOUS
 62
     7
  5
181
 10
0.636623
 20
-0.231224
 30
0.0
 11
0.610893
 21
-0.236693
 31
0.0
  0
LINE
  8
0
  6
CONTINUOUS
 62
     7
  5
182
 10
0.555994
 20
-0.321231
 30
0.0
 11
0.561463
 21
-0.346961
 31
0.0
  0
LINE
  8
0
  6
CONTINUOUS
 62
     7
  5
183
 10
0.776178
 20
-0.321852
 30
0.0
 11
0.636623
 21
-0.231224
 31
0.0
  0
LINE
  8
0
  6
CONTINUOUS
 62
     7
  5
184
 10
0.561463
 20
-0.346961
 30
0.0
 11
0.701017
 21
-0.437589
 31
0.0
  0
LINE
  8
0
  6
CONTINUOUS
 62
     7
  5
185
 10
0.948215
 20
-0.396612
 30
0.0
 11
0.897895
 21
-0.363933
 31
0.0
  0
LINE
  8
0
  6
CONTINUOUS
 62
     7
  5
186
 10
0.788967
 20
-0.531667
 30
0.0
 11
0.839288
 21
-0.564346
 31
0.0
  0
LINE
  8
0
  6
CONTINUOUS
 62
     7
  5
187
 10
0.788967
 20
0.531667
 30
0.0
 11
0.755531
 21
0.47299
 31
0.0
  0
LINE
  8
0
  6
CONTINUOUS
 62
     7
  5
188
 10
0.830691
 20
0.357254
 30
0.0
 11
0.897895
 21
0.363933
 31
0.0
  0
LINE
  8
0
  6
CONTINUOUS
 62
     7
  5
189
 10
0.734564
 20
0.459374
 30
0.0
 11
0.726178
 21
0.453928
 31
0.0
  0
LINE
  8
0
  6
CONTINUOUS
 62
     7
  5
18A
 10
0.801338
 20
0.338191
 30
0.0
 11
0.809724
 21
0.343638
 31
0.0
  0
LINE
  8
0
  6
CONTINUOUS
 62
     7
  5
18B
 10
0.561463
 20
0.346961
 30
0.0
 11
0.555994
 21
0.321231
 31
0.0
  0
LINE
  8
0
  6
CONTINUOUS
 62
     7
  5
18C
 10
0.610893
 20
0.236693
 30
0.0
 11
0.636623
 21
0.231224
 31
0.0
  0
LINE
  8
0
  6
CONTINUOUS
 62
     7
  5
18D
 10
0.701017
 20
0.437589
 30
0.0
 11
0.561463
 21
0.346961
 31
0.0
  0
LINE
  8
0
  6
CONTINUOUS
 62
     7
  5
18E
 10
0.636623
 20
0.231224
 30
0.0
 11
0.776178
 21
0.321852
 31
0.0
  0
LINE
  8
0
  6
CONTINUOUS
 62
     7
  5
18F
 10
0.839288
 20
0.564346
 30
0.0
 11
0.788967
 21
0.531667
 31
0.0
  0
LINE
  8
0
  6
CONTINUOUS
 62
     7
  5
190
 10
0.897895
 20
0.363933
 30
0.0
 11
0.948215
 21
0.396612
 31
0.0
  0
LINE
  8
0
  6
CONTINUOUS
 62
     7
  5
191
 10
0.407895
 20
-0.363933
 30
0.0
 11
0.340691
 21
-0.357254
 31
0.0
  0
LINE
  8
0
  6
CONTINUOUS
 62
     7
  5
192
 10
0.265531
 20
-0.47299
 30
0.0
 11
0.298967
 21
-0.531667
 31
0.0
  0
LINE
  8
0
  6
CONTINUOUS
 62
     7
  5
193
 10
0.319724
 20
-0.343638
 30
0.0
 11
0.311338
 21
-0.338191
 31
0.0
  0
LINE
  8
0
  6
CONTINUOUS
 62
     7
  5
194
 10
0.236178
 20
-0.453928
 30
0.0
 11
0.244564
 21
-0.459374
 31
0.0
  0
LINE
  8
0
  6
CONTINUOUS
 62
     7
  5
195
 10
0.146623
 20
-0.231224
 30
0.0
 11
0.120893
 21
-0.236693
 31
0.0
  0
LINE
  8
0
  6
CONTINUOUS
 62
     7
  5
196
 10
0.065994
 20
-0.321231
 30
0.0
 11
0.071463
 21
-0.346961
 31
0.0
  0
LINE
  8
0
  6
CONTINUOUS
 62
     7
  5
197
 10
0.286178
 20
-0.321852
 30
0.0
 11
0.146623
 21
-0.231224
 31
0.0
  0
LINE
  8
0
  6
CONTINUOUS
 62
     7
  5
198
 10
0.071463
 20
-0.346961
 30
0.0
 11
0.211017
 21
-0.437589
 31
0.0
  0
LINE
  8
0
  6
CONTINUOUS
 62
     7
  5
199
 10
0.458215
 20
-0.396612
 30
0.0
 11
0.407895
 21
-0.363933
 31
0.0
  0
LINE
  8
0
  6
CONTINUOUS
 62
     7
  5
19A
 10
0.298967
 20
-0.531667
 30
0.0
 11
0.349288
 21
-0.564346
 31
0.0
  0
LINE
  8
0
  6
CONTINUOUS
 62
     7
  5
19B
 10
0.298967
 20
0.531667
 30
0.0
 11
0.265531
 21
0.47299
 31
0.0
  0
LINE
  8
0
  6
CONTINUOUS
 62
     7
  5
19C
 10
0.340691
 20
0.357254
 30
0.0
 11
0.407895
 21
0.363933
 31
0.0
  0
LINE
  8
0
  6
CONTINUOUS
 62
     7
  5
19D
 10
0.244564
 20
0.459374
 30
0.0
 11
0.236178
 21
0.453928
 31
0.0
  0
LINE
  8
0
  6
CONTINUOUS
 62
     7
  5
19E
 10
0.311338
 20
0.338191
 30
0.0
 11
0.319724
 21
0.343638
 31
0.0
  0
LINE
  8
0
  6
CONTINUOUS
 62
     7
  5
19F
 10
0.071463
 20
0.346961
 30
0.0
 11
0.065994
 21
0.321231
 31
0.0
  0
LINE
  8
0
  6
CONTINUOUS
 62
     7
  5
1A0
 10
0.120893
 20
0.236693
 30
0.0
 11
0.146623
 21
0.231224
 31
0.0
  0
LINE
  8
0
  6
CONTINUOUS
 62
     7
  5
1A1
 10
0.211017
 20
0.437589
 30
0.0
 11
0.071463
 21
0.346961
 31
0.0
  0
LINE
  8
0
  6
CONTINUOUS
 62
     7
  5
1A2
 10
0.146623
 20
0.231224
 30
0.0
 11
0.286178
 21
0.321852
 31
0.0
  0
LINE
  8
0
  6
CONTINUOUS
 62
     7
  5
1A3
 10
0.349288
 20
0.564346
 30
0.0
 11
0.298967
 21
0.531667
 31
0.0
  0
LINE
  8
0
  6
CONTINUOUS
 62
     7
  5
1A4
 10
0.407895
 20
0.363933
 30
0.0
 11
0.458215
 21
0.396612
 31
0.0
  0
LINE
  8
0
  6
CONTINUOUS
 62
     7
  5
1A5
 10
-0.11
 20
0.557
 30
0.0
 11
0.0
 21
0.557
 31
0.0
  0
LINE
  8
0
  6
CONTINUOUS
 62
     7
  5
1A6
 10
0.0
 20
0.661
 30
0.0
 11
-0.11
 21
0.661
 31
0.0
  0
LINE
  8
0
  6
CONTINUOUS
 62
     3
  5
1A7
 10
0.848463
 20
-0.451068
 30
0.0
 11
0.788079
 21
-0.411854
 31
0.0
  0
LINE
  8
0
  6
CONTINUOUS
 62
     3
  5
1A8
 10
0.848463
 20
0.451068
 30
0.0
 11
0.788079
 21
0.411854
 31
0.0
  0
LINE
  8
0
  6
CONTINUOUS
 62
     3
  5
1A9
 10
0.358463
 20
-0.451068
 30
0.0
 11
0.298079
 21
-0.411854
 31
0.0
  0
LINE
  8
0
  6
CONTINUOUS
 62
     3
  5
1AA
 10
0.358463
 20
0.451068
 30
0.0
 11
0.298079
 21
0.411854
 31
0.0
  0
ENDSEC
  0
EOF
