999
DXF file: C:\Users\sesa63760\Dev\_Creo\CAD\MCADFD0002490_3D-CAD\drw0001_5.dxf
999
Pro/ENGINEER 2019471 by Parametric Technology Corporation
  0
SECTION
  2
HEADER
  9
$ACADVER
  1
AC1024
  9
$DWGCODEPAGE
  3
ANSI_1252
  9
$EXTMAX
 10
67.1439118857
 20
94.9606753813
 30
0.0
  9
$EXTMIN
 10
0.0
 20
0.0
 30
0.0
  9
$LIMMIN
 10
0.0
 20
0.0
  9
$LIMMAX
 10
67.1439118857
 20
94.9606753813
  9
$VIEWCTR
 10
33.5719559429
 20
47.4803376906
  9
$VIEWSIZE
 40
94.9606753813
  9
$CLAYER
  8
0
  9
$LTSCALE
 40
6.19002921
  9
$CELTYPE
  6
BYLAYER
  9
$DIMSCALE
 40
1.0
  9
$DIMASZ
 40
0.7993322844
  9
$DIMEXO
 40
1.0
  9
$DIMDLI
 40
4.2767474542
  9
$DIMEXE
 40
1.0
  9
$DIMCEN
 40
1.0129138707
  9
$DIMLFAC
 40
1.0
  9
$DIMBLK
  1
_FILLED
  9
$DIMALT
 70
0
  9
$DIMALTF
 40
0.0393700787
  9
$DIMTXT
 40
1.1190651981
  9
$DIMTOL
 70
1
  9
$DIMLIM
 70
0
  9
$DIMTFAC
 40
1.0
  9
$DIMTP
 40
0.01
  9
$DIMTM
 40
0.01
  9
$DIMGAP
 40
0.625
  9
$DIMDSEP
 70
46
  9
$AUNITS
 70
0
  9
$PDMODE
 70
3
  9
$PDSIZE
 40
0.3125
  9
$HANDSEED
  5
310
  9
$TILEMODE
 70
1
  9
$MEASUREMENT
 70
1
  9
$INSUNITS
 70
4
  0
ENDSEC
  0
SECTION
  2
CLASSES
  0
CLASS
  1
ACDBDICTIONARYWDFLT
  2
AcDbDictionaryWithDefault
  3
AutoCAD 2000
 90
0
 91
1
280
0
281
0
  0
CLASS
  1
ACDBPLACEHOLDER
  2
AcDbPlaceHolder
  3
AutoCAD 2000
 90
0
 91
1
280
0
281
0
  0
CLASS
  1
LAYOUT
  2
AcDbLayout
  3
AutoCAD 2000
 90
0
 91
0
280
0
281
0
  0
ENDSEC
  0
SECTION
  2
TABLES
  0
TABLE
  2
VPORT
  5
8
100
AcDbSymbolTable
 70
2
  0
VPORT
  5
1F4
100
AcDbSymbolTableRecord
100
AcDbViewportTableRecord
  2
*ACTIVE
 70
0
 10
0.0
 20
0.0
 11
1.0
 21
1.0
 12
33.5719559429
 22
47.4803376906
 13
0.0
 23
0.0
 14
1.0
 24
1.0
 15
0.0
 25
0.0
 16
0.0
 26
0.0
 36
1.0
 17
0.0
 27
0.0
 37
0.0
 40
94.9606753813
 41
0.7070707071
 42
50.0
 43
0.0
 44
0.0
 50
0.0
 51
0.0
 71
0
 72
100
 73
1
 74
1
 75
0
 76
0
 77
0
 78
0
  0
ENDTAB
  0
TABLE
  2
LTYPE
  5
5
100
AcDbSymbolTable
 70
6
  0
LTYPE
  5
14
100
AcDbSymbolTableRecord
100
AcDbLinetypeTableRecord
  2
BYBLOCK
 70
0
  3

 72
65
 73
0
 40
0.0
  0
LTYPE
  5
15
100
AcDbSymbolTableRecord
100
AcDbLinetypeTableRecord
  2
BYLAYER
 70
0
  3

 72
65
 73
0
 40
0.0
  0
LTYPE
  5
16
100
AcDbSymbolTableRecord
100
AcDbLinetypeTableRecord
  2
CONTINUOUS
 70
64
  3
Solid line
 72
65
 73
0
 40
0.0
  0
LTYPE
  5
1F5
100
AcDbSymbolTableRecord
100
AcDbLinetypeTableRecord
  2
CENTER
 70
64
  3
____ _ ____ _ ____ _ ____ _ ____ _ ____ _ ____
 72
65
 73
4
 40
0.6
 49
0.375
 74
0
 49
-0.075
 74
0
 49
0.075
 74
0
 49
-0.075
 74
0
  0
LTYPE
  5
1F6
100
AcDbSymbolTableRecord
100
AcDbLinetypeTableRecord
  2
HIDDEN
 70
64
  3
- - - - - - - - - - - - - - - - - - - -
 72
65
 73
2
 40
0.2
 49
0.1
 74
0
 49
-0.1
 74
0
  0
LTYPE
  5
1F7
100
AcDbSymbolTableRecord
100
AcDbLinetypeTableRecord
  2
PHANTOM
 70
64
  3
_____ _ _ _____ _ _ _____ _ _ _____
 72
65
 73
6
 40
0.8
 49
0.45
 74
0
 49
-0.05
 74
0
 49
0.1
 74
0
 49
-0.05
 74
0
 49
0.1
 74
0
 49
-0.05
 74
0
  0
LTYPE
  5
1F8
100
AcDbSymbolTableRecord
100
AcDbLinetypeTableRecord
  2
DOT
 70
64
  3
. . . . . . . . . . . . . . . . . . . .
 72
65
 73
2
 40
0.2
 49
0.1
 74
0
 49
-0.1
 74
0
  0
LTYPE
  5
1F9
100
AcDbSymbolTableRecord
100
AcDbLinetypeTableRecord
  2
DASHED
 70
64
  3
- - - - - - - - - - - - - - - - - - - -
 72
65
 73
2
 40
0.2
 49
0.1
 74
0
 49
-0.1
 74
0
  0
ENDTAB
  0
TABLE
  2
LAYER
  5
2
100
AcDbSymbolTable
 70
36
  0
LAYER
  5
10
100
AcDbSymbolTableRecord
100
AcDbLayerTableRecord
  2
0
 70
0
 62
7
  6
CONTINUOUS
370
-3
390
F
  0
LAYER
  5
1FA
100
AcDbSymbolTableRecord
100
AcDbLayerTableRecord
  2
DEFAULT_1
 70
0
 62
7
  6
CENTER
370
-3
390
F
  0
LAYER
  5
1FB
100
AcDbSymbolTableRecord
100
AcDbLayerTableRecord
  2
DEFAULT_2
 70
0
 62
8
  6
HIDDEN
370
-3
390
F
  0
LAYER
  5
1FC
100
AcDbSymbolTableRecord
100
AcDbLayerTableRecord
  2
DEFAULT_3
 70
0
 62
7
  6
PHANTOM
370
-3
390
F
  0
LAYER
  5
1FD
100
AcDbSymbolTableRecord
100
AcDbLayerTableRecord
  2
00_COMPONENTS
 70
0
 62
7
  6
CONTINUOUS
370
-3
390
F
  0
LAYER
  5
1FE
100
AcDbSymbolTableRecord
100
AcDbLayerTableRecord
  2
01_1_DEFAULT_DATUMS
 70
0
 62
7
  6
CONTINUOUS
370
-3
390
F
  0
LAYER
  5
1FF
100
AcDbSymbolTableRecord
100
AcDbLayerTableRecord
  2
01_PLANES
 70
0
 62
7
  6
CONTINUOUS
370
-3
390
F
  0
LAYER
  5
200
100
AcDbSymbolTableRecord
100
AcDbLayerTableRecord
  2
02_COORD_SYS
 70
0
 62
7
  6
CONTINUOUS
370
-3
390
F
  0
LAYER
  5
201
100
AcDbSymbolTableRecord
100
AcDbLayerTableRecord
  2
03_AXES
 70
0
 62
7
  6
CONTINUOUS
370
-3
390
F
  0
LAYER
  5
202
100
AcDbSymbolTableRecord
100
AcDbLayerTableRecord
  2
04_POINTS
 70
0
 62
7
  6
CONTINUOUS
370
-3
390
F
  0
LAYER
  5
203
100
AcDbSymbolTableRecord
100
AcDbLayerTableRecord
  2
05_CURVES
 70
0
 62
7
  6
CONTINUOUS
370
-3
390
F
  0
LAYER
  5
204
100
AcDbSymbolTableRecord
100
AcDbLayerTableRecord
  2
06_SURFS
 70
0
 62
7
  6
CONTINUOUS
370
-3
390
F
  0
LAYER
  5
205
100
AcDbSymbolTableRecord
100
AcDbLayerTableRecord
  2
07_COSMETICS
 70
0
 62
7
  6
CONTINUOUS
370
-3
390
F
  0
LAYER
  5
206
100
AcDbSymbolTableRecord
100
AcDbLayerTableRecord
  2
10_NOTES
 70
0
 62
7
  6
CONTINUOUS
370
-3
390
F
  0
LAYER
  5
207
100
AcDbSymbolTableRecord
100
AcDbLayerTableRecord
  2
11_NOTES_PUB
 70
0
 62
7
  6
CONTINUOUS
370
-3
390
F
  0
LAYER
  5
208
100
AcDbSymbolTableRecord
100
AcDbLayerTableRecord
  2
13_REF_GTOL
 70
0
 62
7
  6
CONTINUOUS
370
-3
390
F
  0
LAYER
  5
209
100
AcDbSymbolTableRecord
100
AcDbLayerTableRecord
  2
16_MISC
 70
0
 62
7
  6
CONTINUOUS
370
-3
390
F
  0
LAYER
  5
20A
100
AcDbSymbolTableRecord
100
AcDbLayerTableRecord
  2
17_NO_PRINT
 70
0
 62
7
  6
CONTINUOUS
370
-3
390
F
  0
LAYER
  5
20B
100
AcDbSymbolTableRecord
100
AcDbLayerTableRecord
  2
18_DATUM_CAMS_JOINTS
 70
0
 62
7
  6
CONTINUOUS
370
-3
390
F
  0
LAYER
  5
20C
100
AcDbSymbolTableRecord
100
AcDbLayerTableRecord
  2
19_DATUM_FUNCTIONAL
 70
0
 62
7
  6
CONTINUOUS
370
-3
390
F
  0
LAYER
  5
20D
100
AcDbSymbolTableRecord
100
AcDbLayerTableRecord
  2
20_DATUM_KINEMATIC_SCHEME
 70
0
 62
7
  6
CONTINUOUS
370
-3
390
F
  0
ENDTAB
  0
TABLE
  2
STYLE
  5
3
100
AcDbSymbolTable
 70
1
  0
STYLE
  5
11
100
AcDbSymbolTableRecord
100
AcDbTextStyleTableRecord
  2
STANDARD
 70
0
 40
0.0
 41
0.8
 50
0.0
 71
0
 42
0.2
  3
txt
  4

  0
STYLE
  5
20E
100
AcDbSymbolTableRecord
100
AcDbTextStyleTableRecord
  2
TEXTSTYLE_1
 70
0
 40
0.0
 41
0.8
 50
0.0
 71
0
 42
0.2
  3
gdt
  4

  0
ENDTAB
  0
TABLE
  2
VIEW
  5
6
100
AcDbSymbolTable
 70
0
  0
ENDTAB
  0
TABLE
  2
UCS
  5
7
100
AcDbSymbolTable
 70
0
  0
ENDTAB
  0
TABLE
  2
APPID
  5
9
100
AcDbSymbolTable
 70
1
  0
APPID
  5
20F
100
AcDbSymbolTableRecord
100
AcDbRegAppTableRecord
  2
ACAD
 70
0
  0
ENDTAB
  0
TABLE
  2
BLOCK_RECORD
  5
1
100
AcDbSymbolTable
 70
0
  0
BLOCK_RECORD
  5
210
100
AcDbSymbolTableRecord
100
AcDbBlockTableRecord
  2
*Model_Space
  0
BLOCK_RECORD
  5
211
100
AcDbSymbolTableRecord
100
AcDbBlockTableRecord
  2
*Paper_Space
  0
BLOCK_RECORD
  5
212
100
AcDbSymbolTableRecord
100
AcDbBlockTableRecord
  2
_FILLED
  0
ENDTAB
  0
TABLE
  2
DIMSTYLE
  5
A
100
AcDbSymbolTable
 70
1
100
AcDbDimStyleTable
 71
0
  0
DIMSTYLE
105
213
100
AcDbSymbolTableRecord
100
AcDbDimStyleTableRecord
  2
STANDARD
 70
0
  3

  4

 40
1.0
 41
0.7993322844
 42
1.0
 43
0.38
 44
1.0
 45
0.0
 46
0.0
 47
0.01
 48
0.01
140
1.1190651981
141
0.09
142
0.0
143
25.4
144
1.0
145
0.0
146
1.0
147
0.625
 71
1
 72
0
 73
0
 74
0
 75
0
 76
0
 77
1
 78
8
 79
2
170
0
171
1
172
0
173
0
174
0
175
0
176
0
177
0
178
0
270
2
179
2
271
2
272
2
273
2
274
2
275
0
280
0
281
0
282
0
283
1
284
8
285
0
286
0
287
3
288
0
340
11
278
46
341
212
342
212
343
212
344
212
  0
ENDTAB
  0
ENDSEC
  0
SECTION
  2
BLOCKS
  0
BLOCK
  5
20
100
AcDbEntity
  8
0
100
AcDbBlockBegin
  2
*Model_Space
 70
0
 10
0.0
 20
0.0
 30
0.0
  3
*Model_Space
  1

  0
ENDBLK
  5
21
100
AcDbEntity
  8
0
100
AcDbBlockEnd
  0
BLOCK
  5
1C
100
AcDbEntity
  8
0
100
AcDbBlockBegin
  2
*Paper_Space
 70
0
 10
0.0
 20
0.0
 30
0.0
  3
*Paper_Space
  1

  0
ENDBLK
  5
1D
100
AcDbEntity
  8
0
100
AcDbBlockEnd
  0
BLOCK
  5
214
100
AcDbEntity
  8
0
100
AcDbBlockBegin
  2
_FILLED
 70
64
 10
0.0
 20
0.0
  3
_FILLED
  1

  0
SOLID
  5
215
100
AcDbEntity
  8
0
  6
BYBLOCK
 62
0
100
AcDbTrace
 10
0.0
 20
0.0
 11
-1.0
 21
0.25
 12
-1.0
 22
-0.25
 13
-1.0
 23
-0.25
  0
ENDBLK
  5
216
100
AcDbEntity
  8
0
  6
BYBLOCK
 62
0
100
AcDbBlockEnd
  0
ENDSEC
  0
SECTION
  2
ENTITIES
  0
LINE
  5
217
100
AcDbEntity
  8
0
100
AcDbLine
 62
7
  6
CONTINUOUS
 10
43.2268034374
 20
10.3943318028
 11
7.8268034374
 21
10.3943318028
  0
LINE
  5
218
100
AcDbEntity
  8
0
100
AcDbLine
 62
7
  6
CONTINUOUS
 10
43.2268034374
 20
10.3961902186
 11
60.9268034374
 21
10.3961902186
  0
LINE
  5
219
100
AcDbEntity
  8
0
100
AcDbLine
 62
7
  6
CONTINUOUS
 10
10.9156049718
 20
12.5878273469
 11
22.3791075264
 21
12.5878273469
  0
LINE
  5
21A
100
AcDbEntity
  8
0
100
AcDbLine
 62
7
  6
CONTINUOUS
 10
28.6156049718
 20
12.5878273469
 11
40.0791075264
 21
12.5878273469
  0
LINE
  5
21B
100
AcDbEntity
  8
0
100
AcDbLine
 62
7
  6
CONTINUOUS
 10
46.3156049718
 20
12.5878273469
 11
57.7791075264
 21
12.5878273469
  0
LINE
  5
21C
100
AcDbEntity
  8
0
100
AcDbLine
 62
7
  6
CONTINUOUS
 10
57.7791075264
 20
15.5878273469
 11
46.3156049718
 21
15.5878273469
  0
LINE
  5
21D
100
AcDbEntity
  8
0
100
AcDbLine
 62
7
  6
CONTINUOUS
 10
40.0791075264
 20
15.5878273469
 11
28.6156049718
 21
15.5878273469
  0
LINE
  5
21E
100
AcDbEntity
  8
0
100
AcDbLine
 62
7
  6
CONTINUOUS
 10
22.3791075264
 20
15.5878273469
 11
10.9156049718
 21
15.5878273469
  0
LINE
  5
21F
100
AcDbEntity
  8
0
100
AcDbLine
 62
7
  6
CONTINUOUS
 10
61.1768034374
 20
18.8878273469
 11
60.9268034374
 21
18.8878273469
  0
LINE
  5
220
100
AcDbEntity
  8
0
100
AcDbLine
 62
7
  6
CONTINUOUS
 10
7.8268034374
 20
10.3943318028
 11
7.8268034374
 21
79.18437327
  0
LINE
  5
221
100
AcDbEntity
  8
0
100
AcDbLine
 62
7
  6
CONTINUOUS
 10
8.0768034374
 20
83.5865032993
 11
8.0768034374
 21
76.3550641839
  0
LINE
  5
222
100
AcDbEntity
  8
0
100
AcDbLine
 62
7
  6
CONTINUOUS
 10
8.4768034374
 20
76.3550641839
 11
8.4768034374
 21
76.3431272576
  0
LINE
  5
223
100
AcDbEntity
  8
0
100
AcDbLine
 62
7
  6
CONTINUOUS
 10
8.9268034384
 20
64.0878273469
 11
8.9268034379
 21
21.0878273469
  0
LINE
  5
224
100
AcDbEntity
  8
0
100
AcDbLine
 62
7
  6
CONTINUOUS
 10
9.9268034374
 20
29.4594062502
 11
9.9268034374
 21
61.5878273469
  0
LINE
  5
225
100
AcDbEntity
  8
0
100
AcDbLine
 62
7
  6
CONTINUOUS
 10
10.4268034374
 20
24.1766512871
 11
10.4268034374
 21
64.0878273469
  0
LINE
  5
226
100
AcDbEntity
  8
0
100
AcDbLine
 62
7
  6
CONTINUOUS
 10
61.1768034374
 20
20.8878273469
 11
60.9268034374
 21
20.8878273469
  0
LINE
  5
227
100
AcDbEntity
  8
0
100
AcDbLine
 62
7
  6
CONTINUOUS
 10
7.8268034374
 20
21.0878273469
 11
19.6791837591
 21
21.0878273469
  0
LINE
  5
228
100
AcDbEntity
  8
0
100
AcDbLine
 62
7
  6
CONTINUOUS
 10
19.6803886182
 20
21.0878273469
 11
37.3791837591
 21
21.0878273469
  0
LINE
  5
229
100
AcDbEntity
  8
0
100
AcDbLine
 62
7
  6
CONTINUOUS
 10
37.3803886182
 20
21.0878273469
 11
55.0790627676
 21
21.0878273469
  0
LINE
  5
22A
100
AcDbEntity
  8
0
100
AcDbLine
 62
7
  6
CONTINUOUS
 10
55.0802251699
 20
21.0878273469
 11
60.9268034374
 21
21.0878273469
  0
LINE
  5
22B
100
AcDbEntity
  8
0
100
AcDbLine
 62
7
  6
CONTINUOUS
 10
59.8268034374
 20
21.132578929
 11
55.0805718922
 21
21.132578929
  0
LINE
  5
22C
100
AcDbEntity
  8
0
100
AcDbLine
 62
7
  6
CONTINUOUS
 10
49.0768034374
 20
21.132578929
 11
44.3268034379
 21
21.132578929
  0
LINE
  5
22D
100
AcDbEntity
  8
0
100
AcDbLine
 62
7
  6
CONTINUOUS
 10
8.9268034379
 20
21.132578929
 11
13.6768034374
 21
21.132578929
  0
LINE
  5
22E
100
AcDbEntity
  8
0
100
AcDbLine
 62
7
  6
CONTINUOUS
 10
19.6807213633
 20
21.132578929
 11
24.4268034374
 21
21.132578929
  0
LINE
  5
22F
100
AcDbEntity
  8
0
100
AcDbLine
 62
7
  6
CONTINUOUS
 10
26.6268034379
 20
21.132578929
 11
31.3768034374
 21
21.132578929
  0
LINE
  5
230
100
AcDbEntity
  8
0
100
AcDbLine
 62
7
  6
CONTINUOUS
 10
37.3807213633
 20
21.132578929
 11
42.1268034374
 21
21.132578929
  0
LINE
  5
231
100
AcDbEntity
  8
0
100
AcDbLine
 62
7
  6
CONTINUOUS
 10
59.8268034374
 20
21.4227638374
 11
55.0807125161
 21
21.4227638374
  0
LINE
  5
232
100
AcDbEntity
  8
0
100
AcDbLine
 62
7
  6
CONTINUOUS
 10
49.0768034374
 20
21.4227638374
 11
44.3268034379
 21
21.4227638374
  0
LINE
  5
233
100
AcDbEntity
  8
0
100
AcDbLine
 62
7
  6
CONTINUOUS
 10
8.9268034379
 20
21.4227638374
 11
13.6768034374
 21
21.4227638374
  0
LINE
  5
234
100
AcDbEntity
  8
0
100
AcDbLine
 62
7
  6
CONTINUOUS
 10
19.6808716737
 20
21.4227638374
 11
24.4268034374
 21
21.4227638374
  0
LINE
  5
235
100
AcDbEntity
  8
0
100
AcDbLine
 62
7
  6
CONTINUOUS
 10
26.6268034379
 20
21.4227638374
 11
31.3768034374
 21
21.4227638374
  0
LINE
  5
236
100
AcDbEntity
  8
0
100
AcDbLine
 62
7
  6
CONTINUOUS
 10
37.3808716737
 20
21.4227638374
 11
42.1268034374
 21
21.4227638374
  0
LINE
  5
237
100
AcDbEntity
  8
0
100
AcDbLine
 62
7
  6
CONTINUOUS
 10
61.1768034374
 20
22.4878273469
 11
60.9268034374
 21
22.4878273469
  0
LINE
  5
238
100
AcDbEntity
  8
0
100
AcDbLine
 62
7
  6
CONTINUOUS
 10
38.6268034382
 20
23.0219507488
 11
37.3809292344
 21
23.0219507488
  0
LINE
  5
239
100
AcDbEntity
  8
0
100
AcDbLine
 62
7
  6
CONTINUOUS
 10
31.3768034374
 20
23.0219507504
 11
30.1268034311
 21
23.02195075
  0
LINE
  5
23A
100
AcDbEntity
  8
0
100
AcDbLine
 62
7
  6
CONTINUOUS
 10
20.9268034382
 20
23.0219507488
 11
19.6809292344
 21
23.0219507488
  0
LINE
  5
23B
100
AcDbEntity
  8
0
100
AcDbLine
 62
7
  6
CONTINUOUS
 10
13.6768034374
 20
23.0219507504
 11
12.4268034311
 21
23.02195075
  0
LINE
  5
23C
100
AcDbEntity
  8
0
100
AcDbLine
 62
7
  6
CONTINUOUS
 10
47.8268034387
 20
23.0219507493
 11
49.0768034374
 21
23.0219507511
  0
LINE
  5
23D
100
AcDbEntity
  8
0
100
AcDbLine
 62
7
  6
CONTINUOUS
 10
55.0809864085
 20
23.0219507489
 11
56.326803439
 21
23.0219507487
  0
LINE
  5
23E
100
AcDbEntity
  8
0
100
AcDbLine
 62
7
  6
CONTINUOUS
 10
10.9156049718
 20
12.5878273469
 11
10.9156049718
 21
15.5878273469
  0
LINE
  5
23F
100
AcDbEntity
  8
0
100
AcDbLine
 62
7
  6
CONTINUOUS
 10
11.6268034374
 20
64.0878273469
 11
11.6268034374
 21
48.3878273469
  0
LINE
  5
240
100
AcDbEntity
  8
0
100
AcDbLine
 62
7
  6
CONTINUOUS
 10
11.6268034374
 20
46.7878273469
 11
11.6268034374
 21
42.6878273469
  0
LINE
  5
241
100
AcDbEntity
  8
0
100
AcDbLine
 62
7
  6
CONTINUOUS
 10
11.6268034374
 20
36.9878273469
 11
11.6268034374
 21
30.4878273469
  0
LINE
  5
242
100
AcDbEntity
  8
0
100
AcDbLine
 62
7
  6
CONTINUOUS
 10
11.6768034374
 20
76.3431272576
 11
11.6768034374
 21
75.8878304113
  0
LINE
  5
243
100
AcDbEntity
  8
0
100
AcDbLine
 62
7
  6
CONTINUOUS
 10
12.4268034374
 20
48.3878273469
 11
12.4268034374
 21
46.7878273469
  0
LINE
  5
244
100
AcDbEntity
  8
0
100
AcDbLine
 62
7
  6
CONTINUOUS
 10
12.4268034311
 20
23.02195075
 11
12.4268034374
 21
30.4878273469
  0
LINE
  5
245
100
AcDbEntity
  8
0
100
AcDbLine
 62
7
  6
CONTINUOUS
 10
12.8823842347
 20
15.5878273469
 11
12.8823842347
 21
12.5878273469
  0
LINE
  5
246
100
AcDbEntity
  8
0
100
AcDbLine
 62
7
  6
CONTINUOUS
 10
61.1768034374
 20
24.4878273469
 11
60.9268034374
 21
24.4878273469
  0
LINE
  5
247
100
AcDbEntity
  8
0
100
AcDbLine
 62
7
  6
CONTINUOUS
 10
59.8268034374
 20
25.1219017575
 11
58.3268034374
 21
25.1219017575
  0
LINE
  5
248
100
AcDbEntity
  8
0
100
AcDbLine
 62
7
  6
CONTINUOUS
 10
45.8268034374
 20
25.1219017575
 11
44.3268034383
 21
25.1219017575
  0
LINE
  5
249
100
AcDbEntity
  8
0
100
AcDbLine
 62
7
  6
CONTINUOUS
 10
8.9268034383
 20
25.1219017575
 11
10.4268034374
 21
25.1219017575
  0
LINE
  5
24A
100
AcDbEntity
  8
0
100
AcDbLine
 62
7
  6
CONTINUOUS
 10
22.9268034374
 20
25.1219017575
 11
24.4268034374
 21
25.1219017575
  0
LINE
  5
24B
100
AcDbEntity
  8
0
100
AcDbLine
 62
7
  6
CONTINUOUS
 10
26.6268034383
 20
25.1219017575
 11
28.1268034374
 21
25.1219017575
  0
LINE
  5
24C
100
AcDbEntity
  8
0
100
AcDbLine
 62
7
  6
CONTINUOUS
 10
40.6268034374
 20
25.1219017575
 11
42.1268034374
 21
25.1219017575
  0
LINE
  5
24D
100
AcDbEntity
  8
0
100
AcDbLine
 62
7
  6
CONTINUOUS
 10
13.6768034374
 20
21.0878273469
 11
13.6768034374
 21
28.9878273469
  0
LINE
  5
24E
100
AcDbEntity
  8
0
100
AcDbLine
 62
7
  6
CONTINUOUS
 10
14.1768034374
 20
28.9878273469
 11
14.1768034374
 21
21.0878273469
  0
LINE
  5
24F
100
AcDbEntity
  8
0
100
AcDbLine
 62
7
  6
CONTINUOUS
 10
59.8268034374
 20
27.2943427407
 11
58.3268034374
 21
27.2943427407
  0
LINE
  5
250
100
AcDbEntity
  8
0
100
AcDbLine
 62
7
  6
CONTINUOUS
 10
45.8268034374
 20
27.2943427407
 11
44.3268034384
 21
27.2943427407
  0
LINE
  5
251
100
AcDbEntity
  8
0
100
AcDbLine
 62
7
  6
CONTINUOUS
 10
42.1268034374
 20
27.2943427407
 11
40.6268034374
 21
27.2943427407
  0
LINE
  5
252
100
AcDbEntity
  8
0
100
AcDbLine
 62
7
  6
CONTINUOUS
 10
28.1268034374
 20
27.2943427407
 11
26.6268034384
 21
27.2943427407
  0
LINE
  5
253
100
AcDbEntity
  8
0
100
AcDbLine
 62
7
  6
CONTINUOUS
 10
24.4268034374
 20
27.2943427407
 11
22.9268034374
 21
27.2943427407
  0
LINE
  5
254
100
AcDbEntity
  8
0
100
AcDbLine
 62
7
  6
CONTINUOUS
 10
10.4268034374
 20
27.2943427407
 11
8.9268034384
 21
27.2943427407
  0
LINE
  5
255
100
AcDbEntity
  8
0
100
AcDbLine
 62
7
  6
CONTINUOUS
 10
10.4268034374
 20
28.9878273469
 11
22.9268034374
 21
28.9878273469
  0
LINE
  5
256
100
AcDbEntity
  8
0
100
AcDbLine
 62
7
  6
CONTINUOUS
 10
28.1268034374
 20
28.9878273469
 11
40.6268034374
 21
28.9878273469
  0
LINE
  5
257
100
AcDbEntity
  8
0
100
AcDbLine
 62
7
  6
CONTINUOUS
 10
45.8268034374
 20
28.9878273469
 11
58.3268034374
 21
28.9878273469
  0
LINE
  5
258
100
AcDbEntity
  8
0
100
AcDbLine
 62
7
  6
CONTINUOUS
 10
8.9268034385
 20
29.4594062502
 11
9.9268034374
 21
29.4594062502
  0
LINE
  5
259
100
AcDbEntity
  8
0
100
AcDbLine
 62
7
  6
CONTINUOUS
 10
23.4268034374
 20
29.4594062502
 11
24.4268034374
 21
29.4594062502
  0
LINE
  5
25A
100
AcDbEntity
  8
0
100
AcDbLine
 62
7
  6
CONTINUOUS
 10
26.6268034385
 20
29.4594062502
 11
27.6268034374
 21
29.4594062502
  0
LINE
  5
25B
100
AcDbEntity
  8
0
100
AcDbLine
 62
7
  6
CONTINUOUS
 10
41.1268034374
 20
29.4594062502
 11
42.1268034374
 21
29.4594062502
  0
LINE
  5
25C
100
AcDbEntity
  8
0
100
AcDbLine
 62
7
  6
CONTINUOUS
 10
44.3268034385
 20
29.4594062502
 11
45.3268034374
 21
29.4594062502
  0
LINE
  5
25D
100
AcDbEntity
  8
0
100
AcDbLine
 62
7
  6
CONTINUOUS
 10
58.8268034374
 20
29.4594062502
 11
59.8268034374
 21
29.4594062502
  0
LINE
  5
25E
100
AcDbEntity
  8
0
100
AcDbLine
 62
7
  6
CONTINUOUS
 10
17.2268034374
 20
84.8053108856
 11
17.2268034374
 21
79.3435565285
  0
LINE
  5
25F
100
AcDbEntity
  8
0
100
AcDbLine
 62
7
  6
CONTINUOUS
 10
19.1768034374
 20
21.0878273469
 11
19.1768034374
 21
28.9878273469
  0
LINE
  5
260
100
AcDbEntity
  8
0
100
AcDbLine
 62
7
  6
CONTINUOUS
 10
58.3268034373
 20
30.4878273469
 11
45.8268034376
 21
30.4878273469
  0
LINE
  5
261
100
AcDbEntity
  8
0
100
AcDbLine
 62
7
  6
CONTINUOUS
 10
10.4268034375
 20
30.4878273469
 11
22.9268034374
 21
30.4878273469
  0
LINE
  5
262
100
AcDbEntity
  8
0
100
AcDbLine
 62
7
  6
CONTINUOUS
 10
28.1268034375
 20
30.4878273469
 11
40.6268034374
 21
30.4878273469
  0
LINE
  5
263
100
AcDbEntity
  8
0
100
AcDbLine
 62
7
  6
CONTINUOUS
 10
19.6809292344
 20
23.0219507488
 11
19.6806205395
 21
28.9878273469
  0
LINE
  5
264
100
AcDbEntity
  8
0
100
AcDbLine
 62
7
  6
CONTINUOUS
 10
20.3820988432
 20
15.5878273469
 11
20.382098838
 21
12.5878273469
  0
LINE
  5
265
100
AcDbEntity
  8
0
100
AcDbLine
 62
7
  6
CONTINUOUS
 10
20.9268034382
 20
23.0219507488
 11
20.9268034374
 21
30.4878273469
  0
LINE
  5
266
100
AcDbEntity
  8
0
100
AcDbLine
 62
7
  6
CONTINUOUS
 10
20.9268034374
 20
46.7878273469
 11
20.9268034374
 21
48.3878273469
  0
LINE
  5
267
100
AcDbEntity
  8
0
100
AcDbLine
 62
7
  6
CONTINUOUS
 10
21.0768034374
 20
75.8878304123
 11
21.0768034374
 21
76.3431272576
  0
LINE
  5
268
100
AcDbEntity
  8
0
100
AcDbLine
 62
7
  6
CONTINUOUS
 10
21.6768034374
 20
76.3550641839
 11
21.6768034374
 21
75.8768492331
  0
LINE
  5
269
100
AcDbEntity
  8
0
100
AcDbLine
 62
7
  6
CONTINUOUS
 10
21.7268034374
 20
30.4878273469
 11
21.7268034374
 21
36.9878273469
  0
LINE
  5
26A
100
AcDbEntity
  8
0
100
AcDbLine
 62
7
  6
CONTINUOUS
 10
21.7268034374
 20
42.6878273469
 11
21.7268034374
 21
46.7878273469
  0
LINE
  5
26B
100
AcDbEntity
  8
0
100
AcDbLine
 62
7
  6
CONTINUOUS
 10
21.7268034374
 20
48.3878273469
 11
21.7268034374
 21
64.0878273469
  0
LINE
  5
26C
100
AcDbEntity
  8
0
100
AcDbLine
 62
7
  6
CONTINUOUS
 10
22.3791075264
 20
15.5878273469
 11
22.3791075264
 21
12.5878273469
  0
LINE
  5
26D
100
AcDbEntity
  8
0
100
AcDbLine
 62
7
  6
CONTINUOUS
 10
19.6811233546
 20
21.0878273469
 11
19.6811233546
 21
23.0219507488
  0
LINE
  5
26E
100
AcDbEntity
  8
0
100
AcDbLine
 62
7
  6
CONTINUOUS
 10
22.9268034374
 20
24.1766512871
 11
22.9268034374
 21
64.0878273469
  0
LINE
  5
26F
100
AcDbEntity
  8
0
100
AcDbLine
 62
7
  6
CONTINUOUS
 10
23.4268034374
 20
61.5878273469
 11
23.4268034374
 21
29.4594062502
  0
LINE
  5
270
100
AcDbEntity
  8
0
100
AcDbLine
 62
7
  6
CONTINUOUS
 10
24.4268034374
 20
21.0878273469
 11
24.4268034374
 21
64.0878273469
  0
LINE
  5
271
100
AcDbEntity
  8
0
100
AcDbLine
 62
7
  6
CONTINUOUS
 10
24.4768034374
 20
76.3431272576
 11
24.4768034374
 21
76.3550641839
  0
LINE
  5
272
100
AcDbEntity
  8
0
100
AcDbLine
 62
7
  6
CONTINUOUS
 10
25.5268034374
 20
76.3550641839
 11
25.5268034374
 21
10.3943318028
  0
LINE
  5
273
100
AcDbEntity
  8
0
100
AcDbLine
 62
7
  6
CONTINUOUS
 10
40.6278415428
 20
36.9878273469
 11
28.1268030905
 21
36.9878273469
  0
LINE
  5
274
100
AcDbEntity
  8
0
100
AcDbLine
 62
7
  6
CONTINUOUS
 10
22.9278415428
 20
36.9878273469
 11
10.4268030905
 21
36.9878273469
  0
LINE
  5
275
100
AcDbEntity
  8
0
100
AcDbLine
 62
7
  6
CONTINUOUS
 10
45.8268029922
 20
36.9878273469
 11
58.3285974085
 21
36.9878273469
  0
LINE
  5
276
100
AcDbEntity
  8
0
100
AcDbLine
 62
7
  6
CONTINUOUS
 10
26.1768034374
 20
76.3550641839
 11
26.1768034374
 21
76.3431272576
  0
LINE
  5
277
100
AcDbEntity
  8
0
100
AcDbLine
 62
7
  6
CONTINUOUS
 10
26.6268034384
 20
64.0878273469
 11
26.6268034379
 21
21.0878273469
  0
LINE
  5
278
100
AcDbEntity
  8
0
100
AcDbLine
 62
7
  6
CONTINUOUS
 10
27.6268034374
 20
29.4594062502
 11
27.6268034374
 21
61.5878273469
  0
LINE
  5
279
100
AcDbEntity
  8
0
100
AcDbLine
 62
7
  6
CONTINUOUS
 10
28.1268034374
 20
24.1766512871
 11
28.1268034374
 21
64.0878273469
  0
LINE
  5
27A
100
AcDbEntity
  8
0
100
AcDbLine
 62
7
  6
CONTINUOUS
 10
28.6156049718
 20
12.5878273469
 11
28.6156049718
 21
15.5878273469
  0
LINE
  5
27B
100
AcDbEntity
  8
0
100
AcDbLine
 62
7
  6
CONTINUOUS
 10
61.1768034374
 20
41.2878273469
 11
60.9268034374
 21
41.2878273469
  0
LINE
  5
27C
100
AcDbEntity
  8
0
100
AcDbLine
 62
7
  6
CONTINUOUS
 10
29.3268034374
 20
64.0878273469
 11
29.3268034374
 21
48.3878273469
  0
LINE
  5
27D
100
AcDbEntity
  8
0
100
AcDbLine
 62
7
  6
CONTINUOUS
 10
29.3268034374
 20
46.7878273469
 11
29.3268034374
 21
42.6878273469
  0
LINE
  5
27E
100
AcDbEntity
  8
0
100
AcDbLine
 62
7
  6
CONTINUOUS
 10
29.3268034374
 20
36.9878273469
 11
29.3268034374
 21
30.4878273469
  0
LINE
  5
27F
100
AcDbEntity
  8
0
100
AcDbLine
 62
7
  6
CONTINUOUS
 10
29.3768034374
 20
76.3431272576
 11
29.3768034374
 21
75.8878304113
  0
LINE
  5
280
100
AcDbEntity
  8
0
100
AcDbLine
 62
7
  6
CONTINUOUS
 10
30.1268034374
 20
48.3878273469
 11
30.1268034374
 21
46.7878273469
  0
LINE
  5
281
100
AcDbEntity
  8
0
100
AcDbLine
 62
7
  6
CONTINUOUS
 10
30.1268034374
 20
30.4878273469
 11
30.1268034311
 21
23.02195075
  0
LINE
  5
282
100
AcDbEntity
  8
0
100
AcDbLine
 62
7
  6
CONTINUOUS
 10
30.5823842347
 20
15.5878273469
 11
30.5823842347
 21
12.5878273469
  0
LINE
  5
283
100
AcDbEntity
  8
0
100
AcDbLine
 62
7
  6
CONTINUOUS
 10
31.3768034374
 20
21.0878273469
 11
31.3768034374
 21
28.9878273469
  0
LINE
  5
284
100
AcDbEntity
  8
0
100
AcDbLine
 62
7
  6
CONTINUOUS
 10
10.4268030905
 20
42.6878273469
 11
21.7268034374
 21
42.6878273469
  0
LINE
  5
285
100
AcDbEntity
  8
0
100
AcDbLine
 62
7
  6
CONTINUOUS
 10
21.7276772687
 20
42.6878273469
 11
22.9278415161
 21
42.6878273469
  0
LINE
  5
286
100
AcDbEntity
  8
0
100
AcDbLine
 62
7
  6
CONTINUOUS
 10
28.1268030905
 20
42.6878273469
 11
39.4268034374
 21
42.6878273469
  0
LINE
  5
287
100
AcDbEntity
  8
0
100
AcDbLine
 62
7
  6
CONTINUOUS
 10
39.4276772687
 20
42.6878273469
 11
40.6278415161
 21
42.6878273469
  0
LINE
  5
288
100
AcDbEntity
  8
0
100
AcDbLine
 62
7
  6
CONTINUOUS
 10
45.8268029922
 20
42.6878273469
 11
58.328597241
 21
42.6878273469
  0
LINE
  5
289
100
AcDbEntity
  8
0
100
AcDbLine
 62
7
  6
CONTINUOUS
 10
61.1768034374
 20
43.2878273469
 11
60.9268034374
 21
43.2878273469
  0
LINE
  5
28A
100
AcDbEntity
  8
0
100
AcDbLine
 62
7
  6
CONTINUOUS
 10
31.8768034374
 20
28.9878273469
 11
31.8768034374
 21
21.0878273469
  0
LINE
  5
28B
100
AcDbEntity
  8
0
100
AcDbLine
 62
7
  6
CONTINUOUS
 10
10.4268034375
 20
46.7878273469
 11
22.9268034374
 21
46.7878273469
  0
LINE
  5
28C
100
AcDbEntity
  8
0
100
AcDbLine
 62
7
  6
CONTINUOUS
 10
28.1268034375
 20
46.7878273469
 11
40.6268034374
 21
46.7878273469
  0
LINE
  5
28D
100
AcDbEntity
  8
0
100
AcDbLine
 62
7
  6
CONTINUOUS
 10
45.8268034376
 20
46.7878273469
 11
58.3268034373
 21
46.7878273469
  0
LINE
  5
28E
100
AcDbEntity
  8
0
100
AcDbLine
 62
7
  6
CONTINUOUS
 10
36.8768034374
 20
21.0878273469
 11
36.8768034374
 21
28.9878273469
  0
LINE
  5
28F
100
AcDbEntity
  8
0
100
AcDbLine
 62
7
  6
CONTINUOUS
 10
37.3809292344
 20
23.0219507488
 11
37.3806205395
 21
28.9878273469
  0
LINE
  5
290
100
AcDbEntity
  8
0
100
AcDbLine
 62
7
  6
CONTINUOUS
 10
37.3811233546
 20
21.0878273469
 11
37.3811233546
 21
23.0219507488
  0
LINE
  5
291
100
AcDbEntity
  8
0
100
AcDbLine
 62
7
  6
CONTINUOUS
 10
58.3268034374
 20
48.3878273469
 11
45.8268034374
 21
48.3878273469
  0
LINE
  5
292
100
AcDbEntity
  8
0
100
AcDbLine
 62
7
  6
CONTINUOUS
 10
10.4268034374
 20
48.3878273469
 11
22.9268034374
 21
48.3878273469
  0
LINE
  5
293
100
AcDbEntity
  8
0
100
AcDbLine
 62
7
  6
CONTINUOUS
 10
28.1268034374
 20
48.3878273469
 11
40.6268034374
 21
48.3878273469
  0
LINE
  5
294
100
AcDbEntity
  8
0
100
AcDbLine
 62
7
  6
CONTINUOUS
 10
38.0820988432
 20
15.5878273469
 11
38.082098838
 21
12.5878273469
  0
LINE
  5
295
100
AcDbEntity
  8
0
100
AcDbLine
 62
7
  6
CONTINUOUS
 10
38.6268034382
 20
23.0219507488
 11
38.6268034374
 21
30.4878273469
  0
LINE
  5
296
100
AcDbEntity
  8
0
100
AcDbLine
 62
7
  6
CONTINUOUS
 10
38.6268034374
 20
46.7878273469
 11
38.6268034374
 21
48.3878273469
  0
LINE
  5
297
100
AcDbEntity
  8
0
100
AcDbLine
 62
7
  6
CONTINUOUS
 10
38.7768034374
 20
75.8878304123
 11
38.7768034374
 21
76.3431272576
  0
LINE
  5
298
100
AcDbEntity
  8
0
100
AcDbLine
 62
7
  6
CONTINUOUS
 10
39.3768034374
 20
76.3550641839
 11
39.3768034374
 21
75.8768492331
  0
LINE
  5
299
100
AcDbEntity
  8
0
100
AcDbLine
 62
7
  6
CONTINUOUS
 10
39.4268034374
 20
30.4878273469
 11
39.4268034374
 21
36.9878273469
  0
LINE
  5
29A
100
AcDbEntity
  8
0
100
AcDbLine
 62
7
  6
CONTINUOUS
 10
39.4268034374
 20
42.6878273469
 11
39.4268034374
 21
46.7878273469
  0
LINE
  5
29B
100
AcDbEntity
  8
0
100
AcDbLine
 62
7
  6
CONTINUOUS
 10
39.4268034374
 20
48.3878273469
 11
39.4268034374
 21
64.0878273469
  0
LINE
  5
29C
100
AcDbEntity
  8
0
100
AcDbLine
 62
7
  6
CONTINUOUS
 10
40.0791075264
 20
15.5878273469
 11
40.0791075264
 21
12.5878273469
  0
LINE
  5
29D
100
AcDbEntity
  8
0
100
AcDbLine
 62
7
  6
CONTINUOUS
 10
40.6268034374
 20
24.1766512871
 11
40.6268034374
 21
64.0878273469
  0
LINE
  5
29E
100
AcDbEntity
  8
0
100
AcDbLine
 62
7
  6
CONTINUOUS
 10
61.1768034374
 20
52.3878273469
 11
60.9268034374
 21
52.3878273469
  0
LINE
  5
29F
100
AcDbEntity
  8
0
100
AcDbLine
 62
7
  6
CONTINUOUS
 10
41.1268034374
 20
61.5878273469
 11
41.1268034374
 21
29.4594062502
  0
LINE
  5
2A0
100
AcDbEntity
  8
0
100
AcDbLine
 62
7
  6
CONTINUOUS
 10
42.1268034374
 20
21.0878273469
 11
42.1268034374
 21
64.0878273469
  0
LINE
  5
2A1
100
AcDbEntity
  8
0
100
AcDbLine
 62
7
  6
CONTINUOUS
 10
42.1768034374
 20
76.3431272576
 11
42.1768034374
 21
76.3550641839
  0
LINE
  5
2A2
100
AcDbEntity
  8
0
100
AcDbLine
 62
7
  6
CONTINUOUS
 10
43.2268034374
 20
76.3550641839
 11
43.2268034374
 21
10.3943318028
  0
LINE
  5
2A3
100
AcDbEntity
  8
0
100
AcDbLine
 62
7
  6
CONTINUOUS
 10
43.8768034374
 20
76.3550641839
 11
43.8768034374
 21
76.3431272576
  0
LINE
  5
2A4
100
AcDbEntity
  8
0
100
AcDbLine
 62
7
  6
CONTINUOUS
 10
61.1768034374
 20
54.3878273469
 11
60.9268034374
 21
54.3878273469
  0
LINE
  5
2A5
100
AcDbEntity
  8
0
100
AcDbLine
 62
7
  6
CONTINUOUS
 10
44.3268034379
 20
21.0878273469
 11
44.3268034384
 21
64.0878273469
  0
LINE
  5
2A6
100
AcDbEntity
  8
0
100
AcDbLine
 62
7
  6
CONTINUOUS
 10
45.3268034374
 20
29.4594062502
 11
45.3268034374
 21
61.5878273469
  0
LINE
  5
2A7
100
AcDbEntity
  8
0
100
AcDbLine
 62
7
  6
CONTINUOUS
 10
45.8268034374
 20
24.1766512871
 11
45.8268034374
 21
64.0878273469
  0
LINE
  5
2A8
100
AcDbEntity
  8
0
100
AcDbLine
 62
7
  6
CONTINUOUS
 10
46.3156049718
 20
12.5878273469
 11
46.3156049718
 21
15.5878273469
  0
LINE
  5
2A9
100
AcDbEntity
  8
0
100
AcDbLine
 62
7
  6
CONTINUOUS
 10
47.0268034374
 20
64.0878273469
 11
47.0268034374
 21
48.3878273469
  0
LINE
  5
2AA
100
AcDbEntity
  8
0
100
AcDbLine
 62
7
  6
CONTINUOUS
 10
47.0268034374
 20
46.7878273469
 11
47.0268034374
 21
42.6878273469
  0
LINE
  5
2AB
100
AcDbEntity
  8
0
100
AcDbLine
 62
7
  6
CONTINUOUS
 10
47.0268034374
 20
36.9878273469
 11
47.0268034374
 21
30.4878273469
  0
LINE
  5
2AC
100
AcDbEntity
  8
0
100
AcDbLine
 62
7
  6
CONTINUOUS
 10
47.0768034374
 20
76.3431272576
 11
47.0768034374
 21
75.8878291868
  0
LINE
  5
2AD
100
AcDbEntity
  8
0
100
AcDbLine
 62
7
  6
CONTINUOUS
 10
47.8268034374
 20
48.3878273469
 11
47.8268034374
 21
46.7878273469
  0
LINE
  5
2AE
100
AcDbEntity
  8
0
100
AcDbLine
 62
7
  6
CONTINUOUS
 10
47.8268034374
 20
30.4878273469
 11
47.8268034387
 21
23.0219507497
  0
LINE
  5
2AF
100
AcDbEntity
  8
0
100
AcDbLine
 62
7
  6
CONTINUOUS
 10
48.2823842348
 20
15.5878273469
 11
48.2823842348
 21
12.5878273469
  0
LINE
  5
2B0
100
AcDbEntity
  8
0
100
AcDbLine
 62
7
  6
CONTINUOUS
 10
49.0768034374
 20
21.0878273469
 11
49.0768034374
 21
28.9878273469
  0
LINE
  5
2B1
100
AcDbEntity
  8
0
100
AcDbLine
 62
7
  6
CONTINUOUS
 10
49.5768034374
 20
28.9878273469
 11
49.5768034374
 21
21.0878273469
  0
LINE
  5
2B2
100
AcDbEntity
  8
0
100
AcDbLine
 62
7
  6
CONTINUOUS
 10
59.8268034374
 20
61.5878273469
 11
58.8268034374
 21
61.5878273469
  0
LINE
  5
2B3
100
AcDbEntity
  8
0
100
AcDbLine
 62
7
  6
CONTINUOUS
 10
45.3268034374
 20
61.5878273469
 11
44.3268034385
 21
61.5878273469
  0
LINE
  5
2B4
100
AcDbEntity
  8
0
100
AcDbLine
 62
7
  6
CONTINUOUS
 10
42.1268034374
 20
61.5878273469
 11
41.1268034374
 21
61.5878273469
  0
LINE
  5
2B5
100
AcDbEntity
  8
0
100
AcDbLine
 62
7
  6
CONTINUOUS
 10
27.6268034374
 20
61.5878273469
 11
26.6268034385
 21
61.5878273469
  0
LINE
  5
2B6
100
AcDbEntity
  8
0
100
AcDbLine
 62
7
  6
CONTINUOUS
 10
24.4268034374
 20
61.5878273469
 11
23.4268034374
 21
61.5878273469
  0
LINE
  5
2B7
100
AcDbEntity
  8
0
100
AcDbLine
 62
7
  6
CONTINUOUS
 10
9.9268034374
 20
61.5878273469
 11
8.9268034385
 21
61.5878273469
  0
LINE
  5
2B8
100
AcDbEntity
  8
0
100
AcDbLine
 62
7
  6
CONTINUOUS
 10
51.1768033579
 20
79.3435565285
 11
51.1768033579
 21
84.8053108856
  0
LINE
  5
2B9
100
AcDbEntity
  8
0
100
AcDbLine
 62
7
  6
CONTINUOUS
 10
7.8268034374
 20
64.0878273469
 11
60.9268034374
 21
64.0878273469
  0
LINE
  5
2BA
100
AcDbEntity
  8
0
100
AcDbLine
 62
7
  6
CONTINUOUS
 10
54.5768034374
 20
21.0878273469
 11
54.5768034374
 21
28.9878273469
  0
LINE
  5
2BB
100
AcDbEntity
  8
0
100
AcDbLine
 62
7
  6
CONTINUOUS
 10
55.0811233546
 20
28.9878273469
 11
55.0811233546
 21
21.0878273469
  0
LINE
  5
2BC
100
AcDbEntity
  8
0
100
AcDbLine
 62
7
  6
CONTINUOUS
 10
55.7820987377
 20
15.5878273469
 11
55.7820987342
 21
12.5878273469
  0
LINE
  5
2BD
100
AcDbEntity
  8
0
100
AcDbLine
 62
7
  6
CONTINUOUS
 10
56.3268034374
 20
23.0219507488
 11
56.3268034374
 21
30.4878273469
  0
LINE
  5
2BE
100
AcDbEntity
  8
0
100
AcDbLine
 62
7
  6
CONTINUOUS
 10
56.3268034374
 20
46.7878273469
 11
56.3268034374
 21
48.3878273469
  0
LINE
  5
2BF
100
AcDbEntity
  8
0
100
AcDbLine
 62
7
  6
CONTINUOUS
 10
56.4768034374
 20
75.8878291867
 11
56.4768034374
 21
76.3431272576
  0
LINE
  5
2C0
100
AcDbEntity
  8
0
100
AcDbLine
 62
7
  6
CONTINUOUS
 10
57.0768034374
 20
76.3550641839
 11
57.0768034374
 21
75.8767574061
  0
LINE
  5
2C1
100
AcDbEntity
  8
0
100
AcDbLine
 62
7
  6
CONTINUOUS
 10
57.1268034374
 20
30.4878273469
 11
57.1268034374
 21
36.9878273469
  0
LINE
  5
2C2
100
AcDbEntity
  8
0
100
AcDbLine
 62
7
  6
CONTINUOUS
 10
57.1268034374
 20
42.6878273469
 11
57.1268034374
 21
46.7878273469
  0
LINE
  5
2C3
100
AcDbEntity
  8
0
100
AcDbLine
 62
7
  6
CONTINUOUS
 10
57.1268034374
 20
48.3878273469
 11
57.1268034374
 21
64.0878273469
  0
LINE
  5
2C4
100
AcDbEntity
  8
0
100
AcDbLine
 62
7
  6
CONTINUOUS
 10
57.7791075264
 20
15.5878273469
 11
57.7791075264
 21
12.5878273469
  0
LINE
  5
2C5
100
AcDbEntity
  8
0
100
AcDbLine
 62
7
  6
CONTINUOUS
 10
58.3268034374
 20
24.1766512871
 11
58.3268034374
 21
64.0878273469
  0
LINE
  5
2C6
100
AcDbEntity
  8
0
100
AcDbLine
 62
7
  6
CONTINUOUS
 10
58.8268034374
 20
61.5878273469
 11
58.8268034374
 21
29.4594062502
  0
LINE
  5
2C7
100
AcDbEntity
  8
0
100
AcDbLine
 62
7
  6
CONTINUOUS
 10
61.1768034374
 20
70.8878273469
 11
60.9268034374
 21
70.8878273469
  0
LINE
  5
2C8
100
AcDbEntity
  8
0
100
AcDbLine
 62
7
  6
CONTINUOUS
 10
60.4058492161
 20
76.4862772013
 11
60.3881050365
 21
76.7724050798
  0
LINE
  5
2C9
100
AcDbEntity
  8
0
100
AcDbLine
 62
7
  6
CONTINUOUS
 10
60.4058492161
 20
79.7009961264
 11
60.2921139536
 21
81.5349963477
  0
LINE
  5
2CA
100
AcDbEntity
  8
0
100
AcDbLine
 62
7
  6
CONTINUOUS
 10
59.8268034374
 20
21.0878273469
 11
59.8268034374
 21
64.0878273469
  0
LINE
  5
2CB
100
AcDbEntity
  8
0
100
AcDbLine
 62
7
  6
CONTINUOUS
 10
59.8768034374
 20
76.3431272576
 11
59.8768034374
 21
76.3550641839
  0
LINE
  5
2CC
100
AcDbEntity
  8
0
100
AcDbLine
 62
7
  6
CONTINUOUS
 10
60.0908900274
 20
79.6907371775
 11
60.0908900274
 21
81.7991941954
  0
LINE
  5
2CD
100
AcDbEntity
  8
0
100
AcDbLine
 62
7
  6
CONTINUOUS
 10
60.4058492161
 20
76.3550641839
 11
60.4058492161
 21
76.4862772013
  0
LINE
  5
2CE
100
AcDbEntity
  8
0
100
AcDbLine
 62
7
  6
CONTINUOUS
 10
60.4058492161
 20
79.5697831091
 11
60.4058492161
 21
79.7009961264
  0
LINE
  5
2CF
100
AcDbEntity
  8
0
100
AcDbLine
 62
7
  6
CONTINUOUS
 10
60.9268034374
 20
10.3947964069
 11
60.9268034374
 21
79.184373303
  0
LINE
  5
2D0
100
AcDbEntity
  8
0
100
AcDbLine
 62
7
  6
CONTINUOUS
 10
61.1768034374
 20
18.8878273469
 11
61.1768034374
 21
20.8878273469
  0
LINE
  5
2D1
100
AcDbEntity
  8
0
100
AcDbLine
 62
7
  6
CONTINUOUS
 10
61.1768034374
 20
22.4878273469
 11
61.1768034374
 21
24.4878273469
  0
LINE
  5
2D2
100
AcDbEntity
  8
0
100
AcDbLine
 62
7
  6
CONTINUOUS
 10
61.1768034374
 20
41.2878273469
 11
61.1768034374
 21
43.2878273469
  0
LINE
  5
2D3
100
AcDbEntity
  8
0
100
AcDbLine
 62
7
  6
CONTINUOUS
 10
61.1768034374
 20
52.3878273469
 11
61.1768034374
 21
54.3878273469
  0
LINE
  5
2D4
100
AcDbEntity
  8
0
100
AcDbLine
 62
7
  6
CONTINUOUS
 10
61.1768034374
 20
70.8878273469
 11
61.1768034374
 21
72.8878273469
  0
LINE
  5
2D5
100
AcDbEntity
  8
0
100
AcDbLine
 62
7
  6
CONTINUOUS
 10
61.1768034374
 20
72.8878273469
 11
60.9268034374
 21
72.8878273469
  0
LINE
  5
2D6
100
AcDbEntity
  8
0
100
AcDbLine
 62
7
  6
CONTINUOUS
 10
60.9268034374
 20
73.8878273469
 11
7.8268034374
 21
73.8878273469
  0
LINE
  5
2D7
100
AcDbEntity
  8
0
100
AcDbLine
 62
7
  6
CONTINUOUS
 10
60.9268034374
 20
75.8878291866
 11
7.8268034374
 21
75.8878304109
  0
LINE
  5
2D8
100
AcDbEntity
  8
0
100
AcDbLine
 62
7
  6
CONTINUOUS
 10
42.1768034374
 20
76.3431272576
 11
26.1768034374
 21
76.3431272576
  0
LINE
  5
2D9
100
AcDbEntity
  8
0
100
AcDbLine
 62
7
  6
CONTINUOUS
 10
24.4768034374
 20
76.3431272576
 11
8.4768034374
 21
76.3431272576
  0
LINE
  5
2DA
100
AcDbEntity
  8
0
100
AcDbLine
 62
7
  6
CONTINUOUS
 10
43.8768034374
 20
76.3431272576
 11
59.8768034374
 21
76.3431272576
  0
LINE
  5
2DB
100
AcDbEntity
  8
0
100
AcDbLine
 62
7
  6
CONTINUOUS
 10
8.0768034374
 20
76.3550641839
 11
60.4058492161
 21
76.3550641839
  0
LINE
  5
2DC
100
AcDbEntity
  8
0
100
AcDbLine
 62
7
  6
CONTINUOUS
 10
8.0768034374
 20
76.4832951796
 11
60.2921139536
 21
76.4832951796
  0
LINE
  5
2DD
100
AcDbEntity
  8
0
100
AcDbLine
 62
7
  6
CONTINUOUS
 10
60.0939520931
 20
78.2705780911
 11
8.0768034374
 21
78.2705780911
  0
LINE
  5
2DE
100
AcDbEntity
  8
0
100
AcDbLine
 62
7
  6
CONTINUOUS
 10
60.2921139535
 20
81.5349963477
 11
60.0940909531
 21
83.1654258364
  0
LINE
  5
2DF
100
AcDbEntity
  8
0
100
AcDbLine
 62
7
  6
CONTINUOUS
 10
60.1340268576
 20
81.755083444
 11
60.3881050365
 21
79.5897888116
  0
LINE
  5
2E0
100
AcDbEntity
  8
0
100
AcDbLine
 62
7
  6
CONTINUOUS
 10
60.3881050365
 20
76.7724050798
 11
60.1340268579
 21
78.9906246081
  0
LINE
  5
2E1
100
AcDbEntity
  8
0
100
AcDbLine
 62
7
  6
CONTINUOUS
 10
60.0939520931
 20
78.2705780911
 11
60.2921139536
 21
76.4832951796
  0
LINE
  5
2E2
100
AcDbEntity
  8
0
100
AcDbLine
 62
7
  6
CONTINUOUS
 10
59.8890694403
 20
83.5865071284
 11
59.8793285433
 21
83.585258
  0
LINE
  5
2E3
100
AcDbEntity
  8
0
100
AcDbLine
 62
7
  6
CONTINUOUS
 10
60.9268034374
 20
79.1847729432
 11
60.1156533324
 21
79.1847729432
  0
LINE
  5
2E4
100
AcDbEntity
  8
0
100
AcDbLine
 62
7
  6
CONTINUOUS
 10
8.0768034374
 20
79.1847729432
 11
7.8268034374
 21
79.1847729432
  0
LINE
  5
2E5
100
AcDbEntity
  8
0
100
AcDbLine
 62
7
  6
CONTINUOUS
 10
17.2268034374
 20
79.3435565286
 11
51.1768033579
 21
79.3435565286
  0
LINE
  5
2E6
100
AcDbEntity
  8
0
100
AcDbLine
 62
7
  6
CONTINUOUS
 10
60.0932573275
 20
79.5697831091
 11
60.4058492161
 21
79.5697831091
  0
LINE
  5
2E7
100
AcDbEntity
  8
0
100
AcDbLine
 62
7
  6
CONTINUOUS
 10
60.0925630008
 20
79.5897888116
 11
60.3881050365
 21
79.5897888116
  0
LINE
  5
2E8
100
AcDbEntity
  8
0
100
AcDbLine
 62
7
  6
CONTINUOUS
 10
51.1768033579
 20
81.5546674876
 11
59.8793279765
 21
81.5546674876
  0
LINE
  5
2E9
100
AcDbEntity
  8
0
100
AcDbLine
 62
7
  6
CONTINUOUS
 10
8.0768034374
 20
81.5546819719
 11
17.2268034374
 21
81.5546819719
  0
LINE
  5
2EA
100
AcDbEntity
  8
0
100
AcDbLine
 62
7
  6
CONTINUOUS
 10
60.0940909531
 20
83.1654258364
 11
60.0933581754
 21
83.1686977597
  0
LINE
  5
2EB
100
AcDbEntity
  8
0
100
AcDbLine
 62
7
  6
CONTINUOUS
 10
60.1340268576
 20
81.755083444
 11
60.0908900274
 21
81.755083444
  0
LINE
  5
2EC
100
AcDbEntity
  8
0
100
AcDbLine
 62
7
  6
CONTINUOUS
 10
17.2268034374
 20
82.5746895906
 11
51.1768033579
 21
82.5746895906
  0
LINE
  5
2ED
100
AcDbEntity
  8
0
100
AcDbLine
 62
7
  6
CONTINUOUS
 10
8.0768034374
 20
83.585258655
 11
17.2268034374
 21
83.585258655
  0
LINE
  5
2EE
100
AcDbEntity
  8
0
100
AcDbLine
 62
7
  6
CONTINUOUS
 10
51.1768033579
 20
83.5852588195
 11
59.8793282119
 21
83.5852588195
  0
LINE
  5
2EF
100
AcDbEntity
  8
0
100
AcDbLine
 62
7
  6
CONTINUOUS
 10
8.0768034374
 20
83.5865270203
 11
17.2268034374
 21
83.5865270203
  0
LINE
  5
2F0
100
AcDbEntity
  8
0
100
AcDbLine
 62
7
  6
CONTINUOUS
 10
51.1768033579
 20
83.5865270203
 11
59.8793281374
 21
83.5865270203
  0
LINE
  5
2F1
100
AcDbEntity
  8
0
100
AcDbLine
 62
7
  6
CONTINUOUS
 10
51.1768033579
 20
84.8053108856
 11
17.2268034374
 21
84.8053108856
  0
LINE
  5
2F2
100
AcDbEntity
  8
0
100
AcDbLine
 62
7
  6
CONTINUOUS
 10
60.2921139536
 20
76.4832951796
 11
60.4058492161
 21
76.3550641839
  0
LINE
  5
2F3
100
AcDbEntity
  8
0
100
AcDbLine
 62
7
  6
CONTINUOUS
 10
60.3881050365
 20
79.5897888116
 11
60.4058492161
 21
79.5697831091
  0
ARC
  5
2F4
100
AcDbEntity
  8
0
100
AcDbCircle
 62
7
  6
CONTINUOUS
 10
260.8952225038
 20
93.0432603339
 40
201.3439400102
100
AcDbArc
 50
183.3212266771
 51
184.2075972494
  0
ARC
  5
2F5
100
AcDbEntity
  8
0
100
AcDbCircle
 62
7
  6
CONTINUOUS
 10
99.5386199425
 20
83.8193658209
 40
39.7239006749
100
AcDbArc
 50
183.0623373007
 51
183.2683071866
  0
SPLINE
  5
2F6
100
AcDbEntity
  8
0
100
AcDbSpline
 62
7
  6
CONTINUOUS
 70
0
 71
3
 72
16
 73
12
 74
0
 42
0.0000001
 43
0.0000001
 44
0.0000000001
 40
0.0
 40
0.0
 40
0.0
 40
0.0
 40
0.2115055032
 40
0.3972261298
 40
0.5571517774
 40
0.6914614165
 40
0.8007121299
 40
0.8860926302
 40
0.92064437
 40
0.9504971537
 40
1.0
 40
1.0
 40
1.0
 40
1.0
 10
60.0933581754
 20
83.1686977597
 30
0.0
 10
60.0844411182
 20
83.201291243
 30
0.0
 10
60.0669739712
 20
83.2623126861
 30
0.0
 10
60.0397738401
 20
83.3470895203
 30
0.0
 10
60.0133197528
 20
83.4190890492
 30
0.0
 10
59.9876616468
 20
83.4782900443
 30
0.0
 10
59.9628200204
 20
83.5246654784
 30
0.0
 10
59.9415358337
 20
83.5547140918
 30
0.0
 10
59.9243937628
 20
83.57155068
 30
0.0
 10
59.9096696037
 20
83.5822397714
 30
0.0
 10
59.8969771206
 20
83.5865229744
 30
0.0
 10
59.8890682797
 20
83.5865247636
 30
0.0
  0
SPLINE
  5
2F7
100
AcDbEntity
  8
0
100
AcDbSpline
 62
7
  6
CONTINUOUS
 70
0
 71
3
 72
9
 73
5
 74
0
 42
0.0000001
 43
0.0000001
 44
0.0000000001
 40
0.0
 40
0.0
 40
0.0
 40
0.0
 40
0.5491382395
 40
1.0
 40
1.0
 40
1.0
 40
1.0
 10
60.1016374033
 20
79.3826712944
 30
0.0
 10
60.0983701557
 20
79.4390063273
 30
0.0
 10
60.0934259509
 20
79.5416523513
 30
0.0
 10
60.0908900274
 20
79.6444064155
 30
0.0
 10
60.0908900274
 20
79.6907371775
 30
0.0
  0
SPLINE
  5
2F8
100
AcDbEntity
  8
0
100
AcDbSpline
 62
7
  6
CONTINUOUS
 70
0
 71
3
 72
9
 73
5
 74
0
 42
0.0000001
 43
0.0000001
 44
0.0000000001
 40
0.0
 40
0.0
 40
0.0
 40
0.0
 40
0.4693864948
 40
1.0
 40
1.0
 40
1.0
 40
1.0
 10
60.1340268576
 20
78.9906246081
 30
0.0
 10
60.127022077
 20
79.0517795693
 30
0.0
 10
60.1148224095
 20
79.1823749492
 30
0.0
 10
60.1056662813
 20
79.3132039622
 30
0.0
 10
60.1016374033
 20
79.3826712944
 30
0.0
  0
LINE
  5
2F9
100
AcDbEntity
  8
0
100
AcDbLine
 62
7
  6
CONTINUOUS
 10
59.8793299905
 20
81.5546350799
 11
59.8894553364
 21
81.3786238512
  0
SPLINE
  5
2FA
100
AcDbEntity
  8
0
100
AcDbSpline
 62
7
  6
CONTINUOUS
 70
0
 71
3
 72
21
 73
17
 74
0
 42
0.0000001
 43
0.0000001
 44
0.0000000001
 40
0.0
 40
0.0
 40
0.0
 40
0.0
 40
0.0034728027
 40
0.0084241821
 40
0.015256738
 40
0.0241132508
 40
0.0480861626
 40
0.0804407897
 40
0.121043457
 40
0.1696704062
 40
0.2259899994
 40
0.2896381284
 40
0.437089819
 40
0.6079086644
 40
0.7972894034
 40
1.0
 40
1.0
 40
1.0
 40
1.0
 10
59.8793285433
 20
83.585258
 30
0.0
 10
59.8772050964
 20
83.5847003469
 30
0.0
 10
59.8727269517
 20
83.5812545433
 30
0.0
 10
59.8677714335
 20
83.5729361419
 30
0.0
 10
59.8629726811
 20
83.5607518173
 30
0.0
 10
59.8563199524
 20
83.5365539836
 30
0.0
 10
59.8494347007
 20
83.4958479562
 30
0.0
 10
59.842814725
 20
83.4349248435
 30
0.0
 10
59.837476583
 20
83.3582276246
 30
0.0
 10
59.8334669228
 20
83.2662964396
 30
0.0
 10
59.8308513952
 20
83.1597399052
 30
0.0
 10
59.8292066293
 20
82.9906852841
 30
0.0
 10
59.8312513954
 20
82.7492325139
 30
0.0
 10
59.8391712868
 20
82.4283920521
 30
0.0
 10
59.8525576556
 20
82.0727724765
 30
0.0
 10
59.864599356
 20
81.8251861598
 30
0.0
 10
59.8714448922
 20
81.6972187107
 30
0.0
  0
SPLINE
  5
2FB
100
AcDbEntity
  8
0
100
AcDbSpline
 62
7
  6
CONTINUOUS
 70
0
 71
3
 72
12
 73
8
 74
0
 42
0.0000001
 43
0.0000001
 44
0.0000000001
 40
0.0
 40
0.0
 40
0.0
 40
0.0
 40
0.110013934
 40
0.2266686789
 40
0.4741958358
 40
0.7342820599
 40
1.0
 40
1.0
 40
1.0
 40
1.0
 10
58.3268034374
 20
63.0878273469
 30
0.0
 10
58.3268034374
 20
63.0295159238
 30
0.0
 10
58.3382636404
 20
62.9093480273
 30
0.0
 10
58.3917765286
 20
62.663480726
 30
0.0
 10
58.4985352385
 20
62.3494693879
 30
0.0
 10
58.6554406821
 20
61.970805674
 30
0.0
 10
58.7693056414
 20
61.7163963274
 30
0.0
 10
58.8268034374
 20
61.5878273469
 30
0.0
  0
SPLINE
  5
2FC
100
AcDbEntity
  8
0
100
AcDbSpline
 62
7
  6
CONTINUOUS
 70
0
 71
3
 72
12
 73
8
 74
0
 42
0.0000001
 43
0.0000001
 44
0.0000000001
 40
0.0
 40
0.0
 40
0.0
 40
0.0
 40
0.2655776774
 40
0.5257029821
 40
0.7733345861
 40
0.8901064805
 40
1.0
 40
1.0
 40
1.0
 40
1.0
 10
58.8268034374
 20
29.4594062502
 30
0.0
 10
58.7693353675
 20
29.3309037393
 30
0.0
 10
58.655604377
 20
29.0764971723
 30
0.0
 10
58.4983153817
 20
28.6979672996
 30
0.0
 10
58.3918946281
 20
28.3837110166
 30
0.0
 10
58.3381065848
 20
28.1378387681
 30
0.0
 10
58.3268034374
 20
28.0176544826
 30
0.0
 10
58.3268034374
 20
27.9594062502
 30
0.0
  0
SPLINE
  5
2FD
100
AcDbEntity
  8
0
100
AcDbSpline
 62
7
  6
CONTINUOUS
 70
0
 71
3
 72
12
 73
8
 74
0
 42
0.0000001
 43
0.0000001
 44
0.0000000001
 40
0.0
 40
0.0
 40
0.0
 40
0.0
 40
0.1098637177
 40
0.2266275341
 40
0.4742710088
 40
0.7344096157
 40
1.0
 40
1.0
 40
1.0
 40
1.0
 10
45.8268034374
 20
63.0887510615
 30
0.0
 10
45.8269179708
 20
63.0304850334
 30
0.0
 10
45.8156962127
 20
62.9102298705
 30
0.0
 10
45.7618272928
 20
62.6642429153
 30
0.0
 10
45.6554808676
 20
62.349754756
 30
0.0
 10
45.4981401797
 20
61.970962554
 30
0.0
 10
45.3843075207
 20
61.7164103862
 30
0.0
 10
45.3268034374
 20
61.5878273469
 30
0.0
  0
SPLINE
  5
2FE
100
AcDbEntity
  8
0
100
AcDbSpline
 62
7
  6
CONTINUOUS
 70
0
 71
3
 72
12
 73
8
 74
0
 42
0.0000001
 43
0.0000001
 44
0.0000000001
 40
0.0
 40
0.0
 40
0.0
 40
0.0
 40
0.1098631284
 40
0.2266119865
 40
0.4742428224
 40
0.7343884658
 40
1.0
 40
1.0
 40
1.0
 40
1.0
 10
45.8268017235
 20
27.9575187454
 30
0.0
 10
45.8269163244
 20
28.0158196618
 30
0.0
 10
45.8157808209
 20
28.1361407491
 30
0.0
 10
45.7621280805
 20
28.3823207485
 30
0.0
 10
45.6557019632
 20
28.696993721
 30
0.0
 10
45.4982372569
 20
29.0760072481
 30
0.0
 10
45.3843468434
 20
29.3307352827
 30
0.0
 10
45.3268034374
 20
29.4594062502
 30
0.0
  0
SPLINE
  5
2FF
100
AcDbEntity
  8
0
100
AcDbSpline
 62
7
  6
CONTINUOUS
 70
0
 71
3
 72
12
 73
8
 74
0
 42
0.0000001
 43
0.0000001
 44
0.0000000001
 40
0.0
 40
0.0
 40
0.0
 40
0.0
 40
0.2656078498
 40
0.5256757857
 40
0.7733130093
 40
0.8901105805
 40
1.0
 40
1.0
 40
1.0
 40
1.0
 10
23.4268034374
 20
61.5878273469
 30
0.0
 10
23.3693296288
 20
61.7163426899
 30
0.0
 10
23.2552692527
 20
61.9705796467
 30
0.0
 10
23.0981752792
 20
62.3491946878
 30
0.0
 10
22.9922467978
 20
62.6635735285
 30
0.0
 10
22.9381914031
 20
62.9093878664
 30
0.0
 10
22.9268034374
 20
63.0295820886
 30
0.0
 10
22.9268034374
 20
63.0878273469
 30
0.0
  0
SPLINE
  5
300
100
AcDbEntity
  8
0
100
AcDbSpline
 62
7
  6
CONTINUOUS
 70
0
 71
3
 72
12
 73
8
 74
0
 42
0.0000001
 43
0.0000001
 44
0.0000000001
 40
0.0
 40
0.0
 40
0.0
 40
0.0
 40
0.1098932829
 40
0.2266608528
 40
0.4742866305
 40
0.7344196858
 40
1.0
 40
1.0
 40
1.0
 40
1.0
 10
22.9268034374
 20
27.9594062502
 30
0.0
 10
22.9268034374
 20
28.017654316
 30
0.0
 10
22.9381115869
 20
28.1378357258
 30
0.0
 10
22.9918975165
 20
28.3837021603
 30
0.0
 10
23.0983134633
 20
28.6979586129
 30
0.0
 10
23.2556010802
 20
29.0764914009
 30
0.0
 10
23.3693348375
 20
29.3309025543
 30
0.0
 10
23.4268034374
 20
29.4594062502
 30
0.0
  0
SPLINE
  5
301
100
AcDbEntity
  8
0
100
AcDbSpline
 62
7
  6
CONTINUOUS
 70
0
 71
3
 72
12
 73
8
 74
0
 42
0.0000001
 43
0.0000001
 44
0.0000000001
 40
0.0
 40
0.0
 40
0.0
 40
0.0
 40
0.2656172247
 40
0.5257862822
 40
0.7734149651
 40
0.890150945
 40
1.0
 40
1.0
 40
1.0
 40
1.0
 10
9.9268034374
 20
61.5878273469
 30
0.0
 10
9.984356429
 20
61.7165197484
 30
0.0
 10
10.0982601531
 20
61.9713029496
 30
0.0
 10
10.2557653186
 20
62.3503798658
 30
0.0
 10
10.3621806206
 20
62.6651134662
 30
0.0
 10
10.4158132858
 20
62.9113187269
 30
0.0
 10
10.4269343758
 20
63.0316458476
 30
0.0
 10
10.4268011229
 20
63.0899477176
 30
0.0
  0
SPLINE
  5
302
100
AcDbEntity
  8
0
100
AcDbSpline
 62
7
  6
CONTINUOUS
 70
0
 71
3
 72
12
 73
8
 74
0
 42
0.0000001
 43
0.0000001
 44
0.0000000001
 40
0.0
 40
0.0
 40
0.0
 40
0.0
 40
0.2656130212
 40
0.5257593705
 40
0.7733933932
 40
0.8901485235
 40
1.0
 40
1.0
 40
1.0
 40
1.0
 10
9.9268034374
 20
29.4594062502
 30
0.0
 10
9.9843334318
 20
29.330765272
 30
0.0
 10
10.0982047496
 20
29.0761005722
 30
0.0
 10
10.2556184076
 20
28.6971673913
 30
0.0
 10
10.362030512
 20
28.3825726158
 30
0.0
 10
10.4157793802
 20
28.1364785062
 30
0.0
 10
10.4269369191
 20
28.016186287
 30
0.0
 10
10.4268034374
 20
27.9579055071
 30
0.0
  0
SPLINE
  5
303
100
AcDbEntity
  8
0
100
AcDbSpline
 62
7
  6
CONTINUOUS
 70
0
 71
3
 72
12
 73
8
 74
0
 42
0.0000001
 43
0.0000001
 44
0.0000000001
 40
0.0
 40
0.0
 40
0.0
 40
0.0
 40
0.2656078498
 40
0.5256757857
 40
0.7733130093
 40
0.8901105805
 40
1.0
 40
1.0
 40
1.0
 40
1.0
 10
41.1268034374
 20
61.5878273469
 30
0.0
 10
41.0693296288
 20
61.7163426899
 30
0.0
 10
40.9552692527
 20
61.9705796467
 30
0.0
 10
40.7981752792
 20
62.3491946878
 30
0.0
 10
40.6922467978
 20
62.6635735285
 30
0.0
 10
40.6381914031
 20
62.9093878664
 30
0.0
 10
40.6268034374
 20
63.0295820886
 30
0.0
 10
40.6268034374
 20
63.0878273469
 30
0.0
  0
SPLINE
  5
304
100
AcDbEntity
  8
0
100
AcDbSpline
 62
7
  6
CONTINUOUS
 70
0
 71
3
 72
12
 73
8
 74
0
 42
0.0000001
 43
0.0000001
 44
0.0000000001
 40
0.0
 40
0.0
 40
0.0
 40
0.0
 40
0.1098932829
 40
0.2266608528
 40
0.4742866305
 40
0.7344196858
 40
1.0
 40
1.0
 40
1.0
 40
1.0
 10
40.6268034374
 20
27.9594062502
 30
0.0
 10
40.6268034374
 20
28.017654316
 30
0.0
 10
40.6381115869
 20
28.1378357258
 30
0.0
 10
40.6918975165
 20
28.3837021603
 30
0.0
 10
40.7983134633
 20
28.6979586129
 30
0.0
 10
40.9556010802
 20
29.0764914009
 30
0.0
 10
41.0693348375
 20
29.3309025543
 30
0.0
 10
41.1268034374
 20
29.4594062502
 30
0.0
  0
SPLINE
  5
305
100
AcDbEntity
  8
0
100
AcDbSpline
 62
7
  6
CONTINUOUS
 70
0
 71
3
 72
12
 73
8
 74
0
 42
0.0000001
 43
0.0000001
 44
0.0000000001
 40
0.0
 40
0.0
 40
0.0
 40
0.0
 40
0.2656172247
 40
0.5257862822
 40
0.7734149651
 40
0.890150945
 40
1.0
 40
1.0
 40
1.0
 40
1.0
 10
27.6268034374
 20
61.5878273469
 30
0.0
 10
27.684356429
 20
61.7165197484
 30
0.0
 10
27.7982601531
 20
61.9713029496
 30
0.0
 10
27.9557653186
 20
62.3503798658
 30
0.0
 10
28.0621806206
 20
62.6651134662
 30
0.0
 10
28.1158132858
 20
62.9113187269
 30
0.0
 10
28.1269343758
 20
63.0316458476
 30
0.0
 10
28.1268011229
 20
63.0899477176
 30
0.0
  0
SPLINE
  5
306
100
AcDbEntity
  8
0
100
AcDbSpline
 62
7
  6
CONTINUOUS
 70
0
 71
3
 72
12
 73
8
 74
0
 42
0.0000001
 43
0.0000001
 44
0.0000000001
 40
0.0
 40
0.0
 40
0.0
 40
0.0
 40
0.2656130212
 40
0.5257593705
 40
0.7733933932
 40
0.8901485235
 40
1.0
 40
1.0
 40
1.0
 40
1.0
 10
27.6268034374
 20
29.4594062502
 30
0.0
 10
27.6843334318
 20
29.330765272
 30
0.0
 10
27.7982047496
 20
29.0761005722
 30
0.0
 10
27.9556184076
 20
28.6971673913
 30
0.0
 10
28.062030512
 20
28.3825726158
 30
0.0
 10
28.1157793802
 20
28.1364785062
 30
0.0
 10
28.1269369191
 20
28.016186287
 30
0.0
 10
28.1268034374
 20
27.9579055071
 30
0.0
  0
ELLIPSE
  5
307
100
AcDbEntity
  8
0
100
AcDbEllipse
 62
7
  6
CONTINUOUS
 10
60.1346343592
 20
81.4218420383
 30
0.0
 11
-0.033122448
 21
0.499996417
 31
0.0
 40
0.0571482879
 41
-0.8451011023
 42
0.7118072285
  0
ELLIPSE
  5
308
100
AcDbEntity
  8
0
100
AcDbEllipse
 62
7
  6
CONTINUOUS
 10
56.3268034374
 20
24.1766512871
 30
0.0
 11
2.0
 21
0.0
 31
0.0
 40
0.5773502692
 41
-1.570796326
 42
-0.0
  0
ELLIPSE
  5
309
100
AcDbEntity
  8
0
100
AcDbEllipse
 62
7
  6
CONTINUOUS
 10
47.8268034374
 20
24.1766512871
 30
0.0
 11
2.0
 21
0.0
 31
0.0
 40
0.5773502692
 41
-3.1415926536
 42
-1.5707963262
  0
ELLIPSE
  5
30A
100
AcDbEntity
  8
0
100
AcDbEllipse
 62
7
  6
CONTINUOUS
 10
20.9268034374
 20
24.1766512871
 30
0.0
 11
2.0
 21
-0.0
 31
0.0
 40
0.5773502692
 41
-1.5707963253
 42
-0.0
  0
ELLIPSE
  5
30B
100
AcDbEntity
  8
0
100
AcDbEllipse
 62
7
  6
CONTINUOUS
 10
12.4268034374
 20
24.1766512871
 30
0.0
 11
2.0
 21
0.0
 31
0.0
 40
0.5773502692
 41
-3.1415926536
 42
-1.5707963299
  0
ELLIPSE
  5
30C
100
AcDbEntity
  8
0
100
AcDbEllipse
 62
7
  6
CONTINUOUS
 10
38.6268034374
 20
24.1766512871
 30
0.0
 11
2.0
 21
-0.0
 31
0.0
 40
0.5773502692
 41
-1.5707963253
 42
-0.0
  0
ELLIPSE
  5
30D
100
AcDbEntity
  8
0
100
AcDbEllipse
 62
7
  6
CONTINUOUS
 10
30.1268034374
 20
24.1766512871
 30
0.0
 11
2.0
 21
0.0
 31
0.0
 40
0.5773502692
 41
-3.1415926536
 42
-1.5707963299
  0
ENDSEC
  0
SECTION
  2
OBJECTS
  0
DICTIONARY
  5
C
100
AcDbDictionary
280
0
281
1
  3
ACAD_GROUP
350
D
  3
ACAD_MLINESTYLE
350
17
  3
ACAD_LAYOUT
350
1A
  3
ACAD_PLOTSETTINGS
350
19
  3
ACAD_PLOTSTYLENAME
350
E
  0
DICTIONARY
  5
D
102
{ACAD_REACTORS
330
C
102
}
100
AcDbDictionary
280
0
281
1
  0
ACDBDICTIONARYWDFLT
  5
E
102
{ACAD_REACTORS
330
C
102
}
100
AcDbDictionary
281
1
  3
Normal
350
F
100
AcDbDictionaryWithDefault
340
F
  0
DICTIONARY
  5
17
102
{ACAD_REACTORS
330
C
102
}
100
AcDbDictionary
280
0
281
1
  3
Standard
350
18
  0
DICTIONARY
  5
19
102
{ACAD_REACTORS
330
C
102
}
100
AcDbDictionary
281
1
  0
DICTIONARY
  5
1A
102
{ACAD_REACTORS
330
C
102
}
100
AcDbDictionary
281
1
  3
Model
350
30E
  3
Layout1
350
30F
  0
ACDBPLACEHOLDER
  5
F
102
{ACAD_REACTORS
330
E
102
}
  0
MLINESTYLE
  5
18
102
{ACAD_REACTORS
330
17
102
}
100
AcDbMlineStyle
  2
STANDARD
 70
0
  3

 62
256
 51
90.0
 52
90.0
 71
2
 49
0.5
 62
256
  6
BYLAYER
 49
-0.5
 62
256
  6
BYLAYER
  0
LAYOUT
  5
30E
102
{ACAD_REACTORS
330
1A
102
}
100
AcDbPlotSettings
  1

  2
none_device
  4

  6

 40
0.0
 41
0.0
 42
0.0
 43
0.0
 44
210.0
 45
297.0
 46
0.0
 47
0.0
 48
0.0
 49
0.0
140
0.0
141
0.0
142
1.0
143
1.0
 70
1024
 72
1
 73
0
 74
0
  7

 75
0
147
1.0
148
0.0
149
0.0
100
AcDbLayout
  1
Model
 70
0
 71
0
 10
0.0
 20
0.0
 11
210.0
 21
297.0
 12
0.0
 22
0.0
 32
0.0
 14
0.0
 24
0.0
 34
0.0
 15
0.0
 25
0.0
 35
0.0
146
0.0
 13
0.0
 23
0.0
 33
0.0
 16
1.0
 26
0.0
 36
0.0
 17
0.0
 27
1.0
 37
0.0
 76
0
330
210
345
0
346
0
  0
LAYOUT
  5
30F
102
{ACAD_REACTORS
330
1A
102
}
100
AcDbPlotSettings
  1

  2
none_device
  4

  6

 40
0.0
 41
0.0
 42
0.0
 43
0.0
 44
210.0
 45
297.0
 46
0.0
 47
0.0
 48
0.0
 49
0.0
140
0.0
141
0.0
142
1.0
143
1.0
 70
0
 72
1
 73
0
 74
0
  7

 75
0
147
1.0
148
0.0
149
0.0
100
AcDbLayout
  1
Layout1
 70
0
 71
1
 10
0.0
 20
0.0
 11
210.0
 21
297.0
 12
0.0
 22
0.0
 32
0.0
 14
0.0
 24
0.0
 34
0.0
 15
0.0
 25
0.0
 35
0.0
146
0.0
 13
0.0
 23
0.0
 33
0.0
 16
1.0
 26
0.0
 36
0.0
 17
0.0
 27
1.0
 37
0.0
 76
0
330
211
345
0
346
0
  0
ENDSEC
  0
EOF
