999
DXF file: C:\Users\sesa63760\Dev\_Creo\CAD\MCADID0000509_3D-CAD\drw0001_2.dxf
999
Pro/ENGINEER 2019471 by Parametric Technology Corporation
  0
SECTION
  2
HEADER
  9
$ACADVER
  1
AC1024
  9
$DWGCODEPAGE
  3
ANSI_1252
  9
$EXTMAX
 10
261.7794502762
 20
370.2309368192
 30
0.0
  9
$EXTMIN
 10
0.0
 20
0.0
 30
0.0
  9
$LIMMIN
 10
0.0
 20
0.0
  9
$LIMMAX
 10
261.7794502762
 20
370.2309368192
  9
$VIEWCTR
 10
130.8897251381
 20
185.1154684096
  9
$VIEWSIZE
 40
370.2309368192
  9
$CLAYER
  8
0
  9
$LTSCALE
 40
24.1335721778
  9
$CELTYPE
  6
BYLAYER
  9
$DIMSCALE
 40
1.0
  9
$DIMASZ
 40
3.1164220271
  9
$DIMEXO
 40
1.0
  9
$DIMDLI
 40
16.6741044138
  9
$DIMEXE
 40
1.0
  9
$DIMCEN
 40
3.9491299927
  9
$DIMLFAC
 40
1.0
  9
$DIMBLK
  1
_FILLED
  9
$DIMALT
 70
0
  9
$DIMALTF
 40
0.0393700787
  9
$DIMTXT
 40
4.3629908379
  9
$DIMTOL
 70
1
  9
$DIMLIM
 70
0
  9
$DIMTFAC
 40
1.0
  9
$DIMTP
 40
0.01
  9
$DIMTM
 40
0.01
  9
$DIMGAP
 40
0.625
  9
$DIMDSEP
 70
46
  9
$AUNITS
 70
0
  9
$PDMODE
 70
3
  9
$PDSIZE
 40
0.3125
  9
$HANDSEED
  5
435
  9
$TILEMODE
 70
1
  9
$MEASUREMENT
 70
1
  9
$INSUNITS
 70
4
  0
ENDSEC
  0
SECTION
  2
CLASSES
  0
CLASS
  1
ACDBDICTIONARYWDFLT
  2
AcDbDictionaryWithDefault
  3
AutoCAD 2000
 90
0
 91
1
280
0
281
0
  0
CLASS
  1
ACDBPLACEHOLDER
  2
AcDbPlaceHolder
  3
AutoCAD 2000
 90
0
 91
1
280
0
281
0
  0
CLASS
  1
LAYOUT
  2
AcDbLayout
  3
AutoCAD 2000
 90
0
 91
0
280
0
281
0
  0
ENDSEC
  0
SECTION
  2
TABLES
  0
TABLE
  2
VPORT
  5
8
100
AcDbSymbolTable
 70
2
  0
VPORT
  5
1F4
100
AcDbSymbolTableRecord
100
AcDbViewportTableRecord
  2
*ACTIVE
 70
0
 10
0.0
 20
0.0
 11
1.0
 21
1.0
 12
130.8897251381
 22
185.1154684096
 13
0.0
 23
0.0
 14
1.0
 24
1.0
 15
0.0
 25
0.0
 16
0.0
 26
0.0
 36
1.0
 17
0.0
 27
0.0
 37
0.0
 40
370.2309368192
 41
0.7070707071
 42
50.0
 43
0.0
 44
0.0
 50
0.0
 51
0.0
 71
0
 72
100
 73
1
 74
1
 75
0
 76
0
 77
0
 78
0
  0
ENDTAB
  0
TABLE
  2
LTYPE
  5
5
100
AcDbSymbolTable
 70
6
  0
LTYPE
  5
14
100
AcDbSymbolTableRecord
100
AcDbLinetypeTableRecord
  2
BYBLOCK
 70
0
  3

 72
65
 73
0
 40
0.0
  0
LTYPE
  5
15
100
AcDbSymbolTableRecord
100
AcDbLinetypeTableRecord
  2
BYLAYER
 70
0
  3

 72
65
 73
0
 40
0.0
  0
LTYPE
  5
16
100
AcDbSymbolTableRecord
100
AcDbLinetypeTableRecord
  2
CONTINUOUS
 70
64
  3
Solid line
 72
65
 73
0
 40
0.0
  0
LTYPE
  5
1F5
100
AcDbSymbolTableRecord
100
AcDbLinetypeTableRecord
  2
CENTER
 70
64
  3
____ _ ____ _ ____ _ ____ _ ____ _ ____ _ ____
 72
65
 73
4
 40
0.6
 49
0.375
 74
0
 49
-0.075
 74
0
 49
0.075
 74
0
 49
-0.075
 74
0
  0
LTYPE
  5
1F6
100
AcDbSymbolTableRecord
100
AcDbLinetypeTableRecord
  2
HIDDEN
 70
64
  3
- - - - - - - - - - - - - - - - - - - -
 72
65
 73
2
 40
0.2
 49
0.1
 74
0
 49
-0.1
 74
0
  0
LTYPE
  5
1F7
100
AcDbSymbolTableRecord
100
AcDbLinetypeTableRecord
  2
PHANTOM
 70
64
  3
_____ _ _ _____ _ _ _____ _ _ _____
 72
65
 73
6
 40
0.8
 49
0.45
 74
0
 49
-0.05
 74
0
 49
0.1
 74
0
 49
-0.05
 74
0
 49
0.1
 74
0
 49
-0.05
 74
0
  0
LTYPE
  5
1F8
100
AcDbSymbolTableRecord
100
AcDbLinetypeTableRecord
  2
DOT
 70
64
  3
. . . . . . . . . . . . . . . . . . . .
 72
65
 73
2
 40
0.2
 49
0.1
 74
0
 49
-0.1
 74
0
  0
LTYPE
  5
1F9
100
AcDbSymbolTableRecord
100
AcDbLinetypeTableRecord
  2
DASHED
 70
64
  3
- - - - - - - - - - - - - - - - - - - -
 72
65
 73
2
 40
0.2
 49
0.1
 74
0
 49
-0.1
 74
0
  0
ENDTAB
  0
TABLE
  2
LAYER
  5
2
100
AcDbSymbolTable
 70
36
  0
LAYER
  5
10
100
AcDbSymbolTableRecord
100
AcDbLayerTableRecord
  2
0
 70
0
 62
7
  6
CONTINUOUS
370
-3
390
F
  0
LAYER
  5
1FA
100
AcDbSymbolTableRecord
100
AcDbLayerTableRecord
  2
DEFAULT_1
 70
0
 62
7
  6
CENTER
370
-3
390
F
  0
LAYER
  5
1FB
100
AcDbSymbolTableRecord
100
AcDbLayerTableRecord
  2
DEFAULT_2
 70
0
 62
8
  6
HIDDEN
370
-3
390
F
  0
LAYER
  5
1FC
100
AcDbSymbolTableRecord
100
AcDbLayerTableRecord
  2
DEFAULT_3
 70
0
 62
7
  6
PHANTOM
370
-3
390
F
  0
LAYER
  5
1FD
100
AcDbSymbolTableRecord
100
AcDbLayerTableRecord
  2
00_COMPONENTS
 70
0
 62
7
  6
CONTINUOUS
370
-3
390
F
  0
LAYER
  5
1FE
100
AcDbSymbolTableRecord
100
AcDbLayerTableRecord
  2
01_1_DEFAULT_DATUMS
 70
0
 62
7
  6
CONTINUOUS
370
-3
390
F
  0
LAYER
  5
1FF
100
AcDbSymbolTableRecord
100
AcDbLayerTableRecord
  2
01_PLANES
 70
0
 62
7
  6
CONTINUOUS
370
-3
390
F
  0
LAYER
  5
200
100
AcDbSymbolTableRecord
100
AcDbLayerTableRecord
  2
02_COORD_SYS
 70
0
 62
7
  6
CONTINUOUS
370
-3
390
F
  0
LAYER
  5
201
100
AcDbSymbolTableRecord
100
AcDbLayerTableRecord
  2
03_AXES
 70
0
 62
7
  6
CONTINUOUS
370
-3
390
F
  0
LAYER
  5
202
100
AcDbSymbolTableRecord
100
AcDbLayerTableRecord
  2
04_POINTS
 70
0
 62
7
  6
CONTINUOUS
370
-3
390
F
  0
LAYER
  5
203
100
AcDbSymbolTableRecord
100
AcDbLayerTableRecord
  2
05_CURVES
 70
0
 62
7
  6
CONTINUOUS
370
-3
390
F
  0
LAYER
  5
204
100
AcDbSymbolTableRecord
100
AcDbLayerTableRecord
  2
06_SURFS
 70
0
 62
7
  6
CONTINUOUS
370
-3
390
F
  0
LAYER
  5
205
100
AcDbSymbolTableRecord
100
AcDbLayerTableRecord
  2
07_COSMETICS
 70
0
 62
7
  6
CONTINUOUS
370
-3
390
F
  0
LAYER
  5
206
100
AcDbSymbolTableRecord
100
AcDbLayerTableRecord
  2
10_NOTES
 70
0
 62
7
  6
CONTINUOUS
370
-3
390
F
  0
LAYER
  5
207
100
AcDbSymbolTableRecord
100
AcDbLayerTableRecord
  2
11_NOTES_PUB
 70
0
 62
7
  6
CONTINUOUS
370
-3
390
F
  0
LAYER
  5
208
100
AcDbSymbolTableRecord
100
AcDbLayerTableRecord
  2
13_REF_GTOL
 70
0
 62
7
  6
CONTINUOUS
370
-3
390
F
  0
LAYER
  5
209
100
AcDbSymbolTableRecord
100
AcDbLayerTableRecord
  2
16_MISC
 70
0
 62
7
  6
CONTINUOUS
370
-3
390
F
  0
LAYER
  5
20A
100
AcDbSymbolTableRecord
100
AcDbLayerTableRecord
  2
17_NO_PRINT
 70
0
 62
7
  6
CONTINUOUS
370
-3
390
F
  0
LAYER
  5
20B
100
AcDbSymbolTableRecord
100
AcDbLayerTableRecord
  2
18_DATUM_CAMS_JOINTS
 70
0
 62
7
  6
CONTINUOUS
370
-3
390
F
  0
LAYER
  5
20C
100
AcDbSymbolTableRecord
100
AcDbLayerTableRecord
  2
19_DATUM_FUNCTIONAL
 70
0
 62
7
  6
CONTINUOUS
370
-3
390
F
  0
LAYER
  5
20D
100
AcDbSymbolTableRecord
100
AcDbLayerTableRecord
  2
20_DATUM_KINEMATIC_SCHEME
 70
0
 62
7
  6
CONTINUOUS
370
-3
390
F
  0
ENDTAB
  0
TABLE
  2
STYLE
  5
3
100
AcDbSymbolTable
 70
1
  0
STYLE
  5
11
100
AcDbSymbolTableRecord
100
AcDbTextStyleTableRecord
  2
STANDARD
 70
0
 40
0.0
 41
0.8
 50
0.0
 71
0
 42
0.2
  3
txt
  4

  0
STYLE
  5
20E
100
AcDbSymbolTableRecord
100
AcDbTextStyleTableRecord
  2
TEXTSTYLE_1
 70
0
 40
0.0
 41
0.8
 50
0.0
 71
0
 42
0.2
  3
gdt
  4

  0
ENDTAB
  0
TABLE
  2
VIEW
  5
6
100
AcDbSymbolTable
 70
0
  0
ENDTAB
  0
TABLE
  2
UCS
  5
7
100
AcDbSymbolTable
 70
0
  0
ENDTAB
  0
TABLE
  2
APPID
  5
9
100
AcDbSymbolTable
 70
1
  0
APPID
  5
20F
100
AcDbSymbolTableRecord
100
AcDbRegAppTableRecord
  2
ACAD
 70
0
  0
ENDTAB
  0
TABLE
  2
BLOCK_RECORD
  5
1
100
AcDbSymbolTable
 70
0
  0
BLOCK_RECORD
  5
210
100
AcDbSymbolTableRecord
100
AcDbBlockTableRecord
  2
*Model_Space
  0
BLOCK_RECORD
  5
211
100
AcDbSymbolTableRecord
100
AcDbBlockTableRecord
  2
*Paper_Space
  0
BLOCK_RECORD
  5
212
100
AcDbSymbolTableRecord
100
AcDbBlockTableRecord
  2
_FILLED
  0
ENDTAB
  0
TABLE
  2
DIMSTYLE
  5
A
100
AcDbSymbolTable
 70
1
100
AcDbDimStyleTable
 71
0
  0
DIMSTYLE
105
213
100
AcDbSymbolTableRecord
100
AcDbDimStyleTableRecord
  2
STANDARD
 70
0
  3

  4

 40
1.0
 41
3.1164220271
 42
1.0
 43
0.38
 44
1.0
 45
0.0
 46
0.0
 47
0.01
 48
0.01
140
4.3629908379
141
0.09
142
0.0
143
25.4
144
1.0
145
0.0
146
1.0
147
0.625
 71
1
 72
0
 73
0
 74
0
 75
0
 76
0
 77
1
 78
8
 79
2
170
0
171
1
172
0
173
0
174
0
175
0
176
0
177
0
178
0
270
2
179
2
271
2
272
2
273
2
274
2
275
0
280
0
281
0
282
0
283
1
284
8
285
0
286
0
287
3
288
0
340
11
278
46
341
212
342
212
343
212
344
212
  0
ENDTAB
  0
ENDSEC
  0
SECTION
  2
BLOCKS
  0
BLOCK
  5
20
100
AcDbEntity
  8
0
100
AcDbBlockBegin
  2
*Model_Space
 70
0
 10
0.0
 20
0.0
 30
0.0
  3
*Model_Space
  1

  0
ENDBLK
  5
21
100
AcDbEntity
  8
0
100
AcDbBlockEnd
  0
BLOCK
  5
1C
100
AcDbEntity
  8
0
100
AcDbBlockBegin
  2
*Paper_Space
 70
0
 10
0.0
 20
0.0
 30
0.0
  3
*Paper_Space
  1

  0
ENDBLK
  5
1D
100
AcDbEntity
  8
0
100
AcDbBlockEnd
  0
BLOCK
  5
214
100
AcDbEntity
  8
0
100
AcDbBlockBegin
  2
_FILLED
 70
64
 10
0.0
 20
0.0
  3
_FILLED
  1

  0
SOLID
  5
215
100
AcDbEntity
  8
0
  6
BYBLOCK
 62
0
100
AcDbTrace
 10
0.0
 20
0.0
 11
-1.0
 21
0.25
 12
-1.0
 22
-0.25
 13
-1.0
 23
-0.25
  0
ENDBLK
  5
216
100
AcDbEntity
  8
0
  6
BYBLOCK
 62
0
100
AcDbBlockEnd
  0
ENDSEC
  0
SECTION
  2
ENTITIES
  0
LINE
  5
217
100
AcDbEntity
  8
0
100
AcDbLine
 62
7
  6
CONTINUOUS
 10
28.7023613037
 20
252.9357298475
 11
28.7023613037
 21
115.9357298475
  0
LINE
  5
218
100
AcDbEntity
  8
0
100
AcDbLine
 62
7
  6
CONTINUOUS
 10
29.2023613037
 20
252.9357298475
 11
29.2023613037
 21
115.9357298475
  0
LINE
  5
219
100
AcDbEntity
  8
0
100
AcDbLine
 62
7
  6
CONTINUOUS
 10
38.2591205294
 20
246.3837295137
 11
38.2591205294
 21
122.4877301812
  0
LINE
  5
21A
100
AcDbEntity
  8
0
100
AcDbLine
 62
7
  6
CONTINUOUS
 10
38.9320703893
 20
123.1606800412
 11
38.932091412
 21
155.1833966856
  0
LINE
  5
21B
100
AcDbEntity
  8
0
100
AcDbLine
 62
7
  6
CONTINUOUS
 10
54.2023613037
 20
121.3588880162
 11
53.1679505661
 21
122.3932987538
  0
LINE
  5
21C
100
AcDbEntity
  8
0
100
AcDbLine
 62
7
  6
CONTINUOUS
 10
55.987028427
 20
125.2123766143
 11
57.021439166
 21
124.1779658769
  0
LINE
  5
21D
100
AcDbEntity
  8
0
100
AcDbLine
 62
7
  6
CONTINUOUS
 10
47.2023613037
 20
116.5357298475
 11
47.1204140718
 21
118.0993761797
  0
LINE
  5
21E
100
AcDbEntity
  8
0
100
AcDbLine
 62
7
  6
CONTINUOUS
 10
39.1446860949
 20
237.0027468218
 11
39.131713545
 21
245.5111364938
  0
LINE
  5
21F
100
AcDbEntity
  8
0
100
AcDbLine
 62
7
  6
CONTINUOUS
 10
39.4314271667
 20
245.5216031215
 11
39.4444000227
 21
237.0129918891
  0
LINE
  5
220
100
AcDbEntity
  8
0
100
AcDbLine
 62
7
  6
CONTINUOUS
 10
39.2317848558
 20
123.1622863795
 11
39.2317848558
 21
155.1568743659
  0
LINE
  5
221
100
AcDbEntity
  8
0
100
AcDbLine
 62
7
  6
CONTINUOUS
 10
39.9275398876
 20
233.8660788816
 11
39.9275398876
 21
158.9184440148
  0
LINE
  5
222
100
AcDbEntity
  8
0
100
AcDbLine
 62
7
  6
CONTINUOUS
 10
40.2272543541
 20
158.9186788464
 11
40.2272543541
 21
233.8669097385
  0
LINE
  5
223
100
AcDbEntity
  8
0
100
AcDbLine
 62
7
  6
CONTINUOUS
 10
43.9273115016
 20
118.1654389331
 11
43.9273115016
 21
118.4651533996
  0
LINE
  5
224
100
AcDbEntity
  8
0
100
AcDbLine
 62
7
  6
CONTINUOUS
 10
43.9607166809
 20
152.4616144781
 11
43.9607166809
 21
152.9611385888
  0
LINE
  5
225
100
AcDbEntity
  8
0
100
AcDbLine
 62
7
  6
CONTINUOUS
 10
44.1197845748
 20
250.2243030668
 11
44.1197845748
 21
250.5135476842
  0
LINE
  5
226
100
AcDbEntity
  8
0
100
AcDbLine
 62
7
  6
CONTINUOUS
 10
44.1605441849
 20
239.6235568098
 11
44.1605441849
 21
239.9128014273
  0
LINE
  5
227
100
AcDbEntity
  8
0
100
AcDbLine
 62
7
  6
CONTINUOUS
 10
44.9227809955
 20
153.9232029037
 11
44.9227809955
 21
154.2229173702
  0
LINE
  5
228
100
AcDbEntity
  8
0
100
AcDbLine
 62
7
  6
CONTINUOUS
 10
44.9227809955
 20
238.5616055275
 11
44.9227809955
 21
238.861319994
  0
LINE
  5
229
100
AcDbEntity
  8
0
100
AcDbLine
 62
7
  6
CONTINUOUS
 10
52.2023613037
 20
153.5558796442
 11
52.2023613037
 21
153.1454667796
  0
LINE
  5
22A
100
AcDbEntity
  8
0
100
AcDbLine
 62
7
  6
CONTINUOUS
 10
52.2282579457
 20
122.3932987533
 11
52.2282579456
 21
118.1654389331
  0
LINE
  5
22B
100
AcDbEntity
  8
0
100
AcDbLine
 62
7
  6
CONTINUOUS
 10
52.4023613037
 20
153.1367345923
 11
52.4023613037
 21
153.5646118328
  0
LINE
  5
22C
100
AcDbEntity
  8
0
100
AcDbLine
 62
7
  6
CONTINUOUS
 10
52.6623613037
 20
153.3357298475
 11
52.6623613037
 21
153.5646118328
  0
LINE
  5
22D
100
AcDbEntity
  8
0
100
AcDbLine
 62
7
  6
CONTINUOUS
 10
53.1679505661
 20
118.5024998269
 11
53.1679505661
 21
122.3932987538
  0
LINE
  5
22E
100
AcDbEntity
  8
0
100
AcDbLine
 62
7
  6
CONTINUOUS
 10
54.2023613037
 20
121.3588880162
 11
54.2023613037
 21
118.6179666998
  0
LINE
  5
22F
100
AcDbEntity
  8
0
100
AcDbLine
 62
7
  6
CONTINUOUS
 10
55.9870284261
 20
125.2123766143
 11
55.9870284261
 21
126.1520692351
  0
LINE
  5
230
100
AcDbEntity
  8
0
100
AcDbLine
 62
7
  6
CONTINUOUS
 10
49.2023613037
 20
116.5357298475
 11
49.2843085355
 21
118.0993761797
  0
LINE
  5
231
100
AcDbEntity
  8
0
100
AcDbLine
 62
7
  6
CONTINUOUS
 10
70.9572881002
 20
250.941473309
 11
71.0183290606
 21
251.1082519979
  0
LINE
  5
232
100
AcDbEntity
  8
0
100
AcDbLine
 62
7
  6
CONTINUOUS
 10
36.7023613197
 20
107.9357298475
 11
228.7023613037
 21
107.9357298475
  0
LINE
  5
233
100
AcDbEntity
  8
0
100
AcDbLine
 62
7
  6
CONTINUOUS
 10
70.957297506
 20
117.9300136434
 11
71.0183290606
 21
117.7632076971
  0
LINE
  5
234
100
AcDbEntity
  8
0
100
AcDbLine
 62
7
  6
CONTINUOUS
 10
57.5773613037
 20
153.3357298475
 11
57.4848795021
 21
153.6606659072
  0
LINE
  5
235
100
AcDbEntity
  8
0
100
AcDbLine
 62
7
  6
CONTINUOUS
 10
57.1023613037
 20
153.6519337186
 11
57.1023613037
 21
153.5733440214
  0
LINE
  5
236
100
AcDbEntity
  8
0
100
AcDbLine
 62
7
  6
CONTINUOUS
 10
59.3863935467
 20
251.1082519979
 11
59.3863935467
 21
250.9191156088
  0
LINE
  5
237
100
AcDbEntity
  8
0
100
AcDbLine
 62
7
  6
CONTINUOUS
 10
59.3863935467
 20
117.9523440862
 11
59.3863935467
 21
117.7632076971
  0
LINE
  5
238
100
AcDbEntity
  8
0
100
AcDbLine
 62
7
  6
CONTINUOUS
 10
59.7023613037
 20
153.5733440214
 11
59.7023613037
 21
153.6519337186
  0
LINE
  5
239
100
AcDbEntity
  8
0
100
AcDbLine
 62
7
  6
CONTINUOUS
 10
63.7023613037
 20
153.6519337186
 11
63.7023613037
 21
153.5733440214
  0
LINE
  5
23A
100
AcDbEntity
  8
0
100
AcDbLine
 62
7
  6
CONTINUOUS
 10
189.4124235651
 20
118.3182522333
 11
188.4498579966
 21
118.2027853177
  0
LINE
  5
23B
100
AcDbEntity
  8
0
100
AcDbLine
 62
7
  6
CONTINUOUS
 10
188.1679505661
 20
118.5024998269
 11
189.2023613037
 21
118.6265851061
  0
LINE
  5
23C
100
AcDbEntity
  8
0
100
AcDbLine
 62
7
  6
CONTINUOUS
 10
36.7023613037
 20
108.4357298475
 11
228.7023612978
 21
108.4357298475
  0
LINE
  5
23D
100
AcDbEntity
  8
0
100
AcDbLine
 62
7
  6
CONTINUOUS
 10
218.2023613037
 20
116.5357298475
 11
216.2023613037
 21
116.5357298475
  0
LINE
  5
23E
100
AcDbEntity
  8
0
100
AcDbLine
 62
7
  6
CONTINUOUS
 10
49.2023613037
 20
116.5357298475
 11
47.2023613037
 21
116.5357298475
  0
LINE
  5
23F
100
AcDbEntity
  8
0
100
AcDbLine
 62
7
  6
CONTINUOUS
 10
76.9548642548
 20
118.2027853604
 11
75.9922990422
 21
118.3182522333
  0
LINE
  5
240
100
AcDbEntity
  8
0
100
AcDbLine
 62
7
  6
CONTINUOUS
 10
76.2023613037
 20
118.6265851061
 11
77.2367720409
 21
118.5024998232
  0
LINE
  5
241
100
AcDbEntity
  8
0
100
AcDbLine
 62
7
  6
CONTINUOUS
 10
62.6573613037
 20
153.3357298475
 11
62.5922179694
 21
153.5646118328
  0
LINE
  5
242
100
AcDbEntity
  8
0
100
AcDbLine
 62
7
  6
CONTINUOUS
 10
67.7373613037
 20
153.3357298475
 11
67.6722179694
 21
153.5646118328
  0
LINE
  5
243
100
AcDbEntity
  8
0
100
AcDbLine
 62
7
  6
CONTINUOUS
 10
66.3023613037
 20
153.5733440214
 11
66.3023613037
 21
153.6519337186
  0
LINE
  5
244
100
AcDbEntity
  8
0
100
AcDbLine
 62
7
  6
CONTINUOUS
 10
70.7023613037
 20
153.5646118328
 11
70.7023613037
 21
153.3357298475
  0
LINE
  5
245
100
AcDbEntity
  8
0
100
AcDbLine
 62
7
  6
CONTINUOUS
 10
71.0023614532
 20
153.5646118328
 11
71.0023614532
 21
153.1367345923
  0
LINE
  5
246
100
AcDbEntity
  8
0
100
AcDbLine
 62
7
  6
CONTINUOUS
 10
71.0183290606
 20
117.7632076971
 11
71.0183290606
 21
117.9523440862
  0
LINE
  5
247
100
AcDbEntity
  8
0
100
AcDbLine
 62
7
  6
CONTINUOUS
 10
71.0183290606
 20
250.9191156088
 11
71.0183290606
 21
251.1082519979
  0
LINE
  5
248
100
AcDbEntity
  8
0
100
AcDbLine
 62
7
  6
CONTINUOUS
 10
71.2023613037
 20
153.1454667809
 11
71.2023613037
 21
153.5558796442
  0
LINE
  5
249
100
AcDbEntity
  8
0
100
AcDbLine
 62
7
  6
CONTINUOUS
 10
55.6925046379
 20
153.5646118328
 11
55.6273613037
 21
153.3357298475
  0
LINE
  5
24A
100
AcDbEntity
  8
0
100
AcDbLine
 62
7
  6
CONTINUOUS
 10
60.7725046379
 20
153.5646118328
 11
60.7073613037
 21
153.3357298475
  0
LINE
  5
24B
100
AcDbEntity
  8
0
100
AcDbLine
 62
7
  6
CONTINUOUS
 10
43.2543616374
 20
117.4924890733
 11
47.1522196773
 21
117.4924890733
  0
LINE
  5
24C
100
AcDbEntity
  8
0
100
AcDbLine
 62
7
  6
CONTINUOUS
 10
49.25250293
 20
117.4924890733
 11
216.1522196773
 21
117.4924890733
  0
LINE
  5
24D
100
AcDbEntity
  8
0
100
AcDbLine
 62
7
  6
CONTINUOUS
 10
218.25250293
 20
117.4924890733
 11
222.1503609699
 21
117.4924890733
  0
LINE
  5
24E
100
AcDbEntity
  8
0
100
AcDbLine
 62
7
  6
CONTINUOUS
 10
59.3863935467
 20
117.7632076971
 11
71.0183290606
 21
117.7632076971
  0
LINE
  5
24F
100
AcDbEntity
  8
0
100
AcDbLine
 62
7
  6
CONTINUOUS
 10
194.3863935467
 20
117.7632076971
 11
206.0183290606
 21
117.7632076971
  0
LINE
  5
250
100
AcDbEntity
  8
0
100
AcDbLine
 62
7
  6
CONTINUOUS
 10
206.0183290606
 20
117.9523440862
 11
194.3863935467
 21
117.9523440862
  0
LINE
  5
251
100
AcDbEntity
  8
0
100
AcDbLine
 62
7
  6
CONTINUOUS
 10
71.0183290606
 20
117.9523440862
 11
59.3863935467
 21
117.9523440862
  0
LINE
  5
252
100
AcDbEntity
  8
0
100
AcDbLine
 62
7
  6
CONTINUOUS
 10
218.2843085355
 20
118.0993761797
 11
216.1204140718
 21
118.0993761797
  0
LINE
  5
253
100
AcDbEntity
  8
0
100
AcDbLine
 62
7
  6
CONTINUOUS
 10
49.2843085355
 20
118.0993761797
 11
47.1204140718
 21
118.0993761797
  0
LINE
  5
254
100
AcDbEntity
  8
0
100
AcDbLine
 62
7
  6
CONTINUOUS
 10
43.9273114972
 20
118.1654389331
 11
52.2282579456
 21
118.1654389331
  0
LINE
  5
255
100
AcDbEntity
  8
0
100
AcDbLine
 62
7
  6
CONTINUOUS
 10
78.1764646618
 20
118.1654389331
 11
187.2282579456
 21
118.1654389331
  0
LINE
  5
256
100
AcDbEntity
  8
0
100
AcDbLine
 62
7
  6
CONTINUOUS
 10
213.1764646618
 20
118.1654389331
 11
221.47741111
 21
118.1654389331
  0
LINE
  5
257
100
AcDbEntity
  8
0
100
AcDbLine
 62
7
  6
CONTINUOUS
 10
54.4124235651
 20
118.3182522333
 11
75.9922990422
 21
118.3182522333
  0
LINE
  5
258
100
AcDbEntity
  8
0
100
AcDbLine
 62
7
  6
CONTINUOUS
 10
189.4124235651
 20
118.3182522333
 11
210.9922990422
 21
118.3182522333
  0
LINE
  5
259
100
AcDbEntity
  8
0
100
AcDbLine
 62
7
  6
CONTINUOUS
 10
221.475803633
 20
118.4651533996
 11
213.1764646618
 21
118.4651533996
  0
LINE
  5
25A
100
AcDbEntity
  8
0
100
AcDbLine
 62
7
  6
CONTINUOUS
 10
187.2282579457
 20
118.4651533996
 11
78.1764646618
 21
118.4651533996
  0
LINE
  5
25B
100
AcDbEntity
  8
0
100
AcDbLine
 62
7
  6
CONTINUOUS
 10
52.2282579457
 20
118.4651533996
 11
43.9264806505
 21
118.4651533996
  0
LINE
  5
25C
100
AcDbEntity
  8
0
100
AcDbLine
 62
7
  6
CONTINUOUS
 10
211.2023613037
 20
118.6179666998
 11
189.2023613037
 21
118.6179666998
  0
LINE
  5
25D
100
AcDbEntity
  8
0
100
AcDbLine
 62
7
  6
CONTINUOUS
 10
76.2023613037
 20
118.6179666998
 11
54.2023613037
 21
118.6179666998
  0
LINE
  5
25E
100
AcDbEntity
  8
0
100
AcDbLine
 62
7
  6
CONTINUOUS
 10
52.2282579457
 20
122.393298754
 11
53.1679505661
 21
122.393298754
  0
LINE
  5
25F
100
AcDbEntity
  8
0
100
AcDbLine
 62
7
  6
CONTINUOUS
 10
77.2367720409
 20
122.3932987545
 11
78.1764646618
 21
122.3932987545
  0
LINE
  5
260
100
AcDbEntity
  8
0
100
AcDbLine
 62
7
  6
CONTINUOUS
 10
187.2282579457
 20
122.393298754
 11
188.1679505661
 21
122.393298754
  0
LINE
  5
261
100
AcDbEntity
  8
0
100
AcDbLine
 62
7
  6
CONTINUOUS
 10
212.2367720409
 20
122.3932987545
 11
213.1764646618
 21
122.3932987545
  0
LINE
  5
262
100
AcDbEntity
  8
0
100
AcDbLine
 62
7
  6
CONTINUOUS
 10
226.4726521206
 20
123.1606800411
 11
226.1729359397
 21
123.1606800411
  0
LINE
  5
263
100
AcDbEntity
  8
0
100
AcDbLine
 62
7
  6
CONTINUOUS
 10
39.2317848558
 20
123.1606800411
 11
38.9320703893
 21
123.1606800411
  0
LINE
  5
264
100
AcDbEntity
  8
0
100
AcDbLine
 62
7
  6
CONTINUOUS
 10
208.3832834413
 20
124.1779658769
 11
192.021439166
 21
124.1779658769
  0
LINE
  5
265
100
AcDbEntity
  8
0
100
AcDbLine
 62
7
  6
CONTINUOUS
 10
73.3832834413
 20
124.1779658769
 11
57.021439166
 21
124.1779658769
  0
LINE
  5
266
100
AcDbEntity
  8
0
100
AcDbLine
 62
7
  6
CONTINUOUS
 10
55.987028427
 20
125.2123766143
 11
74.4176941793
 21
125.2123766143
  0
LINE
  5
267
100
AcDbEntity
  8
0
100
AcDbLine
 62
7
  6
CONTINUOUS
 10
190.987028427
 20
125.2123766143
 11
209.4176941793
 21
125.2123766143
  0
LINE
  5
268
100
AcDbEntity
  8
0
100
AcDbLine
 62
7
  6
CONTINUOUS
 10
74.4176941801
 20
126.1520692351
 11
74.4176941801
 21
125.2123766143
  0
LINE
  5
269
100
AcDbEntity
  8
0
100
AcDbLine
 62
7
  6
CONTINUOUS
 10
76.2023613037
 20
118.6179666998
 11
76.2023613037
 21
121.3588880254
  0
LINE
  5
26A
100
AcDbEntity
  8
0
100
AcDbLine
 62
7
  6
CONTINUOUS
 10
77.2367720409
 20
122.3932987543
 11
77.2367720409
 21
118.5024998232
  0
LINE
  5
26B
100
AcDbEntity
  8
0
100
AcDbLine
 62
7
  6
CONTINUOUS
 10
78.1764646617
 20
118.1654389331
 11
78.1764646618
 21
122.3932987526
  0
LINE
  5
26C
100
AcDbEntity
  8
0
100
AcDbLine
 62
7
  6
CONTINUOUS
 10
80.8523613037
 20
153.6301032471
 11
80.8523613037
 21
153.267717421
  0
LINE
  5
26D
100
AcDbEntity
  8
0
100
AcDbLine
 62
7
  6
CONTINUOUS
 10
81.5523613037
 20
153.6606659072
 11
81.5523613037
 21
151.1857298475
  0
LINE
  5
26E
100
AcDbEntity
  8
0
100
AcDbLine
 62
7
  6
CONTINUOUS
 10
65.8798431053
 20
153.6606659072
 11
65.7873613037
 21
153.3357298475
  0
LINE
  5
26F
100
AcDbEntity
  8
0
100
AcDbLine
 62
7
  6
CONTINUOUS
 10
54.4124235651
 20
118.3182522333
 11
53.4498579966
 21
118.2027853177
  0
LINE
  5
270
100
AcDbEntity
  8
0
100
AcDbLine
 62
7
  6
CONTINUOUS
 10
53.1679505661
 20
118.5024998269
 11
54.2023613037
 21
118.6265851061
  0
LINE
  5
271
100
AcDbEntity
  8
0
100
AcDbLine
 62
7
  6
CONTINUOUS
 10
209.4176941789
 20
126.1520692351
 11
190.987028428
 21
126.1520692351
  0
LINE
  5
272
100
AcDbEntity
  8
0
100
AcDbLine
 62
7
  6
CONTINUOUS
 10
74.4176941789
 20
126.1520692351
 11
55.987028428
 21
126.1520692351
  0
LINE
  5
273
100
AcDbEntity
  8
0
100
AcDbLine
 62
7
  6
CONTINUOUS
 10
211.9548642548
 20
118.2027853604
 11
210.9922990422
 21
118.3182522333
  0
LINE
  5
274
100
AcDbEntity
  8
0
100
AcDbLine
 62
7
  6
CONTINUOUS
 10
211.2023613037
 20
118.6265851061
 11
212.2367720409
 21
118.5024998232
  0
LINE
  5
275
100
AcDbEntity
  8
0
100
AcDbLine
 62
7
  6
CONTINUOUS
 10
84.8523613037
 20
153.6955946615
 11
84.8523613037
 21
153.6912285672
  0
LINE
  5
276
100
AcDbEntity
  8
0
100
AcDbLine
 62
7
  6
CONTINUOUS
 10
86.0523613037
 20
153.7261573215
 11
86.0523613037
 21
151.1857298475
  0
LINE
  5
277
100
AcDbEntity
  8
0
100
AcDbLine
 62
7
  6
CONTINUOUS
 10
87.4023613037
 20
153.7261573215
 11
87.4023613037
 21
151.4357298475
  0
LINE
  5
278
100
AcDbEntity
  8
0
100
AcDbLine
 62
7
  6
CONTINUOUS
 10
90.5223613037
 20
151.4357298475
 11
90.5223613037
 21
153.7261573215
  0
LINE
  5
279
100
AcDbEntity
  8
0
100
AcDbLine
 62
7
  6
CONTINUOUS
 10
59.4474345072
 20
117.929986386
 11
59.3863935467
 21
117.7632076971
  0
LINE
  5
27A
100
AcDbEntity
  8
0
100
AcDbLine
 62
7
  6
CONTINUOUS
 10
38.9654756184
 20
157.9563820321
 11
39.9275398876
 21
158.9184440148
  0
LINE
  5
27B
100
AcDbEntity
  8
0
100
AcDbLine
 62
7
  6
CONTINUOUS
 10
59.3863935467
 20
251.1082519979
 11
59.4474720041
 21
250.9414857045
  0
LINE
  5
27C
100
AcDbEntity
  8
0
100
AcDbLine
 62
7
  6
CONTINUOUS
 10
97.2023613037
 20
207.8357298475
 11
97.2023613037
 21
170.4357298475
  0
LINE
  5
27D
100
AcDbEntity
  8
0
100
AcDbLine
 62
7
  6
CONTINUOUS
 10
44.9227809979
 20
153.9232029037
 11
43.9607166842
 21
152.9611385888
  0
LINE
  5
27E
100
AcDbEntity
  8
0
100
AcDbLine
 62
7
  6
CONTINUOUS
 10
146.8620690368
 20
250.2523876816
 11
147.08944648
 21
250.4797650656
  0
LINE
  5
27F
100
AcDbEntity
  8
0
100
AcDbLine
 62
7
  6
CONTINUOUS
 10
147.5889705088
 20
249.980240947
 11
147.3615931322
 21
249.7528635708
  0
LINE
  5
280
100
AcDbEntity
  8
0
100
AcDbLine
 62
7
  6
CONTINUOUS
 10
102.0723613037
 20
153.7261573215
 11
102.0723613037
 21
151.4357298475
  0
LINE
  5
281
100
AcDbEntity
  8
0
100
AcDbLine
 62
7
  6
CONTINUOUS
 10
105.1923613037
 20
153.7261573215
 11
105.1923613037
 21
151.4357298475
  0
LINE
  5
282
100
AcDbEntity
  8
0
100
AcDbLine
 62
7
  6
CONTINUOUS
 10
106.5423613037
 20
153.7261573215
 11
106.5423613037
 21
151.1857298475
  0
LINE
  5
283
100
AcDbEntity
  8
0
100
AcDbLine
 62
7
  6
CONTINUOUS
 10
107.7523613037
 20
153.6912285672
 11
107.7523613037
 21
153.6955946615
  0
LINE
  5
284
100
AcDbEntity
  8
0
100
AcDbLine
 62
7
  6
CONTINUOUS
 10
147.2232395433
 20
239.5645172897
 11
147.5736241509
 21
239.9149018972
  0
LINE
  5
285
100
AcDbEntity
  8
0
100
AcDbLine
 62
7
  6
CONTINUOUS
 10
147.8733386811
 20
239.6151874945
 11
147.4895488263
 21
239.2313976397
  0
LINE
  5
286
100
AcDbEntity
  8
0
100
AcDbLine
 62
7
  6
CONTINUOUS
 10
111.0415104944
 20
151.1857298475
 11
106.543212113
 21
151.1857298475
  0
LINE
  5
287
100
AcDbEntity
  8
0
100
AcDbLine
 62
7
  6
CONTINUOUS
 10
86.0515104944
 20
151.1857298475
 11
81.553212113
 21
151.1857298475
  0
LINE
  5
288
100
AcDbEntity
  8
0
100
AcDbLine
 62
7
  6
CONTINUOUS
 10
87.4029273072
 20
151.4357298475
 11
105.191797161
 21
151.4357298475
  0
LINE
  5
289
100
AcDbEntity
  8
0
100
AcDbLine
 62
7
  6
CONTINUOUS
 10
43.9610572105
 20
152.4616144781
 11
81.5523613037
 21
152.4616144781
  0
LINE
  5
28A
100
AcDbEntity
  8
0
100
AcDbLine
 62
7
  6
CONTINUOUS
 10
86.0523613037
 20
152.4616144781
 11
87.4023613037
 21
152.4616144781
  0
LINE
  5
28B
100
AcDbEntity
  8
0
100
AcDbLine
 62
7
  6
CONTINUOUS
 10
105.1923613037
 20
152.4616144781
 11
106.5423613037
 21
152.4616144781
  0
LINE
  5
28C
100
AcDbEntity
  8
0
100
AcDbLine
 62
7
  6
CONTINUOUS
 10
111.0423613037
 20
152.4616144781
 11
221.4429603672
 21
152.4616144781
  0
LINE
  5
28D
100
AcDbEntity
  8
0
100
AcDbLine
 62
7
  6
CONTINUOUS
 10
106.5423613037
 20
152.9611385888
 11
105.1923613037
 21
152.9611385888
  0
LINE
  5
28E
100
AcDbEntity
  8
0
100
AcDbLine
 62
7
  6
CONTINUOUS
 10
87.4023613037
 20
152.9611385888
 11
86.0523613037
 21
152.9611385888
  0
LINE
  5
28F
100
AcDbEntity
  8
0
100
AcDbLine
 62
7
  6
CONTINUOUS
 10
81.5523613037
 20
152.9611385888
 11
43.9607166842
 21
152.9611385888
  0
LINE
  5
290
100
AcDbEntity
  8
0
100
AcDbLine
 62
7
  6
CONTINUOUS
 10
221.4440059265
 20
152.9611385888
 11
111.0423613037
 21
152.9611385888
  0
LINE
  5
291
100
AcDbEntity
  8
0
100
AcDbLine
 62
7
  6
CONTINUOUS
 10
193.152361341
 20
153.1367345923
 11
191.7899613037
 21
153.1367345923
  0
LINE
  5
292
100
AcDbEntity
  8
0
100
AcDbLine
 62
7
  6
CONTINUOUS
 10
187.8021613037
 20
153.1367345923
 11
181.3505613037
 21
153.1367345923
  0
LINE
  5
293
100
AcDbEntity
  8
0
100
AcDbLine
 62
7
  6
CONTINUOUS
 10
177.3627613037
 20
153.1367345923
 11
176.0419613037
 21
153.1367345923
  0
LINE
  5
294
100
AcDbEntity
  8
0
100
AcDbLine
 62
7
  6
CONTINUOUS
 10
172.0541613037
 20
153.1367345923
 11
165.6025613037
 21
153.1367345923
  0
LINE
  5
295
100
AcDbEntity
  8
0
100
AcDbLine
 62
7
  6
CONTINUOUS
 10
161.6147613037
 20
153.1367345923
 11
160.2523613037
 21
153.1367345923
  0
LINE
  5
296
100
AcDbEntity
  8
0
100
AcDbLine
 62
7
  6
CONTINUOUS
 10
144.1023613037
 20
153.1367345923
 11
127.3023613037
 21
153.1367345923
  0
LINE
  5
297
100
AcDbEntity
  8
0
100
AcDbLine
 62
7
  6
CONTINUOUS
 10
71.002361341
 20
153.1367345923
 11
52.4023613037
 21
153.1367345923
  0
LINE
  5
298
100
AcDbEntity
  8
0
100
AcDbLine
 62
7
  6
CONTINUOUS
 10
106.5423613037
 20
153.1716633466
 11
105.1923613037
 21
153.1716633466
  0
LINE
  5
299
100
AcDbEntity
  8
0
100
AcDbLine
 62
7
  6
CONTINUOUS
 10
87.4023613037
 20
153.1716633466
 11
86.0523613037
 21
153.1716633466
  0
LINE
  5
29A
100
AcDbEntity
  8
0
100
AcDbLine
 62
7
  6
CONTINUOUS
 10
52.6623613037
 20
153.3357298475
 11
70.7023613037
 21
153.3357298475
  0
LINE
  5
29B
100
AcDbEntity
  8
0
100
AcDbLine
 62
7
  6
CONTINUOUS
 10
52.4023613037
 20
153.5646118328
 11
56.9023613037
 21
153.5646118328
  0
LINE
  5
29C
100
AcDbEntity
  8
0
100
AcDbLine
 62
7
  6
CONTINUOUS
 10
59.9023613037
 20
153.5646118328
 11
63.5023613037
 21
153.5646118328
  0
LINE
  5
29D
100
AcDbEntity
  8
0
100
AcDbLine
 62
7
  6
CONTINUOUS
 10
66.5023613037
 20
153.5646118328
 11
71.0023613037
 21
153.5646118328
  0
LINE
  5
29E
100
AcDbEntity
  8
0
100
AcDbLine
 62
7
  6
CONTINUOUS
 10
57.3023613037
 20
153.6606659072
 11
59.5023613037
 21
153.6606659072
  0
LINE
  5
29F
100
AcDbEntity
  8
0
100
AcDbLine
 62
7
  6
CONTINUOUS
 10
63.9023613037
 20
153.6606659072
 11
66.1023613037
 21
153.6606659072
  0
LINE
  5
2A0
100
AcDbEntity
  8
0
100
AcDbLine
 62
7
  6
CONTINUOUS
 10
81.5523613037
 20
153.6606659072
 11
84.1523740841
 21
153.6606659072
  0
LINE
  5
2A1
100
AcDbEntity
  8
0
100
AcDbLine
 62
7
  6
CONTINUOUS
 10
108.45224052
 20
153.6606659072
 11
111.0523613037
 21
153.6606659072
  0
LINE
  5
2A2
100
AcDbEntity
  8
0
100
AcDbLine
 62
7
  6
CONTINUOUS
 10
85.5523613037
 20
153.7261573215
 11
107.0523613037
 21
153.7261573215
  0
LINE
  5
2A3
100
AcDbEntity
  8
0
100
AcDbLine
 62
7
  6
CONTINUOUS
 10
127.3023613037
 20
153.7698182644
 11
144.1023613037
 21
153.7698182644
  0
LINE
  5
2A4
100
AcDbEntity
  8
0
100
AcDbLine
 62
7
  6
CONTINUOUS
 10
160.2523613037
 20
153.778550453
 11
193.1523613037
 21
153.778550453
  0
LINE
  5
2A5
100
AcDbEntity
  8
0
100
AcDbLine
 62
7
  6
CONTINUOUS
 10
44.9227809979
 20
153.9232029037
 11
220.4819416117
 21
153.9232029037
  0
LINE
  5
2A6
100
AcDbEntity
  8
0
100
AcDbLine
 62
7
  6
CONTINUOUS
 10
220.4803352718
 20
154.2229173702
 11
44.9235603076
 21
154.2229173702
  0
LINE
  5
2A7
100
AcDbEntity
  8
0
100
AcDbLine
 62
7
  6
CONTINUOUS
 10
226.1729359397
 20
155.1568734879
 11
226.4726521206
 21
155.1568734879
  0
LINE
  5
2A8
100
AcDbEntity
  8
0
100
AcDbLine
 62
7
  6
CONTINUOUS
 10
39.2317848558
 20
155.1568969274
 11
38.9320703893
 21
155.1568969274
  0
LINE
  5
2A9
100
AcDbEntity
  8
0
100
AcDbLine
 62
7
  6
CONTINUOUS
 10
225.4771827197
 20
158.9184440116
 11
225.1774682532
 21
158.9184440116
  0
LINE
  5
2AA
100
AcDbEntity
  8
0
100
AcDbLine
 62
7
  6
CONTINUOUS
 10
40.2272543541
 20
158.9184440148
 11
39.9275398876
 21
158.9184440148
  0
LINE
  5
2AB
100
AcDbEntity
  8
0
100
AcDbLine
 62
7
  6
CONTINUOUS
 10
39.9275398876
 20
233.8660788816
 11
39.1733884819
 21
234.6202303056
  0
LINE
  5
2AC
100
AcDbEntity
  8
0
100
AcDbLine
 62
7
  6
CONTINUOUS
 10
111.0423613037
 20
153.6606659072
 11
111.0423613037
 21
151.1857298475
  0
LINE
  5
2AD
100
AcDbEntity
  8
0
100
AcDbLine
 62
7
  6
CONTINUOUS
 10
111.7523613037
 20
153.267717421
 11
111.7523613037
 21
153.6301032471
  0
LINE
  5
2AE
100
AcDbEntity
  8
0
100
AcDbLine
 62
7
  6
CONTINUOUS
 10
38.2591205294
 20
122.4877301812
 11
38.9320703893
 21
123.1606800412
  0
LINE
  5
2AF
100
AcDbEntity
  8
0
100
AcDbLine
 62
7
  6
CONTINUOUS
 10
44.1605441797
 20
239.6235568098
 11
44.9227809955
 21
238.861319994
  0
LINE
  5
2B0
100
AcDbEntity
  8
0
100
AcDbLine
 62
7
  6
CONTINUOUS
 10
39.131713545
 20
245.5111364938
 11
38.2591205294
 21
246.3837295137
  0
LINE
  5
2B1
100
AcDbEntity
  8
0
100
AcDbLine
 62
7
  6
CONTINUOUS
 10
43.9273114972
 20
118.1654389331
 11
43.2543616374
 21
117.4924890733
  0
LINE
  5
2B2
100
AcDbEntity
  8
0
100
AcDbLine
 62
7
  6
CONTINUOUS
 10
98.7023613037
 20
168.9357298475
 11
165.2023613037
 21
168.9357298475
  0
LINE
  5
2B3
100
AcDbEntity
  8
0
100
AcDbLine
 62
7
  6
CONTINUOUS
 10
197.317623666
 20
172.8516013831
 11
212.0870989411
 21
172.8516013831
  0
LINE
  5
2B4
100
AcDbEntity
  8
0
100
AcDbLine
 62
7
  6
CONTINUOUS
 10
211.7029704766
 20
173.2357298475
 11
197.7017521309
 21
173.2357298475
  0
LINE
  5
2B5
100
AcDbEntity
  8
0
100
AcDbLine
 62
7
  6
CONTINUOUS
 10
211.7029704766
 20
175.9357298475
 11
209.9523613037
 21
175.9357298475
  0
LINE
  5
2B6
100
AcDbEntity
  8
0
100
AcDbLine
 62
7
  6
CONTINUOUS
 10
199.4523613037
 20
175.9357298475
 11
197.7017521309
 21
175.9357298475
  0
LINE
  5
2B7
100
AcDbEntity
  8
0
100
AcDbLine
 62
7
  6
CONTINUOUS
 10
208.9523613037
 20
176.9357298475
 11
200.4523613037
 21
176.9357298475
  0
LINE
  5
2B8
100
AcDbEntity
  8
0
100
AcDbLine
 62
7
  6
CONTINUOUS
 10
43.2543616374
 20
251.3789706217
 11
44.1197845773
 21
250.5135476842
  0
LINE
  5
2B9
100
AcDbEntity
  8
0
100
AcDbLine
 62
7
  6
CONTINUOUS
 10
129.8157520985
 20
249.980240947
 11
129.8310984565
 21
239.9149018972
  0
LINE
  5
2BA
100
AcDbEntity
  8
0
100
AcDbLine
 62
7
  6
CONTINUOUS
 10
127.1023613037
 20
153.7610860759
 11
127.1023613037
 21
153.1454667809
  0
LINE
  5
2BB
100
AcDbEntity
  8
0
100
AcDbLine
 62
7
  6
CONTINUOUS
 10
127.3023613037
 20
153.1367345923
 11
127.3023613037
 21
153.7698182644
  0
LINE
  5
2BC
100
AcDbEntity
  8
0
100
AcDbLine
 62
7
  6
CONTINUOUS
 10
129.3158292683
 20
250.2243030668
 11
129.331550943
 21
239.6235568098
  0
LINE
  5
2BD
100
AcDbEntity
  8
0
100
AcDbLine
 62
7
  6
CONTINUOUS
 10
130.181483064
 20
247.4505824123
 11
130.1814798357
 21
239.5607615616
  0
LINE
  5
2BE
100
AcDbEntity
  8
0
100
AcDbLine
 62
7
  6
CONTINUOUS
 10
130.5426535859
 20
250.157372068
 11
130.5426535859
 21
250.2523876816
  0
LINE
  5
2BF
100
AcDbEntity
  8
0
100
AcDbLine
 62
7
  6
CONTINUOUS
 10
130.6810071748
 20
239.5645172897
 11
130.6810071748
 21
247.8550909095
  0
LINE
  5
2C0
100
AcDbEntity
  8
0
100
AcDbLine
 62
7
  6
CONTINUOUS
 10
135.5489660078
 20
254.3974397437
 11
135.1903265399
 21
250.2981718687
  0
LINE
  5
2C1
100
AcDbEntity
  8
0
100
AcDbLine
 62
7
  6
CONTINUOUS
 10
73.3832834413
 20
124.1779658769
 11
74.4176941793
 21
125.2123766143
  0
LINE
  5
2C2
100
AcDbEntity
  8
0
100
AcDbLine
 62
7
  6
CONTINUOUS
 10
202.1059147495
 20
177.4907298475
 11
207.2988078578
 21
177.4907298475
  0
LINE
  5
2C3
100
AcDbEntity
  8
0
100
AcDbLine
 62
7
  6
CONTINUOUS
 10
207.2988078578
 20
177.7407191045
 11
202.1059147495
 21
177.7407191045
  0
LINE
  5
2C4
100
AcDbEntity
  8
0
100
AcDbLine
 62
7
  6
CONTINUOUS
 10
207.2988078578
 20
178.0157298475
 11
202.1059147495
 21
178.0157298475
  0
LINE
  5
2C5
100
AcDbEntity
  8
0
100
AcDbLine
 62
7
  6
CONTINUOUS
 10
201.9773613037
 20
178.0657298475
 11
207.4273613037
 21
178.0657298475
  0
LINE
  5
2C6
100
AcDbEntity
  8
0
100
AcDbLine
 62
7
  6
CONTINUOUS
 10
208.6773613037
 20
178.8692832933
 11
208.1523613037
 21
178.8692832933
  0
LINE
  5
2C7
100
AcDbEntity
  8
0
100
AcDbLine
 62
7
  6
CONTINUOUS
 10
201.2523613037
 20
178.8692832933
 11
200.6773613037
 21
178.8692832933
  0
LINE
  5
2C8
100
AcDbEntity
  8
0
100
AcDbLine
 62
7
  6
CONTINUOUS
 10
200.6773613037
 20
179.5057298475
 11
201.2523613037
 21
179.5057298475
  0
LINE
  5
2C9
100
AcDbEntity
  8
0
100
AcDbLine
 62
7
  6
CONTINUOUS
 10
208.1523613037
 20
179.5057298475
 11
208.6773613037
 21
179.5057298475
  0
LINE
  5
2CA
100
AcDbEntity
  8
0
100
AcDbLine
 62
7
  6
CONTINUOUS
 10
201.9773613037
 20
179.8157298475
 11
207.4273613037
 21
179.8157298475
  0
LINE
  5
2CB
100
AcDbEntity
  8
0
100
AcDbLine
 62
7
  6
CONTINUOUS
 10
201.5023613037
 20
179.8657298475
 11
207.9023613037
 21
179.8657298475
  0
LINE
  5
2CC
100
AcDbEntity
  8
0
100
AcDbLine
 62
7
  6
CONTINUOUS
 10
201.5023613037
 20
180.1407405905
 11
207.9023613037
 21
180.1407405905
  0
LINE
  5
2CD
100
AcDbEntity
  8
0
100
AcDbLine
 62
7
  6
CONTINUOUS
 10
207.9023613037
 20
180.3907298475
 11
201.5023613037
 21
180.3907298475
  0
LINE
  5
2CE
100
AcDbEntity
  8
0
100
AcDbLine
 62
7
  6
CONTINUOUS
 10
200.4523613037
 20
180.9357298475
 11
208.9523613037
 21
180.9357298475
  0
LINE
  5
2CF
100
AcDbEntity
  8
0
100
AcDbLine
 62
7
  6
CONTINUOUS
 10
197.7017521309
 20
181.9357298475
 11
199.4523613037
 21
181.9357298475
  0
LINE
  5
2D0
100
AcDbEntity
  8
0
100
AcDbLine
 62
7
  6
CONTINUOUS
 10
209.9523613037
 20
181.9357298475
 11
211.7029704767
 21
181.9357298475
  0
LINE
  5
2D1
100
AcDbEntity
  8
0
100
AcDbLine
 62
7
  6
CONTINUOUS
 10
211.7029704767
 20
184.5857298475
 11
197.7017521309
 21
184.5857298475
  0
LINE
  5
2D2
100
AcDbEntity
  8
0
100
AcDbLine
 62
7
  6
CONTINUOUS
 10
212.0870989411
 20
184.9698583119
 11
197.3176236661
 21
184.9698583119
  0
LINE
  5
2D3
100
AcDbEntity
  8
0
100
AcDbLine
 62
7
  6
CONTINUOUS
 10
189.2023613037
 20
121.3588880162
 11
188.1679505661
 21
122.3932987538
  0
LINE
  5
2D4
100
AcDbEntity
  8
0
100
AcDbLine
 62
7
  6
CONTINUOUS
 10
190.987028427
 20
125.2123766143
 11
192.021439166
 21
124.1779658769
  0
LINE
  5
2D5
100
AcDbEntity
  8
0
100
AcDbLine
 62
7
  6
CONTINUOUS
 10
130.181483064
 20
247.4505824123
 11
130.0431294751
 21
249.7528635708
  0
LINE
  5
2D6
100
AcDbEntity
  8
0
100
AcDbLine
 62
7
  6
CONTINUOUS
 10
130.5426535859
 20
250.157372068
 11
130.6810071748
 21
247.8550909095
  0
LINE
  5
2D7
100
AcDbEntity
  8
0
100
AcDbLine
 62
7
  6
CONTINUOUS
 10
77.2367720409
 20
122.3932987543
 11
76.2023613037
 21
121.3588880254
  0
LINE
  5
2D8
100
AcDbEntity
  8
0
100
AcDbLine
 62
7
  6
CONTINUOUS
 10
212.4523613037
 20
188.7857298475
 11
196.9523613037
 21
188.7857298475
  0
LINE
  5
2D9
100
AcDbEntity
  8
0
100
AcDbLine
 62
7
  6
CONTINUOUS
 10
211.2523613037
 20
189.2457298475
 11
210.1773613037
 21
189.2457298475
  0
LINE
  5
2DA
100
AcDbEntity
  8
0
100
AcDbLine
 62
7
  6
CONTINUOUS
 10
209.0273613037
 20
189.2457298475
 11
200.3773613037
 21
189.2457298475
  0
LINE
  5
2DB
100
AcDbEntity
  8
0
100
AcDbLine
 62
7
  6
CONTINUOUS
 10
199.2273613037
 20
189.2457298475
 11
198.1523613037
 21
189.2457298475
  0
LINE
  5
2DC
100
AcDbEntity
  8
0
100
AcDbLine
 62
7
  6
CONTINUOUS
 10
210.2523613037
 20
189.3857298475
 11
199.1523613037
 21
189.3857298475
  0
LINE
  5
2DD
100
AcDbEntity
  8
0
100
AcDbLine
 62
7
  6
CONTINUOUS
 10
211.2523613037
 20
190.0757298475
 11
210.2523613037
 21
190.0757298475
  0
LINE
  5
2DE
100
AcDbEntity
  8
0
100
AcDbLine
 62
7
  6
CONTINUOUS
 10
199.1523613037
 20
190.0757298475
 11
198.1523613037
 21
190.0757298475
  0
LINE
  5
2DF
100
AcDbEntity
  8
0
100
AcDbLine
 62
7
  6
CONTINUOUS
 10
210.9523613037
 20
190.3757298475
 11
198.4523613037
 21
190.3757298475
  0
LINE
  5
2E0
100
AcDbEntity
  8
0
100
AcDbLine
 62
7
  6
CONTINUOUS
 10
211.9523613037
 20
191.0757298475
 11
210.9523613037
 21
191.0757298475
  0
LINE
  5
2E1
100
AcDbEntity
  8
0
100
AcDbLine
 62
7
  6
CONTINUOUS
 10
198.4523613037
 20
191.0757298475
 11
197.4523613037
 21
191.0757298475
  0
LINE
  5
2E2
100
AcDbEntity
  8
0
100
AcDbLine
 62
7
  6
CONTINUOUS
 10
210.1023613037
 20
192.9357298475
 11
199.3023613037
 21
192.9357298475
  0
LINE
  5
2E3
100
AcDbEntity
  8
0
100
AcDbLine
 62
7
  6
CONTINUOUS
 10
141.8557565996
 20
254.3974397437
 11
142.2143960674
 21
250.2981718687
  0
LINE
  5
2E4
100
AcDbEntity
  8
0
100
AcDbLine
 62
7
  6
CONTINUOUS
 10
144.1023613037
 20
153.7698182644
 11
144.1023613037
 21
153.1367345923
  0
LINE
  5
2E5
100
AcDbEntity
  8
0
100
AcDbLine
 62
7
  6
CONTINUOUS
 10
144.3023613037
 20
153.1454667809
 11
144.3023613037
 21
153.7610860759
  0
LINE
  5
2E6
100
AcDbEntity
  8
0
100
AcDbLine
 62
7
  6
CONTINUOUS
 10
146.7237154325
 20
247.8550909095
 11
146.7237154325
 21
239.5311121062
  0
LINE
  5
2E7
100
AcDbEntity
  8
0
100
AcDbLine
 62
7
  6
CONTINUOUS
 10
146.8620690251
 20
250.2523876816
 11
146.8620690214
 21
250.157372068
  0
LINE
  5
2E8
100
AcDbEntity
  8
0
100
AcDbLine
 62
7
  6
CONTINUOUS
 10
147.2232395433
 20
239.5645172897
 11
147.2232395433
 21
247.4505824123
  0
LINE
  5
2E9
100
AcDbEntity
  8
0
100
AcDbLine
 62
7
  6
CONTINUOUS
 10
147.5736241509
 20
239.9149018972
 11
147.5889705088
 21
249.980240947
  0
LINE
  5
2EA
100
AcDbEntity
  8
0
100
AcDbLine
 62
7
  6
CONTINUOUS
 10
148.0888932639
 20
250.5135476843
 11
148.0731716658
 21
239.623556805
  0
LINE
  5
2EB
100
AcDbEntity
  8
0
100
AcDbLine
 62
7
  6
CONTINUOUS
 10
146.7237154325
 20
247.8550909095
 11
146.8620690214
 21
250.157372068
  0
LINE
  5
2EC
100
AcDbEntity
  8
0
100
AcDbLine
 62
7
  6
CONTINUOUS
 10
147.3615931322
 20
249.7528635708
 11
147.2232395433
 21
247.4505824123
  0
LINE
  5
2ED
100
AcDbEntity
  8
0
100
AcDbLine
 62
7
  6
CONTINUOUS
 10
221.2849380303
 20
250.5135476843
 11
222.1503609699
 21
251.3789706217
  0
LINE
  5
2EE
100
AcDbEntity
  8
0
100
AcDbLine
 62
7
  6
CONTINUOUS
 10
197.4523613037
 20
194.7957298475
 11
198.4523613037
 21
194.7957298475
  0
LINE
  5
2EF
100
AcDbEntity
  8
0
100
AcDbLine
 62
7
  6
CONTINUOUS
 10
210.9523613037
 20
194.7957298475
 11
211.9523613037
 21
194.7957298475
  0
LINE
  5
2F0
100
AcDbEntity
  8
0
100
AcDbLine
 62
7
  6
CONTINUOUS
 10
199.3023613037
 20
194.8157298475
 11
210.1023613037
 21
194.8157298475
  0
LINE
  5
2F1
100
AcDbEntity
  8
0
100
AcDbLine
 62
7
  6
CONTINUOUS
 10
198.4523613037
 20
195.4957298475
 11
210.9523613037
 21
195.4957298475
  0
LINE
  5
2F2
100
AcDbEntity
  8
0
100
AcDbLine
 62
7
  6
CONTINUOUS
 10
211.2523613037
 20
195.7957298475
 11
210.2523613037
 21
195.7957298475
  0
LINE
  5
2F3
100
AcDbEntity
  8
0
100
AcDbLine
 62
7
  6
CONTINUOUS
 10
199.1523613037
 20
195.7957298475
 11
198.1523613037
 21
195.7957298475
  0
LINE
  5
2F4
100
AcDbEntity
  8
0
100
AcDbLine
 62
7
  6
CONTINUOUS
 10
210.2523613037
 20
196.4857298475
 11
199.1523613037
 21
196.4857298475
  0
LINE
  5
2F5
100
AcDbEntity
  8
0
100
AcDbLine
 62
7
  6
CONTINUOUS
 10
196.9523613037
 20
197.0857298475
 11
212.4523613037
 21
197.0857298475
  0
LINE
  5
2F6
100
AcDbEntity
  8
0
100
AcDbLine
 62
7
  6
CONTINUOUS
 10
222.1503609699
 20
117.4924890733
 11
221.47741111
 21
118.1654389331
  0
LINE
  5
2F7
100
AcDbEntity
  8
0
100
AcDbLine
 62
7
  6
CONTINUOUS
 10
155.124822597
 20
239.9128014273
 11
155.1502138349
 21
239.3312464693
  0
LINE
  5
2F8
100
AcDbEntity
  8
0
100
AcDbLine
 62
7
  6
CONTINUOUS
 10
155.4523613037
 20
239.6357298475
 11
155.4523613037
 21
239.2995162024
  0
LINE
  5
2F9
100
AcDbEntity
  8
0
100
AcDbLine
 62
7
  6
CONTINUOUS
 10
156.4523613043
 20
239.2853961223
 11
156.4523613043
 21
239.6357298475
  0
LINE
  5
2FA
100
AcDbEntity
  8
0
100
AcDbLine
 62
7
  6
CONTINUOUS
 10
227.1456020779
 20
246.3837295138
 11
226.2730090623
 21
245.5111364982
  0
LINE
  5
2FB
100
AcDbEntity
  8
0
100
AcDbLine
 62
7
  6
CONTINUOUS
 10
220.4819416094
 20
238.861319994
 11
221.2441784209
 21
239.6235568098
  0
LINE
  5
2FC
100
AcDbEntity
  8
0
100
AcDbLine
 62
7
  6
CONTINUOUS
 10
165.7023613037
 20
209.3357298475
 11
98.7023613037
 21
209.3357298475
  0
LINE
  5
2FD
100
AcDbEntity
  8
0
100
AcDbLine
 62
7
  6
CONTINUOUS
 10
226.4726521206
 20
123.160680143
 11
227.1456020779
 21
122.4877301813
  0
LINE
  5
2FE
100
AcDbEntity
  8
0
100
AcDbLine
 62
7
  6
CONTINUOUS
 10
160.0523613037
 20
153.7698182644
 11
160.0523613037
 21
153.1454667796
  0
LINE
  5
2FF
100
AcDbEntity
  8
0
100
AcDbLine
 62
7
  6
CONTINUOUS
 10
160.2523613037
 20
153.1367345923
 11
160.2523613037
 21
153.778550453
  0
LINE
  5
300
100
AcDbEntity
  8
0
100
AcDbLine
 62
7
  6
CONTINUOUS
 10
161.6147613037
 20
152.9629098475
 11
161.6147613037
 21
153.778550453
  0
LINE
  5
301
100
AcDbEntity
  8
0
100
AcDbLine
 62
7
  6
CONTINUOUS
 10
165.6025613037
 20
153.778550453
 11
165.6025613037
 21
152.9629098475
  0
LINE
  5
302
100
AcDbEntity
  8
0
100
AcDbLine
 62
7
  6
CONTINUOUS
 10
167.2023613037
 20
170.9357298475
 11
167.2023613037
 21
207.8357298475
  0
LINE
  5
303
100
AcDbEntity
  8
0
100
AcDbLine
 62
7
  6
CONTINUOUS
 10
226.2313341274
 20
234.6202302906
 11
225.4771827197
 21
233.8660788829
  0
LINE
  5
304
100
AcDbEntity
  8
0
100
AcDbLine
 62
7
  6
CONTINUOUS
 10
167.2023613037
 20
170.9357298475
 11
165.2023613037
 21
168.9357298475
  0
LINE
  5
305
100
AcDbEntity
  8
0
100
AcDbLine
 62
7
  6
CONTINUOUS
 10
172.0541613037
 20
152.9629098475
 11
172.0541613037
 21
153.778550453
  0
LINE
  5
306
100
AcDbEntity
  8
0
100
AcDbLine
 62
7
  6
CONTINUOUS
 10
176.0419613037
 20
152.9629098475
 11
176.0419613037
 21
153.778550453
  0
LINE
  5
307
100
AcDbEntity
  8
0
100
AcDbLine
 62
7
  6
CONTINUOUS
 10
129.915173781
 20
239.2313976397
 11
129.5313839871
 21
239.6151874314
  0
LINE
  5
308
100
AcDbEntity
  8
0
100
AcDbLine
 62
7
  6
CONTINUOUS
 10
221.4440059265
 20
152.9611385888
 11
220.4819416117
 21
153.9232029037
  0
LINE
  5
309
100
AcDbEntity
  8
0
100
AcDbLine
 62
7
  6
CONTINUOUS
 10
201.113452574
 20
178.4803745637
 11
201.7170060198
 21
177.8768211178
  0
LINE
  5
30A
100
AcDbEntity
  8
0
100
AcDbLine
 62
7
  6
CONTINUOUS
 10
129.8310984565
 20
239.9149018972
 11
130.1814798357
 21
239.5607615616
  0
LINE
  5
30B
100
AcDbEntity
  8
0
100
AcDbLine
 62
7
  6
CONTINUOUS
 10
177.3627613037
 20
152.9629098475
 11
177.3627613037
 21
153.778550453
  0
LINE
  5
30C
100
AcDbEntity
  8
0
100
AcDbLine
 62
7
  6
CONTINUOUS
 10
178.9523613037
 20
239.6357298475
 11
178.9523613037
 21
239.2853961223
  0
LINE
  5
30D
100
AcDbEntity
  8
0
100
AcDbLine
 62
7
  6
CONTINUOUS
 10
179.9523613037
 20
239.2995162024
 11
179.9523613037
 21
239.6357298475
  0
LINE
  5
30E
100
AcDbEntity
  8
0
100
AcDbLine
 62
7
  6
CONTINUOUS
 10
181.3505613037
 20
153.778550453
 11
181.3505613037
 21
152.9629098475
  0
LINE
  5
30F
100
AcDbEntity
  8
0
100
AcDbLine
 62
7
  6
CONTINUOUS
 10
180.2545087725
 20
239.3312464693
 11
180.2799000103
 21
239.9128014273
  0
LINE
  5
310
100
AcDbEntity
  8
0
100
AcDbLine
 62
7
  6
CONTINUOUS
 10
206.0183290606
 20
251.1082519979
 11
205.957297506
 21
250.9414460517
  0
LINE
  5
311
100
AcDbEntity
  8
0
100
AcDbLine
 62
7
  6
CONTINUOUS
 10
39.9275398876
 20
233.8660788861
 11
40.2272543541
 21
233.8660788861
  0
LINE
  5
312
100
AcDbEntity
  8
0
100
AcDbLine
 62
7
  6
CONTINUOUS
 10
225.1774682532
 20
233.8660788861
 11
225.4771827197
 21
233.8660788861
  0
LINE
  5
313
100
AcDbEntity
  8
0
100
AcDbLine
 62
7
  6
CONTINUOUS
 10
130.0431294751
 20
249.7528635708
 11
129.8157520985
 21
249.980240947
  0
LINE
  5
314
100
AcDbEntity
  8
0
100
AcDbLine
 62
7
  6
CONTINUOUS
 10
201.9291380542
 20
178.0889531522
 11
201.3255846084
 21
178.692506598
  0
LINE
  5
315
100
AcDbEntity
  8
0
100
AcDbLine
 62
7
  6
CONTINUOUS
 10
130.3152760978
 20
250.4797650726
 11
130.5426535859
 21
250.2523876816
  0
LINE
  5
316
100
AcDbEntity
  8
0
100
AcDbLine
 62
7
  6
CONTINUOUS
 10
199.4523613037
 20
181.9357298475
 11
200.4523613037
 21
180.9357298475
  0
LINE
  5
317
100
AcDbEntity
  8
0
100
AcDbLine
 62
7
  6
CONTINUOUS
 10
197.3176236661
 20
184.9698583119
 11
197.7017521309
 21
184.5857298475
  0
LINE
  5
318
100
AcDbEntity
  8
0
100
AcDbLine
 62
7
  6
CONTINUOUS
 10
225.4771827197
 20
158.9184440161
 11
226.4392470252
 21
157.956379707
  0
LINE
  5
319
100
AcDbEntity
  8
0
100
AcDbLine
 62
7
  6
CONTINUOUS
 10
212.0870989411
 20
172.8516013831
 11
211.7029704766
 21
173.2357298475
  0
LINE
  5
31A
100
AcDbEntity
  8
0
100
AcDbLine
 62
7
  6
CONTINUOUS
 10
209.9523613037
 20
175.9357298475
 11
208.9523613037
 21
176.9357298475
  0
LINE
  5
31B
100
AcDbEntity
  8
0
100
AcDbLine
 62
7
  6
CONTINUOUS
 10
205.957297506
 20
117.9300136434
 11
206.0183290606
 21
117.7632076971
  0
LINE
  5
31C
100
AcDbEntity
  8
0
100
AcDbLine
 62
7
  6
CONTINUOUS
 10
187.2282579457
 20
122.3932987533
 11
187.2282579456
 21
118.1654389331
  0
LINE
  5
31D
100
AcDbEntity
  8
0
100
AcDbLine
 62
7
  6
CONTINUOUS
 10
187.8021613037
 20
152.9629098475
 11
187.8021613037
 21
153.778550453
  0
LINE
  5
31E
100
AcDbEntity
  8
0
100
AcDbLine
 62
7
  6
CONTINUOUS
 10
188.1679505661
 20
118.5024998269
 11
188.1679505661
 21
122.3932987538
  0
LINE
  5
31F
100
AcDbEntity
  8
0
100
AcDbLine
 62
7
  6
CONTINUOUS
 10
189.2023613037
 20
121.3588880162
 11
189.2023613037
 21
118.6179666998
  0
LINE
  5
320
100
AcDbEntity
  8
0
100
AcDbLine
 62
7
  6
CONTINUOUS
 10
190.9870284261
 20
125.2123766143
 11
190.9870284261
 21
126.1520692351
  0
LINE
  5
321
100
AcDbEntity
  8
0
100
AcDbLine
 62
7
  6
CONTINUOUS
 10
191.7899613037
 20
152.9629098475
 11
191.7899613037
 21
153.778550453
  0
LINE
  5
322
100
AcDbEntity
  8
0
100
AcDbLine
 62
7
  6
CONTINUOUS
 10
193.1523614532
 20
153.778550453
 11
193.1523614532
 21
153.1367345923
  0
LINE
  5
323
100
AcDbEntity
  8
0
100
AcDbLine
 62
7
  6
CONTINUOUS
 10
193.3523613037
 20
153.1454667809
 11
193.3523613037
 21
153.7698182644
  0
LINE
  5
324
100
AcDbEntity
  8
0
100
AcDbLine
 62
7
  6
CONTINUOUS
 10
200.4523613037
 20
176.9357298475
 11
199.4523613037
 21
175.9357298475
  0
LINE
  5
325
100
AcDbEntity
  8
0
100
AcDbLine
 62
7
  6
CONTINUOUS
 10
197.317623666
 20
172.8516013831
 11
197.7017521309
 21
173.2357298475
  0
LINE
  5
326
100
AcDbEntity
  8
0
100
AcDbLine
 62
7
  6
CONTINUOUS
 10
211.7029704767
 20
184.5857298475
 11
212.0870989411
 21
184.9698583119
  0
LINE
  5
327
100
AcDbEntity
  8
0
100
AcDbLine
 62
7
  6
CONTINUOUS
 10
208.9523613037
 20
180.9357298475
 11
209.9523613037
 21
181.9357298475
  0
LINE
  5
328
100
AcDbEntity
  8
0
100
AcDbLine
 62
7
  6
CONTINUOUS
 10
208.079137999
 20
178.692506598
 11
207.4755845531
 21
178.0889531522
  0
LINE
  5
329
100
AcDbEntity
  8
0
100
AcDbLine
 62
7
  6
CONTINUOUS
 10
207.6877165875
 20
177.8768211178
 11
208.2912700333
 21
178.4803745637
  0
LINE
  5
32A
100
AcDbEntity
  8
0
100
AcDbLine
 62
7
  6
CONTINUOUS
 10
44.9243873336
 20
238.5616055275
 11
220.4811623343
 21
238.5616055275
  0
LINE
  5
32B
100
AcDbEntity
  8
0
100
AcDbLine
 62
7
  6
CONTINUOUS
 10
220.4819416094
 20
238.861319994
 11
44.9227809955
 21
238.861319994
  0
LINE
  5
32C
100
AcDbEntity
  8
0
100
AcDbLine
 62
7
  6
CONTINUOUS
 10
129.915173781
 20
239.2313976397
 11
147.4895488263
 21
239.2313976397
  0
LINE
  5
32D
100
AcDbEntity
  8
0
100
AcDbLine
 62
7
  6
CONTINUOUS
 10
179.2023613037
 20
239.2853961223
 11
156.2023613037
 21
239.2853961223
  0
LINE
  5
32E
100
AcDbEntity
  8
0
100
AcDbLine
 62
7
  6
CONTINUOUS
 10
146.7237154325
 20
239.5311121062
 11
130.6803100359
 21
239.5311121062
  0
LINE
  5
32F
100
AcDbEntity
  8
0
100
AcDbLine
 62
7
  6
CONTINUOUS
 10
44.1605441797
 20
239.6235568098
 11
129.331550943
 21
239.6235568098
  0
LINE
  5
330
100
AcDbEntity
  8
0
100
AcDbLine
 62
7
  6
CONTINUOUS
 10
148.073171562
 20
239.6235568051
 11
155.13745129
 21
239.6235568051
  0
LINE
  5
331
100
AcDbEntity
  8
0
100
AcDbLine
 62
7
  6
CONTINUOUS
 10
180.2672713176
 20
239.6235568098
 11
221.2441784209
 21
239.6235568098
  0
LINE
  5
332
100
AcDbEntity
  8
0
100
AcDbLine
 62
7
  6
CONTINUOUS
 10
155.4523613037
 20
239.6357298475
 11
179.9523613037
 21
239.6357298475
  0
LINE
  5
333
100
AcDbEntity
  8
0
100
AcDbLine
 62
7
  6
CONTINUOUS
 10
221.2456362065
 20
239.9128014273
 11
180.2799000103
 21
239.9128014273
  0
LINE
  5
334
100
AcDbEntity
  8
0
100
AcDbLine
 62
7
  6
CONTINUOUS
 10
155.124822597
 20
239.9128014273
 11
148.0731716643
 21
239.9128014273
  0
LINE
  5
335
100
AcDbEntity
  8
0
100
AcDbLine
 62
7
  6
CONTINUOUS
 10
129.331550943
 20
239.9128014273
 11
44.1598846796
 21
239.9128014273
  0
LINE
  5
336
100
AcDbEntity
  8
0
100
AcDbLine
 62
7
  6
CONTINUOUS
 10
194.3863935467
 20
251.1082519979
 11
194.3863935467
 21
250.9191156088
  0
LINE
  5
337
100
AcDbEntity
  8
0
100
AcDbLine
 62
7
  6
CONTINUOUS
 10
194.3863935467
 20
117.9523440862
 11
194.3863935467
 21
117.7632076971
  0
LINE
  5
338
100
AcDbEntity
  8
0
100
AcDbLine
 62
7
  6
CONTINUOUS
 10
196.9523613037
 20
188.7857298475
 11
196.9523613037
 21
197.0857298475
  0
LINE
  5
339
100
AcDbEntity
  8
0
100
AcDbLine
 62
7
  6
CONTINUOUS
 10
197.317623666
 20
172.8516013831
 11
197.317623666
 21
184.9698583119
  0
LINE
  5
33A
100
AcDbEntity
  8
0
100
AcDbLine
 62
7
  6
CONTINUOUS
 10
197.4523613037
 20
191.0757298475
 11
197.4523613037
 21
194.7957298475
  0
LINE
  5
33B
100
AcDbEntity
  8
0
100
AcDbLine
 62
7
  6
CONTINUOUS
 10
197.7017521309
 20
184.5857298475
 11
197.7017521309
 21
181.9357298475
  0
LINE
  5
33C
100
AcDbEntity
  8
0
100
AcDbLine
 62
7
  6
CONTINUOUS
 10
197.7017521309
 20
173.2357298475
 11
197.7017521309
 21
175.9357298475
  0
LINE
  5
33D
100
AcDbEntity
  8
0
100
AcDbLine
 62
7
  6
CONTINUOUS
 10
197.77159367
 20
175.9357298475
 11
197.77159367
 21
181.9357298475
  0
LINE
  5
33E
100
AcDbEntity
  8
0
100
AcDbLine
 62
7
  6
CONTINUOUS
 10
198.1523613037
 20
189.2457298475
 11
198.1523613037
 21
191.0757298475
  0
LINE
  5
33F
100
AcDbEntity
  8
0
100
AcDbLine
 62
7
  6
CONTINUOUS
 10
198.1523613037
 20
194.7957298475
 11
198.1523613037
 21
195.7957298475
  0
LINE
  5
340
100
AcDbEntity
  8
0
100
AcDbLine
 62
7
  6
CONTINUOUS
 10
198.4523613037
 20
190.3757298475
 11
198.4523613037
 21
195.4957298475
  0
LINE
  5
341
100
AcDbEntity
  8
0
100
AcDbLine
 62
7
  6
CONTINUOUS
 10
199.1523613037
 20
189.3857298475
 11
199.1523613037
 21
190.3757298475
  0
LINE
  5
342
100
AcDbEntity
  8
0
100
AcDbLine
 62
7
  6
CONTINUOUS
 10
199.1523613037
 20
195.4957298475
 11
199.1523613037
 21
196.4857298475
  0
LINE
  5
343
100
AcDbEntity
  8
0
100
AcDbLine
 62
7
  6
CONTINUOUS
 10
199.2273613037
 20
188.8057298475
 11
199.2273613037
 21
189.2457298475
  0
LINE
  5
344
100
AcDbEntity
  8
0
100
AcDbLine
 62
7
  6
CONTINUOUS
 10
199.3023613037
 20
192.9357298475
 11
199.3023613037
 21
194.8157298475
  0
LINE
  5
345
100
AcDbEntity
  8
0
100
AcDbLine
 62
7
  6
CONTINUOUS
 10
200.3773613037
 20
189.2457298475
 11
200.3773613037
 21
188.8057298475
  0
LINE
  5
346
100
AcDbEntity
  8
0
100
AcDbLine
 62
7
  6
CONTINUOUS
 10
200.6773613037
 20
179.5057298475
 11
200.6773613037
 21
178.8692832933
  0
LINE
  5
347
100
AcDbEntity
  8
0
100
AcDbLine
 62
7
  6
CONTINUOUS
 10
200.8997072139
 20
178.8692832933
 11
200.8997072139
 21
179.5057298475
  0
LINE
  5
348
100
AcDbEntity
  8
0
100
AcDbLine
 62
7
  6
CONTINUOUS
 10
200.9523613037
 20
179.5057298475
 11
200.9523613037
 21
179.6157298475
  0
LINE
  5
349
100
AcDbEntity
  8
0
100
AcDbLine
 62
7
  6
CONTINUOUS
 10
201.2523613037
 20
179.6157298475
 11
201.2523613037
 21
178.8692832933
  0
LINE
  5
34A
100
AcDbEntity
  8
0
100
AcDbLine
 62
7
  6
CONTINUOUS
 10
201.5023613037
 20
179.8657298475
 11
201.5023613037
 21
180.3907298475
  0
LINE
  5
34B
100
AcDbEntity
  8
0
100
AcDbLine
 62
7
  6
CONTINUOUS
 10
201.9773613037
 20
178.0657298475
 11
201.9773613037
 21
179.8157298475
  0
LINE
  5
34C
100
AcDbEntity
  8
0
100
AcDbLine
 62
7
  6
CONTINUOUS
 10
202.1059147495
 20
177.4907298475
 11
202.1059147495
 21
178.0157298475
  0
LINE
  5
34D
100
AcDbEntity
  8
0
100
AcDbLine
 62
7
  6
CONTINUOUS
 10
148.0888926866
 20
250.5135476842
 11
147.5883636891
 21
250.5091354454
  0
LINE
  5
34E
100
AcDbEntity
  8
0
100
AcDbLine
 62
7
  6
CONTINUOUS
 10
130.181481452
 20
247.4505824123
 11
147.2232395433
 21
247.4505824123
  0
LINE
  5
34F
100
AcDbEntity
  8
0
100
AcDbLine
 62
7
  6
CONTINUOUS
 10
146.7237154325
 20
247.8550909095
 11
130.6810071748
 21
247.8550909095
  0
LINE
  5
350
100
AcDbEntity
  8
0
100
AcDbLine
 62
7
  6
CONTINUOUS
 10
130.5426535859
 20
250.157372068
 11
146.8620690214
 21
250.157372068
  0
LINE
  5
351
100
AcDbEntity
  8
0
100
AcDbLine
 62
7
  6
CONTINUOUS
 10
44.1197845734
 20
250.2243030668
 11
129.3158292683
 21
250.2243030668
  0
LINE
  5
352
100
AcDbEntity
  8
0
100
AcDbLine
 62
7
  6
CONTINUOUS
 10
148.0888933395
 20
250.2243030663
 11
221.2849380346
 21
250.2243030663
  0
LINE
  5
353
100
AcDbEntity
  8
0
100
AcDbLine
 62
7
  6
CONTINUOUS
 10
146.8620690368
 20
250.2523876816
 11
130.5426535859
 21
250.2523876816
  0
LINE
  5
354
100
AcDbEntity
  8
0
100
AcDbLine
 62
7
  6
CONTINUOUS
 10
142.2143960674
 20
250.2981718687
 11
135.1903265399
 21
250.2981718687
  0
LINE
  5
355
100
AcDbEntity
  8
0
100
AcDbLine
 62
7
  6
CONTINUOUS
 10
221.2849380303
 20
250.5135476843
 11
148.0888926866
 21
250.5135476842
  0
LINE
  5
356
100
AcDbEntity
  8
0
100
AcDbLine
 62
7
  6
CONTINUOUS
 10
129.3158292657
 20
250.5135476842
 11
44.1197845773
 21
250.5135476842
  0
LINE
  5
357
100
AcDbEntity
  8
0
100
AcDbLine
 62
7
  6
CONTINUOUS
 10
59.3863935467
 20
250.9191156088
 11
71.0183290606
 21
250.9191156088
  0
LINE
  5
358
100
AcDbEntity
  8
0
100
AcDbLine
 62
7
  6
CONTINUOUS
 10
194.3863935467
 20
250.9191156088
 11
206.0183290606
 21
250.9191156088
  0
LINE
  5
359
100
AcDbEntity
  8
0
100
AcDbLine
 62
7
  6
CONTINUOUS
 10
206.0183290606
 20
251.1082519979
 11
194.3863935467
 21
251.1082519979
  0
LINE
  5
35A
100
AcDbEntity
  8
0
100
AcDbLine
 62
7
  6
CONTINUOUS
 10
71.0183290606
 20
251.1082519979
 11
59.3863935467
 21
251.1082519979
  0
LINE
  5
35B
100
AcDbEntity
  8
0
100
AcDbLine
 62
7
  6
CONTINUOUS
 10
222.1503609699
 20
251.3789706217
 11
142.1198384289
 21
251.3789706217
  0
LINE
  5
35C
100
AcDbEntity
  8
0
100
AcDbLine
 62
7
  6
CONTINUOUS
 10
135.2848841784
 20
251.3789706217
 11
43.2543616374
 21
251.3789706217
  0
LINE
  5
35D
100
AcDbEntity
  8
0
100
AcDbLine
 62
7
  6
CONTINUOUS
 10
135.5489660078
 20
254.3974397437
 11
141.8557565996
 21
254.3974397437
  0
LINE
  5
35E
100
AcDbEntity
  8
0
100
AcDbLine
 62
7
  6
CONTINUOUS
 10
129.9519642288
 20
250.5057576471
 11
129.3158292657
 21
250.5135476842
  0
LINE
  5
35F
100
AcDbEntity
  8
0
100
AcDbLine
 62
7
  6
CONTINUOUS
 10
206.0183290606
 20
117.7632076971
 11
206.0183290606
 21
117.9523440862
  0
LINE
  5
360
100
AcDbEntity
  8
0
100
AcDbLine
 62
7
  6
CONTINUOUS
 10
206.0183290606
 20
250.9191156088
 11
206.0183290606
 21
251.1082519979
  0
LINE
  5
361
100
AcDbEntity
  8
0
100
AcDbLine
 62
7
  6
CONTINUOUS
 10
207.2988078578
 20
178.0157298475
 11
207.2988078578
 21
177.4907298475
  0
LINE
  5
362
100
AcDbEntity
  8
0
100
AcDbLine
 62
7
  6
CONTINUOUS
 10
207.4273613037
 20
179.8157298475
 11
207.4273613037
 21
178.0657298475
  0
LINE
  5
363
100
AcDbEntity
  8
0
100
AcDbLine
 62
7
  6
CONTINUOUS
 10
207.9023613037
 20
180.3907298475
 11
207.9023613037
 21
179.8657298475
  0
LINE
  5
364
100
AcDbEntity
  8
0
100
AcDbLine
 62
7
  6
CONTINUOUS
 10
208.1523613037
 20
178.8692832933
 11
208.1523613037
 21
179.6157284675
  0
LINE
  5
365
100
AcDbEntity
  8
0
100
AcDbLine
 62
7
  6
CONTINUOUS
 10
208.4273720467
 20
179.5057298475
 11
208.4273720467
 21
178.8692832933
  0
LINE
  5
366
100
AcDbEntity
  8
0
100
AcDbLine
 62
7
  6
CONTINUOUS
 10
208.4523613037
 20
179.6157298475
 11
208.4523613037
 21
179.5057298475
  0
LINE
  5
367
100
AcDbEntity
  8
0
100
AcDbLine
 62
7
  6
CONTINUOUS
 10
208.6773613037
 20
178.8692832933
 11
208.6773613037
 21
179.5057298475
  0
LINE
  5
368
100
AcDbEntity
  8
0
100
AcDbLine
 62
7
  6
CONTINUOUS
 10
209.0273613037
 20
188.8057298475
 11
209.0273613037
 21
189.2457298475
  0
LINE
  5
369
100
AcDbEntity
  8
0
100
AcDbLine
 62
7
  6
CONTINUOUS
 10
209.4176941801
 20
126.1520692351
 11
209.4176941801
 21
125.2123766143
  0
LINE
  5
36A
100
AcDbEntity
  8
0
100
AcDbLine
 62
7
  6
CONTINUOUS
 10
210.1023613037
 20
194.8157298475
 11
210.1023613037
 21
192.9357298475
  0
LINE
  5
36B
100
AcDbEntity
  8
0
100
AcDbLine
 62
7
  6
CONTINUOUS
 10
210.1773613037
 20
189.2457298475
 11
210.1773613037
 21
188.8057298475
  0
LINE
  5
36C
100
AcDbEntity
  8
0
100
AcDbLine
 62
7
  6
CONTINUOUS
 10
210.2523613037
 20
196.4857298475
 11
210.2523613037
 21
195.4957298475
  0
LINE
  5
36D
100
AcDbEntity
  8
0
100
AcDbLine
 62
7
  6
CONTINUOUS
 10
210.2523613037
 20
190.3757298475
 11
210.2523613037
 21
189.3857298475
  0
LINE
  5
36E
100
AcDbEntity
  8
0
100
AcDbLine
 62
7
  6
CONTINUOUS
 10
210.9523613037
 20
190.3757298475
 11
210.9523613037
 21
195.4957298475
  0
LINE
  5
36F
100
AcDbEntity
  8
0
100
AcDbLine
 62
7
  6
CONTINUOUS
 10
211.2023613037
 20
118.6179666998
 11
211.2023613037
 21
121.3588880254
  0
LINE
  5
370
100
AcDbEntity
  8
0
100
AcDbLine
 62
7
  6
CONTINUOUS
 10
211.2523613037
 20
195.7957298475
 11
211.2523613037
 21
194.7957298475
  0
LINE
  5
371
100
AcDbEntity
  8
0
100
AcDbLine
 62
7
  6
CONTINUOUS
 10
211.2523613037
 20
189.2457298475
 11
211.2523613037
 21
191.0757298475
  0
LINE
  5
372
100
AcDbEntity
  8
0
100
AcDbLine
 62
7
  6
CONTINUOUS
 10
228.7023613037
 20
260.4357298475
 11
36.7023613037
 21
260.4357298475
  0
LINE
  5
373
100
AcDbEntity
  8
0
100
AcDbLine
 62
7
  6
CONTINUOUS
 10
228.7023612876
 20
260.9357298475
 11
36.7023613037
 21
260.9357298475
  0
LINE
  5
374
100
AcDbEntity
  8
0
100
AcDbLine
 62
7
  6
CONTINUOUS
 10
216.2023613037
 20
116.5357298475
 11
216.1204140718
 21
118.0993761797
  0
LINE
  5
375
100
AcDbEntity
  8
0
100
AcDbLine
 62
7
  6
CONTINUOUS
 10
211.6331289377
 20
175.9357298475
 11
211.6331289377
 21
181.9357298475
  0
LINE
  5
376
100
AcDbEntity
  8
0
100
AcDbLine
 62
7
  6
CONTINUOUS
 10
211.7029704766
 20
173.2357298475
 11
211.7029704766
 21
175.9357298475
  0
LINE
  5
377
100
AcDbEntity
  8
0
100
AcDbLine
 62
7
  6
CONTINUOUS
 10
211.7029704767
 20
181.9357298475
 11
211.7029704767
 21
184.5857298475
  0
LINE
  5
378
100
AcDbEntity
  8
0
100
AcDbLine
 62
7
  6
CONTINUOUS
 10
211.9523613037
 20
191.0757298475
 11
211.9523613037
 21
194.7957298475
  0
LINE
  5
379
100
AcDbEntity
  8
0
100
AcDbLine
 62
7
  6
CONTINUOUS
 10
212.0870989411
 20
172.8516013831
 11
212.0870989411
 21
184.9698583119
  0
LINE
  5
37A
100
AcDbEntity
  8
0
100
AcDbLine
 62
7
  6
CONTINUOUS
 10
212.2367720409
 20
122.3932987543
 11
212.2367720409
 21
118.5024998232
  0
LINE
  5
37B
100
AcDbEntity
  8
0
100
AcDbLine
 62
7
  6
CONTINUOUS
 10
212.4523613037
 20
197.0857298475
 11
212.4523613037
 21
188.7857298475
  0
LINE
  5
37C
100
AcDbEntity
  8
0
100
AcDbLine
 62
7
  6
CONTINUOUS
 10
213.1764646617
 20
118.1654389331
 11
213.1764646618
 21
122.3932987526
  0
LINE
  5
37D
100
AcDbEntity
  8
0
100
AcDbLine
 62
7
  6
CONTINUOUS
 10
194.4474345072
 20
117.929986386
 11
194.3863935467
 21
117.7632076971
  0
LINE
  5
37E
100
AcDbEntity
  8
0
100
AcDbLine
 62
7
  6
CONTINUOUS
 10
194.447420269
 20
250.9414573327
 11
194.3863935467
 21
251.1082519979
  0
LINE
  5
37F
100
AcDbEntity
  8
0
100
AcDbLine
 62
7
  6
CONTINUOUS
 10
220.4819416118
 20
238.861319994
 11
220.4819416118
 21
238.5616055275
  0
LINE
  5
380
100
AcDbEntity
  8
0
100
AcDbLine
 62
7
  6
CONTINUOUS
 10
220.4819416118
 20
154.2229173702
 11
220.4819416118
 21
153.9232029037
  0
LINE
  5
381
100
AcDbEntity
  8
0
100
AcDbLine
 62
7
  6
CONTINUOUS
 10
221.244178418
 20
239.9128014273
 11
221.244178418
 21
239.6235568098
  0
LINE
  5
382
100
AcDbEntity
  8
0
100
AcDbLine
 62
7
  6
CONTINUOUS
 10
221.2849380288
 20
250.5135476843
 11
221.2849380288
 21
250.2243030663
  0
LINE
  5
383
100
AcDbEntity
  8
0
100
AcDbLine
 62
7
  6
CONTINUOUS
 10
221.4440059264
 20
152.9611385888
 11
221.4440059264
 21
152.4616144781
  0
LINE
  5
384
100
AcDbEntity
  8
0
100
AcDbLine
 62
7
  6
CONTINUOUS
 10
221.4774111101
 20
118.4651533996
 11
221.4774111101
 21
118.1654389331
  0
LINE
  5
385
100
AcDbEntity
  8
0
100
AcDbLine
 62
7
  6
CONTINUOUS
 10
225.1774682532
 20
233.8658435618
 11
225.1774682532
 21
158.91761316
  0
LINE
  5
386
100
AcDbEntity
  8
0
100
AcDbLine
 62
7
  6
CONTINUOUS
 10
225.4771827197
 20
158.9184440161
 11
225.4771827197
 21
233.8660788829
  0
LINE
  5
387
100
AcDbEntity
  8
0
100
AcDbLine
 62
7
  6
CONTINUOUS
 10
226.1729359397
 20
155.1566093065
 11
226.1729359397
 21
123.1598393236
  0
LINE
  5
388
100
AcDbEntity
  8
0
100
AcDbLine
 62
7
  6
CONTINUOUS
 10
226.4726521206
 20
123.160680143
 11
226.4726383609
 21
155.1975921749
  0
LINE
  5
389
100
AcDbEntity
  8
0
100
AcDbLine
 62
7
  6
CONTINUOUS
 10
227.1456020779
 20
122.4877301813
 11
227.1456020779
 21
246.3837295138
  0
LINE
  5
38A
100
AcDbEntity
  8
0
100
AcDbLine
 62
7
  6
CONTINUOUS
 10
225.9603222665
 20
237.0130179569
 11
225.9732945959
 21
245.5216063473
  0
LINE
  5
38B
100
AcDbEntity
  8
0
100
AcDbLine
 62
7
  6
CONTINUOUS
 10
226.2730090623
 20
245.5111364982
 11
226.2600365402
 21
237.0027588912
  0
LINE
  5
38C
100
AcDbEntity
  8
0
100
AcDbLine
 62
7
  6
CONTINUOUS
 10
218.2023613037
 20
116.5357298475
 11
218.2843085355
 21
118.0993761797
  0
LINE
  5
38D
100
AcDbEntity
  8
0
100
AcDbLine
 62
7
  6
CONTINUOUS
 10
236.2023613037
 20
115.9357298475
 11
236.2023613037
 21
252.9357298475
  0
LINE
  5
38E
100
AcDbEntity
  8
0
100
AcDbLine
 62
7
  6
CONTINUOUS
 10
236.7023613037
 20
115.9357298475
 11
236.7023613037
 21
252.9357298475
  0
LINE
  5
38F
100
AcDbEntity
  8
0
100
AcDbLine
 62
7
  6
CONTINUOUS
 10
208.3832834413
 20
124.1779658769
 11
209.4176941793
 21
125.2123766143
  0
LINE
  5
390
100
AcDbEntity
  8
0
100
AcDbLine
 62
7
  6
CONTINUOUS
 10
212.2367720409
 20
122.3932987543
 11
211.2023613037
 21
121.3588880254
  0
ARC
  5
391
100
AcDbEntity
  8
0
100
AcDbCircle
 62
7
  6
CONTINUOUS
 10
36.7023613037
 20
115.9357298475
 40
8.0
100
AcDbArc
 50
180.0
 51
270.0000001151
  0
ARC
  5
392
100
AcDbEntity
  8
0
100
AcDbCircle
 62
7
  6
CONTINUOUS
 10
36.7023613037
 20
115.9357298475
 40
7.5
100
AcDbArc
 50
180.0
 51
270.0
  0
ARC
  5
393
100
AcDbEntity
  8
0
100
AcDbCircle
 62
7
  6
CONTINUOUS
 10
43.9591335133
 20
157.9550081998
 40
5.4933940585
100
AcDbArc
 50
210.6214349345
 51
270.0200640491
  0
ARC
  5
394
100
AcDbEntity
  8
0
100
AcDbCircle
 62
7
  6
CONTINUOUS
 10
43.9262273569
 20
123.1595891624
 40
4.9940992685
100
AcDbArc
 50
179.9874068115
 51
270.0124385421
  0
ARC
  5
395
100
AcDbEntity
  8
0
100
AcDbCircle
 62
7
  6
CONTINUOUS
 10
44.9216358573
 20
158.917299161
 40
4.9940447525
100
AcDbArc
 50
179.9868520068
 51
270.0131414391
  0
ARC
  5
396
100
AcDbEntity
  8
0
100
AcDbCircle
 62
7
  6
CONTINUOUS
 10
43.9577489799
 20
157.9535100912
 40
4.9921731698
100
AcDbArc
 50
179.993517668
 51
270.0340794621
  0
ARC
  5
397
100
AcDbEntity
  8
0
100
AcDbCircle
 62
7
  6
CONTINUOUS
 10
43.9256565838
 20
123.159052007
 40
4.6939802153
100
AcDbArc
 50
179.9605196147
 51
270.0100589182
  0
ARC
  5
398
100
AcDbEntity
  8
0
100
AcDbCircle
 62
7
  6
CONTINUOUS
 10
44.9210941867
 20
158.9168046026
 40
4.6939098856
100
AcDbArc
 50
179.9771218753
 51
270.0301026213
  0
ARC
  5
399
100
AcDbEntity
  8
0
100
AcDbCircle
 62
7
  6
CONTINUOUS
 10
98.7023613037
 20
170.4357298475
 40
1.5
100
AcDbArc
 50
180.0
 51
270.0
  0
ARC
  5
39A
100
AcDbEntity
  8
0
100
AcDbCircle
 62
7
  6
CONTINUOUS
 10
36.7023613037
 20
252.9357298475
 40
8.0
100
AcDbArc
 50
90.0
 51
180.0
  0
ARC
  5
39B
100
AcDbEntity
  8
0
100
AcDbCircle
 62
7
  6
CONTINUOUS
 10
36.7023613037
 20
252.9357298475
 40
7.5
100
AcDbArc
 50
90.0
 51
180.0
  0
ARC
  5
39C
100
AcDbEntity
  8
0
100
AcDbCircle
 62
7
  6
CONTINUOUS
 10
44.1585460161
 20
234.6309908157
 40
5.2817991708
100
AcDbArc
 50
89.985478508
 51
153.193080971
  0
ARC
  5
39D
100
AcDbEntity
  8
0
100
AcDbCircle
 62
7
  6
CONTINUOUS
 10
44.9216360966
 20
233.8672240613
 40
4.9940447125
100
AcDbArc
 50
89.9868645737
 51
180.0131417151
  0
ARC
  5
39E
100
AcDbEntity
  8
0
100
AcDbCircle
 62
7
  6
CONTINUOUS
 10
44.1213844027
 20
245.5243571122
 40
4.9894102189
100
AcDbArc
 50
90.0183723959
 51
180.1518103623
  0
ARC
  5
39F
100
AcDbEntity
  8
0
100
AcDbCircle
 62
7
  6
CONTINUOUS
 10
44.9211451954
 20
233.8677426142
 40
4.6939692782
100
AcDbArc
 50
89.9604247483
 51
180.010166462
  0
CIRCLE
  5
3A0
100
AcDbEntity
  8
0
100
AcDbCircle
 62
7
  6
CONTINUOUS
 10
95.2023613037
 20
213.9357298475
 40
2.25
  0
ARC
  5
3A1
100
AcDbEntity
  8
0
100
AcDbCircle
 62
7
  6
CONTINUOUS
 10
98.7023613037
 20
207.8357298475
 40
1.5
100
AcDbArc
 50
90.0
 51
180.0
  0
ARC
  5
3A2
100
AcDbEntity
  8
0
100
AcDbCircle
 62
7
  6
CONTINUOUS
 10
130.3164250082
 20
249.9790921485
 40
0.5006742348
100
AcDbArc
 50
90.1314663122
 51
179.8685337143
  0
ARC
  5
3A3
100
AcDbEntity
  8
0
100
AcDbCircle
 62
7
  6
CONTINUOUS
 10
130.5434853573
 20
249.7518622676
 40
0.500356884
100
AcDbArc
 50
90.1360896207
 51
179.885340889
  0
ARC
  5
3A4
100
AcDbEntity
  8
0
100
AcDbCircle
 62
7
  6
CONTINUOUS
 10
129.5306946822
 20
239.9155911725
 40
0.3004045321
100
AcDbArc
 50
270.1314708208
 51
359.8685355365
  0
ARC
  5
3A5
100
AcDbEntity
  8
0
100
AcDbCircle
 62
7
  6
CONTINUOUS
 10
228.7023613037
 20
115.9357298475
 40
8.0
100
AcDbArc
 50
270.0
 51
360.0
  0
ARC
  5
3A6
100
AcDbEntity
  8
0
100
AcDbCircle
 62
7
  6
CONTINUOUS
 10
228.7023613037
 20
115.9357298475
 40
7.5
100
AcDbArc
 50
269.9999999549
 51
360.0
  0
ARC
  5
3A7
100
AcDbEntity
  8
0
100
AcDbCircle
 62
7
  6
CONTINUOUS
 10
221.4456877424
 20
157.955183475
 40
5.4935487047
100
AcDbArc
 50
269.9715545446
 51
329.3740792454
  0
ARC
  5
3A8
100
AcDbEntity
  8
0
100
AcDbCircle
 62
7
  6
CONTINUOUS
 10
220.4829399543
 20
158.9174453927
 40
4.9942250024
100
AcDbArc
 50
269.9885456471
 51
0.0114607248
  0
ARC
  5
3A9
100
AcDbEntity
  8
0
100
AcDbCircle
 62
7
  6
CONTINUOUS
 10
221.4785019528
 20
123.1595959163
 40
4.9940993038
100
AcDbArc
 50
269.9874074477
 51
0.0124384006
  0
ARC
  5
3AA
100
AcDbEntity
  8
0
100
AcDbCircle
 62
7
  6
CONTINUOUS
 10
221.446793084
 20
157.9538093086
 40
4.9925130124
100
AcDbArc
 50
269.968022419
 51
0.0045095165
  0
ARC
  5
3AB
100
AcDbEntity
  8
0
100
AcDbCircle
 62
7
  6
CONTINUOUS
 10
221.4790390736
 20
123.1590248552
 40
4.6939800359
100
AcDbArc
 50
269.9605065739
 51
0.0099417607
  0
ARC
  5
3AC
100
AcDbEntity
  8
0
100
AcDbCircle
 62
7
  6
CONTINUOUS
 10
220.483577848
 20
158.9167801272
 40
4.6939688862
100
AcDbArc
 50
269.9604194007
 51
0.0101683794
  0
ARC
  5
3AD
100
AcDbEntity
  8
0
100
AcDbCircle
 62
7
  6
CONTINUOUS
 10
207.9023613037
 20
178.8692832933
 40
0.55
100
AcDbArc
 50
315.0000000008
 51
355.7634453901
  0
ARC
  5
3AE
100
AcDbEntity
  8
0
100
AcDbCircle
 62
7
  6
CONTINUOUS
 10
207.2988078578
 20
178.2657298475
 40
0.55
100
AcDbArc
 50
270.0
 51
314.9999999994
  0
ARC
  5
3AF
100
AcDbEntity
  8
0
100
AcDbCircle
 62
7
  6
CONTINUOUS
 10
202.1059147495
 20
178.2657298475
 40
0.55
100
AcDbArc
 50
224.9999999998
 51
265.7634453901
  0
ARC
  5
3B0
100
AcDbEntity
  8
0
100
AcDbCircle
 62
7
  6
CONTINUOUS
 10
201.5023613037
 20
178.8692832933
 40
0.55
100
AcDbArc
 50
180.0
 51
225.0000000002
  0
ARC
  5
3B1
100
AcDbEntity
  8
0
100
AcDbCircle
 62
7
  6
CONTINUOUS
 10
201.5023613037
 20
179.6157298475
 40
0.55
100
AcDbArc
 50
90.0
 51
180.0
  0
ARC
  5
3B2
100
AcDbEntity
  8
0
100
AcDbCircle
 62
7
  6
CONTINUOUS
 10
207.9023613037
 20
179.6157298475
 40
0.55
100
AcDbArc
 50
0.0
 51
90.0
  0
ARC
  5
3B3
100
AcDbEntity
  8
0
100
AcDbCircle
 62
7
  6
CONTINUOUS
 10
207.2988078578
 20
178.2657298475
 40
0.25
100
AcDbArc
 50
270.0
 51
285.1895357891
  0
ARC
  5
3B4
100
AcDbEntity
  8
0
100
AcDbCircle
 62
7
  6
CONTINUOUS
 10
207.9023613037
 20
178.8692832933
 40
0.25
100
AcDbArc
 50
314.9999999994
 51
360.0
  0
ARC
  5
3B5
100
AcDbEntity
  8
0
100
AcDbCircle
 62
7
  6
CONTINUOUS
 10
201.5023613037
 20
178.8692832933
 40
0.25
100
AcDbArc
 50
180.0
 51
225.0000000007
  0
ARC
  5
3B6
100
AcDbEntity
  8
0
100
AcDbCircle
 62
7
  6
CONTINUOUS
 10
202.1059147495
 20
178.2657298475
 40
0.25
100
AcDbArc
 50
224.9999999992
 51
270.0
  0
ARC
  5
3B7
100
AcDbEntity
  8
0
100
AcDbCircle
 62
7
  6
CONTINUOUS
 10
201.5023613037
 20
179.6157298475
 40
0.25
100
AcDbArc
 50
90.0
 51
180.001365216
  0
ARC
  5
3B8
100
AcDbEntity
  8
0
100
AcDbCircle
 62
7
  6
CONTINUOUS
 10
207.9023613037
 20
179.6157298475
 40
0.25
100
AcDbArc
 50
359.9996837343
 51
90.0
  0
ARC
  5
3B9
100
AcDbEntity
  8
0
100
AcDbCircle
 62
7
  6
CONTINUOUS
 10
228.7023613037
 20
252.9357298475
 40
8.0
100
AcDbArc
 50
0.0
 51
90.0000001151
  0
ARC
  5
3BA
100
AcDbEntity
  8
0
100
AcDbCircle
 62
7
  6
CONTINUOUS
 10
228.7023613037
 20
252.9357298475
 40
7.5
100
AcDbArc
 50
0.0
 51
90.0
  0
ARC
  5
3BB
100
AcDbEntity
  8
0
100
AcDbCircle
 62
7
  6
CONTINUOUS
 10
220.4829401936
 20
233.867077186
 40
4.9942250389
100
AcDbArc
 50
359.9885460943
 51
90.0114603899
  0
ARC
  5
3BC
100
AcDbEntity
  8
0
100
AcDbCircle
 62
7
  6
CONTINUOUS
 10
221.2833394141
 20
245.5243770885
 40
4.9893967418
100
AcDbArc
 50
359.847960206
 51
89.9816414201
  0
ARC
  5
3BD
100
AcDbEntity
  8
0
100
AcDbCircle
 62
7
  6
CONTINUOUS
 10
220.4836284216
 20
233.8677182961
 40
4.693909851
100
AcDbArc
 50
359.9771158873
 51
90.0301022105
  0
CIRCLE
  5
3BE
100
AcDbEntity
  8
0
100
AcDbCircle
 62
7
  6
CONTINUOUS
 10
170.2023613037
 20
213.9357298475
 40
2.25
  0
ARC
  5
3BF
100
AcDbEntity
  8
0
100
AcDbCircle
 62
7
  6
CONTINUOUS
 10
165.7023613037
 20
207.8357298475
 40
1.5
100
AcDbArc
 50
0.0
 51
90.0
  0
ARC
  5
3C0
100
AcDbEntity
  8
0
100
AcDbCircle
 62
7
  6
CONTINUOUS
 10
147.0885226281
 20
249.9791388507
 40
0.5004531193
100
AcDbArc
 50
0.1262938841
 51
89.8944506339
  0
ARC
  5
3C1
100
AcDbEntity
  8
0
100
AcDbCircle
 62
7
  6
CONTINUOUS
 10
146.8612371853
 20
249.7518622609
 40
0.5003569488
100
AcDbArc
 50
0.11465986
 51
89.8639028998
  0
ARC
  5
3C2
100
AcDbEntity
  8
0
100
AcDbCircle
 62
7
  6
CONTINUOUS
 10
147.8740254656
 20
239.9155920705
 40
0.300405438
100
AcDbArc
 50
180.1316342594
 51
269.8689961042
  0
SPLINE
  5
3C3
100
AcDbEntity
  8
0
100
AcDbSpline
 62
7
  6
CONTINUOUS
 70
0
 71
3
 72
9
 73
5
 74
0
 42
0.0000001
 43
0.0000001
 44
0.0000000001
 40
0.0
 40
0.0
 40
0.0
 40
0.0
 40
0.2592817671
 40
1.0
 40
1.0
 40
1.0
 40
1.0
 10
38.9320763118
 20
155.1833998373
 30
0.0
 10
38.9321732431
 20
155.4230807172
 30
0.0
 10
38.9370518798
 20
156.347483109
 30
0.0
 10
38.9529090461
 20
157.2717750405
 30
0.0
 10
38.9654756184
 20
157.9563820321
 30
0.0
  0
SPLINE
  5
3C4
100
AcDbEntity
  8
0
100
AcDbSpline
 62
7
  6
CONTINUOUS
 70
0
 71
3
 72
15
 73
11
 74
0
 42
0.0000001
 43
0.0000001
 44
0.0000000001
 40
0.0
 40
0.0
 40
0.0
 40
0.0
 40
0.3815470746
 40
0.5539736533
 40
0.7049964905
 40
0.8290037849
 40
0.9214387963
 40
0.9786144327
 40
0.9935742809
 40
1.0
 40
1.0
 40
1.0
 40
1.0
 10
84.1523740841
 20
153.6606659072
 30
0.0
 10
84.2417073099
 20
153.6606659072
 30
0.0
 10
84.3713913224
 20
153.6616937661
 30
0.0
 10
84.5364767666
 20
153.6654618898
 30
0.0
 10
84.6410348478
 20
153.6690756361
 30
0.0
 10
84.7273737411
 20
153.6735137382
 30
0.0
 10
84.7902852853
 20
153.6781990723
 30
0.0
 10
84.8302945666
 20
153.6831356492
 30
0.0
 10
84.8465076648
 20
153.6870180484
 30
0.0
 10
84.8523613037
 20
153.6897254165
 30
0.0
 10
84.8523613037
 20
153.6912298972
 30
0.0
  0
SPLINE
  5
3C5
100
AcDbEntity
  8
0
100
AcDbSpline
 62
7
  6
CONTINUOUS
 70
0
 71
3
 72
15
 73
11
 74
0
 42
0.0000001
 43
0.0000001
 44
0.0000000001
 40
0.0
 40
0.0
 40
0.0
 40
0.0
 40
0.0064211817
 40
0.0213653334
 40
0.0785002288
 40
0.1709116226
 40
0.2949139244
 40
0.4459436567
 40
0.6183886417
 40
1.0
 40
1.0
 40
1.0
 40
1.0
 10
107.7523613037
 20
153.6912337107
 30
0.0
 10
107.7523613037
 20
153.6897305178
 30
0.0
 10
107.7582038492
 20
153.6870210002
 30
0.0
 10
107.774405407
 20
153.6831392434
 30
0.0
 10
107.8143846165
 20
153.6782001976
 30
0.0
 10
107.877272845
 20
153.6735159383
 30
0.0
 10
107.9635927399
 20
153.6690767404
 30
0.0
 10
108.0681401518
 20
153.6654623012
 30
0.0
 10
108.2332216658
 20
153.661693231
 30
0.0
 10
108.3629056435
 20
153.6606659072
 30
0.0
 10
108.45224052
 20
153.6606659072
 30
0.0
  0
SPLINE
  5
3C6
100
AcDbEntity
  8
0
100
AcDbSpline
 62
7
  6
CONTINUOUS
 70
0
 71
3
 72
9
 73
5
 74
0
 42
0.0000001
 43
0.0000001
 44
0.0000000001
 40
0.0
 40
0.0
 40
0.0
 40
0.0
 40
0.2421644566
 40
1.0
 40
1.0
 40
1.0
 40
1.0
 10
226.4392470252
 20
157.956379707
 30
0.0
 10
226.4432919848
 20
157.7337056742
 30
0.0
 10
226.4594840959
 20
156.8141880562
 30
0.0
 10
226.4722095305
 20
155.8945487569
 30
0.0
 10
226.4726384542
 20
155.1975922051
 30
0.0
  0
SPLINE
  5
3C7
100
AcDbEntity
  8
0
100
AcDbSpline
 62
7
  6
CONTINUOUS
 70
0
 71
3
 72
13
 73
9
 74
0
 42
0.0000001
 43
0.0000001
 44
0.0000000001
 40
0.0
 40
0.0
 40
0.0
 40
0.0
 40
0.3739955425
 40
0.6840271502
 40
0.8065054796
 40
0.9023319912
 40
0.9678931882
 40
1.0
 40
1.0
 40
1.0
 40
1.0
 10
147.5881514557
 20
250.5091552743
 30
0.0
 10
147.5257970209
 20
250.5078854547
 30
0.0
 10
147.411809855
 20
250.5048802701
 30
0.0
 10
147.2772762269
 20
250.4995824666
 30
0.0
 10
147.1895512783
 20
250.4938222773
 30
0.0
 10
147.1419698207
 20
250.4902272517
 30
0.0
 10
147.1108164672
 20
250.4851904284
 30
0.0
 10
147.0936863603
 20
250.4830346254
 30
0.0
 10
147.08944648
 20
250.4797650656
 30
0.0
  0
SPLINE
  5
3C8
100
AcDbEntity
  8
0
100
AcDbSpline
 62
7
  6
CONTINUOUS
 70
0
 71
3
 72
9
 73
5
 74
0
 42
0.0000001
 43
0.0000001
 44
0.0000000001
 40
0.0
 40
0.0
 40
0.0
 40
0.0
 40
0.5037069255
 40
1.0
 40
1.0
 40
1.0
 40
1.0
 10
38.9655251709
 20
157.9563861493
 30
0.0
 10
38.9603341162
 20
157.4836868439
 30
0.0
 10
39.0075172096
 20
156.5439560311
 30
0.0
 10
39.1483869479
 20
155.6150857638
 30
0.0
 10
39.2317954937
 20
155.1568449558
 30
0.0
  0
SPLINE
  5
3C9
100
AcDbEntity
  8
0
100
AcDbSpline
 62
7
  6
CONTINUOUS
 70
0
 71
3
 72
9
 73
5
 74
0
 42
0.0000001
 43
0.0000001
 44
0.0000000001
 40
0.0
 40
0.0
 40
0.0
 40
0.0
 40
0.2688339338
 40
1.0
 40
1.0
 40
1.0
 40
1.0
 10
52.2282579456
 20
118.1654389331
 30
0.0
 10
52.3012710024
 20
118.1654389218
 30
0.0
 10
52.5728578145
 20
118.1664833345
 30
0.0
 10
52.8444599175
 20
118.170998445
 30
0.0
 10
53.0429162542
 20
118.1779660641
 30
0.0
  0
SPLINE
  5
3CA
100
AcDbEntity
  8
0
100
AcDbSpline
 62
7
  6
CONTINUOUS
 70
0
 71
3
 72
9
 73
5
 74
0
 42
0.0000001
 43
0.0000001
 44
0.0000000001
 40
0.0
 40
0.0
 40
0.0
 40
0.0
 40
0.4893759051
 40
1.0
 40
1.0
 40
1.0
 40
1.0
 10
53.4498583515
 20
118.2027864692
 30
0.0
 10
53.377499227
 20
118.2039505561
 30
0.0
 10
53.2262737012
 20
118.2735131523
 30
0.0
 10
53.1690102848
 20
118.4269966117
 30
0.0
 10
53.1679505665
 20
118.5024998269
 30
0.0
  0
SPLINE
  5
3CB
100
AcDbEntity
  8
0
100
AcDbSpline
 62
7
  6
CONTINUOUS
 70
0
 71
3
 72
9
 73
5
 74
0
 42
0.0000001
 43
0.0000001
 44
0.0000000001
 40
0.0
 40
0.0
 40
0.0
 40
0.0
 40
0.3189074062
 40
1.0
 40
1.0
 40
1.0
 40
1.0
 10
53.0429162542
 20
118.1779660641
 30
0.0
 10
53.0862332081
 20
118.1794860278
 30
0.0
 10
53.2219905051
 20
118.1851687557
 30
0.0
 10
53.3579483219
 20
118.1917547023
 30
0.0
 10
53.4498579966
 20
118.2027853177
 30
0.0
  0
SPLINE
  5
3CC
100
AcDbEntity
  8
0
100
AcDbSpline
 62
7
  6
CONTINUOUS
 70
0
 71
3
 72
10
 73
6
 74
0
 42
0.0000001
 43
0.0000001
 44
0.0000000001
 40
0.0
 40
0.0
 40
0.0
 40
0.0
 40
0.3163012655
 40
0.5786482833
 40
1.0
 40
1.0
 40
1.0
 40
1.0
 10
52.8549129777
 20
118.4776802242
 30
0.0
 10
52.855761518
 20
118.4378876968
 30
0.0
 10
52.8669458858
 20
118.3644937913
 30
0.0
 10
52.9130536425
 20
118.2489072624
 30
0.0
 10
52.9899691645
 20
118.1808568029
 30
0.0
 10
53.0429109533
 20
118.1779682383
 30
0.0
  0
SPLINE
  5
3CD
100
AcDbEntity
  8
0
100
AcDbSpline
 62
7
  6
CONTINUOUS
 70
0
 71
3
 72
9
 73
5
 74
0
 42
0.0000001
 43
0.0000001
 44
0.0000000001
 40
0.0
 40
0.0
 40
0.0
 40
0.0
 40
0.2614786802
 40
1.0
 40
1.0
 40
1.0
 40
1.0
 10
226.2600214672
 20
237.0027708147
 30
0.0
 10
226.2597048359
 20
236.7951041991
 30
0.0
 10
226.2550274667
 20
236.0009070964
 30
0.0
 10
226.2415192403
 20
235.2068030255
 30
0.0
 10
226.2313201019
 20
234.6203566937
 30
0.0
  0
SPLINE
  5
3CE
100
AcDbEntity
  8
0
100
AcDbSpline
 62
7
  6
CONTINUOUS
 70
0
 71
3
 72
9
 73
5
 74
0
 42
0.0000001
 43
0.0000001
 44
0.0000000001
 40
0.0
 40
0.0
 40
0.0
 40
0.0
 40
0.4963250115
 40
1.0
 40
1.0
 40
1.0
 40
1.0
 10
226.1728317938
 20
155.1562982589
 30
0.0
 10
226.2562976754
 20
155.614779466
 30
0.0
 10
226.3972671704
 20
156.5440825282
 30
0.0
 10
226.4443626305
 20
157.4842524143
 30
0.0
 10
226.439203685
 20
157.9571421285
 30
0.0
  0
SPLINE
  5
3CF
100
AcDbEntity
  8
0
100
AcDbSpline
 62
7
  6
CONTINUOUS
 70
0
 71
3
 72
9
 73
5
 74
0
 42
0.0000001
 43
0.0000001
 44
0.0000000001
 40
0.0
 40
0.0
 40
0.0
 40
0.0
 40
0.1771376645
 40
1.0
 40
1.0
 40
1.0
 40
1.0
 10
212.2367720417
 20
118.502499845
 30
0.0
 10
212.2550967282
 20
118.4996421722
 30
0.0
 10
212.3590982648
 20
118.4872049852
 30
0.0
 10
212.4637462138
 20
118.4816085463
 30
0.0
 10
212.5498096346
 20
118.4776803615
 30
0.0
  0
SPLINE
  5
3D0
100
AcDbEntity
  8
0
100
AcDbSpline
 62
7
  6
CONTINUOUS
 70
0
 71
3
 72
9
 73
5
 74
0
 42
0.0000001
 43
0.0000001
 44
0.0000000001
 40
0.0
 40
0.0
 40
0.0
 40
0.0
 40
0.2240682459
 40
1.0
 40
1.0
 40
1.0
 40
1.0
 10
212.5498096341
 20
118.4776803461
 30
0.0
 10
212.5965770025
 20
118.4755458465
 30
0.0
 10
212.8053765761
 20
118.4678205925
 30
0.0
 10
213.014344134
 20
118.4651534937
 30
0.0
 10
213.1764646618
 20
118.4651534023
 30
0.0
  0
SPLINE
  5
3D1
100
AcDbEntity
  8
0
100
AcDbSpline
 62
7
  6
CONTINUOUS
 70
0
 71
3
 72
11
 73
7
 74
0
 42
0.0000001
 43
0.0000001
 44
0.0000000001
 40
0.0
 40
0.0
 40
0.0
 40
0.0
 40
0.2520564211
 40
0.5001323241
 40
0.748101051
 40
1.0
 40
1.0
 40
1.0
 40
1.0
 10
212.2367644139
 20
122.393300957
 30
0.0
 10
212.2494142134
 20
122.769419941
 30
0.0
 10
212.143774906
 20
123.5303118297
 30
0.0
 10
211.5328480532
 20
124.509118953
 30
0.0
 10
210.5540549234
 20
125.1195337286
 30
0.0
 10
209.7935798255
 20
125.2250274046
 30
0.0
 10
209.4176963778
 20
125.2123689871
 30
0.0
  0
SPLINE
  5
3D2
100
AcDbEntity
  8
0
100
AcDbSpline
 62
7
  6
CONTINUOUS
 70
0
 71
3
 72
11
 73
7
 74
0
 42
0.0000001
 43
0.0000001
 44
0.0000000001
 40
0.0
 40
0.0
 40
0.0
 40
0.0
 40
0.2501038872
 40
0.5000461438
 40
0.7498888427
 40
1.0
 40
1.0
 40
1.0
 40
1.0
 10
213.1764646618
 20
122.3932987526
 30
0.0
 10
213.1764156486
 20
122.8848195634
 30
0.0
 10
213.0003963251
 20
123.8793949638
 30
0.0
 10
212.1748570665
 20
125.1506027018
 30
0.0
 10
210.9036568375
 20
125.9761686115
 30
0.0
 10
209.9092292791
 20
126.152043036
 30
0.0
 10
209.4176941789
 20
126.1520692351
 30
0.0
  0
SPLINE
  5
3D3
100
AcDbEntity
  8
0
100
AcDbSpline
 62
7
  6
CONTINUOUS
 70
0
 71
3
 72
11
 73
7
 74
0
 42
0.0000001
 43
0.0000001
 44
0.0000000001
 40
0.0
 40
0.0
 40
0.0
 40
0.0
 40
0.2501113451
 40
0.5001775497
 40
0.7500806183
 40
1.0
 40
1.0
 40
1.0
 40
1.0
 10
44.1605441796
 20
239.6235568099
 30
0.0
 10
43.5103104476
 20
239.623638845
 30
0.0
 10
42.1955501258
 20
239.3634004345
 30
0.0
 10
40.5356897088
 20
238.2483209893
 30
0.0
 10
39.4286209393
 20
236.5840655215
 30
0.0
 10
39.1722511105
 20
235.269963976
 30
0.0
 10
39.1733884819
 20
234.6202302965
 30
0.0
  0
SPLINE
  5
3D4
100
AcDbEntity
  8
0
100
AcDbSpline
 62
7
  6
CONTINUOUS
 70
0
 71
3
 72
11
 73
7
 74
0
 42
0.0000001
 43
0.0000001
 44
0.0000000001
 40
0.0
 40
0.0
 40
0.0
 40
0.0
 40
0.2520564212
 40
0.5001323241
 40
0.748101051
 40
1.0
 40
1.0
 40
1.0
 40
1.0
 10
190.9870262298
 20
125.212368987
 30
0.0
 10
190.6109072454
 20
125.2250187872
 30
0.0
 10
189.8500153557
 20
125.1193794812
 30
0.0
 10
188.8712082304
 20
124.5084526295
 30
0.0
 10
188.2607934528
 20
123.5296594995
 30
0.0
 10
188.1552997761
 20
122.7691844008
 30
0.0
 10
188.1679581934
 20
122.3933009527
 30
0.0
  0
SPLINE
  5
3D5
100
AcDbEntity
  8
0
100
AcDbSpline
 62
7
  6
CONTINUOUS
 70
0
 71
3
 72
11
 73
7
 74
0
 42
0.0000001
 43
0.0000001
 44
0.0000000001
 40
0.0
 40
0.0
 40
0.0
 40
0.0
 40
0.2501038872
 40
0.5000461438
 40
0.7498888427
 40
1.0
 40
1.0
 40
1.0
 40
1.0
 10
190.987028428
 20
126.1520692351
 30
0.0
 10
190.4955076173
 20
126.1520202219
 30
0.0
 10
189.5009322171
 20
125.9760008984
 30
0.0
 10
188.2297244792
 20
125.1504616402
 30
0.0
 10
187.4041585694
 20
123.8792614116
 30
0.0
 10
187.2282841448
 20
122.8848338534
 30
0.0
 10
187.2282579457
 20
122.3932987533
 30
0.0
  0
SPLINE
  5
3D6
100
AcDbEntity
  8
0
100
AcDbSpline
 62
7
  6
CONTINUOUS
 70
0
 71
3
 72
12
 73
8
 74
0
 42
0.0000001
 43
0.0000001
 44
0.0000000001
 40
0.0
 40
0.0
 40
0.0
 40
0.0
 40
0.0275767982
 40
0.0895817604
 40
0.3086715422
 40
0.6272916471
 40
1.0
 40
1.0
 40
1.0
 40
1.0
 10
129.5313831761
 20
239.6151874299
 30
0.0
 10
129.5300809853
 20
239.6164890566
 30
0.0
 10
129.5234976372
 20
239.6169907301
 30
0.0
 10
129.5038572518
 20
239.6201117288
 30
0.0
 10
129.463073129
 20
239.6212956027
 30
0.0
 10
129.4027051371
 20
239.6233214718
 30
0.0
 10
129.3564349801
 20
239.6235567985
 30
0.0
 10
129.331550943
 20
239.6235568098
 30
0.0
  0
SPLINE
  5
3D7
100
AcDbEntity
  8
0
100
AcDbSpline
 62
7
  6
CONTINUOUS
 70
0
 71
3
 72
9
 73
5
 74
0
 42
0.0000001
 43
0.0000001
 44
0.0000000001
 40
0.0
 40
0.0
 40
0.0
 40
0.0
 40
0.2686806646
 40
1.0
 40
1.0
 40
1.0
 40
1.0
 10
187.2282579457
 20
118.4651534035
 30
0.0
 10
187.2843961072
 20
118.4651534357
 30
0.0
 10
187.4933296109
 20
118.4662415065
 30
0.0
 10
187.702283857
 20
118.4707139674
 30
0.0
 10
187.8549268696
 20
118.4776809815
 30
0.0
  0
SPLINE
  5
3D8
100
AcDbEntity
  8
0
100
AcDbSpline
 62
7
  6
CONTINUOUS
 70
0
 71
3
 72
9
 73
5
 74
0
 42
0.0000001
 43
0.0000001
 44
0.0000000001
 40
0.0
 40
0.0
 40
0.0
 40
0.0
 40
0.3186588229
 40
1.0
 40
1.0
 40
1.0
 40
1.0
 10
187.854926873
 20
118.4776808584
 30
0.0
 10
187.8882513766
 20
118.479201878
 30
0.0
 10
187.9927367168
 20
118.4848775168
 30
0.0
 10
188.0974751757
 20
118.4915102909
 30
0.0
 10
188.1679505697
 20
118.5024997079
 30
0.0
  0
SPLINE
  5
3D9
100
AcDbEntity
  8
0
100
AcDbSpline
 62
7
  6
CONTINUOUS
 70
0
 71
3
 72
9
 73
5
 74
0
 42
0.0000001
 43
0.0000001
 44
0.0000000001
 40
0.0
 40
0.0
 40
0.0
 40
0.0
 40
0.1771376645
 40
1.0
 40
1.0
 40
1.0
 40
1.0
 10
77.2367720417
 20
118.5024998449
 30
0.0
 10
77.2550967282
 20
118.4996421721
 30
0.0
 10
77.3590982648
 20
118.4872049851
 30
0.0
 10
77.4637462138
 20
118.4816085462
 30
0.0
 10
77.5498096346
 20
118.4776803615
 30
0.0
  0
SPLINE
  5
3DA
100
AcDbEntity
  8
0
100
AcDbSpline
 62
7
  6
CONTINUOUS
 70
0
 71
3
 72
9
 73
5
 74
0
 42
0.0000001
 43
0.0000001
 44
0.0000000001
 40
0.0
 40
0.0
 40
0.0
 40
0.0
 40
0.2240682459
 40
1.0
 40
1.0
 40
1.0
 40
1.0
 10
77.5498096341
 20
118.4776803461
 30
0.0
 10
77.5965770025
 20
118.4755458465
 30
0.0
 10
77.8053765761
 20
118.4678205925
 30
0.0
 10
78.014344134
 20
118.4651534937
 30
0.0
 10
78.1764646618
 20
118.4651534024
 30
0.0
  0
SPLINE
  5
3DB
100
AcDbEntity
  8
0
100
AcDbSpline
 62
7
  6
CONTINUOUS
 70
0
 71
3
 72
12
 73
8
 74
0
 42
0.0000001
 43
0.0000001
 44
0.0000000001
 40
0.0
 40
0.0
 40
0.0
 40
0.0
 40
0.3716797047
 40
0.6904058189
 40
0.9090507422
 40
0.9717806309
 40
1.0
 40
1.0
 40
1.0
 40
1.0
 10
148.073171562
 20
239.623556805
 30
0.0
 10
148.0483566024
 20
239.6235567646
 30
0.0
 10
148.0021478872
 20
239.6233065147
 30
0.0
 10
147.9418763941
 20
239.6213030407
 30
0.0
 10
147.901057091
 20
239.6201297706
 30
0.0
 10
147.8813743307
 20
239.6169612534
 30
0.0
 10
147.8746707282
 20
239.6165179881
 30
0.0
 10
147.8733367737
 20
239.6151874981
 30
0.0
  0
SPLINE
  5
3DC
100
AcDbEntity
  8
0
100
AcDbSpline
 62
7
  6
CONTINUOUS
 70
0
 71
3
 72
11
 73
7
 74
0
 42
0.0000001
 43
0.0000001
 44
0.0000000001
 40
0.0
 40
0.0
 40
0.0
 40
0.0
 40
0.2520564211
 40
0.5001323241
 40
0.748101051
 40
1.0
 40
1.0
 40
1.0
 40
1.0
 10
77.2367644139
 20
122.393300957
 30
0.0
 10
77.2494142134
 20
122.769419941
 30
0.0
 10
77.143774906
 20
123.5303118297
 30
0.0
 10
76.5328480532
 20
124.509118953
 30
0.0
 10
75.5540549234
 20
125.1195337286
 30
0.0
 10
74.7935798255
 20
125.2250274046
 30
0.0
 10
74.4176963778
 20
125.2123689871
 30
0.0
  0
SPLINE
  5
3DD
100
AcDbEntity
  8
0
100
AcDbSpline
 62
7
  6
CONTINUOUS
 70
0
 71
3
 72
11
 73
7
 74
0
 42
0.0000001
 43
0.0000001
 44
0.0000000001
 40
0.0
 40
0.0
 40
0.0
 40
0.0
 40
0.2501038872
 40
0.5000461438
 40
0.7498888427
 40
1.0
 40
1.0
 40
1.0
 40
1.0
 10
78.1764646618
 20
122.3932987526
 30
0.0
 10
78.1764156486
 20
122.8848195634
 30
0.0
 10
78.0003963251
 20
123.8793949638
 30
0.0
 10
77.1748570665
 20
125.1506027018
 30
0.0
 10
75.9036568375
 20
125.9761686115
 30
0.0
 10
74.9092292791
 20
126.152043036
 30
0.0
 10
74.4176941789
 20
126.1520692351
 30
0.0
  0
SPLINE
  5
3DE
100
AcDbEntity
  8
0
100
AcDbSpline
 62
7
  6
CONTINUOUS
 70
0
 71
3
 72
11
 73
7
 74
0
 42
0.0000001
 43
0.0000001
 44
0.0000000001
 40
0.0
 40
0.0
 40
0.0
 40
0.0
 40
0.2501812424
 40
0.5001901548
 40
0.7500817915
 40
1.0
 40
1.0
 40
1.0
 40
1.0
 10
225.9732945959
 20
245.5216063473
 30
0.0
 10
225.9741730462
 20
246.1329640439
 30
0.0
 10
225.7326022281
 20
247.3690595861
 30
0.0
 10
224.690517692
 20
248.9330055859
 30
0.0
 10
223.1305069669
 20
249.9799846622
 30
0.0
 10
221.8956535963
 20
250.224290943
 30
0.0
 10
221.2849380346
 20
250.2243030668
 30
0.0
  0
SPLINE
  5
3DF
100
AcDbEntity
  8
0
100
AcDbSpline
 62
7
  6
CONTINUOUS
 70
0
 71
3
 72
11
 73
7
 74
0
 42
0.0000001
 43
0.0000001
 44
0.0000000001
 40
0.0
 40
0.0
 40
0.0
 40
0.0
 40
0.2520564212
 40
0.5001323241
 40
0.748101051
 40
1.0
 40
1.0
 40
1.0
 40
1.0
 10
55.9870262298
 20
125.212368987
 30
0.0
 10
55.6109072454
 20
125.2250187872
 30
0.0
 10
54.8500153557
 20
125.1193794812
 30
0.0
 10
53.8712082304
 20
124.5084526295
 30
0.0
 10
53.2607934528
 20
123.5296594995
 30
0.0
 10
53.1552997761
 20
122.7691844008
 30
0.0
 10
53.1679581934
 20
122.3933009527
 30
0.0
  0
SPLINE
  5
3E0
100
AcDbEntity
  8
0
100
AcDbSpline
 62
7
  6
CONTINUOUS
 70
0
 71
3
 72
11
 73
7
 74
0
 42
0.0000001
 43
0.0000001
 44
0.0000000001
 40
0.0
 40
0.0
 40
0.0
 40
0.0
 40
0.2501038872
 40
0.5000461438
 40
0.7498888427
 40
1.0
 40
1.0
 40
1.0
 40
1.0
 10
55.987028428
 20
126.1520692351
 30
0.0
 10
55.4955076173
 20
126.1520202219
 30
0.0
 10
54.5009322171
 20
125.9760008984
 30
0.0
 10
53.2297244792
 20
125.1504616402
 30
0.0
 10
52.4041585695
 20
123.8792614116
 30
0.0
 10
52.2282841448
 20
122.8848338534
 30
0.0
 10
52.2282579457
 20
122.3932987533
 30
0.0
  0
SPLINE
  5
3E1
100
AcDbEntity
  8
0
100
AcDbSpline
 62
7
  6
CONTINUOUS
 70
0
 71
3
 72
9
 73
5
 74
0
 42
0.0000001
 43
0.0000001
 44
0.0000000001
 40
0.0
 40
0.0
 40
0.0
 40
0.0
 40
0.2686806646
 40
1.0
 40
1.0
 40
1.0
 40
1.0
 10
52.2282579457
 20
118.4651534035
 30
0.0
 10
52.2843961072
 20
118.4651534357
 30
0.0
 10
52.4933296109
 20
118.4662415065
 30
0.0
 10
52.7022838571
 20
118.4707139674
 30
0.0
 10
52.8549268696
 20
118.4776809814
 30
0.0
  0
SPLINE
  5
3E2
100
AcDbEntity
  8
0
100
AcDbSpline
 62
7
  6
CONTINUOUS
 70
0
 71
3
 72
9
 73
5
 74
0
 42
0.0000001
 43
0.0000001
 44
0.0000000001
 40
0.0
 40
0.0
 40
0.0
 40
0.0
 40
0.3186588228
 40
1.0
 40
1.0
 40
1.0
 40
1.0
 10
52.8549268731
 20
118.4776808584
 30
0.0
 10
52.8882513766
 20
118.479201878
 30
0.0
 10
52.9927367168
 20
118.4848775168
 30
0.0
 10
53.0974751757
 20
118.4915102909
 30
0.0
 10
53.1679505697
 20
118.5024997079
 30
0.0
  0
SPLINE
  5
3E3
100
AcDbEntity
  8
0
100
AcDbSpline
 62
7
  6
CONTINUOUS
 70
0
 71
3
 72
9
 73
5
 74
0
 42
0.0000001
 43
0.0000001
 44
0.0000000001
 40
0.0
 40
0.0
 40
0.0
 40
0.0
 40
0.3731318169
 40
1.0
 40
1.0
 40
1.0
 40
1.0
 10
148.0731716641
 20
239.9128014273
 30
0.0
 10
148.0110388598
 20
239.9129201196
 30
0.0
 10
147.844526585
 20
239.9139562016
 30
0.0
 10
147.6779941899
 20
239.913169108
 30
0.0
 10
147.5736241509
 20
239.9149019042
 30
0.0
  0
SPLINE
  5
3E4
100
AcDbEntity
  8
0
100
AcDbSpline
 62
7
  6
CONTINUOUS
 70
0
 71
3
 72
9
 73
5
 74
0
 42
0.0000001
 43
0.0000001
 44
0.0000000001
 40
0.0
 40
0.0
 40
0.0
 40
0.0
 40
0.4402973134
 40
1.0
 40
1.0
 40
1.0
 40
1.0
 10
147.2232394828
 20
239.5645172705
 30
0.0
 10
147.2232619877
 20
239.4983552557
 30
0.0
 10
147.2707476173
 20
239.3500730869
 30
0.0
 10
147.4057658013
 20
239.2387461064
 30
0.0
 10
147.4895488263
 20
239.2313976397
 30
0.0
  0
SPLINE
  5
3E5
100
AcDbEntity
  8
0
100
AcDbSpline
 62
7
  6
CONTINUOUS
 70
0
 71
3
 72
10
 73
6
 74
0
 42
0.0000001
 43
0.0000001
 44
0.0000000001
 40
0.0
 40
0.0
 40
0.0
 40
0.0
 40
0.3165260629
 40
0.5919777796
 40
1.0
 40
1.0
 40
1.0
 40
1.0
 10
54.2024929055
 20
118.6179666998
 30
0.0
 10
54.2024929055
 20
118.5765890768
 30
0.0
 10
54.2184498382
 20
118.498878828
 30
0.0
 10
54.2752340989
 20
118.3813873418
 30
0.0
 10
54.359188305
 20
118.3215674413
 30
0.0
 10
54.4124235651
 20
118.3182522333
 30
0.0
  0
SPLINE
  5
3E6
100
AcDbEntity
  8
0
100
AcDbSpline
 62
7
  6
CONTINUOUS
 70
0
 71
3
 72
13
 73
9
 74
0
 42
0.0000001
 43
0.0000001
 44
0.0000000001
 40
0.0
 40
0.0
 40
0.0
 40
0.0
 40
0.2450630712
 40
0.4974795825
 40
0.6228911934
 40
0.7468450872
 40
0.8703982444
 40
1.0
 40
1.0
 40
1.0
 40
1.0
 10
147.4895488263
 20
239.2313976397
 30
0.0
 10
147.4172035995
 20
239.233107288
 30
0.0
 10
147.2707504979
 20
239.2465119974
 30
0.0
 10
147.0881064572
 20
239.2698329014
 30
0.0
 10
146.9436921132
 20
239.304132217
 30
0.0
 10
146.8406583918
 20
239.3445295115
 30
0.0
 10
146.7513723268
 20
239.4174383981
 30
0.0
 10
146.7267867401
 20
239.492965046
 30
0.0
 10
146.7237154325
 20
239.5311121062
 30
0.0
  0
SPLINE
  5
3E7
100
AcDbEntity
  8
0
100
AcDbSpline
 62
7
  6
CONTINUOUS
 70
0
 71
3
 72
10
 73
6
 74
0
 42
0.0000001
 43
0.0000001
 44
0.0000000001
 40
0.0
 40
0.0
 40
0.0
 40
0.0
 40
0.2080072662
 40
0.4607941553
 40
1.0
 40
1.0
 40
1.0
 40
1.0
 10
130.6803050789
 20
239.5311126584
 30
0.0
 10
130.6737012014
 20
239.4718311363
 30
0.0
 10
130.5639738925
 20
239.3660737753
 30
0.0
 10
130.3011975617
 20
239.2651040007
 30
0.0
 10
130.0697722271
 20
239.2340478972
 30
0.0
 10
129.9151721264
 20
239.231397824
 30
0.0
  0
SPLINE
  5
3E8
100
AcDbEntity
  8
0
100
AcDbSpline
 62
7
  6
CONTINUOUS
 70
0
 71
3
 72
10
 73
6
 74
0
 42
0.0000001
 43
0.0000001
 44
0.0000000001
 40
0.0
 40
0.0
 40
0.0
 40
0.0
 40
0.315943379
 40
0.5916362684
 40
1.0
 40
1.0
 40
1.0
 40
1.0
 10
76.2018604358
 20
118.6266451889
 30
0.0
 10
76.2018604358
 20
118.5844337466
 30
0.0
 10
76.1887914724
 20
118.5047335046
 30
0.0
 10
76.1326657957
 20
118.3833065973
 30
0.0
 10
76.0467527679
 20
118.3216433208
 30
0.0
 10
75.9922990422
 20
118.3182522333
 30
0.0
  0
SPLINE
  5
3E9
100
AcDbEntity
  8
0
100
AcDbSpline
 62
7
  6
CONTINUOUS
 70
0
 71
3
 72
9
 73
5
 74
0
 42
0.0000001
 43
0.0000001
 44
0.0000000001
 40
0.0
 40
0.0
 40
0.0
 40
0.0
 40
0.5106239291
 40
1.0
 40
1.0
 40
1.0
 40
1.0
 10
77.236772041
 20
118.5024998269
 30
0.0
 10
77.2357125534
 20
118.4269965575
 30
0.0
 10
77.1784482774
 20
118.2735220089
 30
0.0
 10
77.0272237402
 20
118.2039330584
 30
0.0
 10
76.9548642571
 20
118.2027853604
 30
0.0
  0
SPLINE
  5
3EA
100
AcDbEntity
  8
0
100
AcDbSpline
 62
7
  6
CONTINUOUS
 70
0
 71
3
 72
11
 73
7
 74
0
 42
0.0000001
 43
0.0000001
 44
0.0000000001
 40
0.0
 40
0.0
 40
0.0
 40
0.0
 40
0.3728399859
 40
0.6919881988
 40
0.9115650773
 40
1.0
 40
1.0
 40
1.0
 40
1.0
 10
130.6803100435
 20
239.5311121742
 30
0.0
 10
130.6182347585
 20
239.5333771998
 30
0.0
 10
130.5031173057
 20
239.5391378031
 30
0.0
 10
130.3513143937
 20
239.5464930442
 30
0.0
 10
130.2473065698
 20
239.5540038791
 30
0.0
 10
130.1958463101
 20
239.5573905809
 30
0.0
 10
130.181471204
 20
239.5606209642
 30
0.0
  0
SPLINE
  5
3EB
100
AcDbEntity
  8
0
100
AcDbSpline
 62
7
  6
CONTINUOUS
 70
0
 71
3
 72
9
 73
5
 74
0
 42
0.0000001
 43
0.0000001
 44
0.0000000001
 40
0.0
 40
0.0
 40
0.0
 40
0.0
 40
0.175447692
 40
1.0
 40
1.0
 40
1.0
 40
1.0
 10
76.9548642548
 20
118.2027853604
 30
0.0
 10
76.9785420142
 20
118.1999467563
 30
0.0
 10
77.1139028292
 20
118.1872508403
 30
0.0
 10
77.2498068201
 20
118.1818975422
 30
0.0
 10
77.3618131242
 20
118.1779658769
 30
0.0
  0
SPLINE
  5
3EC
100
AcDbEntity
  8
0
100
AcDbSpline
 62
7
  6
CONTINUOUS
 70
0
 71
3
 72
10
 73
6
 74
0
 42
0.0000001
 43
0.0000001
 44
0.0000000001
 40
0.0
 40
0.0
 40
0.0
 40
0.0
 40
0.2916337492
 40
0.5773901201
 40
1.0
 40
1.0
 40
1.0
 40
1.0
 10
77.5498096371
 20
118.4776805434
 30
0.0
 10
77.549027776
 20
118.4410103161
 30
0.0
 10
77.5374857388
 20
118.368163862
 30
0.0
 10
77.4947755888
 20
118.2512387665
 30
0.0
 10
77.4148865801
 20
118.180842068
 30
0.0
 10
77.3618131242
 20
118.1779658769
 30
0.0
  0
SPLINE
  5
3ED
100
AcDbEntity
  8
0
100
AcDbSpline
 62
7
  6
CONTINUOUS
 70
0
 71
3
 72
9
 73
5
 74
0
 42
0.0000001
 43
0.0000001
 44
0.0000000001
 40
0.0
 40
0.0
 40
0.0
 40
0.0
 40
0.2238327732
 40
1.0
 40
1.0
 40
1.0
 40
1.0
 10
77.3618131242
 20
118.1779658769
 30
0.0
 10
77.4225665029
 20
118.1758328842
 30
0.0
 10
77.6940497158
 20
118.1680477583
 30
0.0
 10
77.9656651688
 20
118.1654388945
 30
0.0
 10
78.1764646618
 20
118.1654389331
 30
0.0
  0
SPLINE
  5
3EE
100
AcDbEntity
  8
0
100
AcDbSpline
 62
7
  6
CONTINUOUS
 70
0
 71
3
 72
11
 73
7
 74
0
 42
0.0000001
 43
0.0000001
 44
0.0000000001
 40
0.0
 40
0.0
 40
0.0
 40
0.0
 40
0.3729548321
 40
0.6921824082
 40
0.9117336602
 40
1.0
 40
1.0
 40
1.0
 40
1.0
 10
130.6810071748
 20
239.5645172897
 30
0.0
 10
130.6189052542
 20
239.5642592053
 30
0.0
 10
130.5036625141
 20
239.5635291429
 30
0.0
 10
130.3517957302
 20
239.5633813604
 30
0.0
 10
130.2474953586
 20
239.5608781937
 30
0.0
 10
130.1961133089
 20
239.5621543693
 30
0.0
 10
130.181481452
 20
239.5607653264
 30
0.0
  0
SPLINE
  5
3EF
100
AcDbEntity
  8
0
100
AcDbSpline
 62
7
  6
CONTINUOUS
 70
0
 71
3
 72
8
 73
4
 74
0
 42
0.0000001
 43
0.0000001
 44
0.0000000001
 40
0.0
 40
0.0
 40
0.0
 40
0.0
 40
1.0
 40
1.0
 40
1.0
 40
1.0
 10
130.6803100359
 20
239.5311121062
 30
0.0
 10
130.680774648
 20
239.5422383767
 30
0.0
 10
130.680629681
 20
239.5533822604
 30
0.0
 10
130.6806584391
 20
239.5645181903
 30
0.0
  0
SPLINE
  5
3F0
100
AcDbEntity
  8
0
100
AcDbSpline
 62
7
  6
CONTINUOUS
 70
0
 71
3
 72
9
 73
5
 74
0
 42
0.0000001
 43
0.0000001
 44
0.0000000001
 40
0.0
 40
0.0
 40
0.0
 40
0.0
 40
0.2688339338
 40
1.0
 40
1.0
 40
1.0
 40
1.0
 10
187.2282579456
 20
118.1654389331
 30
0.0
 10
187.3012710024
 20
118.1654389218
 30
0.0
 10
187.5728578145
 20
118.1664833345
 30
0.0
 10
187.8444599174
 20
118.170998445
 30
0.0
 10
188.0429162541
 20
118.1779660641
 30
0.0
  0
SPLINE
  5
3F1
100
AcDbEntity
  8
0
100
AcDbSpline
 62
7
  6
CONTINUOUS
 70
0
 71
3
 72
10
 73
6
 74
0
 42
0.0000001
 43
0.0000001
 44
0.0000000001
 40
0.0
 40
0.0
 40
0.0
 40
0.0
 40
0.3163012655
 40
0.5786482833
 40
1.0
 40
1.0
 40
1.0
 40
1.0
 10
187.8549129777
 20
118.4776802242
 30
0.0
 10
187.855761518
 20
118.4378876968
 30
0.0
 10
187.8669458858
 20
118.3644937913
 30
0.0
 10
187.9130536425
 20
118.2489072624
 30
0.0
 10
187.9899691645
 20
118.1808568029
 30
0.0
 10
188.0429109533
 20
118.1779682383
 30
0.0
  0
SPLINE
  5
3F2
100
AcDbEntity
  8
0
100
AcDbSpline
 62
7
  6
CONTINUOUS
 70
0
 71
3
 72
9
 73
5
 74
0
 42
0.0000001
 43
0.0000001
 44
0.0000000001
 40
0.0
 40
0.0
 40
0.0
 40
0.0
 40
0.3189074062
 40
1.0
 40
1.0
 40
1.0
 40
1.0
 10
188.0429162541
 20
118.1779660641
 30
0.0
 10
188.086233208
 20
118.1794860278
 30
0.0
 10
188.221990505
 20
118.1851687557
 30
0.0
 10
188.3579483218
 20
118.1917547023
 30
0.0
 10
188.4498579966
 20
118.2027853177
 30
0.0
  0
SPLINE
  5
3F3
100
AcDbEntity
  8
0
100
AcDbSpline
 62
7
  6
CONTINUOUS
 70
0
 71
3
 72
9
 73
5
 74
0
 42
0.0000001
 43
0.0000001
 44
0.0000000001
 40
0.0
 40
0.0
 40
0.0
 40
0.0
 40
0.4893759051
 40
1.0
 40
1.0
 40
1.0
 40
1.0
 10
188.4498583515
 20
118.2027864692
 30
0.0
 10
188.377499227
 20
118.2039505561
 30
0.0
 10
188.2262737012
 20
118.2735131523
 30
0.0
 10
188.1690102848
 20
118.4269966117
 30
0.0
 10
188.1679505665
 20
118.5024998269
 30
0.0
  0
SPLINE
  5
3F4
100
AcDbEntity
  8
0
100
AcDbSpline
 62
7
  6
CONTINUOUS
 70
0
 71
3
 72
9
 73
5
 74
0
 42
0.0000001
 43
0.0000001
 44
0.0000000001
 40
0.0
 40
0.0
 40
0.0
 40
0.0
 40
0.3647676807
 40
1.0
 40
1.0
 40
1.0
 40
1.0
 10
129.915173781
 20
239.2313976397
 30
0.0
 10
129.9693328311
 20
239.2383492976
 30
0.0
 10
130.1116578237
 20
239.3083798635
 30
0.0
 10
130.1808854601
 20
239.4656764709
 30
0.0
 10
130.1814531265
 20
239.5607649629
 30
0.0
  0
SPLINE
  5
3F5
100
AcDbEntity
  8
0
100
AcDbSpline
 62
7
  6
CONTINUOUS
 70
0
 71
3
 72
10
 73
6
 74
0
 42
0.0000001
 43
0.0000001
 44
0.0000000001
 40
0.0
 40
0.0
 40
0.0
 40
0.0
 40
0.3165260629
 40
0.5919777796
 40
1.0
 40
1.0
 40
1.0
 40
1.0
 10
189.2024929055
 20
118.6179666998
 30
0.0
 10
189.2024929055
 20
118.5765890768
 30
0.0
 10
189.2184498382
 20
118.498878828
 30
0.0
 10
189.2752340989
 20
118.3813873418
 30
0.0
 10
189.359188305
 20
118.3215674413
 30
0.0
 10
189.4124235651
 20
118.3182522333
 30
0.0
  0
SPLINE
  5
3F6
100
AcDbEntity
  8
0
100
AcDbSpline
 62
7
  6
CONTINUOUS
 70
0
 71
3
 72
10
 73
6
 74
0
 42
0.0000001
 43
0.0000001
 44
0.0000000001
 40
0.0
 40
0.0
 40
0.0
 40
0.0
 40
0.315943379
 40
0.5916362684
 40
1.0
 40
1.0
 40
1.0
 40
1.0
 10
211.2018604358
 20
118.6266451889
 30
0.0
 10
211.2018604358
 20
118.5844337466
 30
0.0
 10
211.1887914724
 20
118.5047335046
 30
0.0
 10
211.1326657957
 20
118.3833065973
 30
0.0
 10
211.0467527679
 20
118.3216433208
 30
0.0
 10
210.9922990422
 20
118.3182522333
 30
0.0
  0
SPLINE
  5
3F7
100
AcDbEntity
  8
0
100
AcDbSpline
 62
7
  6
CONTINUOUS
 70
0
 71
3
 72
9
 73
5
 74
0
 42
0.0000001
 43
0.0000001
 44
0.0000000001
 40
0.0
 40
0.0
 40
0.0
 40
0.0
 40
0.5106239291
 40
1.0
 40
1.0
 40
1.0
 40
1.0
 10
212.236772041
 20
118.5024998269
 30
0.0
 10
212.2357125534
 20
118.4269965575
 30
0.0
 10
212.1784482774
 20
118.2735220089
 30
0.0
 10
212.0272237402
 20
118.2039330584
 30
0.0
 10
211.9548642571
 20
118.2027853604
 30
0.0
  0
SPLINE
  5
3F8
100
AcDbEntity
  8
0
100
AcDbSpline
 62
7
  6
CONTINUOUS
 70
0
 71
3
 72
9
 73
5
 74
0
 42
0.0000001
 43
0.0000001
 44
0.0000000001
 40
0.0
 40
0.0
 40
0.0
 40
0.0
 40
0.175447692
 40
1.0
 40
1.0
 40
1.0
 40
1.0
 10
211.9548642548
 20
118.2027853604
 30
0.0
 10
211.9785420142
 20
118.1999467563
 30
0.0
 10
212.1139028292
 20
118.1872508403
 30
0.0
 10
212.2498068201
 20
118.1818975422
 30
0.0
 10
212.3618131242
 20
118.1779658769
 30
0.0
  0
SPLINE
  5
3F9
100
AcDbEntity
  8
0
100
AcDbSpline
 62
7
  6
CONTINUOUS
 70
0
 71
3
 72
10
 73
6
 74
0
 42
0.0000001
 43
0.0000001
 44
0.0000000001
 40
0.0
 40
0.0
 40
0.0
 40
0.0
 40
0.2916337492
 40
0.5773901201
 40
1.0
 40
1.0
 40
1.0
 40
1.0
 10
212.5498096371
 20
118.4776805434
 30
0.0
 10
212.549027776
 20
118.4410103161
 30
0.0
 10
212.5374857388
 20
118.368163862
 30
0.0
 10
212.4947755888
 20
118.2512387666
 30
0.0
 10
212.4148865801
 20
118.180842068
 30
0.0
 10
212.3618131242
 20
118.1779658769
 30
0.0
  0
SPLINE
  5
3FA
100
AcDbEntity
  8
0
100
AcDbSpline
 62
7
  6
CONTINUOUS
 70
0
 71
3
 72
9
 73
5
 74
0
 42
0.0000001
 43
0.0000001
 44
0.0000000001
 40
0.0
 40
0.0
 40
0.0
 40
0.0
 40
0.2238327732
 40
1.0
 40
1.0
 40
1.0
 40
1.0
 10
212.3618131242
 20
118.1779658769
 30
0.0
 10
212.4225665029
 20
118.1758328842
 30
0.0
 10
212.6940497158
 20
118.1680477583
 30
0.0
 10
212.9656651688
 20
118.1654388945
 30
0.0
 10
213.1764646618
 20
118.1654389331
 30
0.0
  0
SPLINE
  5
3FB
100
AcDbEntity
  8
0
100
AcDbSpline
 62
7
  6
CONTINUOUS
 70
0
 71
3
 72
11
 73
7
 74
0
 42
0.0000001
 43
0.0000001
 44
0.0000000001
 40
0.0
 40
0.0
 40
0.0
 40
0.0
 40
0.2502844037
 40
0.5003373683
 40
0.7501855665
 40
1.0
 40
1.0
 40
1.0
 40
1.0
 10
44.1197845734
 20
250.2243030679
 30
0.0
 10
43.5081739512
 20
250.224249311
 30
0.0
 10
42.2719733998
 20
249.9793705114
 30
0.0
 10
40.711898265
 20
248.9306903087
 30
0.0
 10
39.671513714
 20
247.3668127237
 30
0.0
 10
39.4305088748
 20
246.1320646069
 30
0.0
 10
39.4314280152
 20
245.5216031227
 30
0.0
  0
SPLINE
  5
3FC
100
AcDbEntity
  8
0
100
AcDbSpline
 62
7
  6
CONTINUOUS
 70
0
 71
3
 72
12
 73
8
 74
0
 42
0.0000001
 43
0.0000001
 44
0.0000000001
 40
0.0
 40
0.0
 40
0.0
 40
0.0
 40
0.0407392622
 40
0.1155725192
 40
0.3362552803
 40
0.6382973697
 40
1.0
 40
1.0
 40
1.0
 40
1.0
 10
129.8157492592
 20
249.9802739615
 30
0.0
 10
129.8131073961
 20
249.9876374153
 30
0.0
 10
129.8005198648
 20
250.0063138927
 30
0.0
 10
129.7606111634
 20
250.0568926871
 30
0.0
 10
129.6682292407
 20
250.1283415824
 30
0.0
 10
129.5128191165
 20
250.1985080695
 30
0.0
 10
129.3852858644
 20
250.2242164674
 30
0.0
 10
129.3158292789
 20
250.2243115199
 30
0.0
  0
SPLINE
  5
3FD
100
AcDbEntity
  8
0
100
AcDbSpline
 62
7
  6
CONTINUOUS
 70
0
 71
3
 72
9
 73
5
 74
0
 42
0.0000001
 43
0.0000001
 44
0.0000000001
 40
0.0
 40
0.0
 40
0.0
 40
0.0
 40
0.3731229398
 40
1.0
 40
1.0
 40
1.0
 40
1.0
 10
129.3315509431
 20
239.9128014273
 30
0.0
 10
129.3936822319
 20
239.9129360229
 30
0.0
 10
129.5601944185
 20
239.9140101354
 30
0.0
 10
129.7267264633
 20
239.9131984921
 30
0.0
 10
129.8310984565
 20
239.9149018973
 30
0.0
  0
SPLINE
  5
3FE
100
AcDbEntity
  8
0
100
AcDbSpline
 62
7
  6
CONTINUOUS
 70
0
 71
3
 72
13
 73
9
 74
0
 42
0.0000001
 43
0.0000001
 44
0.0000000001
 40
0.0
 40
0.0
 40
0.0
 40
0.0
 40
0.3903611186
 40
0.691233831
 40
0.806489525
 40
0.9025395123
 40
0.9696428432
 40
1.0
 40
1.0
 40
1.0
 40
1.0
 10
39.444399675
 20
237.0132200349
 30
0.0
 10
39.4053415248
 20
237.0131602561
 30
0.0
 10
39.3362176123
 20
237.0125426114
 30
0.0
 10
39.2554243939
 20
237.0108988027
 30
0.0
 10
39.2043837471
 20
237.0086245596
 30
0.0
 10
39.1762276754
 20
237.0075209174
 30
0.0
 10
39.1576739463
 20
237.0048319072
 30
0.0
 10
39.1470651764
 20
237.0046453172
 30
0.0
 10
39.1446897243
 20
237.0027523759
 30
0.0
  0
SPLINE
  5
3FF
100
AcDbEntity
  8
0
100
AcDbSpline
 62
7
  6
CONTINUOUS
 70
0
 71
3
 72
13
 73
9
 74
0
 42
0.0000001
 43
0.0000001
 44
0.0000000001
 40
0.0
 40
0.0
 40
0.0
 40
0.0
 40
0.0305154378
 40
0.0974718783
 40
0.1934577425
 40
0.3087633832
 40
0.6096321425
 40
1.0
 40
1.0
 40
1.0
 40
1.0
 10
39.1317198013
 20
245.5111365107
 30
0.0
 10
39.1341242111
 20
245.5130182741
 30
0.0
 10
39.1447078115
 20
245.5132185752
 30
0.0
 10
39.1632776309
 20
245.5159067684
 30
0.0
 10
39.1914073947
 20
245.5170098528
 30
0.0
 10
39.2424501677
 20
245.5192844614
 30
0.0
 10
39.3232444692
 20
245.5209285865
 30
0.0
 10
39.3923688374
 20
245.5215468409
 30
0.0
 10
39.4314271618
 20
245.5216063459
 30
0.0
  0
SPLINE
  5
400
100
AcDbEntity
  8
0
100
AcDbSpline
 62
7
  6
CONTINUOUS
 70
0
 71
3
 72
9
 73
5
 74
0
 42
0.0000001
 43
0.0000001
 44
0.0000000001
 40
0.0
 40
0.0
 40
0.0
 40
0.0
 40
0.6896036671
 40
1.0
 40
1.0
 40
1.0
 40
1.0
 10
129.3158322077
 20
250.2243037109
 30
0.0
 10
129.3157168767
 20
250.2908012835
 30
0.0
 10
129.3166841818
 20
250.3872049983
 30
0.0
 10
129.3146560942
 20
250.4836815309
 30
0.0
 10
129.3158246088
 20
250.513589867
 30
0.0
  0
SPLINE
  5
401
100
AcDbEntity
  8
0
100
AcDbSpline
 62
7
  6
CONTINUOUS
 70
0
 71
3
 72
11
 73
7
 74
0
 42
0.0000001
 43
0.0000001
 44
0.0000000001
 40
0.0
 40
0.0
 40
0.0
 40
0.0
 40
0.0989680903
 40
0.31018523
 40
0.6186034944
 40
1.0
 40
1.0
 40
1.0
 40
1.0
 10
130.3152760978
 20
250.4797650726
 30
0.0
 10
130.3049243522
 20
250.4858670816
 30
0.0
 10
130.2655391168
 20
250.4880250316
 30
0.0
 10
130.1922535596
 20
250.4967768872
 30
0.0
 10
130.0822187861
 20
250.5011067954
 30
0.0
 10
129.9987379846
 20
250.5044152617
 30
0.0
 10
129.952450489
 20
250.5057888247
 30
0.0
  0
SPLINE
  5
402
100
AcDbEntity
  8
0
100
AcDbSpline
 62
7
  6
CONTINUOUS
 70
0
 71
3
 72
10
 73
6
 74
0
 42
0.0000001
 43
0.0000001
 44
0.0000000001
 40
0.0
 40
0.0
 40
0.0
 40
0.0
 40
0.2270512115
 40
0.4705846039
 40
1.0
 40
1.0
 40
1.0
 40
1.0
 10
130.0431294751
 20
249.7528635708
 30
0.0
 10
130.0447994764
 20
249.8056095981
 30
0.0
 10
130.0762535552
 20
249.915320581
 30
0.0
 10
130.2320733882
 20
250.0945405071
 30
0.0
 10
130.4196305383
 20
250.154817862
 30
0.0
 10
130.5426535859
 20
250.157372068
 30
0.0
  0
SPLINE
  5
403
100
AcDbEntity
  8
0
100
AcDbSpline
 62
7
  6
CONTINUOUS
 70
0
 71
3
 72
10
 73
6
 74
0
 42
0.0000001
 43
0.0000001
 44
0.0000000001
 40
0.0
 40
0.0
 40
0.0
 40
0.0
 40
0.2272241807
 40
0.4708049216
 40
1.0
 40
1.0
 40
1.0
 40
1.0
 10
147.2232397063
 20
247.4505851236
 30
0.0
 10
147.2215684057
 20
247.5033694144
 30
0.0
 10
147.1899160714
 20
247.6130687216
 30
0.0
 10
147.0342887573
 20
247.7923983419
 30
0.0
 10
146.8466828232
 20
247.8525380133
 30
0.0
 10
146.7237154325
 20
247.8550909095
 30
0.0
  0
SPLINE
  5
404
100
AcDbEntity
  8
0
100
AcDbSpline
 62
7
  6
CONTINUOUS
 70
0
 71
3
 72
14
 73
10
 74
0
 42
0.0000001
 43
0.0000001
 44
0.0000000001
 40
0.0
 40
0.0
 40
0.0
 40
0.0
 40
0.3721548416
 40
0.5413221713
 40
0.6906946911
 40
0.8150288738
 40
0.9100393561
 40
0.9721660189
 40
1.0
 40
1.0
 40
1.0
 40
1.0
 10
146.7237154325
 20
239.5311121064
 30
0.0
 10
146.7858226322
 20
239.5341123424
 30
0.0
 10
146.8761974152
 20
239.5381072086
 30
0.0
 10
146.9914219052
 20
239.5436155803
 30
0.0
 10
147.0654303131
 20
239.5473889092
 30
0.0
 10
147.1265948337
 20
239.5515027323
 30
0.0
 10
147.1742792409
 20
239.5545701894
 30
0.0
 10
147.2033839486
 20
239.5596340867
 30
0.0
 10
147.2201228913
 20
239.5610656757
 30
0.0
 10
147.2232395433
 20
239.5645172899
 30
0.0
  0
SPLINE
  5
405
100
AcDbEntity
  8
0
100
AcDbSpline
 62
7
  6
CONTINUOUS
 70
0
 71
3
 72
12
 73
8
 74
0
 42
0.0000001
 43
0.0000001
 44
0.0000000001
 40
0.0
 40
0.0
 40
0.0
 40
0.0
 40
0.361700768
 40
0.6637415101
 40
0.8844234894
 40
0.9591044251
 40
1.0
 40
1.0
 40
1.0
 40
1.0
 10
148.088893329
 20
250.2243109628
 30
0.0
 10
148.0194367821
 20
250.2242158928
 30
0.0
 10
147.8919089973
 20
250.1985035336
 30
0.0
 10
147.7364795841
 20
250.1283508783
 30
0.0
 10
147.6441617382
 20
250.0568907945
 30
0.0
 10
147.6041944487
 20
250.0063540059
 30
0.0
 10
147.5916253462
 20
249.9876647481
 30
0.0
 10
147.5889733245
 20
249.980273011
 30
0.0
  0
SPLINE
  5
406
100
AcDbEntity
  8
0
100
AcDbSpline
 62
7
  6
CONTINUOUS
 70
0
 71
3
 72
9
 73
5
 74
0
 42
0.0000001
 43
0.0000001
 44
0.0000000001
 40
0.0
 40
0.0
 40
0.0
 40
0.0
 40
0.4972525543
 40
1.0
 40
1.0
 40
1.0
 40
1.0
 10
39.1733921006
 20
234.6202299875
 30
0.0
 10
39.169805049
 20
235.0200645414
 30
0.0
 10
39.2139599483
 20
235.8256830641
 30
0.0
 10
39.3585252149
 20
236.6181776592
 30
0.0
 10
39.4444004119
 20
237.0132207362
 30
0.0
  0
SPLINE
  5
407
100
AcDbEntity
  8
0
100
AcDbSpline
 62
7
  6
CONTINUOUS
 70
0
 71
3
 72
13
 73
9
 74
0
 42
0.0000001
 43
0.0000001
 44
0.0000000001
 40
0.0
 40
0.0
 40
0.0
 40
0.0
 40
0.3903649208
 40
0.6912317335
 40
0.8065232662
 40
0.9025240925
 40
0.9694886018
 40
1.0
 40
1.0
 40
1.0
 40
1.0
 10
225.9732945959
 20
245.5216063473
 30
0.0
 10
226.0123531892
 20
245.5215468681
 30
0.0
 10
226.0814775342
 20
245.5209279385
 30
0.0
 10
226.162272671
 20
245.5192857386
 30
0.0
 10
226.2133137694
 20
245.5170083381
 30
0.0
 10
226.2414496055
 20
245.5159107988
 30
0.0
 10
226.2600112284
 20
245.513210219
 30
0.0
 10
226.2706087754
 20
245.5130264867
 30
0.0
 10
226.2730062736
 20
245.5111365072
 30
0.0
  0
SPLINE
  5
408
100
AcDbEntity
  8
0
100
AcDbSpline
 62
7
  6
CONTINUOUS
 70
0
 71
3
 72
13
 73
9
 74
0
 42
0.0000001
 43
0.0000001
 44
0.0000000001
 40
0.0
 40
0.0
 40
0.0
 40
0.0
 40
0.3609079308
 40
0.6912471571
 40
0.8179297716
 40
0.9125436286
 40
0.9736415097
 40
1.0
 40
1.0
 40
1.0
 40
1.0
 10
225.9603220937
 20
237.0132271905
 30
0.0
 10
225.9964325645
 20
237.0131722108
 30
0.0
 10
226.0655545127
 20
237.0125077922
 30
0.0
 10
226.1475117046
 20
237.011041177
 30
0.0
 10
226.2024636012
 20
237.0085016521
 30
0.0
 10
226.2310272605
 20
237.0072802166
 30
0.0
 10
226.2484693645
 20
237.0046160285
 30
0.0
 10
226.257978402
 20
237.004408181
 30
0.0
 10
226.2600365518
 20
237.0027591467
 30
0.0
  0
SPLINE
  5
409
100
AcDbEntity
  8
0
100
AcDbSpline
 62
7
  6
CONTINUOUS
 70
0
 71
3
 72
11
 73
7
 74
0
 42
0.0000001
 43
0.0000001
 44
0.0000000001
 40
0.0
 40
0.0
 40
0.0
 40
0.0
 40
0.2499464105
 40
0.4999354848
 40
0.7499595663
 40
1.0
 40
1.0
 40
1.0
 40
1.0
 10
225.9603222665
 20
237.0130179569
 30
0.0
 10
225.7400375736
 20
237.4438191378
 30
0.0
 10
225.18412371
 20
238.2532136838
 30
0.0
 10
224.0483987699
 20
239.1865474379
 30
0.0
 10
222.7030566782
 20
239.7791622588
 30
0.0
 10
221.7296687596
 20
239.910888418
 30
0.0
 10
221.2456362065
 20
239.9128014273
 30
0.0
  0
SPLINE
  5
40A
100
AcDbEntity
  8
0
100
AcDbSpline
 62
7
  6
CONTINUOUS
 70
0
 71
3
 72
9
 73
5
 74
0
 42
0.0000001
 43
0.0000001
 44
0.0000000001
 40
0.0
 40
0.0
 40
0.0
 40
0.0
 40
0.4970706622
 40
1.0
 40
1.0
 40
1.0
 40
1.0
 10
226.2313519919
 20
234.6202306932
 30
0.0
 10
226.2346353616
 20
235.0198263457
 30
0.0
 10
226.1875792311
 20
235.8245924003
 30
0.0
 10
226.0516705446
 20
236.6188055148
 30
0.0
 10
225.9604705394
 20
237.0127046017
 30
0.0
  0
SPLINE
  5
40B
100
AcDbEntity
  8
0
100
AcDbSpline
 62
7
  6
CONTINUOUS
 70
0
 71
3
 72
10
 73
6
 74
0
 42
0.0000001
 43
0.0000001
 44
0.0000000001
 40
0.0
 40
0.0
 40
0.0
 40
0.0
 40
0.5291949902
 40
0.7727757914
 40
1.0
 40
1.0
 40
1.0
 40
1.0
 10
130.6810071748
 20
247.8550909095
 30
0.0
 10
130.5580398047
 20
247.8525380138
 30
0.0
 10
130.370433872
 20
247.792398365
 30
0.0
 10
130.2148065611
 20
247.6130687429
 30
0.0
 10
130.1831542018
 20
247.5033694208
 30
0.0
 10
130.1814829011
 20
247.4505851236
 30
0.0
  0
SPLINE
  5
40C
100
AcDbEntity
  8
0
100
AcDbSpline
 62
7
  6
CONTINUOUS
 70
0
 71
3
 72
10
 73
6
 74
0
 42
0.0000001
 43
0.0000001
 44
0.0000000001
 40
0.0
 40
0.0
 40
0.0
 40
0.0
 40
0.5294583729
 40
0.7729584363
 40
1.0
 40
1.0
 40
1.0
 40
1.0
 10
146.8620690214
 20
250.157372068
 30
0.0
 10
146.9851017695
 20
250.1548176606
 30
0.0
 10
147.1726608518
 20
250.0945310158
 30
0.0
 10
147.3284753241
 20
249.9153088557
 30
0.0
 10
147.3599232058
 20
249.8056072342
 30
0.0
 10
147.3615931322
 20
249.7528635708
 30
0.0
  0
SPLINE
  5
40D
100
AcDbEntity
  8
0
100
AcDbSpline
 62
7
  6
CONTINUOUS
 70
0
 71
3
 72
9
 73
5
 74
0
 42
0.0000001
 43
0.0000001
 44
0.0000000001
 40
0.0
 40
0.0
 40
0.0
 40
0.0
 40
0.2407227707
 40
1.0
 40
1.0
 40
1.0
 40
1.0
 10
39.1734030709
 20
234.6203289581
 30
0.0
 10
39.1700660201
 20
234.8114825658
 30
0.0
 10
39.1565890142
 20
235.6055657803
 30
0.0
 10
39.1456208114
 20
236.3997365862
 30
0.0
 10
39.1447015055
 20
237.0027560978
 30
0.0
  0
SPLINE
  5
40E
100
AcDbEntity
  8
0
100
AcDbSpline
 62
7
  6
CONTINUOUS
 70
0
 71
3
 72
11
 73
7
 74
0
 42
0.0000001
 43
0.0000001
 44
0.0000000001
 40
0.0
 40
0.0
 40
0.0
 40
0.0
 40
0.2499636108
 40
0.4998819204
 40
0.7499433963
 40
1.0
 40
1.0
 40
1.0
 40
1.0
 10
226.2313341246
 20
234.6202302878
 30
0.0
 10
226.232468357
 20
235.2700792744
 30
0.0
 10
225.9760317762
 20
236.584342946
 30
0.0
 10
224.8687427241
 20
238.2486440177
 30
0.0
 10
223.2088622627
 20
239.3634715912
 30
0.0
 10
221.8942701532
 20
239.6236526933
 30
0.0
 10
221.244178423
 20
239.6235568097
 30
0.0
  0
ELLIPSE
  5
40F
100
AcDbEntity
  8
0
100
AcDbEllipse
 62
7
  6
CONTINUOUS
 10
66.1023613037
 20
153.6519337186
 30
0.0
 11
0.2
 21
0.0
 31
0.0
 40
0.0436609429
 41
-0.0
 42
1.5707963268
  0
ELLIPSE
  5
410
100
AcDbEntity
  8
0
100
AcDbEllipse
 62
7
  6
CONTINUOUS
 10
63.9023613037
 20
153.6519337186
 30
0.0
 11
0.2
 21
-0.0
 31
0.0
 40
0.0436609429
 41
1.5707963268
 42
3.1415926536
  0
ELLIPSE
  5
411
100
AcDbEntity
  8
0
100
AcDbEllipse
 62
7
  6
CONTINUOUS
 10
56.9023613037
 20
153.5733440214
 30
0.0
 11
0.2
 21
0.0
 31
0.0
 40
0.0436609429
 41
-1.5707963268
 42
-0.0
  0
ELLIPSE
  5
412
100
AcDbEntity
  8
0
100
AcDbEllipse
 62
7
  6
CONTINUOUS
 10
66.5023613037
 20
153.5733440214
 30
0.0
 11
0.2
 21
0.0
 31
0.0
 40
0.0436609429
 41
-2.1263987783
 42
-1.5707963268
  0
ELLIPSE
  5
413
100
AcDbEntity
  8
0
100
AcDbEllipse
 62
7
  6
CONTINUOUS
 10
63.5023613037
 20
153.5733440214
 30
0.0
 11
0.2
 21
0.0
 31
0.0
 40
0.0436609429
 41
-1.5707963268
 42
-0.0
  0
ELLIPSE
  5
414
100
AcDbEntity
  8
0
100
AcDbEllipse
 62
7
  6
CONTINUOUS
 10
59.9023613037
 20
153.5733440214
 30
0.0
 11
0.2
 21
-0.0
 31
0.0
 40
0.0436609429
 41
-2.1263987783
 42
-1.5707963268
  0
ELLIPSE
  5
415
100
AcDbEntity
  8
0
100
AcDbEllipse
 62
7
  6
CONTINUOUS
 10
107.0523613037
 20
153.6955946615
 30
0.0
 11
0.7
 21
0.0
 31
0.0
 40
0.0436609429
 41
0.0
 42
1.5707963268
  0
ELLIPSE
  5
416
100
AcDbEntity
  8
0
100
AcDbEllipse
 62
7
  6
CONTINUOUS
 10
111.0523613037
 20
153.6301032471
 30
0.0
 11
0.7
 21
-0.0
 31
0.0
 40
0.0436609429
 41
0.0
 42
1.5707963268
  0
ELLIPSE
  5
417
100
AcDbEntity
  8
0
100
AcDbEllipse
 62
7
  6
CONTINUOUS
 10
81.5523613037
 20
153.6301032471
 30
0.0
 11
0.7
 21
-0.0
 31
0.0
 40
0.0436609429
 41
1.5707963268
 42
3.1415926536
  0
ELLIPSE
  5
418
100
AcDbEntity
  8
0
100
AcDbEllipse
 62
7
  6
CONTINUOUS
 10
85.5523613037
 20
153.6955946615
 30
0.0
 11
0.7
 21
-0.0
 31
0.0
 40
0.0436609429
 41
1.5707963268
 42
3.1415926536
  0
ELLIPSE
  5
419
100
AcDbEntity
  8
0
100
AcDbEllipse
 62
7
  6
CONTINUOUS
 10
156.2023613037
 20
239.3313340398
 30
0.0
 11
1.0521493805
 21
0.0
 31
0.0
 40
0.0436610222
 41
-3.1396863745
 42
-1.5707963268
  0
ELLIPSE
  5
41A
100
AcDbEntity
  8
0
100
AcDbEllipse
 62
7
  6
CONTINUOUS
 10
179.2023613037
 20
239.3313340398
 30
0.0
 11
1.0521493805
 21
0.0
 31
0.0
 40
0.0436610222
 41
-1.5707963268
 42
-0.0019062791
  0
ELLIPSE
  5
41B
100
AcDbEntity
  8
0
100
AcDbEllipse
 62
7
  6
CONTINUOUS
 10
193.1523613037
 20
153.7698182644
 30
0.0
 11
0.2
 21
0.0
 31
0.0
 40
0.0436609429
 41
0.0
 42
1.5707963268
  0
ELLIPSE
  5
41C
100
AcDbEntity
  8
0
100
AcDbEllipse
 62
7
  6
CONTINUOUS
 10
160.2523613037
 20
153.7698182644
 30
0.0
 11
0.2
 21
0.0
 31
0.0
 40
0.0436609429
 41
1.5707963268
 42
3.1415926536
  0
ELLIPSE
  5
41D
100
AcDbEntity
  8
0
100
AcDbEllipse
 62
7
  6
CONTINUOUS
 10
71.0023613037
 20
153.5558796442
 30
0.0
 11
0.2
 21
0.0
 31
0.0
 40
0.0436609429
 41
0.0
 42
1.5707963268
  0
ELLIPSE
  5
41E
100
AcDbEntity
  8
0
100
AcDbEllipse
 62
7
  6
CONTINUOUS
 10
52.4023613037
 20
153.5558796442
 30
0.0
 11
0.2
 21
0.0
 31
0.0
 40
0.0436609429
 41
1.5707963268
 42
3.1415926536
  0
ELLIPSE
  5
41F
100
AcDbEntity
  8
0
100
AcDbEllipse
 62
7
  6
CONTINUOUS
 10
59.5023613037
 20
153.6519337186
 30
0.0
 11
0.2
 21
-0.0
 31
0.0
 40
0.0436609429
 41
-0.0
 42
1.5707963268
  0
ELLIPSE
  5
420
100
AcDbEntity
  8
0
100
AcDbEllipse
 62
7
  6
CONTINUOUS
 10
57.3023613037
 20
153.6519337186
 30
0.0
 11
0.2
 21
0.0
 31
0.0
 40
0.0436609429
 41
1.5707963268
 42
3.1415926536
  0
ELLIPSE
  5
421
100
AcDbEntity
  8
0
100
AcDbEllipse
 62
7
  6
CONTINUOUS
 10
127.3023613037
 20
153.7610860759
 30
0.0
 11
0.2
 21
0.0
 31
0.0
 40
0.0436609429
 41
1.5707963268
 42
3.1415926536
  0
ELLIPSE
  5
422
100
AcDbEntity
  8
0
100
AcDbEllipse
 62
7
  6
CONTINUOUS
 10
144.1023613037
 20
153.7610860759
 30
0.0
 11
0.2
 21
0.0
 31
0.0
 40
0.0436609429
 41
-0.0
 42
1.5707963268
  0
ELLIPSE
  5
423
100
AcDbEntity
  8
0
100
AcDbEllipse
 62
7
  6
CONTINUOUS
 10
193.1523613037
 20
153.1454667809
 30
0.0
 11
0.2
 21
-0.0
 31
0.0
 40
0.0436609429
 41
-1.5707961399
 42
-0.0
  0
ELLIPSE
  5
424
100
AcDbEntity
  8
0
100
AcDbEllipse
 62
7
  6
CONTINUOUS
 10
160.2523613037
 20
153.1454667809
 30
0.0
 11
0.2
 21
0.0
 31
0.0
 40
0.0436609429
 41
-3.1415925055
 42
-1.5707963268
  0
ELLIPSE
  5
425
100
AcDbEntity
  8
0
100
AcDbEllipse
 62
7
  6
CONTINUOUS
 10
52.4023613037
 20
153.1454667809
 30
0.0
 11
0.2
 21
0.0
 31
0.0
 40
0.0436609429
 41
-3.1415925055
 42
-1.5707963268
  0
ELLIPSE
  5
426
100
AcDbEntity
  8
0
100
AcDbEllipse
 62
7
  6
CONTINUOUS
 10
71.0023613037
 20
153.1454667809
 30
0.0
 11
0.2
 21
0.0
 31
0.0
 40
0.0436609429
 41
-1.5707961399
 42
-0.0
  0
ELLIPSE
  5
427
100
AcDbEntity
  8
0
100
AcDbEllipse
 62
7
  6
CONTINUOUS
 10
111.0523613037
 20
153.267717421
 30
0.0
 11
0.7
 21
0.0
 31
0.0
 40
0.0436609429
 41
-1.5707963268
 42
0.0
  0
ELLIPSE
  5
428
100
AcDbEntity
  8
0
100
AcDbEllipse
 62
7
  6
CONTINUOUS
 10
81.5523613037
 20
153.267717421
 30
0.0
 11
0.7
 21
-0.0
 31
0.0
 40
0.0436609429
 41
3.1415926536
 42
4.7123889804
  0
ELLIPSE
  5
429
100
AcDbEntity
  8
0
100
AcDbEllipse
 62
7
  6
CONTINUOUS
 10
127.3023613037
 20
153.1454667809
 30
0.0
 11
0.2
 21
0.0
 31
0.0
 40
0.0436609429
 41
-3.1415926536
 42
-1.5707963268
  0
ELLIPSE
  5
42A
100
AcDbEntity
  8
0
100
AcDbEllipse
 62
7
  6
CONTINUOUS
 10
144.1023613037
 20
153.1454667809
 30
0.0
 11
0.2
 21
0.0
 31
0.0
 40
0.0436609429
 41
-1.5707963268
 42
-0.0
  0
ELLIPSE
  5
42B
100
AcDbEntity
  8
0
100
AcDbEllipse
 62
7
  6
CONTINUOUS
 10
43.2638839553
 20
246.3742071959
 30
0.0
 11
3.5422672045
 21
-3.5422672045
 31
0.0
 40
0.9980991556
 41
2.3571458162
 42
3.9260394909
  0
ELLIPSE
  5
42C
100
AcDbEntity
  8
0
100
AcDbEllipse
 62
7
  6
CONTINUOUS
 10
222.1408386521
 20
246.3742071959
 30
0.0
 11
-3.5422672045
 21
-3.5422672045
 31
0.0
 40
0.9980991556
 41
2.3571458162
 42
3.926039491
  0
ELLIPSE
  5
42D
100
AcDbEntity
  8
0
100
AcDbEllipse
 62
7
  6
CONTINUOUS
 10
222.1408386521
 20
122.4972524991
 30
0.0
 11
-3.5422672045
 21
3.5422672045
 31
0.0
 40
0.9980991556
 41
2.3571458162
 42
3.926039491
  0
ELLIPSE
  5
42E
100
AcDbEntity
  8
0
100
AcDbEllipse
 62
7
  6
CONTINUOUS
 10
208.0098279862
 20
120.9854325595
 30
0.0
 11
-2.3858476445
 21
-2.3858476445
 31
0.0
 40
0.8891264907
 41
2.4148176027
 42
3.8683677079
  0
ELLIPSE
  5
42F
100
AcDbEntity
  8
0
100
AcDbEllipse
 62
7
  6
CONTINUOUS
 10
192.3948946211
 20
120.9854325595
 30
0.0
 11
2.3858476445
 21
-2.3858476445
 31
0.0
 40
0.8891264907
 41
2.4148175993
 42
3.8683677074
  0
ELLIPSE
  5
430
100
AcDbEntity
  8
0
100
AcDbEllipse
 62
7
  6
CONTINUOUS
 10
73.0098279862
 20
120.9854325595
 30
0.0
 11
-2.3858476445
 21
-2.3858476445
 31
0.0
 40
0.8891264907
 41
2.4148176027
 42
3.8683677079
  0
ELLIPSE
  5
431
100
AcDbEntity
  8
0
100
AcDbEllipse
 62
7
  6
CONTINUOUS
 10
57.3948946211
 20
120.9854325595
 30
0.0
 11
2.3858476445
 21
-2.3858476445
 31
0.0
 40
0.8891264907
 41
2.4148175993
 42
3.8683677074
  0
ELLIPSE
  5
432
100
AcDbEntity
  8
0
100
AcDbEllipse
 62
7
  6
CONTINUOUS
 10
43.2638839553
 20
122.4972524991
 30
0.0
 11
3.5422672045
 21
3.5422672045
 31
0.0
 40
0.9980991556
 41
2.3571458162
 42
3.9260394909
  0
ENDSEC
  0
SECTION
  2
OBJECTS
  0
DICTIONARY
  5
C
100
AcDbDictionary
280
0
281
1
  3
ACAD_GROUP
350
D
  3
ACAD_MLINESTYLE
350
17
  3
ACAD_LAYOUT
350
1A
  3
ACAD_PLOTSETTINGS
350
19
  3
ACAD_PLOTSTYLENAME
350
E
  0
DICTIONARY
  5
D
102
{ACAD_REACTORS
330
C
102
}
100
AcDbDictionary
280
0
281
1
  0
ACDBDICTIONARYWDFLT
  5
E
102
{ACAD_REACTORS
330
C
102
}
100
AcDbDictionary
281
1
  3
Normal
350
F
100
AcDbDictionaryWithDefault
340
F
  0
DICTIONARY
  5
17
102
{ACAD_REACTORS
330
C
102
}
100
AcDbDictionary
280
0
281
1
  3
Standard
350
18
  0
DICTIONARY
  5
19
102
{ACAD_REACTORS
330
C
102
}
100
AcDbDictionary
281
1
  0
DICTIONARY
  5
1A
102
{ACAD_REACTORS
330
C
102
}
100
AcDbDictionary
281
1
  3
Model
350
433
  3
Layout1
350
434
  0
ACDBPLACEHOLDER
  5
F
102
{ACAD_REACTORS
330
E
102
}
  0
MLINESTYLE
  5
18
102
{ACAD_REACTORS
330
17
102
}
100
AcDbMlineStyle
  2
STANDARD
 70
0
  3

 62
256
 51
90.0
 52
90.0
 71
2
 49
0.5
 62
256
  6
BYLAYER
 49
-0.5
 62
256
  6
BYLAYER
  0
LAYOUT
  5
433
102
{ACAD_REACTORS
330
1A
102
}
100
AcDbPlotSettings
  1

  2
none_device
  4

  6

 40
0.0
 41
0.0
 42
0.0
 43
0.0
 44
210.0
 45
297.0
 46
0.0
 47
0.0
 48
0.0
 49
0.0
140
0.0
141
0.0
142
1.0
143
1.0
 70
1024
 72
1
 73
0
 74
0
  7

 75
0
147
1.0
148
0.0
149
0.0
100
AcDbLayout
  1
Model
 70
0
 71
0
 10
0.0
 20
0.0
 11
210.0
 21
297.0
 12
0.0
 22
0.0
 32
0.0
 14
0.0
 24
0.0
 34
0.0
 15
0.0
 25
0.0
 35
0.0
146
0.0
 13
0.0
 23
0.0
 33
0.0
 16
1.0
 26
0.0
 36
0.0
 17
0.0
 27
1.0
 37
0.0
 76
0
330
210
345
0
346
0
  0
LAYOUT
  5
434
102
{ACAD_REACTORS
330
1A
102
}
100
AcDbPlotSettings
  1

  2
none_device
  4

  6

 40
0.0
 41
0.0
 42
0.0
 43
0.0
 44
210.0
 45
297.0
 46
0.0
 47
0.0
 48
0.0
 49
0.0
140
0.0
141
0.0
142
1.0
143
1.0
 70
0
 72
1
 73
0
 74
0
  7

 75
0
147
1.0
148
0.0
149
0.0
100
AcDbLayout
  1
Layout1
 70
0
 71
1
 10
0.0
 20
0.0
 11
210.0
 21
297.0
 12
0.0
 22
0.0
 32
0.0
 14
0.0
 24
0.0
 34
0.0
 15
0.0
 25
0.0
 35
0.0
146
0.0
 13
0.0
 23
0.0
 33
0.0
 16
1.0
 26
0.0
 36
0.0
 17
0.0
 27
1.0
 37
0.0
 76
0
330
211
345
0
346
0
  0
ENDSEC
  0
EOF
