999
DXF file: C:\Users\sesa63760\Dev\_Creo\CAD\MCADID0005646_3D-CAD\mcadid0005646_3d-simplified_3.dxf
999
Pro/ENGINEER 2019471 by Parametric Technology Corporation
  0
SECTION
  2
HEADER
  9
$ACADVER
  1
AC1024
  9
$DWGCODEPAGE
  3
ANSI_1252
  9
$EXTMAX
 10
63.6774238667
 20
90.0580708972
 30
0.0
  9
$EXTMIN
 10
0.0
 20
0.0
 30
0.0
  9
$LIMMIN
 10
0.0
 20
0.0
  9
$LIMMAX
 10
63.6774238667
 20
90.0580708972
  9
$VIEWCTR
 10
31.8387119333
 20
45.0290354486
  9
$VIEWSIZE
 40
90.0580708972
  9
$CLAYER
  8
0
  9
$LTSCALE
 40
5.8704520289
  9
$CELTYPE
  6
BYLAYER
  9
$DIMSCALE
 40
1.0
  9
$DIMASZ
 40
0.7580645698
  9
$DIMEXO
 40
1.0
  9
$DIMDLI
 40
4.0559486745
  9
$DIMEXE
 40
1.0
  9
$DIMCEN
 40
0.9606194229
  9
$DIMLFAC
 40
1.0
  9
$DIMBLK
  1
_FILLED
  9
$DIMALT
 70
0
  9
$DIMALTF
 40
0.0393700787
  9
$DIMTXT
 40
1.0612903978
  9
$DIMTOL
 70
1
  9
$DIMLIM
 70
0
  9
$DIMTFAC
 40
1.0
  9
$DIMTP
 40
0.01
  9
$DIMTM
 40
0.01
  9
$DIMGAP
 40
0.625
  9
$DIMDSEP
 70
46
  9
$AUNITS
 70
0
  9
$PDMODE
 70
3
  9
$PDSIZE
 40
0.3125
  9
$HANDSEED
  5
458
  9
$TILEMODE
 70
1
  9
$MEASUREMENT
 70
1
  9
$INSUNITS
 70
4
  0
ENDSEC
  0
SECTION
  2
CLASSES
  0
CLASS
  1
ACDBDICTIONARYWDFLT
  2
AcDbDictionaryWithDefault
  3
AutoCAD 2000
 90
0
 91
1
280
0
281
0
  0
CLASS
  1
ACDBPLACEHOLDER
  2
AcDbPlaceHolder
  3
AutoCAD 2000
 90
0
 91
1
280
0
281
0
  0
CLASS
  1
LAYOUT
  2
AcDbLayout
  3
AutoCAD 2000
 90
0
 91
0
280
0
281
0
  0
ENDSEC
  0
SECTION
  2
TABLES
  0
TABLE
  2
VPORT
  5
8
100
AcDbSymbolTable
 70
2
  0
VPORT
  5
1F4
100
AcDbSymbolTableRecord
100
AcDbViewportTableRecord
  2
*ACTIVE
 70
0
 10
0.0
 20
0.0
 11
1.0
 21
1.0
 12
31.8387119333
 22
45.0290354486
 13
0.0
 23
0.0
 14
1.0
 24
1.0
 15
0.0
 25
0.0
 16
0.0
 26
0.0
 36
1.0
 17
0.0
 27
0.0
 37
0.0
 40
90.0580708972
 41
0.7070707071
 42
50.0
 43
0.0
 44
0.0
 50
0.0
 51
0.0
 71
0
 72
100
 73
1
 74
1
 75
0
 76
0
 77
0
 78
0
  0
ENDTAB
  0
TABLE
  2
LTYPE
  5
5
100
AcDbSymbolTable
 70
6
  0
LTYPE
  5
14
100
AcDbSymbolTableRecord
100
AcDbLinetypeTableRecord
  2
BYBLOCK
 70
0
  3

 72
65
 73
0
 40
0.0
  0
LTYPE
  5
15
100
AcDbSymbolTableRecord
100
AcDbLinetypeTableRecord
  2
BYLAYER
 70
0
  3

 72
65
 73
0
 40
0.0
  0
LTYPE
  5
16
100
AcDbSymbolTableRecord
100
AcDbLinetypeTableRecord
  2
CONTINUOUS
 70
64
  3
Solid line
 72
65
 73
0
 40
0.0
  0
LTYPE
  5
1F5
100
AcDbSymbolTableRecord
100
AcDbLinetypeTableRecord
  2
CENTER
 70
64
  3
____ _ ____ _ ____ _ ____ _ ____ _ ____ _ ____
 72
65
 73
4
 40
0.6
 49
0.375
 74
0
 49
-0.075
 74
0
 49
0.075
 74
0
 49
-0.075
 74
0
  0
LTYPE
  5
1F6
100
AcDbSymbolTableRecord
100
AcDbLinetypeTableRecord
  2
HIDDEN
 70
64
  3
- - - - - - - - - - - - - - - - - - - -
 72
65
 73
2
 40
0.2
 49
0.1
 74
0
 49
-0.1
 74
0
  0
LTYPE
  5
1F7
100
AcDbSymbolTableRecord
100
AcDbLinetypeTableRecord
  2
PHANTOM
 70
64
  3
_____ _ _ _____ _ _ _____ _ _ _____
 72
65
 73
6
 40
0.8
 49
0.45
 74
0
 49
-0.05
 74
0
 49
0.1
 74
0
 49
-0.05
 74
0
 49
0.1
 74
0
 49
-0.05
 74
0
  0
LTYPE
  5
1F8
100
AcDbSymbolTableRecord
100
AcDbLinetypeTableRecord
  2
DOT
 70
64
  3
. . . . . . . . . . . . . . . . . . . .
 72
65
 73
2
 40
0.2
 49
0.1
 74
0
 49
-0.1
 74
0
  0
LTYPE
  5
1F9
100
AcDbSymbolTableRecord
100
AcDbLinetypeTableRecord
  2
DASHED
 70
64
  3
- - - - - - - - - - - - - - - - - - - -
 72
65
 73
2
 40
0.2
 49
0.1
 74
0
 49
-0.1
 74
0
  0
ENDTAB
  0
TABLE
  2
LAYER
  5
2
100
AcDbSymbolTable
 70
36
  0
LAYER
  5
10
100
AcDbSymbolTableRecord
100
AcDbLayerTableRecord
  2
0
 70
0
 62
7
  6
CONTINUOUS
370
-3
390
F
  0
LAYER
  5
1FA
100
AcDbSymbolTableRecord
100
AcDbLayerTableRecord
  2
DEFAULT_1
 70
0
 62
7
  6
CENTER
370
-3
390
F
  0
LAYER
  5
1FB
100
AcDbSymbolTableRecord
100
AcDbLayerTableRecord
  2
DEFAULT_2
 70
0
 62
7
  6
HIDDEN
370
-3
390
F
  0
LAYER
  5
1FC
100
AcDbSymbolTableRecord
100
AcDbLayerTableRecord
  2
DEFAULT_3
 70
0
 62
7
  6
PHANTOM
370
-3
390
F
  0
LAYER
  5
1FD
100
AcDbSymbolTableRecord
100
AcDbLayerTableRecord
  2
00_COMPONENTS
 70
0
 62
7
  6
CONTINUOUS
370
-3
390
F
  0
LAYER
  5
1FE
100
AcDbSymbolTableRecord
100
AcDbLayerTableRecord
  2
00_COMPONENTS_1
 70
0
 62
7
  6
CONTINUOUS
370
-3
390
F
  0
LAYER
  5
1FF
100
AcDbSymbolTableRecord
100
AcDbLayerTableRecord
  2
00_COMPONENTS_2
 70
0
 62
7
  6
CONTINUOUS
370
-3
390
F
  0
LAYER
  5
200
100
AcDbSymbolTableRecord
100
AcDbLayerTableRecord
  2
00_COMPONENTS_3
 70
0
 62
7
  6
CONTINUOUS
370
-3
390
F
  0
LAYER
  5
201
100
AcDbSymbolTableRecord
100
AcDbLayerTableRecord
  2
00_COMPONENTS_4
 70
0
 62
7
  6
CONTINUOUS
370
-3
390
F
  0
LAYER
  5
202
100
AcDbSymbolTableRecord
100
AcDbLayerTableRecord
  2
00_COMPONENTS_5
 70
0
 62
7
  6
CONTINUOUS
370
-3
390
F
  0
LAYER
  5
203
100
AcDbSymbolTableRecord
100
AcDbLayerTableRecord
  2
00_COMPONENTS_6
 70
0
 62
7
  6
CONTINUOUS
370
-3
390
F
  0
LAYER
  5
204
100
AcDbSymbolTableRecord
100
AcDbLayerTableRecord
  2
00_COMPONENTS_7
 70
0
 62
7
  6
CONTINUOUS
370
-3
390
F
  0
LAYER
  5
205
100
AcDbSymbolTableRecord
100
AcDbLayerTableRecord
  2
01_1_DEFAULT_DATUMS
 70
0
 62
7
  6
CONTINUOUS
370
-3
390
F
  0
LAYER
  5
206
100
AcDbSymbolTableRecord
100
AcDbLayerTableRecord
  2
01_PLANES
 70
0
 62
7
  6
CONTINUOUS
370
-3
390
F
  0
LAYER
  5
207
100
AcDbSymbolTableRecord
100
AcDbLayerTableRecord
  2
02_COORD_SYS
 70
0
 62
7
  6
CONTINUOUS
370
-3
390
F
  0
LAYER
  5
208
100
AcDbSymbolTableRecord
100
AcDbLayerTableRecord
  2
03_AXES
 70
0
 62
7
  6
CONTINUOUS
370
-3
390
F
  0
LAYER
  5
209
100
AcDbSymbolTableRecord
100
AcDbLayerTableRecord
  2
03_AXES_4
 70
0
 62
7
  6
CONTINUOUS
370
-3
390
F
  0
LAYER
  5
20A
100
AcDbSymbolTableRecord
100
AcDbLayerTableRecord
  2
03_AXES_7
 70
0
 62
7
  6
CONTINUOUS
370
-3
390
F
  0
LAYER
  5
20B
100
AcDbSymbolTableRecord
100
AcDbLayerTableRecord
  2
04_POINTS
 70
0
 62
7
  6
CONTINUOUS
370
-3
390
F
  0
LAYER
  5
20C
100
AcDbSymbolTableRecord
100
AcDbLayerTableRecord
  2
05_CURVES
 70
0
 62
7
  6
CONTINUOUS
370
-3
390
F
  0
LAYER
  5
20D
100
AcDbSymbolTableRecord
100
AcDbLayerTableRecord
  2
06_SURFS
 70
0
 62
7
  6
CONTINUOUS
370
-3
390
F
  0
LAYER
  5
20E
100
AcDbSymbolTableRecord
100
AcDbLayerTableRecord
  2
07_COSMETICS
 70
0
 62
7
  6
CONTINUOUS
370
-3
390
F
  0
LAYER
  5
20F
100
AcDbSymbolTableRecord
100
AcDbLayerTableRecord
  2
10_NOTES
 70
0
 62
7
  6
CONTINUOUS
370
-3
390
F
  0
LAYER
  5
210
100
AcDbSymbolTableRecord
100
AcDbLayerTableRecord
  2
11_NOTES_PUB
 70
0
 62
7
  6
CONTINUOUS
370
-3
390
F
  0
LAYER
  5
211
100
AcDbSymbolTableRecord
100
AcDbLayerTableRecord
  2
13_REF_GTOL
 70
0
 62
7
  6
CONTINUOUS
370
-3
390
F
  0
LAYER
  5
212
100
AcDbSymbolTableRecord
100
AcDbLayerTableRecord
  2
13_REF_GTOL_6
 70
0
 62
7
  6
CONTINUOUS
370
-3
390
F
  0
LAYER
  5
213
100
AcDbSymbolTableRecord
100
AcDbLayerTableRecord
  2
16_MISC
 70
0
 62
7
  6
CONTINUOUS
370
-3
390
F
  0
LAYER
  5
214
100
AcDbSymbolTableRecord
100
AcDbLayerTableRecord
  2
17_NO_PRINT
 70
0
 62
7
  6
CONTINUOUS
370
-3
390
F
  0
LAYER
  5
215
100
AcDbSymbolTableRecord
100
AcDbLayerTableRecord
  2
18_DATUM_CAMS_JOINTS
 70
0
 62
7
  6
CONTINUOUS
370
-3
390
F
  0
LAYER
  5
216
100
AcDbSymbolTableRecord
100
AcDbLayerTableRecord
  2
19_DATUM_FUNCTIONAL
 70
0
 62
7
  6
CONTINUOUS
370
-3
390
F
  0
LAYER
  5
217
100
AcDbSymbolTableRecord
100
AcDbLayerTableRecord
  2
20_DATUM_KINEMATIC_SCHEME
 70
0
 62
7
  6
CONTINUOUS
370
-3
390
F
  0
LAYER
  5
218
100
AcDbSymbolTableRecord
100
AcDbLayerTableRecord
  2
INTFCLR_113966
 70
0
 62
7
  6
CONTINUOUS
370
-3
390
F
  0
LAYER
  5
219
100
AcDbSymbolTableRecord
100
AcDbLayerTableRecord
  2
INTF_BLANK
 70
0
 62
7
  6
CONTINUOUS
370
-3
390
F
  0
LAYER
  5
21A
100
AcDbSymbolTableRecord
100
AcDbLayerTableRecord
  2
SHELL1
 70
0
 62
7
  6
CONTINUOUS
370
-3
390
F
  0
LAYER
  5
21B
100
AcDbSymbolTableRecord
100
AcDbLayerTableRecord
  2
SHELL2
 70
0
 62
7
  6
CONTINUOUS
370
-3
390
F
  0
LAYER
  5
21C
100
AcDbSymbolTableRecord
100
AcDbLayerTableRecord
  2
SHELL980
 70
0
 62
7
  6
CONTINUOUS
370
-3
390
F
  0
LAYER
  5
21D
100
AcDbSymbolTableRecord
100
AcDbLayerTableRecord
  2
_BLACK_HOLE
 70
0
 62
7
  6
CONTINUOUS
370
-3
390
F
  0
LAYER
  5
21E
100
AcDbSymbolTableRecord
100
AcDbLayerTableRecord
  2
black
 70
0
 62
7
  6
CONTINUOUS
370
-3
390
F
  0
ENDTAB
  0
TABLE
  2
STYLE
  5
3
100
AcDbSymbolTable
 70
1
  0
STYLE
  5
11
100
AcDbSymbolTableRecord
100
AcDbTextStyleTableRecord
  2
STANDARD
 70
0
 40
0.0
 41
1.0
 50
0.0
 71
0
 42
0.2
  3
ARIAL.TTF
  4

  0
STYLE
  5
21F
100
AcDbSymbolTableRecord
100
AcDbTextStyleTableRecord
  2
TEXTSTYLE_1
 70
0
 40
0.0
 41
0.8
 50
0.0
 71
0
 42
0.2
  3
gdt
  4

  0
ENDTAB
  0
TABLE
  2
VIEW
  5
6
100
AcDbSymbolTable
 70
0
  0
ENDTAB
  0
TABLE
  2
UCS
  5
7
100
AcDbSymbolTable
 70
0
  0
ENDTAB
  0
TABLE
  2
APPID
  5
9
100
AcDbSymbolTable
 70
1
  0
APPID
  5
220
100
AcDbSymbolTableRecord
100
AcDbRegAppTableRecord
  2
ACAD
 70
0
  0
ENDTAB
  0
TABLE
  2
BLOCK_RECORD
  5
1
100
AcDbSymbolTable
 70
0
  0
BLOCK_RECORD
  5
221
100
AcDbSymbolTableRecord
100
AcDbBlockTableRecord
  2
*Model_Space
  0
BLOCK_RECORD
  5
222
100
AcDbSymbolTableRecord
100
AcDbBlockTableRecord
  2
*Paper_Space
  0
BLOCK_RECORD
  5
223
100
AcDbSymbolTableRecord
100
AcDbBlockTableRecord
  2
_FILLED
  0
ENDTAB
  0
TABLE
  2
DIMSTYLE
  5
A
100
AcDbSymbolTable
 70
1
100
AcDbDimStyleTable
 71
0
  0
DIMSTYLE
105
224
100
AcDbSymbolTableRecord
100
AcDbDimStyleTableRecord
  2
STANDARD
 70
0
  3

  4

 40
1.0
 41
0.7580645698
 42
1.0
 43
0.38
 44
1.0
 45
0.0
 46
0.0
 47
0.01
 48
0.01
140
1.0612903978
141
0.09
142
0.0
143
25.4
144
1.0
145
0.0
146
1.0
147
0.625
 71
1
 72
0
 73
0
 74
0
 75
0
 76
0
 77
1
 78
8
 79
2
170
0
171
1
172
0
173
0
174
0
175
0
176
0
177
0
178
0
270
2
179
2
271
2
272
2
273
2
274
2
275
0
280
0
281
0
282
0
283
1
284
8
285
0
286
0
287
3
288
0
340
11
278
46
341
223
342
223
343
223
344
223
  0
ENDTAB
  0
ENDSEC
  0
SECTION
  2
BLOCKS
  0
BLOCK
  5
20
100
AcDbEntity
  8
0
100
AcDbBlockBegin
  2
*Model_Space
 70
0
 10
0.0
 20
0.0
 30
0.0
  3
*Model_Space
  1

  0
ENDBLK
  5
21
100
AcDbEntity
  8
0
100
AcDbBlockEnd
  0
BLOCK
  5
1C
100
AcDbEntity
  8
0
100
AcDbBlockBegin
  2
*Paper_Space
 70
0
 10
0.0
 20
0.0
 30
0.0
  3
*Paper_Space
  1

  0
ENDBLK
  5
1D
100
AcDbEntity
  8
0
100
AcDbBlockEnd
  0
BLOCK
  5
225
100
AcDbEntity
  8
0
100
AcDbBlockBegin
  2
_FILLED
 70
64
 10
0.0
 20
0.0
  3
_FILLED
  1

  0
SOLID
  5
226
100
AcDbEntity
  8
0
  6
BYBLOCK
 62
0
100
AcDbTrace
 10
0.0
 20
0.0
 11
-1.0
 21
0.25
 12
-1.0
 22
-0.25
 13
-1.0
 23
-0.25
  0
ENDBLK
  5
227
100
AcDbEntity
  8
0
  6
BYBLOCK
 62
0
100
AcDbBlockEnd
  0
ENDSEC
  0
SECTION
  2
ENTITIES
  0
LINE
  5
228
100
AcDbEntity
  8
0
100
AcDbLine
 62
7
  6
BYLAYER
 10
7.5329535088
 20
64.0786717419
 11
7.5329535088
 21
25.588719943
  0
LINE
  5
229
100
AcDbEntity
  8
0
100
AcDbLine
 62
7
  6
BYLAYER
 10
54.1581535088
 20
24.623598115
 11
57.9081535088
 21
25.588719943
  0
LINE
  5
22A
100
AcDbEntity
  8
0
100
AcDbLine
 62
7
  6
BYLAYER
 10
7.5329535088
 20
25.588719943
 11
11.2829535088
 21
24.623598115
  0
LINE
  5
22B
100
AcDbEntity
  8
0
100
AcDbLine
 62
7
  6
BYLAYER
 10
9.0823535088
 20
41.4681958425
 11
9.0823535088
 21
48.1991958425
  0
LINE
  5
22C
100
AcDbEntity
  8
0
100
AcDbLine
 62
7
  6
BYLAYER
 10
11.2829535088
 20
23.1514958425
 11
54.1581535088
 21
23.1514958425
  0
LINE
  5
22D
100
AcDbEntity
  8
0
100
AcDbLine
 62
7
  6
BYLAYER
 10
11.2829535088
 20
23.1514958425
 11
11.2829535088
 21
66.0266958425
  0
LINE
  5
22E
100
AcDbEntity
  8
0
100
AcDbLine
 62
7
  6
BYLAYER
 10
26.2097554966
 20
65.8390401775
 11
31.1330535088
 21
67.3474958425
  0
LINE
  5
22F
100
AcDbEntity
  8
00_COMPONENTS
100
AcDbLine
 62
7
  6
BYLAYER
 10
13.6705535088
 20
50.1453458425
 11
13.6705535088
 21
39.0328458425
  0
LINE
  5
230
100
AcDbEntity
  8
00_COMPONENTS
100
AcDbLine
 62
7
  6
BYLAYER
 10
14.3055535088
 20
47.6581895197
 11
14.3055535088
 21
41.5200021652
  0
LINE
  5
231
100
AcDbEntity
  8
00_COMPONENTS
100
AcDbLine
 62
7
  6
BYLAYER
 10
39.9537578418
 20
27.1265958425
 11
25.4873491759
 21
27.1265958425
  0
LINE
  5
232
100
AcDbEntity
  8
00_COMPONENTS
100
AcDbLine
 62
7
  6
BYLAYER
 10
25.4873491759
 20
27.1265958425
 11
15.2580535088
 21
37.3558915095
  0
LINE
  5
233
100
AcDbEntity
  8
00_COMPONENTS
100
AcDbLine
 62
7
  6
BYLAYER
 10
15.2580535088
 20
37.3558915095
 11
15.2580535088
 21
51.8223001754
  0
LINE
  5
234
100
AcDbEntity
  8
00_COMPONENTS
100
AcDbLine
 62
7
  6
BYLAYER
 10
15.2580535088
 20
51.8223001754
 11
25.4873491759
 21
62.0515958425
  0
LINE
  5
235
100
AcDbEntity
  8
00_COMPONENTS_2
100
AcDbLine
 62
7
  6
BYLAYER
 10
30.1315244094
 20
30.2888958425
 11
35.3096975772
 21
30.2888958425
  0
LINE
  5
236
100
AcDbEntity
  8
00_COMPONENTS_2
100
AcDbLine
 62
7
  6
BYLAYER
 10
29.8746797303
 20
30.5382029237
 11
30.2847074447
 21
30.5382029237
  0
LINE
  5
237
100
AcDbEntity
  8
00_COMPONENTS_2
100
AcDbLine
 62
7
  6
BYLAYER
 10
35.1564219203
 20
30.5382043531
 11
35.5665430326
 21
30.5382043531
  0
LINE
  5
238
100
AcDbEntity
  8
00_COMPONENTS_2
100
AcDbLine
 62
7
  6
BYLAYER
 10
30.5736273908
 20
31.4979924318
 11
34.8674846047
 21
31.497992432
  0
LINE
  5
239
100
AcDbEntity
  8
0
100
AcDbLine
 62
7
  6
BYLAYER
 10
11.2829535088
 20
32.0637716383
 11
7.5329535088
 21
32.0637716383
  0
LINE
  5
23A
100
AcDbEntity
  8
0
100
AcDbLine
 62
7
  6
BYLAYER
 10
54.1581535088
 20
32.0637716383
 11
57.9081535088
 21
32.0637716383
  0
LINE
  5
23B
100
AcDbEntity
  8
00_COMPONENTS_3
100
AcDbLine
 62
7
  6
BYLAYER
 10
24.0152789601
 20
34.1055815594
 11
24.0533161728
 21
33.6708142292
  0
LINE
  5
23C
100
AcDbEntity
  8
00_COMPONENTS_3
100
AcDbLine
 62
7
  6
BYLAYER
 10
22.3270884775
 20
53.401687073
 11
22.2890512777
 21
53.836454256
  0
LINE
  5
23D
100
AcDbEntity
  8
00_COMPONENTS_3
100
AcDbLine
 62
7
  6
BYLAYER
 10
23.134706684
 20
34.9041891615
 11
23.134706684
 21
34.4677610946
  0
LINE
  5
23E
100
AcDbEntity
  8
00_COMPONENTS_3
100
AcDbLine
 62
7
  6
BYLAYER
 10
23.134706684
 20
54.2740026673
 11
23.134706684
 21
54.7104305903
  0
LINE
  5
23F
100
AcDbEntity
  8
00_COMPONENTS_3
100
AcDbLine
 62
7
  6
BYLAYER
 10
22.3270884895
 20
35.77650475
 11
22.2890512777
 21
35.3417374289
  0
LINE
  5
240
100
AcDbEntity
  8
00_COMPONENTS_3
100
AcDbLine
 62
7
  6
BYLAYER
 10
24.015278973
 20
55.0726102728
 11
24.0533161728
 21
55.5073774557
  0
LINE
  5
241
100
AcDbEntity
  8
00_COMPONENTS_3
100
AcDbLine
 62
7
  6
BYLAYER
 10
21.5985708385
 20
36.7158894767
 11
21.522785902
 21
36.2860917445
  0
LINE
  5
242
100
AcDbEntity
  8
00_COMPONENTS_3
100
AcDbLine
 62
7
  6
BYLAYER
 10
24.9621036576
 20
55.7914320033
 11
25.0378885711
 21
56.2212296055
  0
LINE
  5
243
100
AcDbEntity
  8
00_COMPONENTS_3
100
AcDbLine
 62
7
  6
BYLAYER
 10
20.9546981897
 20
37.7151940569
 11
20.8417422993
 21
37.2936369347
  0
LINE
  5
244
100
AcDbEntity
  8
00_COMPONENTS_3
100
AcDbLine
 62
7
  6
BYLAYER
 10
25.9679748302
 20
56.4249971915
 11
26.0809306885
 21
56.8465541936
  0
LINE
  5
245
100
AcDbEntity
  8
00_COMPONENTS_3
100
AcDbLine
 62
7
  6
BYLAYER
 10
20.4003708027
 20
38.7668131795
 11
20.2511036224
 21
38.3567049723
  0
LINE
  5
246
100
AcDbEntity
  8
00_COMPONENTS_3
100
AcDbLine
 62
7
  6
BYLAYER
 10
27.0252372039
 20
56.9684840237
 11
27.1745043447
 21
57.3785921224
  0
LINE
  5
247
100
AcDbEntity
  8
00_COMPONENTS_3
100
AcDbLine
 62
7
  6
BYLAYER
 10
19.9398074432
 20
39.8627433883
 11
19.7553649885
 21
39.4672052677
  0
LINE
  5
248
100
AcDbEntity
  8
00_COMPONENTS_3
100
AcDbLine
 62
7
  6
BYLAYER
 10
28.1258443736
 20
57.4177562369
 11
28.3102867838
 21
57.813294262
  0
LINE
  5
249
100
AcDbEntity
  8
00_COMPONENTS_3
100
AcDbLine
 62
7
  6
BYLAYER
 10
19.5765132765
 20
40.9946439929
 11
19.3582992678
 21
40.616686243
  0
LINE
  5
24A
100
AcDbEntity
  8
00_COMPONENTS_3
100
AcDbLine
 62
7
  6
BYLAYER
 10
29.2614200542
 20
57.7693945985
 11
29.4796340157
 21
58.1473522667
  0
LINE
  5
24B
100
AcDbEntity
  8
00_COMPONENTS_3
100
AcDbLine
 62
7
  6
BYLAYER
 10
19.3132531902
 20
42.1539005467
 11
19.0629283702
 21
41.796399654
  0
LINE
  5
24C
100
AcDbEntity
  8
00_COMPONENTS_3
100
AcDbLine
 62
7
  6
BYLAYER
 10
30.423321829
 20
58.020722928
 11
30.6736466018
 21
58.3782237533
  0
LINE
  5
24D
100
AcDbEntity
  8
00_COMPONENTS_3
100
AcDbLine
 62
7
  6
BYLAYER
 10
19.1520307527
 20
43.3316904077
 11
18.8715002467
 21
42.9973671693
  0
LINE
  5
24E
100
AcDbEntity
  8
00_COMPONENTS_3
100
AcDbLine
 62
7
  6
BYLAYER
 10
31.602706924
 20
58.1698284651
 11
31.8832373855
 21
58.5041516503
  0
LINE
  5
24F
100
AcDbEntity
  8
00_COMPONENTS_3
100
AcDbLine
 62
7
  6
BYLAYER
 10
19.0940729641
 20
44.5190498842
 11
18.7854717807
 21
44.2104487009
  0
LINE
  5
250
100
AcDbEntity
  8
00_COMPONENTS_3
100
AcDbLine
 62
7
  6
BYLAYER
 10
32.7905995066
 20
58.2155764267
 11
33.0992006504
 21
58.5241775706
  0
LINE
  5
251
100
AcDbEntity
  8
00_COMPONENTS_3
100
AcDbLine
 62
7
  6
BYLAYER
 10
18.8054977009
 20
45.4264119658
 11
19.1398208862
 21
45.7069424272
  0
LINE
  5
252
100
AcDbEntity
  8
00_COMPONENTS_3
100
AcDbLine
 62
7
  6
BYLAYER
 10
33.9779589968
 20
58.1576186432
 11
34.312282182
 21
58.4381491046
  0
LINE
  5
253
100
AcDbEntity
  8
00_COMPONENTS_3
100
AcDbLine
 62
7
  6
BYLAYER
 10
18.931425598
 20
46.6360027495
 11
19.2889264233
 21
46.8863275223
  0
LINE
  5
254
100
AcDbEntity
  8
00_COMPONENTS_3
100
AcDbLine
 62
7
  6
BYLAYER
 10
35.1557488719
 20
57.9963962082
 11
35.5132496973
 21
58.246720981
  0
LINE
  5
255
100
AcDbEntity
  8
00_COMPONENTS_3
100
AcDbLine
 62
7
  6
BYLAYER
 10
19.1622970846
 20
47.8300153356
 11
19.5402547528
 21
48.0482292971
  0
LINE
  5
256
100
AcDbEntity
  8
00_COMPONENTS_3
100
AcDbLine
 62
7
  6
BYLAYER
 10
36.31500544
 20
57.733136122
 11
36.6929631083
 21
57.9513500835
  0
LINE
  5
257
100
AcDbEntity
  8
00_COMPONENTS_3
100
AcDbLine
 62
7
  6
BYLAYER
 10
19.4963550892
 20
48.9993625675
 11
19.8918931143
 21
49.1838049777
  0
LINE
  5
258
100
AcDbEntity
  8
00_COMPONENTS_3
100
AcDbLine
 62
7
  6
BYLAYER
 10
37.4469060585
 20
57.3698419526
 11
37.8424440836
 21
57.5542843628
  0
LINE
  5
259
100
AcDbEntity
  8
00_COMPONENTS_3
100
AcDbLine
 62
7
  6
BYLAYER
 10
19.9310572289
 20
50.1351450066
 11
20.3411653276
 21
50.2844121474
  0
LINE
  5
25A
100
AcDbEntity
  8
00_COMPONENTS_3
100
AcDbLine
 62
7
  6
BYLAYER
 10
38.5428362802
 20
56.9092785881
 11
38.952944379
 21
57.0585457288
  0
LINE
  5
25B
100
AcDbEntity
  8
00_COMPONENTS_3
100
AcDbLine
 62
7
  6
BYLAYER
 10
25.4250946011
 20
32.7102846329
 11
25.8466515692
 21
32.8232404821
  0
LINE
  5
25C
100
AcDbEntity
  8
00_COMPONENTS_3
100
AcDbLine
 62
7
  6
BYLAYER
 10
44.5564548795
 20
37.8365171696
 11
44.97801186
 21
37.9494730221
  0
LINE
  5
25D
100
AcDbEntity
  8
00_COMPONENTS_3
100
AcDbLine
 62
7
  6
BYLAYER
 10
24.4175494109
 20
33.3913282356
 11
24.8473469629
 21
33.4671131403
  0
LINE
  5
25E
100
AcDbEntity
  8
00_COMPONENTS_3
100
AcDbLine
 62
7
  6
BYLAYER
 10
43.9228896763
 20
36.8306459923
 11
44.3526872719
 21
36.9064309047
  0
LINE
  5
25F
100
AcDbEntity
  8
00_COMPONENTS_3
100
AcDbLine
 62
7
  6
BYLAYER
 10
23.4731950953
 20
34.1575936113
 11
23.907962212
 21
34.1956308053
  0
LINE
  5
260
100
AcDbEntity
  8
00_COMPONENTS_3
100
AcDbLine
 62
7
  6
BYLAYER
 10
43.2040679303
 20
35.8838213058
 11
43.6388351221
 21
35.9218585064
  0
LINE
  5
261
100
AcDbEntity
  8
00_COMPONENTS_2
100
AcDbLine
 62
7
  6
BYLAYER
 10
29.7616405636
 20
34.4780801387
 11
30.2724911237
 21
34.4780801387
  0
LINE
  5
262
100
AcDbEntity
  8
00_COMPONENTS_2
100
AcDbLine
 62
7
  6
BYLAYER
 10
34.9154114141
 20
34.4967204909
 11
30.5256820155
 21
34.4967204909
  0
LINE
  5
263
100
AcDbEntity
  8
00_COMPONENTS_2
100
AcDbLine
 62
7
  6
BYLAYER
 10
35.1689002308
 20
34.4967204909
 11
35.6801038595
 21
34.4967204909
  0
LINE
  5
264
100
AcDbEntity
  8
00_COMPONENTS_2
100
AcDbLine
 62
7
  6
BYLAYER
 10
29.9897626448
 20
34.7553686497
 11
35.4697864417
 21
34.7553686497
  0
LINE
  5
265
100
AcDbEntity
  8
00_COMPONENTS_3
100
AcDbLine
 62
7
  6
BYLAYER
 10
22.599218761
 20
35.0032490176
 11
23.0356466022
 21
35.0032490176
  0
LINE
  5
266
100
AcDbEntity
  8
00_COMPONENTS_3
100
AcDbLine
 62
7
  6
BYLAYER
 10
42.4054603096
 20
35.0032490176
 11
42.8418882567
 21
35.0032490176
  0
LINE
  5
267
100
AcDbEntity
  8
00_COMPONENTS_2
100
AcDbLine
 62
7
  6
BYLAYER
 10
35.7287896767
 20
35.0046338297
 11
35.1770178944
 21
35.0046338297
  0
LINE
  5
268
100
AcDbEntity
  8
00_COMPONENTS_2
100
AcDbLine
 62
7
  6
BYLAYER
 10
34.9235290778
 20
35.0046338297
 11
30.5175612037
 21
35.0046338297
  0
LINE
  5
269
100
AcDbEntity
  8
00_COMPONENTS_2
100
AcDbLine
 62
7
  6
BYLAYER
 10
30.2637851063
 20
35.0225949556
 11
29.7120936407
 21
35.0225949556
  0
LINE
  5
26A
100
AcDbEntity
  8
00_COMPONENTS_3
100
AcDbLine
 62
7
  6
BYLAYER
 10
21.8022718955
 20
35.9218585064
 11
22.2370389823
 21
35.883821315
  0
LINE
  5
26B
100
AcDbEntity
  8
00_COMPONENTS_3
100
AcDbLine
 62
7
  6
BYLAYER
 10
41.5331447006
 20
34.1956308145
 11
41.9679119224
 21
34.1575936113
  0
LINE
  5
26C
100
AcDbEntity
  8
00_COMPONENTS_3
100
AcDbLine
 62
7
  6
BYLAYER
 10
21.0884197458
 20
36.9064309047
 11
21.5182172387
 21
36.8306460104
  0
LINE
  5
26D
100
AcDbEntity
  8
00_COMPONENTS_3
100
AcDbLine
 62
7
  6
BYLAYER
 10
40.5937599521
 20
33.4671131584
 11
41.0235576068
 21
33.3913282356
  0
LINE
  5
26E
100
AcDbEntity
  8
00_COMPONENTS_3
100
AcDbLine
 62
7
  6
BYLAYER
 10
20.4630951577
 20
37.9494730221
 11
20.8846520394
 21
37.8365171961
  0
LINE
  5
26F
100
AcDbEntity
  8
00_COMPONENTS_3
100
AcDbLine
 62
7
  6
BYLAYER
 10
39.5944553497
 20
32.8232405085
 11
40.0160124166
 21
32.7102846329
  0
LINE
  5
270
100
AcDbEntity
  8
00_COMPONENTS_3
100
AcDbLine
 62
7
  6
BYLAYER
 10
19.9310572289
 20
39.0430466783
 11
20.3411651983
 21
38.8937795846
  0
LINE
  5
271
100
AcDbEntity
  8
00_COMPONENTS_3
100
AcDbLine
 62
7
  6
BYLAYER
 10
38.5428362051
 20
32.2689131242
 11
38.952944379
 21
32.1196459561
  0
LINE
  5
272
100
AcDbEntity
  8
00_COMPONENTS_3
100
AcDbLine
 62
7
  6
BYLAYER
 10
19.4963550892
 20
40.1788291174
 11
19.8918929786
 21
39.9943867705
  0
LINE
  5
273
100
AcDbEntity
  8
00_COMPONENTS_3
100
AcDbLine
 62
7
  6
BYLAYER
 10
37.446905975
 20
31.8083497713
 11
37.8424440836
 21
31.6239073221
  0
LINE
  5
274
100
AcDbEntity
  8
00_COMPONENTS_3
100
AcDbLine
 62
7
  6
BYLAYER
 10
19.1622970846
 20
41.3481763493
 11
19.5402546134
 21
41.1299624683
  0
LINE
  5
275
100
AcDbEntity
  8
00_COMPONENTS_3
100
AcDbLine
 62
7
  6
BYLAYER
 10
36.3150053505
 20
31.4450556146
 11
36.6929631083
 21
31.2268416014
  0
LINE
  5
276
100
AcDbEntity
  8
00_COMPONENTS_3
100
AcDbLine
 62
7
  6
BYLAYER
 10
18.931425598
 20
42.5421889354
 11
19.288926283
 21
42.2918642609
  0
LINE
  5
277
100
AcDbEntity
  8
00_COMPONENTS_3
100
AcDbLine
 62
7
  6
BYLAYER
 10
18.8054977009
 20
43.7517797191
 11
19.139820748
 21
43.4712493736
  0
LINE
  5
278
100
AcDbEntity
  8
00_COMPONENTS_2
100
AcDbLine
 62
7
  6
BYLAYER
 10
29.7120936407
 20
35.0225949556
 11
29.9897626448
 21
34.7553686497
  0
LINE
  5
279
100
AcDbEntity
  8
00_COMPONENTS_3
100
AcDbLine
 62
7
  6
BYLAYER
 10
18.7854717807
 20
44.9677429841
 11
19.0940727914
 21
44.6591419734
  0
LINE
  5
27A
100
AcDbEntity
  8
00_COMPONENTS_2
100
AcDbLine
 62
7
  6
BYLAYER
 10
30.3536647593
 20
34.9449817759
 11
30.5400734867
 21
34.7553686497
  0
LINE
  5
27B
100
AcDbEntity
  8
00_COMPONENTS_3
100
AcDbLine
 62
7
  6
BYLAYER
 10
19.1520307081
 20
45.8465013304
 11
18.8715002467
 21
46.1808245156
  0
LINE
  5
27C
100
AcDbEntity
  8
00_COMPONENTS_3
100
AcDbLine
 62
7
  6
BYLAYER
 10
19.313253143
 20
47.0242912056
 11
19.0629283702
 21
47.3817920309
  0
LINE
  5
27D
100
AcDbEntity
  8
00_COMPONENTS_3
100
AcDbLine
 62
7
  6
BYLAYER
 10
29.2614199806
 20
31.4087972139
 11
29.4796340157
 21
31.0308394182
  0
LINE
  5
27E
100
AcDbEntity
  8
00_COMPONENTS_3
100
AcDbLine
 62
7
  6
BYLAYER
 10
19.5765132293
 20
48.1835477736
 11
19.3582992678
 21
48.5615054419
  0
LINE
  5
27F
100
AcDbEntity
  8
00_COMPONENTS_3
100
AcDbLine
 62
7
  6
BYLAYER
 10
28.1258443102
 20
31.760435584
 11
28.3102867838
 21
31.3648974229
  0
LINE
  5
280
100
AcDbEntity
  8
00_COMPONENTS_3
100
AcDbLine
 62
7
  6
BYLAYER
 10
19.9398073987
 20
49.3154483921
 11
19.7553649885
 21
49.7109864172
  0
LINE
  5
281
100
AcDbEntity
  8
00_COMPONENTS_3
100
AcDbLine
 62
7
  6
BYLAYER
 10
27.025237152
 20
32.2097078036
 11
27.1745043447
 21
31.7995995625
  0
LINE
  5
282
100
AcDbEntity
  8
00_COMPONENTS_3
100
AcDbLine
 62
7
  6
BYLAYER
 10
20.4003707632
 20
50.4113786138
 11
20.2511036224
 21
50.8214867126
  0
LINE
  5
283
100
AcDbEntity
  8
00_COMPONENTS_3
100
AcDbLine
 62
7
  6
BYLAYER
 10
25.9679747909
 20
32.75319464
 11
26.0809306885
 21
32.3316374913
  0
LINE
  5
284
100
AcDbEntity
  8
00_COMPONENTS_3
100
AcDbLine
 62
7
  6
BYLAYER
 10
20.9546981576
 20
51.4629977481
 11
20.8417422993
 21
51.8845547502
  0
LINE
  5
285
100
AcDbEntity
  8
00_COMPONENTS_3
100
AcDbLine
 62
7
  6
BYLAYER
 10
24.9621036314
 20
33.3867598298
 11
25.0378885711
 21
32.9569620794
  0
LINE
  5
286
100
AcDbEntity
  8
00_COMPONENTS_3
100
AcDbLine
 62
7
  6
BYLAYER
 10
21.5985708155
 20
52.4623023382
 11
21.522785902
 21
52.8920999404
  0
LINE
  5
287
100
AcDbEntity
  8
00_COMPONENTS_2
100
AcDbLine
 62
7
  6
BYLAYER
 10
29.654806326
 20
38.1184419047
 11
30.2142869172
 21
38.1184419047
  0
LINE
  5
288
100
AcDbEntity
  8
00_COMPONENTS_2
100
AcDbLine
 62
7
  6
BYLAYER
 10
34.9732951621
 20
38.1184433076
 11
30.4677758193
 21
38.1184433076
  0
LINE
  5
289
100
AcDbEntity
  8
00_COMPONENTS_2
100
AcDbLine
 62
7
  6
BYLAYER
 10
35.2267839788
 20
38.1184433076
 11
35.7863918605
 21
38.1184433076
  0
LINE
  5
28A
100
AcDbEntity
  8
00_COMPONENTS_2
100
AcDbLine
 62
7
  6
BYLAYER
 10
29.9044120879
 20
38.3770914664
 11
35.5367844854
 21
38.3770914664
  0
LINE
  5
28B
100
AcDbEntity
  8
00_COMPONENTS_2
100
AcDbLine
 62
7
  6
BYLAYER
 10
30.2061661062
 20
38.6263551906
 11
29.6454076093
 21
38.6263551906
  0
LINE
  5
28C
100
AcDbEntity
  8
00_COMPONENTS_2
100
AcDbLine
 62
7
  6
BYLAYER
 10
35.7957877203
 20
38.6263566464
 11
35.2349016424
 21
38.6263566464
  0
LINE
  5
28D
100
AcDbEntity
  8
00_COMPONENTS_2
100
AcDbLine
 62
7
  6
BYLAYER
 10
34.9814128258
 20
38.6263566464
 11
30.4596550075
 21
38.6263566464
  0
LINE
  5
28E
100
AcDbEntity
  8
00_COMPONENTS_2
100
AcDbLine
 62
7
  6
BYLAYER
 10
29.6454076093
 20
38.6263551906
 11
29.9044120879
 21
38.3770914664
  0
LINE
  5
28F
100
AcDbEntity
  8
00_COMPONENTS_2
100
AcDbLine
 62
7
  6
BYLAYER
 10
30.2860120077
 20
38.5579714249
 11
30.4638351549
 21
38.3770914664
  0
LINE
  5
290
100
AcDbEntity
  8
00_COMPONENTS_2
100
AcDbLine
 62
7
  6
BYLAYER
 10
29.5796165927
 20
42.1817481924
 11
29.8386210713
 21
41.9324844681
  0
LINE
  5
291
100
AcDbEntity
  8
00_COMPONENTS_2
100
AcDbLine
 62
7
  6
BYLAYER
 10
35.5298528369
 20
34.6931266486
 11
35.4697864417
 21
34.7553686497
  0
LINE
  5
292
100
AcDbEntity
  8
00_COMPONENTS_2
100
AcDbLine
 62
7
  6
BYLAYER
 10
35.6801038595
 20
34.4967204909
 11
35.5004808775
 21
34.6848355054
  0
LINE
  5
293
100
AcDbEntity
  8
00_COMPONENTS_2
100
AcDbLine
 62
7
  6
BYLAYER
 10
35.0912802396
 20
34.5676783272
 11
34.9193505508
 21
34.7553686497
  0
LINE
  5
294
100
AcDbEntity
  8
00_COMPONENTS_2
100
AcDbLine
 62
7
  6
BYLAYER
 10
29.3604256386
 20
54.0269821567
 11
30.0288245037
 21
47.9101695024
  0
LINE
  5
295
100
AcDbEntity
  8
00_COMPONENTS_2
100
AcDbLine
 62
7
  6
BYLAYER
 10
30.2824446259
 20
48.134727217
 11
29.6068605137
 21
54.3172958425
  0
LINE
  5
296
100
AcDbEntity
  8
00_COMPONENTS_2
100
AcDbLine
 62
7
  6
BYLAYER
 10
29.7616405636
 20
34.4780801387
 11
29.8746797303
 21
30.5382029237
  0
LINE
  5
297
100
AcDbEntity
  8
00_COMPONENTS_2
100
AcDbLine
 62
7
  6
BYLAYER
 10
29.3604256386
 20
54.0269821567
 11
29.5138255761
 21
45.7371411941
  0
LINE
  5
298
100
AcDbEntity
  8
00_COMPONENTS_2
100
AcDbLine
 62
7
  6
BYLAYER
 10
29.5232242928
 20
45.2292279081
 11
29.5796165927
 21
42.1817481924
  0
LINE
  5
299
100
AcDbEntity
  8
00_COMPONENTS_2
100
AcDbLine
 62
7
  6
BYLAYER
 10
29.5890153094
 20
41.6738349064
 11
29.6454076093
 21
38.6263551906
  0
LINE
  5
29A
100
AcDbEntity
  8
00_COMPONENTS_2
100
AcDbLine
 62
7
  6
BYLAYER
 10
29.654806326
 20
38.1184419047
 11
29.7120936407
 21
35.0225949556
  0
LINE
  5
29B
100
AcDbEntity
  8
00_COMPONENTS_2
100
AcDbLine
 62
7
  6
BYLAYER
 10
30.0725765021
 20
46.9816703228
 11
30.0924747526
 21
45.7371411941
  0
LINE
  5
29C
100
AcDbEntity
  8
00_COMPONENTS_2
100
AcDbLine
 62
7
  6
BYLAYER
 10
30.1005955636
 20
45.2292279081
 11
30.1493204294
 21
42.1817481924
  0
LINE
  5
29D
100
AcDbEntity
  8
00_COMPONENTS_2
100
AcDbLine
 62
7
  6
BYLAYER
 10
30.1574412404
 20
41.6738349064
 11
30.2061661062
 21
38.6263551906
  0
LINE
  5
29E
100
AcDbEntity
  8
00_COMPONENTS_2
100
AcDbLine
 62
7
  6
BYLAYER
 10
30.2142869172
 20
38.1184419047
 11
30.2637851063
 21
35.0225949556
  0
LINE
  5
29F
100
AcDbEntity
  8
00_COMPONENTS_2
100
AcDbLine
 62
7
  6
BYLAYER
 10
30.2724911237
 20
34.4780801387
 11
30.3200259219
 21
31.5050327884
  0
LINE
  5
2A0
100
AcDbEntity
  8
00_COMPONENTS_2
100
AcDbLine
 62
7
  6
BYLAYER
 10
30.5736273908
 20
31.4979924318
 11
30.5256820155
 21
34.4967204909
  0
LINE
  5
2A1
100
AcDbEntity
  8
00_COMPONENTS_2
100
AcDbLine
 62
7
  6
BYLAYER
 10
30.5175612037
 20
35.0046338297
 11
30.4677758193
 21
38.1184433076
  0
LINE
  5
2A2
100
AcDbEntity
  8
00_COMPONENTS_2
100
AcDbLine
 62
7
  6
BYLAYER
 10
30.4596550075
 20
38.6263566464
 11
30.4109301425
 21
41.6738363094
  0
LINE
  5
2A3
100
AcDbEntity
  8
00_COMPONENTS_2
100
AcDbLine
 62
7
  6
BYLAYER
 10
30.4028093307
 20
42.1817496481
 11
30.3540844657
 21
45.2292293111
  0
LINE
  5
2A4
100
AcDbEntity
  8
00_COMPONENTS_2
100
AcDbLine
 62
7
  6
BYLAYER
 10
30.3459636538
 20
45.7371426499
 11
30.3261885191
 21
46.9739715436
  0
LINE
  5
2A5
100
AcDbEntity
  8
00_COMPONENTS_2
100
AcDbLine
 62
7
  6
BYLAYER
 10
29.7728300547
 20
45.4878774698
 11
29.5232242928
 21
45.2292279081
  0
LINE
  5
2A6
100
AcDbEntity
  8
0
100
AcDbLine
 62
7
  6
BYLAYER
 10
56.3587535088
 20
41.4681958425
 11
54.1581535088
 21
41.4681958425
  0
LINE
  5
2A7
100
AcDbEntity
  8
0
100
AcDbLine
 62
7
  6
BYLAYER
 10
11.2829535088
 20
41.4681958425
 11
9.0823535088
 21
41.4681958425
  0
LINE
  5
2A8
100
AcDbEntity
  8
00_COMPONENTS_2
100
AcDbLine
 62
7
  6
BYLAYER
 10
29.5890153094
 20
41.6738349064
 11
30.1574412404
 21
41.6738349064
  0
LINE
  5
2A9
100
AcDbEntity
  8
00_COMPONENTS_2
100
AcDbLine
 62
7
  6
BYLAYER
 10
35.0301188019
 20
41.6738363094
 11
30.4109301425
 21
41.6738363094
  0
LINE
  5
2AA
100
AcDbEntity
  8
00_COMPONENTS_2
100
AcDbLine
 62
7
  6
BYLAYER
 10
35.2836076185
 20
41.6738363094
 11
35.8521628726
 21
41.6738363094
  0
LINE
  5
2AB
100
AcDbEntity
  8
00_COMPONENTS_2
100
AcDbLine
 62
7
  6
BYLAYER
 10
29.8386210713
 20
41.9324844681
 11
35.6025554976
 21
41.9324844681
  0
LINE
  5
2AC
100
AcDbEntity
  8
00_COMPONENTS_2
100
AcDbLine
 62
7
  6
BYLAYER
 10
30.1493204294
 20
42.1817481924
 11
29.5796165927
 21
42.1817481924
  0
LINE
  5
2AD
100
AcDbEntity
  8
00_COMPONENTS_2
100
AcDbLine
 62
7
  6
BYLAYER
 10
35.8615587325
 20
42.1817496481
 11
35.2917252822
 21
42.1817496481
  0
LINE
  5
2AE
100
AcDbEntity
  8
00_COMPONENTS_2
100
AcDbLine
 62
7
  6
BYLAYER
 10
35.0382364655
 20
42.1817496481
 11
30.4028093307
 21
42.1817496481
  0
LINE
  5
2AF
100
AcDbEntity
  8
00_COMPONENTS_2
100
AcDbLine
 62
7
  6
BYLAYER
 10
30.2291663309
 20
42.1133644266
 11
30.4069894781
 21
41.9324844681
  0
LINE
  5
2B0
100
AcDbEntity
  8
00_COMPONENTS_2
100
AcDbLine
 62
7
  6
BYLAYER
 10
35.7863918605
 20
38.1184433076
 11
35.5367844854
 21
38.3770914664
  0
LINE
  5
2B1
100
AcDbEntity
  8
00_COMPONENTS_2
100
AcDbLine
 62
7
  6
BYLAYER
 10
35.1491639876
 20
38.1894011439
 11
34.9772342988
 21
38.3770914664
  0
LINE
  5
2B2
100
AcDbEntity
  8
00_COMPONENTS_2
100
AcDbLine
 62
7
  6
BYLAYER
 10
30.3501438013
 20
45.4878774698
 11
30.1782146544
 21
45.3001876701
  0
LINE
  5
2B3
100
AcDbEntity
  8
00_COMPONENTS_2
100
AcDbLine
 62
7
  6
BYLAYER
 10
29.8386210713
 20
41.9324844681
 11
29.5890153094
 21
41.6738349064
  0
LINE
  5
2B4
100
AcDbEntity
  8
00_COMPONENTS_2
100
AcDbLine
 62
7
  6
BYLAYER
 10
29.5232242928
 20
45.2292279081
 11
30.1005955636
 21
45.2292279081
  0
LINE
  5
2B5
100
AcDbEntity
  8
00_COMPONENTS_2
100
AcDbLine
 62
7
  6
BYLAYER
 10
35.0869424416
 20
45.2292293111
 11
30.3540844657
 21
45.2292293111
  0
LINE
  5
2B6
100
AcDbEntity
  8
00_COMPONENTS_2
100
AcDbLine
 62
7
  6
BYLAYER
 10
35.3404312582
 20
45.2292293111
 11
35.9179338848
 21
45.2292293111
  0
LINE
  5
2B7
100
AcDbEntity
  8
00_COMPONENTS_2
100
AcDbLine
 62
7
  6
BYLAYER
 10
29.7728300547
 20
45.4878774698
 11
35.6683265098
 21
45.4878774698
  0
LINE
  5
2B8
100
AcDbEntity
  8
00_COMPONENTS_2
100
AcDbLine
 62
7
  6
BYLAYER
 10
29.5138255761
 20
45.7371411941
 11
29.7728300547
 21
45.4878774698
  0
LINE
  5
2B9
100
AcDbEntity
  8
00_COMPONENTS_2
100
AcDbLine
 62
7
  6
BYLAYER
 10
30.172320654
 20
45.6687574283
 11
30.3501438013
 21
45.4878774698
  0
LINE
  5
2BA
100
AcDbEntity
  8
00_COMPONENTS_2
100
AcDbLine
 62
7
  6
BYLAYER
 10
35.8521628726
 20
41.6738363094
 11
35.6025554976
 21
41.9324844681
  0
LINE
  5
2BB
100
AcDbEntity
  8
00_COMPONENTS_2
100
AcDbLine
 62
7
  6
BYLAYER
 10
35.2059876273
 20
41.7447941456
 11
35.0340579386
 21
41.9324844681
  0
LINE
  5
2BC
100
AcDbEntity
  8
00_COMPONENTS_2
100
AcDbLine
 62
7
  6
BYLAYER
 10
35.1148275559
 20
46.9739715438
 11
35.0950601053
 21
45.7371426499
  0
LINE
  5
2BD
100
AcDbEntity
  8
00_COMPONENTS_2
100
AcDbLine
 62
7
  6
BYLAYER
 10
35.0869424416
 20
45.2292293111
 11
35.0382364655
 21
42.1817496481
  0
LINE
  5
2BE
100
AcDbEntity
  8
00_COMPONENTS_2
100
AcDbLine
 62
7
  6
BYLAYER
 10
35.0301188019
 20
41.6738363094
 11
34.9814128258
 21
38.6263566464
  0
LINE
  5
2BF
100
AcDbEntity
  8
00_COMPONENTS_2
100
AcDbLine
 62
7
  6
BYLAYER
 10
34.9732951621
 20
38.1184433076
 11
34.9235290778
 21
35.0046338297
  0
LINE
  5
2C0
100
AcDbEntity
  8
00_COMPONENTS_2
100
AcDbLine
 62
7
  6
BYLAYER
 10
34.9154114141
 20
34.4967204909
 11
34.8674846047
 21
31.497992432
  0
LINE
  5
2C1
100
AcDbEntity
  8
00_COMPONENTS_2
100
AcDbLine
 62
7
  6
BYLAYER
 10
35.8342491221
 20
54.3172958425
 11
35.1585722115
 21
48.1347272179
  0
LINE
  5
2C2
100
AcDbEntity
  8
00_COMPONENTS_2
100
AcDbLine
 62
7
  6
BYLAYER
 10
35.4121860356
 20
47.9101138857
 11
36.0806830712
 21
54.0269853256
  0
LINE
  5
2C3
100
AcDbEntity
  8
00_COMPONENTS_2
100
AcDbLine
 62
7
  6
BYLAYER
 10
30.4069894781
 20
41.9324844681
 11
30.2350603312
 21
41.7447946684
  0
LINE
  5
2C4
100
AcDbEntity
  8
00_COMPONENTS_2
100
AcDbLine
 62
7
  6
BYLAYER
 10
35.2687019214
 20
45.6687589509
 11
35.0908815783
 21
45.4878774698
  0
LINE
  5
2C5
100
AcDbEntity
  8
00_COMPONENTS_2
100
AcDbLine
 62
7
  6
BYLAYER
 10
35.6683265098
 20
45.4878774698
 11
35.9273297447
 21
45.7371426499
  0
LINE
  5
2C6
100
AcDbEntity
  8
00_COMPONENTS_2
100
AcDbLine
 62
7
  6
BYLAYER
 10
30.0924747526
 20
45.7371411941
 11
29.5138255761
 21
45.7371411941
  0
LINE
  5
2C7
100
AcDbEntity
  8
00_COMPONENTS_2
100
AcDbLine
 62
7
  6
BYLAYER
 10
35.9273297447
 20
45.7371426499
 11
35.3485489219
 21
45.7371426499
  0
LINE
  5
2C8
100
AcDbEntity
  8
00_COMPONENTS_2
100
AcDbLine
 62
7
  6
BYLAYER
 10
35.0950601053
 20
45.7371426499
 11
30.3459636538
 21
45.7371426499
  0
LINE
  5
2C9
100
AcDbEntity
  8
00_COMPONENTS_2
100
AcDbLine
 62
7
  6
BYLAYER
 10
35.1148275559
 20
46.9739715438
 11
30.3261885191
 21
46.9739715436
  0
LINE
  5
2CA
100
AcDbEntity
  8
00_COMPONENTS_2
100
AcDbLine
 62
7
  6
BYLAYER
 10
35.9179338848
 20
45.2292293111
 11
35.6683265098
 21
45.4878774698
  0
LINE
  5
2CB
100
AcDbEntity
  8
00_COMPONENTS_2
100
AcDbLine
 62
7
  6
BYLAYER
 10
35.262811267
 20
45.3001871473
 11
35.0908815783
 21
45.4878774698
  0
LINE
  5
2CC
100
AcDbEntity
  8
00_COMPONENTS_2
100
AcDbLine
 62
7
  6
BYLAYER
 10
35.1210859631
 20
31.5050340478
 11
35.1689002308
 21
34.4967204909
  0
LINE
  5
2CD
100
AcDbEntity
  8
00_COMPONENTS_2
100
AcDbLine
 62
7
  6
BYLAYER
 10
35.1770178944
 20
35.0046338297
 11
35.2267839788
 21
38.1184433076
  0
LINE
  5
2CE
100
AcDbEntity
  8
00_COMPONENTS_2
100
AcDbLine
 62
7
  6
BYLAYER
 10
35.2349016424
 20
38.6263566464
 11
35.2836076185
 21
41.6738363094
  0
LINE
  5
2CF
100
AcDbEntity
  8
00_COMPONENTS_2
100
AcDbLine
 62
7
  6
BYLAYER
 10
35.2917252822
 20
42.1817496481
 11
35.3404312582
 21
45.2292293111
  0
LINE
  5
2D0
100
AcDbEntity
  8
00_COMPONENTS_2
100
AcDbLine
 62
7
  6
BYLAYER
 10
35.3485489219
 20
45.7371426499
 11
35.3684412601
 21
46.9817844984
  0
LINE
  5
2D1
100
AcDbEntity
  8
00_COMPONENTS_2
100
AcDbLine
 62
7
  6
BYLAYER
 10
35.7287896767
 20
35.0046338297
 11
35.7863918605
 21
38.1184433076
  0
LINE
  5
2D2
100
AcDbEntity
  8
00_COMPONENTS_2
100
AcDbLine
 62
7
  6
BYLAYER
 10
35.7957877203
 20
38.6263566464
 11
35.8521628726
 21
41.6738363094
  0
LINE
  5
2D3
100
AcDbEntity
  8
00_COMPONENTS_2
100
AcDbLine
 62
7
  6
BYLAYER
 10
35.8615587325
 20
42.1817496481
 11
35.9179338848
 21
45.2292293111
  0
LINE
  5
2D4
100
AcDbEntity
  8
00_COMPONENTS_2
100
AcDbLine
 62
7
  6
BYLAYER
 10
35.9273297447
 20
45.7371426499
 11
36.0806830712
 21
54.0269853256
  0
LINE
  5
2D5
100
AcDbEntity
  8
00_COMPONENTS_2
100
AcDbLine
 62
7
  6
BYLAYER
 10
35.6801038595
 20
34.4967204909
 11
35.5665430326
 21
30.5382043531
  0
LINE
  5
2D6
100
AcDbEntity
  8
00_COMPONENTS_2
100
AcDbLine
 62
7
  6
BYLAYER
 10
30.4638351549
 20
38.3770914664
 11
30.291906008
 21
38.1894016667
  0
LINE
  5
2D7
100
AcDbEntity
  8
00_COMPONENTS_2
100
AcDbLine
 62
7
  6
BYLAYER
 10
29.9044120879
 20
38.3770914664
 11
29.654806326
 21
38.1184419047
  0
LINE
  5
2D8
100
AcDbEntity
  8
00_COMPONENTS_2
100
AcDbLine
 62
7
  6
BYLAYER
 10
35.2118782817
 20
42.1133659492
 11
35.0340579386
 21
41.9324844681
  0
LINE
  5
2D9
100
AcDbEntity
  8
00_COMPONENTS_2
100
AcDbLine
 62
7
  6
BYLAYER
 10
35.6025554976
 20
41.9324844681
 11
35.8615587325
 21
42.1817496481
  0
LINE
  5
2DA
100
AcDbEntity
  8
00_COMPONENTS_2
100
AcDbLine
 62
7
  6
BYLAYER
 10
30.2824446259
 20
48.134727217
 11
35.1585722115
 21
48.1347272179
  0
LINE
  5
2DB
100
AcDbEntity
  8
0
100
AcDbLine
 62
7
  6
BYLAYER
 10
9.0823535088
 20
48.1991958425
 11
11.2829535088
 21
48.1991958425
  0
LINE
  5
2DC
100
AcDbEntity
  8
0
100
AcDbLine
 62
7
  6
BYLAYER
 10
54.1581535088
 20
48.1991958425
 11
56.3587535088
 21
48.1991958425
  0
LINE
  5
2DD
100
AcDbEntity
  8
00_COMPONENTS_2
100
AcDbLine
 62
7
  6
BYLAYER
 10
30.5400734867
 20
34.7553686497
 11
30.3598433874
 21
34.5586169536
  0
LINE
  5
2DE
100
AcDbEntity
  8
00_COMPONENTS_2
100
AcDbLine
 62
7
  6
BYLAYER
 10
29.9551728982
 20
34.6807640415
 11
29.7616405636
 21
34.4780801387
  0
LINE
  5
2DF
100
AcDbEntity
  8
00_COMPONENTS_2
100
AcDbLine
 62
7
  6
BYLAYER
 10
29.9897626448
 20
34.7553686497
 11
29.9257396246
 21
34.6890259259
  0
LINE
  5
2E0
100
AcDbEntity
  8
00_COMPONENTS_2
100
AcDbLine
 62
7
  6
BYLAYER
 10
35.155054642
 20
38.5579729474
 11
34.9772342988
 21
38.3770914664
  0
LINE
  5
2E1
100
AcDbEntity
  8
00_COMPONENTS_2
100
AcDbLine
 62
7
  6
BYLAYER
 10
35.5367844854
 20
38.3770914664
 11
35.7957877203
 21
38.6263566464
  0
LINE
  5
2E2
100
AcDbEntity
  8
00_COMPONENTS_2
100
AcDbLine
 62
7
  6
BYLAYER
 10
35.097170894
 20
34.9362501307
 11
34.9193505508
 21
34.7553686497
  0
LINE
  5
2E3
100
AcDbEntity
  8
00_COMPONENTS_3
100
AcDbLine
 62
7
  6
BYLAYER
 10
20.4630951577
 20
51.2287186628
 11
20.8846521598
 21
51.3416745211
  0
LINE
  5
2E4
100
AcDbEntity
  8
00_COMPONENTS_3
100
AcDbLine
 62
7
  6
BYLAYER
 10
39.5944554144
 20
56.3549511937
 11
40.0160124166
 21
56.467907052
  0
LINE
  5
2E5
100
AcDbEntity
  8
00_COMPONENTS_3
100
AcDbLine
 62
7
  6
BYLAYER
 10
21.0884197458
 20
52.2717607802
 11
21.518217348
 21
52.3475456937
  0
LINE
  5
2E6
100
AcDbEntity
  8
00_COMPONENTS_3
100
AcDbLine
 62
7
  6
BYLAYER
 10
40.5937600046
 20
55.7110785357
 11
41.0235576068
 21
55.7868634493
  0
LINE
  5
2E7
100
AcDbEntity
  8
00_COMPONENTS_3
100
AcDbLine
 62
7
  6
BYLAYER
 10
21.8022718955
 20
53.2563331785
 11
22.2370390785
 21
53.2943703783
  0
LINE
  5
2E8
100
AcDbEntity
  8
00_COMPONENTS_3
100
AcDbLine
 62
7
  6
BYLAYER
 10
41.5331447394
 20
54.9825608738
 11
41.9679119224
 21
55.0205980736
  0
LINE
  5
2E9
100
AcDbEntity
  8
00_COMPONENTS_3
100
AcDbLine
 62
7
  6
BYLAYER
 10
22.599218761
 20
54.1749426673
 11
23.035646684
 21
54.1749426673
  0
LINE
  5
2EA
100
AcDbEntity
  8
00_COMPONENTS_3
100
AcDbLine
 62
7
  6
BYLAYER
 10
42.4054603337
 20
54.1749426673
 11
42.8418882567
 21
54.1749426673
  0
LINE
  5
2EB
100
AcDbEntity
  8
00_COMPONENTS_2
100
AcDbLine
 62
7
  6
BYLAYER
 10
35.8342491221
 20
54.3172958425
 11
29.6068605137
 21
54.3172958425
  0
LINE
  5
2EC
100
AcDbEntity
  8
00_COMPONENTS_3
100
AcDbLine
 62
7
  6
BYLAYER
 10
23.4731950953
 20
55.0205980736
 11
23.9079622783
 21
54.9825608738
  0
LINE
  5
2ED
100
AcDbEntity
  8
00_COMPONENTS_3
100
AcDbLine
 62
7
  6
BYLAYER
 10
43.2040679391
 20
53.2943703783
 11
43.6388351221
 21
53.2563331785
  0
LINE
  5
2EE
100
AcDbEntity
  8
00_COMPONENTS_3
100
AcDbLine
 62
7
  6
BYLAYER
 10
24.4175494109
 20
55.7868634493
 11
24.847347013
 21
55.7110785357
  0
LINE
  5
2EF
100
AcDbEntity
  8
00_COMPONENTS_3
100
AcDbLine
 62
7
  6
BYLAYER
 10
43.9228896696
 20
52.3475456937
 11
44.3526872719
 21
52.2717607802
  0
LINE
  5
2F0
100
AcDbEntity
  8
00_COMPONENTS_3
100
AcDbLine
 62
7
  6
BYLAYER
 10
25.4250946011
 20
56.467907052
 11
25.8466516032
 21
56.3549511937
  0
LINE
  5
2F1
100
AcDbEntity
  8
00_COMPONENTS_3
100
AcDbLine
 62
7
  6
BYLAYER
 10
44.5564548578
 20
51.3416745211
 11
44.97801186
 21
51.2287186628
  0
LINE
  5
2F2
100
AcDbEntity
  8
00_COMPONENTS_3
100
AcDbLine
 62
7
  6
BYLAYER
 10
26.4881626387
 20
57.0585457288
 11
26.8982707375
 21
56.9092785881
  0
LINE
  5
2F3
100
AcDbEntity
  8
00_COMPONENTS_3
100
AcDbLine
 62
7
  6
BYLAYER
 10
45.09994169
 20
50.2844121474
 11
45.5100497888
 21
50.1351450066
  0
LINE
  5
2F4
100
AcDbEntity
  8
00_COMPONENTS_3
100
AcDbLine
 62
7
  6
BYLAYER
 10
27.5986629341
 20
57.5542843628
 11
27.9942009592
 21
57.3698419526
  0
LINE
  5
2F5
100
AcDbEntity
  8
00_COMPONENTS_3
100
AcDbLine
 62
7
  6
BYLAYER
 10
45.5492139033
 20
49.1838049777
 11
45.9447519284
 21
48.9993625675
  0
LINE
  5
2F6
100
AcDbEntity
  8
00_COMPONENTS_3
100
AcDbLine
 62
7
  6
BYLAYER
 10
28.7481439094
 20
57.9513500835
 11
29.1261015777
 21
57.733136122
  0
LINE
  5
2F7
100
AcDbEntity
  8
00_COMPONENTS_3
100
AcDbLine
 62
7
  6
BYLAYER
 10
45.9008522648
 20
48.0482292971
 11
46.2788099331
 21
47.8300153356
  0
LINE
  5
2F8
100
AcDbEntity
  8
00_COMPONENTS_3
100
AcDbLine
 62
7
  6
BYLAYER
 10
29.9278573204
 20
58.246720981
 11
30.2853581457
 21
57.9963962082
  0
LINE
  5
2F9
100
AcDbEntity
  8
00_COMPONENTS_3
100
AcDbLine
 62
7
  6
BYLAYER
 10
46.1521805943
 20
46.8863275223
 11
46.5096814197
 21
46.6360027495
  0
LINE
  5
2FA
100
AcDbEntity
  8
00_COMPONENTS_3
100
AcDbLine
 62
7
  6
BYLAYER
 10
31.1288248357
 20
58.4381491046
 11
31.4631480209
 21
58.1576186432
  0
LINE
  5
2FB
100
AcDbEntity
  8
00_COMPONENTS_3
100
AcDbLine
 62
7
  6
BYLAYER
 10
46.3012861315
 20
45.7069424272
 11
46.6356093167
 21
45.4264119658
  0
LINE
  5
2FC
100
AcDbEntity
  8
00_COMPONENTS_3
100
AcDbLine
 62
7
  6
BYLAYER
 10
46.6556352369
 20
44.2104487009
 11
46.3470340007
 21
44.5190499371
  0
LINE
  5
2FD
100
AcDbEntity
  8
00_COMPONENTS_3
100
AcDbLine
 62
7
  6
BYLAYER
 10
32.3419063672
 20
58.5241775706
 11
32.6505075111
 21
58.2155764267
  0
LINE
  5
2FE
100
AcDbEntity
  8
00_COMPONENTS_3
100
AcDbLine
 62
7
  6
BYLAYER
 10
46.569606771
 20
42.9973671693
 11
46.2890762212
 21
43.3316904598
  0
LINE
  5
2FF
100
AcDbEntity
  8
00_COMPONENTS_3
100
AcDbLine
 62
7
  6
BYLAYER
 10
33.5578696322
 20
58.5041516503
 11
33.8384000936
 21
58.1698284651
  0
LINE
  5
300
100
AcDbEntity
  8
00_COMPONENTS_3
100
AcDbLine
 62
7
  6
BYLAYER
 10
34.7674604159
 20
58.3782237533
 11
35.0177851887
 21
58.020722928
  0
LINE
  5
301
100
AcDbEntity
  8
00_COMPONENTS_3
100
AcDbLine
 62
7
  6
BYLAYER
 10
46.3781786474
 20
41.796399654
 11
46.1278537926
 21
42.1539005965
  0
LINE
  5
302
100
AcDbEntity
  8
00_COMPONENTS_3
100
AcDbLine
 62
7
  6
BYLAYER
 10
41.3877908449
 20
55.5073774557
 11
41.4258280447
 21
55.0726102727
  0
LINE
  5
303
100
AcDbEntity
  8
00_COMPONENTS_3
100
AcDbLine
 62
7
  6
BYLAYER
 10
43.15205574
 20
35.3417374289
 11
43.1140185273
 21
35.7765047592
  0
LINE
  5
304
100
AcDbEntity
  8
00_COMPONENTS_3
100
AcDbLine
 62
7
  6
BYLAYER
 10
42.3064003337
 20
54.7104305903
 11
42.3064003337
 21
54.2740026673
  0
LINE
  5
305
100
AcDbEntity
  8
00_COMPONENTS_3
100
AcDbLine
 62
7
  6
BYLAYER
 10
42.3064003337
 20
34.4677610946
 11
42.3064003337
 21
34.9041891615
  0
LINE
  5
306
100
AcDbEntity
  8
00_COMPONENTS_3
100
AcDbLine
 62
7
  6
BYLAYER
 10
43.15205574
 20
53.836454256
 11
43.1140185402
 21
53.401687073
  0
LINE
  5
307
100
AcDbEntity
  8
00_COMPONENTS_3
100
AcDbLine
 62
7
  6
BYLAYER
 10
41.3877908449
 20
33.6708142292
 11
41.4258280568
 21
34.1055815502
  0
LINE
  5
308
100
AcDbEntity
  8
00_COMPONENTS_3
100
AcDbLine
 62
7
  6
BYLAYER
 10
43.9183211156
 20
52.8920999404
 11
43.8425362021
 21
52.4623023382
  0
LINE
  5
309
100
AcDbEntity
  8
00_COMPONENTS_3
100
AcDbLine
 62
7
  6
BYLAYER
 10
40.4032184466
 20
32.9569620794
 11
40.479003383
 21
33.3867598117
  0
LINE
  5
30A
100
AcDbEntity
  8
00_COMPONENTS_3
100
AcDbLine
 62
7
  6
BYLAYER
 10
44.5993647184
 20
51.8845547502
 11
44.4864088601
 21
51.4629977481
  0
LINE
  5
30B
100
AcDbEntity
  8
00_COMPONENTS_3
100
AcDbLine
 62
7
  6
BYLAYER
 10
39.3601763292
 20
32.3316374913
 11
39.4731322196
 21
32.7531946135
  0
LINE
  5
30C
100
AcDbEntity
  8
00_COMPONENTS_3
100
AcDbLine
 62
7
  6
BYLAYER
 10
45.1900033952
 20
50.8214867126
 11
45.0407362544
 21
50.4113786138
  0
LINE
  5
30D
100
AcDbEntity
  8
00_COMPONENTS_3
100
AcDbLine
 62
7
  6
BYLAYER
 10
38.266602673
 20
31.7995995625
 11
38.4158698532
 21
32.2097077696
  0
LINE
  5
30E
100
AcDbEntity
  8
00_COMPONENTS_3
100
AcDbLine
 62
7
  6
BYLAYER
 10
45.6857420291
 20
49.7109864172
 11
45.5012996189
 21
49.3154483921
  0
LINE
  5
30F
100
AcDbEntity
  8
00_COMPONENTS_3
100
AcDbLine
 62
7
  6
BYLAYER
 10
37.1308202339
 20
31.3648974229
 11
37.3152626886
 21
31.7604355434
  0
LINE
  5
310
100
AcDbEntity
  8
00_COMPONENTS_3
100
AcDbLine
 62
7
  6
BYLAYER
 10
46.0828077498
 20
48.5615054419
 11
45.8645937883
 21
48.1835477736
  0
LINE
  5
311
100
AcDbEntity
  8
00_COMPONENTS_3
100
AcDbLine
 62
7
  6
BYLAYER
 10
35.961473002
 20
31.0308394182
 11
36.1796870106
 21
31.4087971681
  0
LINE
  5
312
100
AcDbEntity
  8
00_COMPONENTS_3
100
AcDbLine
 62
7
  6
BYLAYER
 10
46.3781786474
 20
47.3817920309
 11
46.1278538746
 21
47.0242912056
  0
LINE
  5
313
100
AcDbEntity
  8
00_COMPONENTS_3
100
AcDbLine
 62
7
  6
BYLAYER
 10
46.569606771
 20
46.1808245156
 11
46.2890763096
 21
45.8465013304
  0
LINE
  5
314
100
AcDbEntity
  8
00_COMPONENTS_3
100
AcDbLine
 62
7
  6
BYLAYER
 10
46.3470341734
 20
44.6591419205
 11
46.6556352369
 21
44.9677429841
  0
LINE
  5
315
100
AcDbEntity
  8
00_COMPONENTS_2
100
AcDbLine
 62
7
  6
BYLAYER
 10
35.4697864417
 20
34.7553686497
 11
35.7287896767
 21
35.0046338297
  0
LINE
  5
316
100
AcDbEntity
  8
00_COMPONENTS_3
100
AcDbLine
 62
7
  6
BYLAYER
 10
46.3012862076
 20
43.4712493215
 11
46.6356093167
 21
43.7517797191
  0
LINE
  5
317
100
AcDbEntity
  8
00_COMPONENTS_3
100
AcDbLine
 62
7
  6
BYLAYER
 10
46.1521806636
 20
42.2918642111
 11
46.5096814197
 21
42.5421889354
  0
LINE
  5
318
100
AcDbEntity
  8
00_COMPONENTS_3
100
AcDbLine
 62
7
  6
BYLAYER
 10
28.7481439094
 20
31.2268416014
 11
29.1261015878
 21
31.4450555688
  0
LINE
  5
319
100
AcDbEntity
  8
00_COMPONENTS_3
100
AcDbLine
 62
7
  6
BYLAYER
 10
45.9008523249
 20
41.1299624225
 11
46.2788099331
 21
41.3481763493
  0
LINE
  5
31A
100
AcDbEntity
  8
00_COMPONENTS_3
100
AcDbLine
 62
7
  6
BYLAYER
 10
27.5986629341
 20
31.6239073221
 11
27.9942009557
 21
31.8083497307
  0
LINE
  5
31B
100
AcDbEntity
  8
00_COMPONENTS_3
100
AcDbLine
 62
7
  6
BYLAYER
 10
45.5492139521
 20
39.99438673
 11
45.9447519284
 21
40.1788291174
  0
LINE
  5
31C
100
AcDbEntity
  8
00_COMPONENTS_3
100
AcDbLine
 62
7
  6
BYLAYER
 10
26.4881626387
 20
32.1196459561
 11
26.8982707191
 21
32.2689130902
  0
LINE
  5
31D
100
AcDbEntity
  8
00_COMPONENTS_3
100
AcDbLine
 62
7
  6
BYLAYER
 10
45.0999417259
 20
38.8937795506
 11
45.5100497888
 21
39.0430466783
  0
LINE
  5
31E
100
AcDbEntity
  8
00_COMPONENTS_3
100
AcDbLine
 62
7
  6
BYLAYER
 10
35.961473002
 20
58.1473522667
 11
36.1796869635
 21
57.7693945985
  0
LINE
  5
31F
100
AcDbEntity
  8
00_COMPONENTS_3
100
AcDbLine
 62
7
  6
BYLAYER
 10
46.0828077498
 20
40.616686243
 11
45.8645937147
 21
40.9946440387
  0
LINE
  5
320
100
AcDbEntity
  8
00_COMPONENTS_3
100
AcDbLine
 62
7
  6
BYLAYER
 10
37.1308202339
 20
57.813294262
 11
37.3152626441
 21
57.417756237
  0
LINE
  5
321
100
AcDbEntity
  8
00_COMPONENTS_3
100
AcDbLine
 62
7
  6
BYLAYER
 10
45.6857420291
 20
39.4672052677
 11
45.5012995555
 21
39.8627434288
  0
LINE
  5
322
100
AcDbEntity
  8
00_COMPONENTS_3
100
AcDbLine
 62
7
  6
BYLAYER
 10
38.266602673
 20
57.3785921224
 11
38.4158698138
 21
56.9684840237
  0
LINE
  5
323
100
AcDbEntity
  8
00_COMPONENTS_3
100
AcDbLine
 62
7
  6
BYLAYER
 10
45.1900033952
 20
38.3567049723
 11
45.0407362026
 21
38.7668132135
  0
LINE
  5
324
100
AcDbEntity
  8
00_COMPONENTS_3
100
AcDbLine
 62
7
  6
BYLAYER
 10
39.3601763292
 20
56.8465541936
 11
39.4731321875
 21
56.4249971915
  0
LINE
  5
325
100
AcDbEntity
  8
00_COMPONENTS_3
100
AcDbLine
 62
7
  6
BYLAYER
 10
44.5993647184
 20
37.2936369347
 11
44.4864088208
 21
37.7151940834
  0
LINE
  5
326
100
AcDbEntity
  8
00_COMPONENTS_3
100
AcDbLine
 62
7
  6
BYLAYER
 10
40.4032184466
 20
56.2212296055
 11
40.4790033601
 21
55.7914320033
  0
LINE
  5
327
100
AcDbEntity
  8
00_COMPONENTS_3
100
AcDbLine
 62
7
  6
BYLAYER
 10
43.9183211156
 20
36.2860917445
 11
43.842536176
 21
36.7158894948
  0
LINE
  5
328
100
AcDbEntity
  8
0
100
AcDbLine
 62
7
  6
BYLAYER
 10
11.2829535088
 20
57.6036200466
 11
7.5329535088
 21
57.6036200466
  0
LINE
  5
329
100
AcDbEntity
  8
0
100
AcDbLine
 62
7
  6
BYLAYER
 10
54.1581535088
 20
57.6036200466
 11
57.9081535088
 21
57.6036200466
  0
LINE
  5
32A
100
AcDbEntity
  8
00_COMPONENTS
100
AcDbLine
 62
7
  6
BYLAYER
 10
50.1830535088
 20
51.8223001754
 11
50.1830535088
 21
37.3558915095
  0
LINE
  5
32B
100
AcDbEntity
  8
00_COMPONENTS
100
AcDbLine
 62
7
  6
BYLAYER
 10
50.1830535088
 20
37.3558915095
 11
39.9537578418
 21
27.1265958425
  0
LINE
  5
32C
100
AcDbEntity
  8
00_COMPONENTS
100
AcDbLine
 62
7
  6
BYLAYER
 10
25.4873491759
 20
62.0515958425
 11
39.9537578418
 21
62.0515958425
  0
LINE
  5
32D
100
AcDbEntity
  8
00_COMPONENTS
100
AcDbLine
 62
7
  6
BYLAYER
 10
35.7896471861
 20
63.0040958425
 11
29.6514598315
 21
63.0040958425
  0
LINE
  5
32E
100
AcDbEntity
  8
00_COMPONENTS
100
AcDbLine
 62
7
  6
BYLAYER
 10
39.9537578418
 20
62.0515958425
 11
50.1830535088
 21
51.8223001754
  0
LINE
  5
32F
100
AcDbEntity
  8
00_COMPONENTS
100
AcDbLine
 62
7
  6
BYLAYER
 10
51.1355535088
 20
41.5200021652
 11
51.1355535088
 21
47.6581895197
  0
LINE
  5
330
100
AcDbEntity
  8
00_COMPONENTS
100
AcDbLine
 62
7
  6
BYLAYER
 10
51.7705535088
 20
39.0328458425
 11
51.7705535088
 21
50.1453458425
  0
LINE
  5
331
100
AcDbEntity
  8
0
100
AcDbLine
 62
7
  6
BYLAYER
 10
54.1581535088
 20
23.1514958425
 11
54.1581535088
 21
66.0266958425
  0
LINE
  5
332
100
AcDbEntity
  8
0
100
AcDbLine
 62
7
  6
BYLAYER
 10
11.2829535088
 20
66.0266958425
 11
26.8222261071
 21
66.0266958425
  0
LINE
  5
333
100
AcDbEntity
  8
0
100
AcDbLine
 62
7
  6
BYLAYER
 10
38.6188809105
 20
66.0266958425
 11
54.1581535088
 21
66.0266958425
  0
LINE
  5
334
100
AcDbEntity
  8
0
100
AcDbLine
 62
7
  6
BYLAYER
 10
31.1330535088
 20
67.3474958425
 11
34.3080535088
 21
67.3474958425
  0
LINE
  5
335
100
AcDbEntity
  8
0
100
AcDbLine
 62
7
  6
BYLAYER
 10
34.3080535088
 20
67.3474958425
 11
39.231351521
 21
65.8390401776
  0
LINE
  5
336
100
AcDbEntity
  8
0
100
AcDbLine
 62
7
  6
BYLAYER
 10
56.3587535088
 20
48.1991958425
 11
56.3587535088
 21
41.4681958425
  0
LINE
  5
337
100
AcDbEntity
  8
0
100
AcDbLine
 62
7
  6
BYLAYER
 10
11.2829535088
 20
65.0437935699
 11
7.5329535088
 21
64.0786717419
  0
LINE
  5
338
100
AcDbEntity
  8
0
100
AcDbLine
 62
7
  6
BYLAYER
 10
57.9081535088
 20
64.0786717419
 11
54.1581535088
 21
65.0437935699
  0
LINE
  5
339
100
AcDbEntity
  8
0
100
AcDbLine
 62
7
  6
BYLAYER
 10
57.9081535088
 20
25.588719943
 11
57.9081535088
 21
64.0786717419
  0
ARC
  5
33A
100
AcDbEntity
  8
00_COMPONENTS_3
100
AcDbCircle
 62
7
  6
BYLAYER
 10
24.3734427737
 20
33.6414694049
 40
0.254
100
AcDbArc
 50
232.6759834506
 51
280.0000000002
  0
ARC
  5
33B
100
AcDbEntity
  8
00_COMPONENTS_3
100
AcDbCircle
 62
7
  6
BYLAYER
 10
24.3063496261
 20
33.6929517878
 40
0.254
100
AcDbArc
 50
185.0000000001
 51
232.3240165494
  0
ARC
  5
33C
100
AcDbEntity
  8
00_COMPONENTS_3
100
AcDbCircle
 62
7
  6
BYLAYER
 10
23.4510575366
 20
34.4106270646
 40
0.254
100
AcDbArc
 50
227.6759834506
 51
275.0000000001
  0
ARC
  5
33D
100
AcDbEntity
  8
00_COMPONENTS_3
100
AcDbCircle
 62
7
  6
BYLAYER
 10
23.388706684
 20
34.4677610946
 40
0.254
100
AcDbArc
 50
180.0
 51
227.3240165494
  0
ARC
  5
33E
100
AcDbEntity
  8
00_COMPONENTS_3
100
AcDbCircle
 62
7
  6
BYLAYER
 10
22.599218761
 20
35.2572490176
 40
0.254
100
AcDbArc
 50
222.6759834506
 51
270.0
  0
ARC
  5
33F
100
AcDbEntity
  8
00_COMPONENTS_3
100
AcDbCircle
 62
7
  6
BYLAYER
 10
22.542084731
 20
35.3195998703
 40
0.254
100
AcDbArc
 50
174.9999999999
 51
222.3240165494
  0
ARC
  5
340
100
AcDbEntity
  8
00_COMPONENTS_3
100
AcDbCircle
 62
7
  6
BYLAYER
 10
21.8244094542
 20
36.1748919597
 40
0.254
100
AcDbArc
 50
217.6759834506
 51
264.9999999999
  0
ARC
  5
341
100
AcDbEntity
  8
00_COMPONENTS_3
100
AcDbCircle
 62
7
  6
BYLAYER
 10
21.7729270713
 20
36.2419851073
 40
0.254
100
AcDbArc
 50
169.9999999998
 51
217.3240165494
  0
ARC
  5
342
100
AcDbEntity
  8
00_COMPONENTS_3
100
AcDbCircle
 62
7
  6
BYLAYER
 10
21.1325263829
 20
37.156572074
 40
0.254
100
AcDbArc
 50
212.6759834506
 51
259.9999999998
  0
ARC
  5
343
100
AcDbEntity
  8
00_COMPONENTS_3
100
AcDbCircle
 62
7
  6
BYLAYER
 10
21.0870874592
 20
37.2278968972
 40
0.254
100
AcDbArc
 50
165.0000000002
 51
212.3240165494
  0
ARC
  5
344
100
AcDbEntity
  8
00_COMPONENTS_3
100
AcDbCircle
 62
7
  6
BYLAYER
 10
23.9165959262
 20
34.0969477643
 40
0.09906
100
AcDbArc
 50
5.0000427491
 51
95.0000192355
  0
ARC
  5
345
100
AcDbEntity
  8
00_COMPONENTS_3
100
AcDbCircle
 62
7
  6
BYLAYER
 10
23.035646684
 20
34.9041890176
 40
0.09906
100
AcDbArc
 50
0.0000416065
 51
90.000023646
  0
ARC
  5
346
100
AcDbEntity
  8
00_COMPONENTS_3
100
AcDbCircle
 62
7
  6
BYLAYER
 10
22.2284054307
 20
35.7851382598
 40
0.09906
100
AcDbArc
 50
355.0000400816
 51
85.0000279422
  0
ARC
  5
347
100
AcDbEntity
  8
00_COMPONENTS_3
100
AcDbCircle
 62
7
  6
BYLAYER
 10
21.5010157595
 20
36.7330909352
 40
0.09906
100
AcDbArc
 50
350.0000381901
 51
80.0000320867
  0
ARC
  5
348
100
AcDbEntity
  8
00_COMPONENTS_3
100
AcDbCircle
 62
7
  6
BYLAYER
 10
20.5288351951
 20
38.194818182
 40
0.254
100
AcDbArc
 50
207.6759834506
 51
255.0000000002
  0
ARC
  5
349
100
AcDbEntity
  8
00_COMPONENTS_3
100
AcDbCircle
 62
7
  6
BYLAYER
 10
20.4897855481
 20
38.2698318559
 40
0.254
100
AcDbArc
 50
159.9999999998
 51
207.3240165494
  0
ARC
  5
34A
100
AcDbEntity
  8
00_COMPONENTS_3
100
AcDbCircle
 62
7
  6
BYLAYER
 10
20.0179303453
 20
39.281728604
 40
0.254
100
AcDbArc
 50
202.6759834506
 51
250.0000000002
  0
ARC
  5
34B
100
AcDbEntity
  8
00_COMPONENTS_3
100
AcDbCircle
 62
7
  6
BYLAYER
 10
19.9855671664
 20
39.3598602292
 40
0.254
100
AcDbArc
 50
155.0000000001
 51
202.3240165494
  0
ARC
  5
34C
100
AcDbEntity
  8
00_COMPONENTS_3
100
AcDbCircle
 62
7
  6
BYLAYER
 10
19.6037001277
 20
40.4090312953
 40
0.254
100
AcDbArc
 50
197.6759834506
 51
245.0000000001
  0
ARC
  5
34D
100
AcDbEntity
  8
00_COMPONENTS_3
100
AcDbCircle
 62
7
  6
BYLAYER
 10
19.5782697204
 20
40.489686243
 40
0.254
100
AcDbArc
 50
150.0000000002
 51
197.3240165494
  0
ARC
  5
34E
100
AcDbEntity
  8
00_COMPONENTS_3
100
AcDbCircle
 62
7
  6
BYLAYER
 10
19.2892970846
 20
41.5681468018
 40
0.254
100
AcDbArc
 50
192.6759834506
 51
239.9999999999
  0
ARC
  5
34F
100
AcDbEntity
  8
00_COMPONENTS_3
100
AcDbCircle
 62
7
  6
BYLAYER
 10
19.2709929895
 20
41.6507112392
 40
0.254
100
AcDbArc
 50
145.0000000001
 51
192.3240165494
  0
ARC
  5
350
100
AcDbEntity
  8
00_COMPONENTS_3
100
AcDbCircle
 62
7
  6
BYLAYER
 10
19.0771140128
 20
42.7502535547
 40
0.254
100
AcDbArc
 50
187.6759834506
 51
234.9999999996
  0
ARC
  5
351
100
AcDbEntity
  8
00_COMPONENTS_3
100
AcDbCircle
 62
7
  6
BYLAYER
 10
19.0660755352
 20
42.8340991164
 40
0.254
100
AcDbArc
 50
140.0
 51
187.3240165494
  0
ARC
  5
352
100
AcDbEntity
  8
00_COMPONENTS_3
100
AcDbCircle
 62
7
  6
BYLAYER
 10
18.9687657538
 20
43.9463550077
 40
0.254
100
AcDbArc
 50
182.6759834506
 51
229.9999999998
  0
ARC
  5
353
100
AcDbEntity
  8
00_COMPONENTS_3
100
AcDbCircle
 62
7
  6
BYLAYER
 10
18.9650769031
 20
44.0308435784
 40
0.254
100
AcDbArc
 50
134.9999999997
 51
182.3240165494
  0
ARC
  5
354
100
AcDbEntity
  8
00_COMPONENTS_3
100
AcDbCircle
 62
7
  6
BYLAYER
 10
20.8590135452
 20
37.7408325515
 40
0.09906
100
AcDbArc
 50
345.0000359427
 51
75.0000360521
  0
ARC
  5
355
100
AcDbEntity
  8
00_COMPONENTS_3
100
AcDbCircle
 62
7
  6
BYLAYER
 10
20.3072848122
 20
38.8006935865
 40
0.09906
100
AcDbArc
 50
340.0000333585
 51
70.0000398065
  0
ARC
  5
356
100
AcDbEntity
  8
00_COMPONENTS_3
100
AcDbCircle
 62
7
  6
BYLAYER
 10
19.8500285493
 20
39.9046078578
 40
0.09906
100
AcDbArc
 50
335.0000304581
 51
65.0000433209
  0
ARC
  5
357
100
AcDbEntity
  8
00_COMPONENTS_3
100
AcDbCircle
 62
7
  6
BYLAYER
 10
19.4907247528
 20
41.0441739113
 40
0.09906
100
AcDbArc
 50
330.0000272617
 51
60.0000465695
  0
ARC
  5
358
100
AcDbEntity
  8
00_COMPONENTS_3
100
AcDbCircle
 62
7
  6
BYLAYER
 10
19.2321079415
 20
42.2107189611
 40
0.09906
100
AcDbArc
 50
325.0000237941
 51
55.0000495263
  0
ARC
  5
359
100
AcDbEntity
  8
00_COMPONENTS_3
100
AcDbCircle
 62
7
  6
BYLAYER
 10
19.0761463456
 20
43.3953648951
 40
0.09906
100
AcDbArc
 50
320.0000200827
 51
50.0000521694
  0
ARC
  5
35A
100
AcDbEntity
  8
00_COMPONENTS_3
100
AcDbCircle
 62
7
  6
BYLAYER
 10
29.7821689056
 20
31.1395353231
 40
0.254
100
AcDbArc
 50
257.6759834506
 51
288.8747361675
  0
ARC
  5
35B
100
AcDbEntity
  8
00_COMPONENTS_3
100
AcDbCircle
 62
7
  6
BYLAYER
 10
29.6996044682
 20
31.1578394182
 40
0.254
100
AcDbArc
 50
210.0000000001
 51
257.3240165494
  0
ARC
  5
35C
100
AcDbEntity
  8
00_COMPONENTS_3
100
AcDbCircle
 62
7
  6
BYLAYER
 10
28.6211439094
 20
31.446812054
 40
0.254
100
AcDbArc
 50
252.6759834506
 51
299.9999999998
  0
ARC
  5
35D
100
AcDbEntity
  8
00_COMPONENTS_3
100
AcDbCircle
 62
7
  6
BYLAYER
 10
28.5404889617
 20
31.4722424613
 40
0.254
100
AcDbArc
 50
204.9999999999
 51
252.3240165494
  0
ARC
  5
35E
100
AcDbEntity
  8
00_COMPONENTS_3
100
AcDbCircle
 62
7
  6
BYLAYER
 10
27.4913178956
 20
31.8541095
 40
0.254
100
AcDbArc
 50
247.6759834506
 51
294.9999999999
  0
ARC
  5
35F
100
AcDbEntity
  8
00_COMPONENTS_3
100
AcDbCircle
 62
7
  6
BYLAYER
 10
27.4131862703
 20
31.8864726789
 40
0.254
100
AcDbArc
 50
199.9999999998
 51
247.3240165494
  0
ARC
  5
360
100
AcDbEntity
  8
00_COMPONENTS_3
100
AcDbCircle
 62
7
  6
BYLAYER
 10
26.4012895223
 20
32.3583278817
 40
0.254
100
AcDbArc
 50
242.6759834506
 51
290.0000000002
  0
ARC
  5
361
100
AcDbEntity
  8
00_COMPONENTS_3
100
AcDbCircle
 62
7
  6
BYLAYER
 10
26.3262758483
 20
32.3973775287
 40
0.254
100
AcDbArc
 50
194.9999999998
 51
242.3240165494
  0
ARC
  5
362
100
AcDbEntity
  8
00_COMPONENTS_3
100
AcDbCircle
 62
7
  6
BYLAYER
 10
25.3593545636
 20
32.9556297928
 40
0.254
100
AcDbArc
 50
237.6759834506
 51
284.9999999998
  0
ARC
  5
363
100
AcDbEntity
  8
00_COMPONENTS_3
100
AcDbCircle
 62
7
  6
BYLAYER
 10
25.2880297403
 20
33.0010687165
 40
0.254
100
AcDbArc
 50
190.0000000002
 51
237.3240165494
  0
ARC
  5
364
100
AcDbEntity
  8
00_COMPONENTS_2
100
AcDbCircle
 62
7
  6
BYLAYER
 10
30.5385385717
 20
30.5427152157
 40
0.2538324762
100
AcDbArc
 50
181.0185389544
 51
269.9561696117
  0
ARC
  5
365
100
AcDbEntity
  8
00_COMPONENTS_3
100
AcDbCircle
 62
7
  6
BYLAYER
 10
29.1756315777
 20
31.3592670864
 40
0.09906
100
AcDbArc
 50
30.0000425678
 51
119.9999966224
  0
ARC
  5
366
100
AcDbEntity
  8
00_COMPONENTS_3
100
AcDbCircle
 62
7
  6
BYLAYER
 10
28.0360655242
 20
31.7185708829
 40
0.09906
100
AcDbArc
 50
25.0000433949
 51
115.0000011039
  0
ARC
  5
367
100
AcDbEntity
  8
00_COMPONENTS_3
100
AcDbCircle
 62
7
  6
BYLAYER
 10
26.9321512529
 20
32.1758271458
 40
0.09906
100
AcDbArc
 50
20.0000438298
 51
110.0000056411
  0
ARC
  5
368
100
AcDbEntity
  8
00_COMPONENTS_3
100
AcDbCircle
 62
7
  6
BYLAYER
 10
25.8722902178
 20
32.7275558788
 40
0.09906
100
AcDbArc
 50
15.0000438656
 51
105.0000101979
  0
ARC
  5
369
100
AcDbEntity
  8
00_COMPONENTS_3
100
AcDbCircle
 62
7
  6
BYLAYER
 10
24.8645486015
 20
33.3695580931
 40
0.09906
100
AcDbArc
 50
10.0000435054
 51
100.0000147401
  0
ARC
  5
36A
100
AcDbEntity
  8
00_COMPONENTS_3
100
AcDbCircle
 62
7
  6
BYLAYER
 10
18.9650769031
 20
45.1473481065
 40
0.254
100
AcDbArc
 50
177.6759834506
 51
225.0000000003
  0
ARC
  5
36B
100
AcDbEntity
  8
00_COMPONENTS_3
100
AcDbCircle
 62
7
  6
BYLAYER
 10
18.9687657538
 20
45.2318366773
 40
0.254
100
AcDbArc
 50
130.0000000002
 51
177.3240165494
  0
ARC
  5
36C
100
AcDbEntity
  8
00_COMPONENTS_3
100
AcDbCircle
 62
7
  6
BYLAYER
 10
19.0660755352
 20
46.3440925685
 40
0.254
100
AcDbArc
 50
172.6759834506
 51
220.0
  0
ARC
  5
36D
100
AcDbEntity
  8
00_COMPONENTS_3
100
AcDbCircle
 62
7
  6
BYLAYER
 10
19.0771140128
 20
46.4279381302
 40
0.254
100
AcDbArc
 50
125.0000000004
 51
172.3240165494
  0
ARC
  5
36E
100
AcDbEntity
  8
00_COMPONENTS_3
100
AcDbCircle
 62
7
  6
BYLAYER
 10
19.2709929895
 20
47.5274804457
 40
0.254
100
AcDbArc
 50
167.6759834506
 51
214.9999999999
  0
ARC
  5
36F
100
AcDbEntity
  8
00_COMPONENTS_3
100
AcDbCircle
 62
7
  6
BYLAYER
 10
19.2892970846
 20
47.6100448831
 40
0.254
100
AcDbArc
 50
120.0000000001
 51
167.3240165494
  0
ARC
  5
370
100
AcDbEntity
  8
00_COMPONENTS_3
100
AcDbCircle
 62
7
  6
BYLAYER
 10
19.5782697204
 20
48.6885054419
 40
0.254
100
AcDbArc
 50
162.6759834506
 51
209.9999999998
  0
ARC
  5
371
100
AcDbEntity
  8
00_COMPONENTS_3
100
AcDbCircle
 62
7
  6
BYLAYER
 10
19.6037001277
 20
48.7691603896
 40
0.254
100
AcDbArc
 50
114.9999999999
 51
162.3240165494
  0
ARC
  5
372
100
AcDbEntity
  8
00_COMPONENTS_3
100
AcDbCircle
 62
7
  6
BYLAYER
 10
19.9855671664
 20
49.8183314557
 40
0.254
100
AcDbArc
 50
157.6759834506
 51
204.9999999999
  0
ARC
  5
373
100
AcDbEntity
  8
00_COMPONENTS_3
100
AcDbCircle
 62
7
  6
BYLAYER
 10
20.0179303453
 20
49.896463081
 40
0.254
100
AcDbArc
 50
109.9999999998
 51
157.3240165494
  0
ARC
  5
374
100
AcDbEntity
  8
00_COMPONENTS_3
100
AcDbCircle
 62
7
  6
BYLAYER
 10
20.4897855481
 20
50.908359829
 40
0.254
100
AcDbArc
 50
152.6759834506
 51
200.0000000002
  0
ARC
  5
375
100
AcDbEntity
  8
00_COMPONENTS_3
100
AcDbCircle
 62
7
  6
BYLAYER
 10
20.5288351951
 20
50.9833735029
 40
0.254
100
AcDbArc
 50
104.9999999998
 51
152.3240165494
  0
ARC
  5
376
100
AcDbEntity
  8
00_COMPONENTS_3
100
AcDbCircle
 62
7
  6
BYLAYER
 10
19.0761463456
 20
45.7828267898
 40
0.09906
100
AcDbArc
 50
309.9999999987
 51
39.9999999999
  0
ARC
  5
377
100
AcDbEntity
  8
00_COMPONENTS_3
100
AcDbCircle
 62
7
  6
BYLAYER
 10
19.2321079415
 20
46.9674727238
 40
0.09906
100
AcDbArc
 50
304.9999999988
 51
35.0000000004
  0
ARC
  5
378
100
AcDbEntity
  8
00_COMPONENTS_3
100
AcDbCircle
 62
7
  6
BYLAYER
 10
19.4907247528
 20
48.1340177736
 40
0.09906
100
AcDbArc
 50
299.9999999994
 51
30.000000001
  0
ARC
  5
379
100
AcDbEntity
  8
00_COMPONENTS_3
100
AcDbCircle
 62
7
  6
BYLAYER
 10
19.8500285493
 20
49.2735838271
 40
0.09906
100
AcDbArc
 50
294.9999999967
 51
25.0000000007
  0
ARC
  5
37A
100
AcDbEntity
  8
00_COMPONENTS_3
100
AcDbCircle
 62
7
  6
BYLAYER
 10
20.3072848122
 20
50.3774980984
 40
0.09906
100
AcDbArc
 50
289.999999999
 51
19.9999999999
  0
ARC
  5
37B
100
AcDbEntity
  8
00_COMPONENTS_3
100
AcDbCircle
 62
7
  6
BYLAYER
 10
20.8590135452
 20
51.4373591335
 40
0.09906
100
AcDbArc
 50
285.0
 51
14.9999999995
  0
ARC
  5
37C
100
AcDbEntity
  8
00_COMPONENTS_3
100
AcDbCircle
 62
7
  6
BYLAYER
 10
19.0240269268
 20
44.5890958425
 40
0.09906
100
AcDbArc
 50
315.0000161539
 51
45.0000544808
  0
ARC
  5
37D
100
AcDbEntity
  8
00_COMPONENTS_3
100
AcDbCircle
 62
7
  6
BYLAYER
 10
21.0870874592
 20
51.9502947877
 40
0.254
100
AcDbArc
 50
147.6759834506
 51
194.9999999998
  0
ARC
  5
37E
100
AcDbEntity
  8
00_COMPONENTS_3
100
AcDbCircle
 62
7
  6
BYLAYER
 10
21.1325263829
 20
52.021619611
 40
0.254
100
AcDbArc
 50
100.0000000002
 51
147.3240165494
  0
ARC
  5
37F
100
AcDbEntity
  8
00_COMPONENTS_3
100
AcDbCircle
 62
7
  6
BYLAYER
 10
21.7729270713
 20
52.9362065776
 40
0.254
100
AcDbArc
 50
142.6759834506
 51
190.0000000002
  0
ARC
  5
380
100
AcDbEntity
  8
00_COMPONENTS_3
100
AcDbCircle
 62
7
  6
BYLAYER
 10
21.8244094542
 20
53.0032997252
 40
0.254
100
AcDbArc
 50
95.0000000001
 51
142.3240165494
  0
ARC
  5
381
100
AcDbEntity
  8
00_COMPONENTS_3
100
AcDbCircle
 62
7
  6
BYLAYER
 10
22.542084731
 20
53.8585918146
 40
0.254
100
AcDbArc
 50
137.6759834506
 51
185.0000000001
  0
ARC
  5
382
100
AcDbEntity
  8
00_COMPONENTS_3
100
AcDbCircle
 62
7
  6
BYLAYER
 10
22.599218761
 20
53.9209426673
 40
0.254
100
AcDbArc
 50
90.0
 51
137.3240165494
  0
ARC
  5
383
100
AcDbEntity
  8
00_COMPONENTS_3
100
AcDbCircle
 62
7
  6
BYLAYER
 10
23.388706684
 20
54.7104305903
 40
0.254
100
AcDbArc
 50
132.6759834506
 51
180.0
  0
ARC
  5
384
100
AcDbEntity
  8
00_COMPONENTS_3
100
AcDbCircle
 62
7
  6
BYLAYER
 10
23.4510575366
 20
54.7675646203
 40
0.254
100
AcDbArc
 50
84.9999999999
 51
132.3240165494
  0
ARC
  5
385
100
AcDbEntity
  8
00_COMPONENTS_3
100
AcDbCircle
 62
7
  6
BYLAYER
 10
24.3063496261
 20
55.4852398971
 40
0.254
100
AcDbArc
 50
127.6759834506
 51
174.9999999999
  0
ARC
  5
386
100
AcDbEntity
  8
00_COMPONENTS_3
100
AcDbCircle
 62
7
  6
BYLAYER
 10
24.3734427737
 20
55.53672228
 40
0.254
100
AcDbArc
 50
79.9999999998
 51
127.3240165494
  0
ARC
  5
387
100
AcDbEntity
  8
00_COMPONENTS_3
100
AcDbCircle
 62
7
  6
BYLAYER
 10
25.2880297403
 20
56.1771229684
 40
0.254
100
AcDbArc
 50
122.6759834506
 51
169.9999999998
  0
ARC
  5
388
100
AcDbEntity
  8
00_COMPONENTS_3
100
AcDbCircle
 62
7
  6
BYLAYER
 10
25.3593545636
 20
56.2225618921
 40
0.254
100
AcDbArc
 50
75.0000000002
 51
122.3240165494
  0
ARC
  5
389
100
AcDbEntity
  8
00_COMPONENTS_3
100
AcDbCircle
 62
7
  6
BYLAYER
 10
21.5010157595
 20
52.4451007497
 40
0.09906
100
AcDbArc
 50
279.9999999998
 51
10.0000000003
  0
ARC
  5
38A
100
AcDbEntity
  8
00_COMPONENTS_3
100
AcDbCircle
 62
7
  6
BYLAYER
 10
22.2284054307
 20
53.3930534251
 40
0.09906
100
AcDbArc
 50
274.9999999979
 51
5.0000000014
  0
ARC
  5
38B
100
AcDbEntity
  8
00_COMPONENTS_3
100
AcDbCircle
 62
7
  6
BYLAYER
 10
23.035646684
 20
54.2740026673
 40
0.09906
100
AcDbArc
 50
269.9999999971
 51
360.0
  0
ARC
  5
38C
100
AcDbEntity
  8
00_COMPONENTS_3
100
AcDbCircle
 62
7
  6
BYLAYER
 10
23.9165959262
 20
55.0812439206
 40
0.09906
100
AcDbArc
 50
264.9999999983
 51
355.0000000027
  0
ARC
  5
38D
100
AcDbEntity
  8
00_COMPONENTS_3
100
AcDbCircle
 62
7
  6
BYLAYER
 10
24.8645486015
 20
55.8086335918
 40
0.09906
100
AcDbArc
 50
259.9999999967
 51
349.9999999985
  0
ARC
  5
38E
100
AcDbEntity
  8
00_COMPONENTS_3
100
AcDbCircle
 62
7
  6
BYLAYER
 10
26.3262758483
 20
56.7808141562
 40
0.254
100
AcDbArc
 50
117.6759834506
 51
165.0000000002
  0
ARC
  5
38F
100
AcDbEntity
  8
00_COMPONENTS_3
100
AcDbCircle
 62
7
  6
BYLAYER
 10
26.4012895223
 20
56.8198638032
 40
0.254
100
AcDbArc
 50
69.9999999998
 51
117.3240165494
  0
ARC
  5
390
100
AcDbEntity
  8
00_COMPONENTS_3
100
AcDbCircle
 62
7
  6
BYLAYER
 10
27.4131862703
 20
57.291719006
 40
0.254
100
AcDbArc
 50
112.6759834506
 51
160.0000000002
  0
ARC
  5
391
100
AcDbEntity
  8
00_COMPONENTS_3
100
AcDbCircle
 62
7
  6
BYLAYER
 10
27.4913178956
 20
57.3240821849
 40
0.254
100
AcDbArc
 50
65.0000000001
 51
112.3240165494
  0
ARC
  5
392
100
AcDbEntity
  8
00_COMPONENTS_3
100
AcDbCircle
 62
7
  6
BYLAYER
 10
28.5404889617
 20
57.7059492236
 40
0.254
100
AcDbArc
 50
107.6759834506
 51
155.0000000001
  0
ARC
  5
393
100
AcDbEntity
  8
00_COMPONENTS_3
100
AcDbCircle
 62
7
  6
BYLAYER
 10
28.6211439094
 20
57.7313796309
 40
0.254
100
AcDbArc
 50
60.0000000002
 51
107.3240165494
  0
ARC
  5
394
100
AcDbEntity
  8
00_COMPONENTS_3
100
AcDbCircle
 62
7
  6
BYLAYER
 10
29.6996044682
 20
58.0203522667
 40
0.254
100
AcDbArc
 50
102.6759834506
 51
149.9999999999
  0
ARC
  5
395
100
AcDbEntity
  8
00_COMPONENTS_3
100
AcDbCircle
 62
7
  6
BYLAYER
 10
29.7821689056
 20
58.0386563618
 40
0.254
100
AcDbArc
 50
55.0000000001
 51
102.3240165494
  0
ARC
  5
396
100
AcDbEntity
  8
00_COMPONENTS_3
100
AcDbCircle
 62
7
  6
BYLAYER
 10
30.8817112211
 20
58.2325353384
 40
0.254
100
AcDbArc
 50
97.6759834506
 51
144.9999999996
  0
ARC
  5
397
100
AcDbEntity
  8
00_COMPONENTS_3
100
AcDbCircle
 62
7
  6
BYLAYER
 10
30.9655567828
 20
58.2435738161
 40
0.254
100
AcDbArc
 50
50.0
 51
97.3240165494
  0
ARC
  5
398
100
AcDbEntity
  8
00_COMPONENTS_3
100
AcDbCircle
 62
7
  6
BYLAYER
 10
32.077812674
 20
58.3408835975
 40
0.254
100
AcDbArc
 50
92.6759834506
 51
139.9999999998
  0
ARC
  5
399
100
AcDbEntity
  8
00_COMPONENTS_3
100
AcDbCircle
 62
7
  6
BYLAYER
 10
32.1623012448
 20
58.3445724481
 40
0.254
100
AcDbArc
 50
44.9999999997
 51
92.3240165494
  0
ARC
  5
39A
100
AcDbEntity
  8
00_COMPONENTS_3
100
AcDbCircle
 62
7
  6
BYLAYER
 10
25.8722902178
 20
56.4506358061
 40
0.09906
100
AcDbArc
 50
254.9999999985
 51
345.0000000002
  0
ARC
  5
39B
100
AcDbEntity
  8
00_COMPONENTS_3
100
AcDbCircle
 62
7
  6
BYLAYER
 10
26.9321512529
 20
57.0023645391
 40
0.09906
100
AcDbArc
 50
249.9999999979
 51
339.9999999994
  0
ARC
  5
39C
100
AcDbEntity
  8
00_COMPONENTS_3
100
AcDbCircle
 62
7
  6
BYLAYER
 10
28.0360655242
 20
57.459620802
 40
0.09906
100
AcDbArc
 50
244.9999999998
 51
334.9999999996
  0
ARC
  5
39D
100
AcDbEntity
  8
00_COMPONENTS_3
100
AcDbCircle
 62
7
  6
BYLAYER
 10
29.1756315777
 20
57.8189245985
 40
0.09906
100
AcDbArc
 50
240.0
 51
329.9999999984
  0
ARC
  5
39E
100
AcDbEntity
  8
00_COMPONENTS_3
100
AcDbCircle
 62
7
  6
BYLAYER
 10
30.3421766275
 20
58.0775414097
 40
0.09906
100
AcDbArc
 50
234.9999999995
 51
324.9999999989
  0
ARC
  5
39F
100
AcDbEntity
  8
00_COMPONENTS_3
100
AcDbCircle
 62
7
  6
BYLAYER
 10
31.5268225615
 20
58.2335030057
 40
0.09906
100
AcDbArc
 50
229.9999999993
 51
319.999999998
  0
ARC
  5
3A0
100
AcDbEntity
  8
00_COMPONENTS_3
100
AcDbCircle
 62
7
  6
BYLAYER
 10
40.1530772773
 20
33.0010687165
 40
0.254
100
AcDbArc
 50
302.6759834506
 51
349.9999999998
  0
ARC
  5
3A1
100
AcDbEntity
  8
00_COMPONENTS_3
100
AcDbCircle
 62
7
  6
BYLAYER
 10
40.081752454
 20
32.9556297928
 40
0.254
100
AcDbArc
 50
255.0000000002
 51
302.3240165494
  0
ARC
  5
3A2
100
AcDbEntity
  8
00_COMPONENTS_3
100
AcDbCircle
 62
7
  6
BYLAYER
 10
39.1148311693
 20
32.3973775287
 40
0.254
100
AcDbArc
 50
297.6759834506
 51
345.0000000002
  0
ARC
  5
3A3
100
AcDbEntity
  8
00_COMPONENTS_3
100
AcDbCircle
 62
7
  6
BYLAYER
 10
39.0398174954
 20
32.3583278817
 40
0.254
100
AcDbArc
 50
249.9999999998
 51
297.3240165494
  0
ARC
  5
3A4
100
AcDbEntity
  8
00_COMPONENTS_3
100
AcDbCircle
 62
7
  6
BYLAYER
 10
38.0279207473
 20
31.8864726789
 40
0.254
100
AcDbArc
 50
292.6759834506
 51
340.0000000002
  0
ARC
  5
3A5
100
AcDbEntity
  8
00_COMPONENTS_3
100
AcDbCircle
 62
7
  6
BYLAYER
 10
37.9497891221
 20
31.8541095
 40
0.254
100
AcDbArc
 50
245.0000000001
 51
292.3240165494
  0
ARC
  5
3A6
100
AcDbEntity
  8
00_COMPONENTS_3
100
AcDbCircle
 62
7
  6
BYLAYER
 10
36.900618056
 20
31.4722424613
 40
0.254
100
AcDbArc
 50
287.6759834506
 51
335.0000000001
  0
ARC
  5
3A7
100
AcDbEntity
  8
00_COMPONENTS_3
100
AcDbCircle
 62
7
  6
BYLAYER
 10
36.8199631083
 20
31.446812054
 40
0.254
100
AcDbArc
 50
240.0000000002
 51
287.3240165494
  0
ARC
  5
3A8
100
AcDbEntity
  8
00_COMPONENTS_3
100
AcDbCircle
 62
7
  6
BYLAYER
 10
35.7415025494
 20
31.1578394182
 40
0.254
100
AcDbArc
 50
282.6759834506
 51
329.9999999999
  0
ARC
  5
3A9
100
AcDbEntity
  8
00_COMPONENTS_3
100
AcDbCircle
 62
7
  6
BYLAYER
 10
35.6589381121
 20
31.1395353231
 40
0.254
100
AcDbArc
 50
251.1525158373
 51
282.3240165494
  0
ARC
  5
3AA
100
AcDbEntity
  8
00_COMPONENTS_2
100
AcDbCircle
 62
7
  6
BYLAYER
 10
34.9025910091
 20
30.5427152653
 40
0.2538324016
100
AcDbArc
 50
270.0438218385
 51
358.9817717402
  0
ARC
  5
3AB
100
AcDbEntity
  8
00_COMPONENTS_3
100
AcDbCircle
 62
7
  6
BYLAYER
 10
36.26547544
 20
31.3592670864
 40
0.09906
100
AcDbArc
 50
60.0000298893
 51
149.9999727388
  0
ARC
  5
3AC
100
AcDbEntity
  8
00_COMPONENTS_3
100
AcDbCircle
 62
7
  6
BYLAYER
 10
37.4050414935
 20
31.7185708829
 40
0.09906
100
AcDbArc
 50
65.0000266409
 51
154.9999695422
  0
ARC
  5
3AD
100
AcDbEntity
  8
00_COMPONENTS_3
100
AcDbCircle
 62
7
  6
BYLAYER
 10
38.5089557648
 20
32.1758271458
 40
0.09906
100
AcDbArc
 50
70.0000231244
 51
159.9999666405
  0
ARC
  5
3AE
100
AcDbEntity
  8
00_COMPONENTS_3
100
AcDbCircle
 62
7
  6
BYLAYER
 10
39.5688167998
 20
32.7275558788
 40
0.09906
100
AcDbArc
 50
75.0000193721
 51
164.9999640573
  0
ARC
  5
3AF
100
AcDbEntity
  8
00_COMPONENTS_3
100
AcDbCircle
 62
7
  6
BYLAYER
 10
40.5765584161
 20
33.3695580931
 40
0.09906
100
AcDbArc
 50
80.0000154064
 51
169.9999618103
  0
ARC
  5
3B0
100
AcDbEntity
  8
00_COMPONENTS_3
100
AcDbCircle
 62
7
  6
BYLAYER
 10
44.3540195585
 20
37.2278968972
 40
0.254
100
AcDbArc
 50
327.6759834506
 51
14.9999999998
  0
ARC
  5
3B1
100
AcDbEntity
  8
00_COMPONENTS_3
100
AcDbCircle
 62
7
  6
BYLAYER
 10
44.3085806347
 20
37.156572074
 40
0.254
100
AcDbArc
 50
280.0000000002
 51
327.3240165494
  0
ARC
  5
3B2
100
AcDbEntity
  8
00_COMPONENTS_3
100
AcDbCircle
 62
7
  6
BYLAYER
 10
43.6681799464
 20
36.2419851073
 40
0.254
100
AcDbArc
 50
322.6759834506
 51
10.0000000002
  0
ARC
  5
3B3
100
AcDbEntity
  8
00_COMPONENTS_3
100
AcDbCircle
 62
7
  6
BYLAYER
 10
43.6166975635
 20
36.1748919597
 40
0.254
100
AcDbArc
 50
275.0000000001
 51
322.3240165494
  0
ARC
  5
3B4
100
AcDbEntity
  8
00_COMPONENTS_3
100
AcDbCircle
 62
7
  6
BYLAYER
 10
42.8990222867
 20
35.3195998703
 40
0.254
100
AcDbArc
 50
317.6759834506
 51
5.0000000001
  0
ARC
  5
3B5
100
AcDbEntity
  8
00_COMPONENTS_3
100
AcDbCircle
 62
7
  6
BYLAYER
 10
42.8418882567
 20
35.2572490176
 40
0.254
100
AcDbArc
 50
270.0
 51
317.3240165494
  0
ARC
  5
3B6
100
AcDbEntity
  8
00_COMPONENTS_3
100
AcDbCircle
 62
7
  6
BYLAYER
 10
42.0524003337
 20
34.4677610946
 40
0.254
100
AcDbArc
 50
312.6759834506
 51
360.0
  0
ARC
  5
3B7
100
AcDbEntity
  8
00_COMPONENTS_3
100
AcDbCircle
 62
7
  6
BYLAYER
 10
41.990049481
 20
34.4106270646
 40
0.254
100
AcDbArc
 50
264.9999999999
 51
312.3240165494
  0
ARC
  5
3B8
100
AcDbEntity
  8
00_COMPONENTS_3
100
AcDbCircle
 62
7
  6
BYLAYER
 10
41.1347573916
 20
33.6929517878
 40
0.254
100
AcDbArc
 50
307.6759834506
 51
354.9999999999
  0
ARC
  5
3B9
100
AcDbEntity
  8
00_COMPONENTS_3
100
AcDbCircle
 62
7
  6
BYLAYER
 10
41.0676642439
 20
33.6414694049
 40
0.254
100
AcDbArc
 50
259.9999999998
 51
307.3240165494
  0
ARC
  5
3BA
100
AcDbEntity
  8
00_COMPONENTS_3
100
AcDbCircle
 62
7
  6
BYLAYER
 10
41.5245110915
 20
34.0969477643
 40
0.09906
100
AcDbArc
 50
85.0000112611
 51
174.9999599189
  0
ARC
  5
3BB
100
AcDbEntity
  8
00_COMPONENTS_3
100
AcDbCircle
 62
7
  6
BYLAYER
 10
42.4054603337
 20
34.9041890176
 40
0.09906
100
AcDbArc
 50
90.0000069656
 51
179.9999583935
  0
ARC
  5
3BC
100
AcDbEntity
  8
00_COMPONENTS_3
100
AcDbCircle
 62
7
  6
BYLAYER
 10
43.212701587
 20
35.7851382598
 40
0.09906
100
AcDbArc
 50
95.0000025544
 51
184.9999572503
  0
ARC
  5
3BD
100
AcDbEntity
  8
00_COMPONENTS_3
100
AcDbCircle
 62
7
  6
BYLAYER
 10
43.9400912581
 20
36.7330909352
 40
0.09906
100
AcDbArc
 50
99.9999980613
 51
189.9999564943
  0
ARC
  5
3BE
100
AcDbEntity
  8
00_COMPONENTS_3
100
AcDbCircle
 62
7
  6
BYLAYER
 10
46.4760301145
 20
44.0308435784
 40
0.254
100
AcDbArc
 50
357.6759834506
 51
45.0000000003
  0
ARC
  5
3BF
100
AcDbEntity
  8
00_COMPONENTS_3
100
AcDbCircle
 62
7
  6
BYLAYER
 10
46.4723412639
 20
43.9463550077
 40
0.254
100
AcDbArc
 50
310.0000000002
 51
357.3240165494
  0
ARC
  5
3C0
100
AcDbEntity
  8
00_COMPONENTS_3
100
AcDbCircle
 62
7
  6
BYLAYER
 10
46.3750314824
 20
42.8340991164
 40
0.254
100
AcDbArc
 50
352.6759834506
 51
40.0
  0
ARC
  5
3C1
100
AcDbEntity
  8
00_COMPONENTS_3
100
AcDbCircle
 62
7
  6
BYLAYER
 10
46.3639930048
 20
42.7502535547
 40
0.254
100
AcDbArc
 50
305.0000000004
 51
352.3240165494
  0
ARC
  5
3C2
100
AcDbEntity
  8
00_COMPONENTS_3
100
AcDbCircle
 62
7
  6
BYLAYER
 10
46.1701140282
 20
41.6507112392
 40
0.254
100
AcDbArc
 50
347.6759834506
 51
34.9999999999
  0
ARC
  5
3C3
100
AcDbEntity
  8
00_COMPONENTS_3
100
AcDbCircle
 62
7
  6
BYLAYER
 10
46.1518099331
 20
41.5681468018
 40
0.254
100
AcDbArc
 50
300.0000000001
 51
347.3240165494
  0
ARC
  5
3C4
100
AcDbEntity
  8
00_COMPONENTS_3
100
AcDbCircle
 62
7
  6
BYLAYER
 10
45.8628372973
 20
40.489686243
 40
0.254
100
AcDbArc
 50
342.6759834506
 51
29.9999999998
  0
ARC
  5
3C5
100
AcDbEntity
  8
00_COMPONENTS_3
100
AcDbCircle
 62
7
  6
BYLAYER
 10
45.8374068899
 20
40.4090312953
 40
0.254
100
AcDbArc
 50
294.9999999999
 51
342.3240165494
  0
ARC
  5
3C6
100
AcDbEntity
  8
00_COMPONENTS_3
100
AcDbCircle
 62
7
  6
BYLAYER
 10
45.4555398512
 20
39.3598602292
 40
0.254
100
AcDbArc
 50
337.6759834506
 51
24.9999999999
  0
ARC
  5
3C7
100
AcDbEntity
  8
00_COMPONENTS_3
100
AcDbCircle
 62
7
  6
BYLAYER
 10
45.4231766724
 20
39.281728604
 40
0.254
100
AcDbArc
 50
289.9999999998
 51
337.3240165494
  0
ARC
  5
3C8
100
AcDbEntity
  8
00_COMPONENTS_3
100
AcDbCircle
 62
7
  6
BYLAYER
 10
44.9513214695
 20
38.2698318559
 40
0.254
100
AcDbArc
 50
332.6759834506
 51
20.0000000002
  0
ARC
  5
3C9
100
AcDbEntity
  8
00_COMPONENTS_3
100
AcDbCircle
 62
7
  6
BYLAYER
 10
44.9122718225
 20
38.194818182
 40
0.254
100
AcDbArc
 50
284.9999999998
 51
332.3240165494
  0
ARC
  5
3CA
100
AcDbEntity
  8
00_COMPONENTS_3
100
AcDbCircle
 62
7
  6
BYLAYER
 10
44.5820934725
 20
37.7408325515
 40
0.09906
100
AcDbArc
 50
104.9999935179
 51
194.9999561345
  0
ARC
  5
3CB
100
AcDbEntity
  8
00_COMPONENTS_3
100
AcDbCircle
 62
7
  6
BYLAYER
 10
45.1338222055
 20
38.8006935865
 40
0.09906
100
AcDbArc
 50
109.9999889604
 51
199.9999561717
  0
ARC
  5
3CC
100
AcDbEntity
  8
00_COMPONENTS_3
100
AcDbCircle
 62
7
  6
BYLAYER
 10
45.5910784683
 20
39.9046078578
 40
0.09906
100
AcDbArc
 50
114.999984424
 51
204.9999566049
  0
ARC
  5
3CD
100
AcDbEntity
  8
00_COMPONENTS_3
100
AcDbCircle
 62
7
  6
BYLAYER
 10
45.9503822648
 20
41.0441739113
 40
0.09906
100
AcDbArc
 50
119.9999799422
 51
209.9999574318
  0
ARC
  5
3CE
100
AcDbEntity
  8
00_COMPONENTS_3
100
AcDbCircle
 62
7
  6
BYLAYER
 10
46.2089990761
 20
42.2107189611
 40
0.09906
100
AcDbArc
 50
124.9999755505
 51
214.999958647
  0
ARC
  5
3CF
100
AcDbEntity
  8
00_COMPONENTS_3
100
AcDbCircle
 62
7
  6
BYLAYER
 10
46.3649606721
 20
43.3953648951
 40
0.09906
100
AcDbArc
 50
129.9999712805
 51
219.9999602405
  0
ARC
  5
3D0
100
AcDbEntity
  8
0
100
AcDbCircle
 62
7
  6
BYLAYER
 10
32.7205535088
 20
44.5890958425
 40
22.225
100
AcDbArc
 50
15.2969576344
 51
72.9653914043
  0
ARC
  5
3D1
100
AcDbEntity
  8
0
100
AcDbCircle
 62
7
  6
BYLAYER
 10
32.7205535088
 20
44.5890958425
 40
22.225
100
AcDbArc
 50
285.2969576344
 51
344.7030423656
  0
ARC
  5
3D2
100
AcDbEntity
  8
0
100
AcDbCircle
 62
7
  6
BYLAYER
 10
32.7205535088
 20
44.5890958425
 40
22.225
100
AcDbArc
 50
195.2969576344
 51
254.7030423656
  0
ARC
  5
3D3
100
AcDbEntity
  8
0
100
AcDbCircle
 62
7
  6
BYLAYER
 10
32.7205535088
 20
44.5890958425
 40
22.225
100
AcDbArc
 50
107.0346085959
 51
164.7030423656
  0
CIRCLE
  5
3D4
100
AcDbEntity
  8
0
100
AcDbCircle
 62
7
  6
BYLAYER
 10
32.7205535088
 20
44.5890958425
 40
20.2946
  0
ARC
  5
3D5
100
AcDbEntity
  8
0
100
AcDbCircle
 62
7
  6
BYLAYER
 10
32.7205535088
 20
44.5890958425
 40
19.84375
100
AcDbArc
 50
340.3664208685
 51
19.6455721172
  0
ARC
  5
3D6
100
AcDbEntity
  8
0
100
AcDbCircle
 62
7
  6
BYLAYER
 10
32.7205535088
 20
44.5890958425
 40
19.84375
100
AcDbArc
 50
160.3664208685
 51
199.6455721172
  0
ARC
  5
3D7
100
AcDbEntity
  8
00_COMPONENTS
100
AcDbCircle
 62
7
  6
BYLAYER
 10
32.7205535088
 20
44.5890958425
 40
19.84375
100
AcDbArc
 50
196.2602047083
 51
343.7397952917
  0
ARC
  5
3D8
100
AcDbEntity
  8
00_COMPONENTS
100
AcDbCircle
 62
7
  6
BYLAYER
 10
32.7205535088
 20
44.5890958425
 40
19.84375
100
AcDbArc
 50
16.2602047083
 51
163.7397952917
  0
ARC
  5
3D9
100
AcDbEntity
  8
00_COMPONENTS
100
AcDbCircle
 62
7
  6
BYLAYER
 10
32.7205535088
 20
44.5890958425
 40
18.669
100
AcDbArc
 50
114.2886757167
 51
155.7113242833
  0
ARC
  5
3DA
100
AcDbEntity
  8
00_COMPONENTS
100
AcDbCircle
 62
7
  6
BYLAYER
 10
32.7205535088
 20
44.5890958425
 40
18.669
100
AcDbArc
 50
69.2886757167
 51
80.5378987509
  0
ARC
  5
3DB
100
AcDbEntity
  8
00_COMPONENTS
100
AcDbCircle
 62
7
  6
BYLAYER
 10
32.7205535088
 20
44.5890958425
 40
18.669
100
AcDbArc
 50
99.4621012491
 51
110.7113242833
  0
ARC
  5
3DC
100
AcDbEntity
  8
00_COMPONENTS
100
AcDbCircle
 62
7
  6
BYLAYER
 10
32.7205535088
 20
44.5890958425
 40
18.669
100
AcDbArc
 50
24.2886757167
 51
65.7113242833
  0
ARC
  5
3DD
100
AcDbEntity
  8
00_COMPONENTS
100
AcDbCircle
 62
7
  6
BYLAYER
 10
32.7205535088
 20
44.5890958425
 40
18.669
100
AcDbArc
 50
339.2886757167
 51
350.5378987509
  0
ARC
  5
3DE
100
AcDbEntity
  8
00_COMPONENTS
100
AcDbCircle
 62
7
  6
BYLAYER
 10
32.7205535088
 20
44.5890958425
 40
18.669
100
AcDbArc
 50
9.4621012491
 51
20.7113242833
  0
ARC
  5
3DF
100
AcDbEntity
  8
00_COMPONENTS
100
AcDbCircle
 62
7
  6
BYLAYER
 10
32.7205535088
 20
44.5890958425
 40
18.669
100
AcDbArc
 50
294.2886757167
 51
335.7113242833
  0
ARC
  5
3E0
100
AcDbEntity
  8
00_COMPONENTS
100
AcDbCircle
 62
7
  6
BYLAYER
 10
32.7205535088
 20
44.5890958425
 40
18.669
100
AcDbArc
 50
249.2886757167
 51
290.7113242833
  0
ARC
  5
3E1
100
AcDbEntity
  8
00_COMPONENTS
100
AcDbCircle
 62
7
  6
BYLAYER
 10
32.7205535088
 20
44.5890958425
 40
18.669
100
AcDbArc
 50
204.2886757167
 51
245.7113242833
  0
ARC
  5
3E2
100
AcDbEntity
  8
00_COMPONENTS
100
AcDbCircle
 62
7
  6
BYLAYER
 10
32.7205535088
 20
44.5890958425
 40
18.669
100
AcDbArc
 50
159.2886757167
 51
170.5378987509
  0
ARC
  5
3E3
100
AcDbEntity
  8
00_COMPONENTS
100
AcDbCircle
 62
7
  6
BYLAYER
 10
32.7205535088
 20
44.5890958425
 40
18.669
100
AcDbArc
 50
189.4621012491
 51
200.7113242833
  0
CIRCLE
  5
3E4
100
AcDbEntity
  8
00_COMPONENTS
100
AcDbCircle
 62
7
  6
BYLAYER
 10
32.7205535088
 20
44.5890958425
 40
16.393700004
  0
CIRCLE
  5
3E5
100
AcDbEntity
  8
00_COMPONENTS
100
AcDbCircle
 62
7
  6
BYLAYER
 10
32.7205535088
 20
44.5890958425
 40
16.000000004
  0
CIRCLE
  5
3E6
100
AcDbEntity
  8
00_COMPONENTS
100
AcDbCircle
 62
7
  6
BYLAYER
 10
32.7205535088
 20
44.5890958425
 40
15.746000004
  0
ARC
  5
3E7
100
AcDbEntity
  8
00_COMPONENTS_3
100
AcDbCircle
 62
7
  6
BYLAYER
 10
32.7205535088
 20
44.5890958425
 40
14.224
100
AcDbArc
 50
283.8056148898
 51
256.2247290395
  0
ARC
  5
3E8
100
AcDbEntity
  8
00_COMPONENTS_3
100
AcDbCircle
 62
7
  6
BYLAYER
 10
32.7205535088
 20
44.5890958425
 40
14.0208
100
AcDbArc
 50
281.751335354
 51
258.2491455952
  0
ARC
  5
3E9
100
AcDbEntity
  8
00_COMPONENTS_3
100
AcDbCircle
 62
7
  6
BYLAYER
 10
32.7205535088
 20
44.5890958425
 40
13.2334
100
AcDbArc
 50
281.7248580273
 51
251.841796408
  0
ARC
  5
3EA
100
AcDbEntity
  8
00_COMPONENTS_3
100
AcDbCircle
 62
7
  6
BYLAYER
 10
32.7205535088
 20
44.5890958425
 40
10.7442
100
AcDbArc
 50
289.112784565
 51
250.8877620668
  0
ARC
  5
3EB
100
AcDbEntity
  8
00_COMPONENTS_3
100
AcDbCircle
 62
7
  6
BYLAYER
 10
32.7205535088
 20
44.5890958425
 40
10.541
100
AcDbArc
 50
289.0847908054
 51
250.9795164881
  0
ARC
  5
3EC
100
AcDbEntity
  8
00_COMPONENTS_2
100
AcDbCircle
 62
7
  6
BYLAYER
 10
32.7205535088
 20
44.5890958425
 40
10.287
100
AcDbArc
 50
285.678366452
 51
254.4057686962
  0
ARC
  5
3ED
100
AcDbEntity
  8
00_COMPONENTS_3
100
AcDbCircle
 62
7
  6
BYLAYER
 10
33.2788057729
 20
58.3445724481
 40
0.254
100
AcDbArc
 50
87.6759834506
 51
135.0000000003
  0
ARC
  5
3EE
100
AcDbEntity
  8
00_COMPONENTS_3
100
AcDbCircle
 62
7
  6
BYLAYER
 10
33.3632943436
 20
58.3408835975
 40
0.254
100
AcDbArc
 50
40.0000000002
 51
87.3240165494
  0
ARC
  5
3EF
100
AcDbEntity
  8
00_COMPONENTS_3
100
AcDbCircle
 62
7
  6
BYLAYER
 10
34.4755502349
 20
58.2435738161
 40
0.254
100
AcDbArc
 50
82.6759834506
 51
130.0
  0
ARC
  5
3F0
100
AcDbEntity
  8
00_COMPONENTS_3
100
AcDbCircle
 62
7
  6
BYLAYER
 10
34.5593957966
 20
58.2325353384
 40
0.254
100
AcDbArc
 50
35.0000000004
 51
82.3240165494
  0
ARC
  5
3F1
100
AcDbEntity
  8
00_COMPONENTS_3
100
AcDbCircle
 62
7
  6
BYLAYER
 10
35.6589381121
 20
58.0386563618
 40
0.254
100
AcDbArc
 50
77.6759834506
 51
124.9999999999
  0
ARC
  5
3F2
100
AcDbEntity
  8
00_COMPONENTS_3
100
AcDbCircle
 62
7
  6
BYLAYER
 10
35.7415025494
 20
58.0203522667
 40
0.254
100
AcDbArc
 50
30.0000000001
 51
77.3240165494
  0
ARC
  5
3F3
100
AcDbEntity
  8
00_COMPONENTS_3
100
AcDbCircle
 62
7
  6
BYLAYER
 10
36.8199631083
 20
57.7313796309
 40
0.254
100
AcDbArc
 50
72.6759834506
 51
119.9999999998
  0
ARC
  5
3F4
100
AcDbEntity
  8
00_COMPONENTS_3
100
AcDbCircle
 62
7
  6
BYLAYER
 10
36.900618056
 20
57.7059492236
 40
0.254
100
AcDbArc
 50
24.9999999999
 51
72.3240165494
  0
ARC
  5
3F5
100
AcDbEntity
  8
00_COMPONENTS_3
100
AcDbCircle
 62
7
  6
BYLAYER
 10
37.9497891221
 20
57.3240821849
 40
0.254
100
AcDbArc
 50
67.6759834506
 51
114.9999999999
  0
ARC
  5
3F6
100
AcDbEntity
  8
00_COMPONENTS_3
100
AcDbCircle
 62
7
  6
BYLAYER
 10
38.0279207473
 20
57.291719006
 40
0.254
100
AcDbArc
 50
19.9999999998
 51
67.3240165494
  0
ARC
  5
3F7
100
AcDbEntity
  8
00_COMPONENTS_3
100
AcDbCircle
 62
7
  6
BYLAYER
 10
39.0398174954
 20
56.8198638032
 40
0.254
100
AcDbArc
 50
62.6759834506
 51
110.0000000002
  0
ARC
  5
3F8
100
AcDbEntity
  8
00_COMPONENTS_3
100
AcDbCircle
 62
7
  6
BYLAYER
 10
39.1148311693
 20
56.7808141562
 40
0.254
100
AcDbArc
 50
14.9999999998
 51
62.3240165494
  0
ARC
  5
3F9
100
AcDbEntity
  8
00_COMPONENTS_3
100
AcDbCircle
 62
7
  6
BYLAYER
 10
32.7205535088
 20
58.2856224245
 40
0.09906
100
AcDbArc
 50
224.9999999997
 51
314.9999999986
  0
ARC
  5
3FA
100
AcDbEntity
  8
00_COMPONENTS_3
100
AcDbCircle
 62
7
  6
BYLAYER
 10
33.9142844561
 20
58.2335030057
 40
0.09906
100
AcDbArc
 50
220.0000000003
 51
309.9999999988
  0
ARC
  5
3FB
100
AcDbEntity
  8
00_COMPONENTS_3
100
AcDbCircle
 62
7
  6
BYLAYER
 10
35.0989303902
 20
58.0775414097
 40
0.09906
100
AcDbArc
 50
214.9999999996
 51
304.9999999985
  0
ARC
  5
3FC
100
AcDbEntity
  8
00_COMPONENTS_3
100
AcDbCircle
 62
7
  6
BYLAYER
 10
36.26547544
 20
57.8189245985
 40
0.09906
100
AcDbArc
 50
209.9999999999
 51
299.9999999982
  0
ARC
  5
3FD
100
AcDbEntity
  8
00_COMPONENTS_3
100
AcDbCircle
 62
7
  6
BYLAYER
 10
37.4050414935
 20
57.459620802
 40
0.09906
100
AcDbArc
 50
204.9999999991
 51
294.9999999975
  0
ARC
  5
3FE
100
AcDbEntity
  8
00_COMPONENTS_3
100
AcDbCircle
 62
7
  6
BYLAYER
 10
38.5089557648
 20
57.0023645391
 40
0.09906
100
AcDbArc
 50
200.0000000012
 51
289.9999999988
  0
ARC
  5
3FF
100
AcDbEntity
  8
00_COMPONENTS_3
100
AcDbCircle
 62
7
  6
BYLAYER
 10
39.5688167998
 20
56.4506358061
 40
0.09906
100
AcDbArc
 50
194.9999999995
 51
284.9999999984
  0
ARC
  5
400
100
AcDbEntity
  8
00_COMPONENTS_3
100
AcDbCircle
 62
7
  6
BYLAYER
 10
44.9122718225
 20
50.9833735029
 40
0.254
100
AcDbArc
 50
27.6759834506
 51
75.0000000002
  0
ARC
  5
401
100
AcDbEntity
  8
00_COMPONENTS_3
100
AcDbCircle
 62
7
  6
BYLAYER
 10
44.9513214695
 20
50.908359829
 40
0.254
100
AcDbArc
 50
339.9999999998
 51
27.3240165494
  0
ARC
  5
402
100
AcDbEntity
  8
00_COMPONENTS_3
100
AcDbCircle
 62
7
  6
BYLAYER
 10
45.4231766724
 20
49.896463081
 40
0.254
100
AcDbArc
 50
22.6759834506
 51
70.0000000002
  0
ARC
  5
403
100
AcDbEntity
  8
00_COMPONENTS_3
100
AcDbCircle
 62
7
  6
BYLAYER
 10
45.4555398512
 20
49.8183314557
 40
0.254
100
AcDbArc
 50
335.0000000001
 51
22.3240165494
  0
ARC
  5
404
100
AcDbEntity
  8
00_COMPONENTS_3
100
AcDbCircle
 62
7
  6
BYLAYER
 10
45.8374068899
 20
48.7691603896
 40
0.254
100
AcDbArc
 50
17.6759834506
 51
65.0000000001
  0
ARC
  5
405
100
AcDbEntity
  8
00_COMPONENTS_3
100
AcDbCircle
 62
7
  6
BYLAYER
 10
45.8628372973
 20
48.6885054419
 40
0.254
100
AcDbArc
 50
330.0000000002
 51
17.3240165494
  0
ARC
  5
406
100
AcDbEntity
  8
00_COMPONENTS_3
100
AcDbCircle
 62
7
  6
BYLAYER
 10
46.3639930048
 20
46.4279381302
 40
0.254
100
AcDbArc
 50
7.6759834506
 51
54.9999999996
  0
ARC
  5
407
100
AcDbEntity
  8
00_COMPONENTS_3
100
AcDbCircle
 62
7
  6
BYLAYER
 10
46.3750314824
 20
46.3440925685
 40
0.254
100
AcDbArc
 50
320.0
 51
7.3240165494
  0
ARC
  5
408
100
AcDbEntity
  8
00_COMPONENTS_3
100
AcDbCircle
 62
7
  6
BYLAYER
 10
46.4723412639
 20
45.2318366773
 40
0.254
100
AcDbArc
 50
2.6759834506
 51
49.9999999998
  0
ARC
  5
409
100
AcDbEntity
  8
00_COMPONENTS_3
100
AcDbCircle
 62
7
  6
BYLAYER
 10
46.4760301145
 20
45.1473481065
 40
0.254
100
AcDbArc
 50
314.9999999997
 51
2.3240165494
  0
ARC
  5
40A
100
AcDbEntity
  8
00_COMPONENTS_3
100
AcDbCircle
 62
7
  6
BYLAYER
 10
46.1701140282
 20
47.5274804457
 40
0.254
100
AcDbArc
 50
325.0000000001
 51
12.3240165494
  0
ARC
  5
40B
100
AcDbEntity
  8
00_COMPONENTS_3
100
AcDbCircle
 62
7
  6
BYLAYER
 10
46.1518099331
 20
47.6100448831
 40
0.254
100
AcDbArc
 50
12.6759834506
 51
59.9999999999
  0
ARC
  5
40C
100
AcDbEntity
  8
00_COMPONENTS_3
100
AcDbCircle
 62
7
  6
BYLAYER
 10
44.5820934725
 20
51.4373591335
 40
0.09906
100
AcDbArc
 50
165.0000000013
 51
254.9999999989
  0
ARC
  5
40D
100
AcDbEntity
  8
00_COMPONENTS_3
100
AcDbCircle
 62
7
  6
BYLAYER
 10
45.1338222055
 20
50.3774980984
 40
0.09906
100
AcDbArc
 50
159.9999999987
 51
249.9999999979
  0
ARC
  5
40E
100
AcDbEntity
  8
00_COMPONENTS_3
100
AcDbCircle
 62
7
  6
BYLAYER
 10
45.5910784683
 20
49.2735838271
 40
0.09906
100
AcDbArc
 50
155.0000000013
 51
244.9999999988
  0
ARC
  5
40F
100
AcDbEntity
  8
00_COMPONENTS_3
100
AcDbCircle
 62
7
  6
BYLAYER
 10
45.9503822648
 20
48.1340177736
 40
0.09906
100
AcDbArc
 50
150.0000000022
 51
240.0000000003
  0
ARC
  5
410
100
AcDbEntity
  8
00_COMPONENTS_3
100
AcDbCircle
 62
7
  6
BYLAYER
 10
46.2089990761
 20
46.9674727238
 40
0.09906
100
AcDbArc
 50
144.9999999998
 51
234.9999999967
  0
ARC
  5
411
100
AcDbEntity
  8
00_COMPONENTS_3
100
AcDbCircle
 62
7
  6
BYLAYER
 10
46.3649606721
 20
45.7828267898
 40
0.09906
100
AcDbArc
 50
140.0000000031
 51
229.9999999997
  0
ARC
  5
412
100
AcDbEntity
  8
00_COMPONENTS_3
100
AcDbCircle
 62
7
  6
BYLAYER
 10
46.4170800908
 20
44.5890958425
 40
0.09906
100
AcDbArc
 50
134.9999671659
 51
224.9999621994
  0
ARC
  5
413
100
AcDbEntity
  8
00_COMPONENTS_3
100
AcDbCircle
 62
7
  6
BYLAYER
 10
40.081752454
 20
56.2225618921
 40
0.254
100
AcDbArc
 50
57.6759834506
 51
104.9999999998
  0
ARC
  5
414
100
AcDbEntity
  8
00_COMPONENTS_3
100
AcDbCircle
 62
7
  6
BYLAYER
 10
40.1530772773
 20
56.1771229684
 40
0.254
100
AcDbArc
 50
10.0000000002
 51
57.3240165494
  0
ARC
  5
415
100
AcDbEntity
  8
00_COMPONENTS_3
100
AcDbCircle
 62
7
  6
BYLAYER
 10
41.0676642439
 20
55.53672228
 40
0.254
100
AcDbArc
 50
52.6759834506
 51
100.0000000002
  0
ARC
  5
416
100
AcDbEntity
  8
00_COMPONENTS_3
100
AcDbCircle
 62
7
  6
BYLAYER
 10
41.1347573916
 20
55.4852398971
 40
0.254
100
AcDbArc
 50
5.0000000001
 51
52.3240165494
  0
ARC
  5
417
100
AcDbEntity
  8
00_COMPONENTS_3
100
AcDbCircle
 62
7
  6
BYLAYER
 10
41.990049481
 20
54.7675646203
 40
0.254
100
AcDbArc
 50
47.6759834506
 51
95.0000000001
  0
ARC
  5
418
100
AcDbEntity
  8
00_COMPONENTS_3
100
AcDbCircle
 62
7
  6
BYLAYER
 10
42.0524003337
 20
54.7104305903
 40
0.254
100
AcDbArc
 50
0.0
 51
47.3240165494
  0
ARC
  5
419
100
AcDbEntity
  8
00_COMPONENTS_3
100
AcDbCircle
 62
7
  6
BYLAYER
 10
42.8418882567
 20
53.9209426673
 40
0.254
100
AcDbArc
 50
42.6759834506
 51
90.0
  0
ARC
  5
41A
100
AcDbEntity
  8
00_COMPONENTS_3
100
AcDbCircle
 62
7
  6
BYLAYER
 10
42.8990222867
 20
53.8585918146
 40
0.254
100
AcDbArc
 50
354.9999999999
 51
42.3240165494
  0
ARC
  5
41B
100
AcDbEntity
  8
00_COMPONENTS_3
100
AcDbCircle
 62
7
  6
BYLAYER
 10
43.6166975635
 20
53.0032997252
 40
0.254
100
AcDbArc
 50
37.6759834506
 51
84.9999999999
  0
ARC
  5
41C
100
AcDbEntity
  8
00_COMPONENTS_3
100
AcDbCircle
 62
7
  6
BYLAYER
 10
43.6681799464
 20
52.9362065776
 40
0.254
100
AcDbArc
 50
349.9999999998
 51
37.3240165494
  0
ARC
  5
41D
100
AcDbEntity
  8
00_COMPONENTS_3
100
AcDbCircle
 62
7
  6
BYLAYER
 10
44.3085806347
 20
52.021619611
 40
0.254
100
AcDbArc
 50
32.6759834506
 51
79.9999999998
  0
ARC
  5
41E
100
AcDbEntity
  8
00_COMPONENTS_3
100
AcDbCircle
 62
7
  6
BYLAYER
 10
44.3540195585
 20
51.9502947877
 40
0.254
100
AcDbArc
 50
345.0000000002
 51
32.3240165494
  0
ARC
  5
41F
100
AcDbEntity
  8
00_COMPONENTS_3
100
AcDbCircle
 62
7
  6
BYLAYER
 10
40.5765584161
 20
55.8086335918
 40
0.09906
100
AcDbArc
 50
189.9999999998
 51
279.9999999982
  0
ARC
  5
420
100
AcDbEntity
  8
00_COMPONENTS_3
100
AcDbCircle
 62
7
  6
BYLAYER
 10
41.5245110915
 20
55.0812439206
 40
0.09906
100
AcDbArc
 50
184.9999999996
 51
275.0000000011
  0
ARC
  5
421
100
AcDbEntity
  8
00_COMPONENTS_3
100
AcDbCircle
 62
7
  6
BYLAYER
 10
42.4054603337
 20
54.2740026673
 40
0.09906
100
AcDbArc
 50
179.9999999987
 51
269.999999999
  0
ARC
  5
422
100
AcDbEntity
  8
00_COMPONENTS_3
100
AcDbCircle
 62
7
  6
BYLAYER
 10
43.212701587
 20
53.3930534251
 40
0.09906
100
AcDbArc
 50
174.9999999994
 51
265.0000000011
  0
ARC
  5
423
100
AcDbEntity
  8
00_COMPONENTS_3
100
AcDbCircle
 62
7
  6
BYLAYER
 10
43.9400912581
 20
52.4451007497
 40
0.09906
100
AcDbArc
 50
169.9999999984
 51
259.9999999978
  0
SPLINE
  5
424
100
AcDbEntity
  8
00_COMPONENTS_2
100
AcDbSpline
 62
7
  6
BYLAYER
 70
0
 71
3
 72
24
 73
20
 74
0
 42
0.0000001
 43
0.0000001
 44
0.0000000001
 40
0.0
 40
0.0
 40
0.0
 40
0.0
 40
0.1970195357
 40
0.3851460875
 40
0.5574962463
 40
0.6358144234
 40
0.7079156112
 40
0.7731690278
 40
0.8309763496
 40
0.8808395925
 40
0.9223082721
 40
0.9550406203
 40
0.9680562862
 40
0.9788053772
 40
0.987284176
 40
0.9935195516
 40
0.9958240562
 40
0.9976212505
 40
1.0
 40
1.0
 40
1.0
 40
1.0
 10
34.8674826477
 20
31.4979924319
 30
0.0
 10
34.8664660457
 20
31.4183442128
 30
0.0
 10
34.8650871646
 20
31.2626342783
 30
0.0
 10
34.8649639639
 20
31.0372368885
 30
0.0
 10
34.8665340747
 20
30.8598359222
 30
0.0
 10
34.8688737389
 20
30.7293608207
 30
0.0
 10
34.8710429006
 20
30.6421908178
 30
0.0
 10
34.8736534541
 20
30.5633291793
 30
0.0
 10
34.8766841152
 20
30.4934806733
 30
0.0
 10
34.8800896096
 20
30.4332772223
 30
0.0
 10
34.8838394966
 20
30.3832563713
 30
0.0
 10
34.8873959925
 20
30.3481649941
 30
0.0
 10
34.8905459284
 20
30.3255385711
 30
0.0
 10
34.8927724938
 20
30.312690817
 30
0.0
 10
34.895059804
 20
30.3026452759
 30
0.0
 10
34.8970925843
 20
30.296064841
 30
0.0
 10
34.8989045775
 20
30.2922612871
 30
0.0
 10
34.9002801641
 20
30.2900925195
 30
0.0
 10
34.9018243197
 20
30.2888886257
 30
0.0
 10
34.9027860175
 20
30.2888958425
 30
0.0
  0
SPLINE
  5
425
100
AcDbEntity
  8
00_COMPONENTS_2
100
AcDbSpline
 62
7
  6
BYLAYER
 70
0
 71
3
 72
24
 73
20
 74
0
 42
0.0000001
 43
0.0000001
 44
0.0000000001
 40
0.0
 40
0.0
 40
0.0
 40
0.0
 40
0.0023783772
 40
0.0041754472
 40
0.0064798457
 40
0.0127150378
 40
0.0211936822
 40
0.0319426615
 40
0.0449582628
 40
0.0776905769
 40
0.1191592798
 40
0.1690225621
 40
0.2268299442
 40
0.2920834521
 40
0.36418475
 40
0.4425030465
 40
0.614853466
 40
0.8029802435
 40
1.0
 40
1.0
 40
1.0
 40
1.0
 10
30.5383436952
 20
30.2888958425
 30
0.0
 10
30.5393052415
 20
30.2888886949
 30
0.0
 10
30.5408490276
 20
30.2900927538
 30
0.0
 10
30.5422242161
 20
30.292261448
 30
0.0
 10
30.544035771
 20
30.2960650284
 30
0.0
 10
30.5460680159
 20
30.3026454104
 30
0.0
 10
30.548354718
 20
30.3126908911
 30
0.0
 10
30.5505806596
 20
30.325538593
 30
0.0
 10
30.553729685
 20
30.3481650209
 30
0.0
 10
30.5572850686
 20
30.38325642
 30
0.0
 10
30.5610336835
 20
30.4332772988
 30
0.0
 10
30.5644379073
 20
30.4934807761
 30
0.0
 10
30.5674673098
 20
30.5633293045
 30
0.0
 10
30.5700766315
 20
30.6421909663
 30
0.0
 10
30.5722446004
 20
30.7293609924
 30
0.0
 10
30.5745826928
 20
30.8598361168
 30
0.0
 10
30.5761510464
 20
31.0372370657
 30
0.0
 10
30.5760261135
 20
31.2626343886
 30
0.0
 10
30.5746463349
 20
31.4183442523
 30
0.0
 10
30.5736293503
 20
31.4979924319
 30
0.0
  0
SPLINE
  5
426
100
AcDbEntity
  8
00_COMPONENTS_2
100
AcDbSpline
 62
7
  6
BYLAYER
 70
0
 71
3
 72
18
 73
14
 74
0
 42
0.0000001
 43
0.0000001
 44
0.0000000001
 40
0.0
 40
0.0
 40
0.0
 40
0.0
 40
0.1882733702
 40
0.3700858808
 40
0.5383890812
 40
0.6874300362
 40
0.8119466162
 40
0.8635417308
 40
0.9074405549
 40
0.9432410372
 40
0.9706408605
 40
0.9895229024
 40
1.0
 40
1.0
 40
1.0
 40
1.0
 10
34.8674846047
 20
31.4979924325
 30
0.0
 10
34.8834343258
 20
31.4977381043
 30
0.0
 10
34.9147888995
 20
31.4973796606
 30
0.0
 10
34.9604052088
 20
31.4972785851
 30
0.0
 10
35.0026968194
 20
31.4976217157
 30
0.0
 10
35.0401264904
 20
31.4983946656
 30
0.0
 10
35.0676608295
 20
31.4994040478
 30
0.0
 10
35.0862697612
 20
31.5004645508
 30
0.0
 10
35.0973693293
 20
31.5012860928
 30
0.0
 10
35.106386113
 20
31.5021865022
 30
0.0
 10
35.1133151923
 20
31.5031140246
 30
0.0
 10
35.1179533803
 20
31.5041197046
 30
0.0
 10
35.1204283563
 20
31.5048933362
 30
0.0
 10
35.1210931164
 20
31.5054816253
 30
0.0
  0
SPLINE
  5
427
100
AcDbEntity
  8
00_COMPONENTS_2
100
AcDbSpline
 62
7
  6
BYLAYER
 70
0
 71
3
 72
22
 73
18
 74
0
 42
0.0000001
 43
0.0000001
 44
0.0000000001
 40
0.0
 40
0.0
 40
0.0
 40
0.0
 40
0.0028234263
 40
0.0071534552
 40
0.0135188224
 40
0.0220683228
 40
0.0328523211
 40
0.0458871424
 40
0.0786371831
 40
0.1200751983
 40
0.1698915162
 40
0.2276476827
 40
0.2928224185
 40
0.4430804176
 40
0.6152130547
 40
0.8032017111
 40
1.0
 40
1.0
 40
1.0
 40
1.0
 10
35.1564219203
 20
30.5382043531
 30
0.0
 10
35.1555078535
 20
30.5381906427
 30
0.0
 10
35.1532881656
 20
30.5394789071
 30
0.0
 10
35.151039028
 20
30.543262487
 30
0.0
 10
35.14868309
 20
30.5490488547
 30
0.0
 10
35.1464256221
 20
30.5570684032
 30
0.0
 10
35.1441796084
 20
30.5673080349
 30
0.0
 10
35.1410336783
 20
30.5853563364
 30
0.0
 10
35.137472917
 20
30.6133832969
 30
0.0
 10
35.133720328
 20
30.6533608444
 30
0.0
 10
35.1303135376
 20
30.701490609
 30
0.0
 10
35.1272817267
 20
30.7573422094
 30
0.0
 10
35.1236198542
 20
30.8457214914
 30
0.0
 10
35.1204183097
 20
30.9711739382
 30
0.0
 10
35.1185731807
 20
31.1364182842
 30
0.0
 10
35.1186952479
 20
31.316741492
 30
0.0
 10
35.1200694728
 20
31.4413227571
 30
0.0
 10
35.1210859631
 20
31.5050340478
 30
0.0
  0
SPLINE
  5
428
100
AcDbEntity
  8
00_COMPONENTS_2
100
AcDbSpline
 62
7
  6
BYLAYER
 70
0
 71
3
 72
22
 73
18
 74
0
 42
0.0000001
 43
0.0000001
 44
0.0000000001
 40
0.0
 40
0.0
 40
0.0
 40
0.0
 40
0.1967983033
 40
0.3847868272
 40
0.5569193812
 40
0.7071773775
 40
0.7723521528
 40
0.8301084049
 40
0.8799248365
 40
0.9213630079
 40
0.9541132156
 40
0.9671481057
 40
0.977932161
 40
0.986481701
 40
0.9928470661
 40
0.9971769816
 40
1.0
 40
1.0
 40
1.0
 40
1.0
 10
30.3200259219
 20
31.5050327884
 30
0.0
 10
30.3210427853
 20
31.4413216467
 30
0.0
 10
30.3224178852
 20
31.3167407193
 30
0.0
 10
30.3225416554
 20
31.1364179973
 30
0.0
 10
30.3206985463
 20
30.9711740842
 30
0.0
 10
30.3174989567
 20
30.8457218967
 30
0.0
 10
30.3138387864
 20
30.7573427106
 30
0.0
 10
30.3108082198
 20
30.7014910959
 30
0.0
 10
30.3074026831
 20
30.6533612407
 30
0.0
 10
30.3036513511
 20
30.6133835286
 30
0.0
 10
30.3000916851
 20
30.5853563711
 30
0.0
 10
30.2969466562
 20
30.5673078635
 30
0.0
 10
30.2947012519
 20
30.5570680652
 30
0.0
 10
30.2924443991
 20
30.5490483499
 30
0.0
 10
30.2900890387
 20
30.5432617626
 30
0.0
 10
30.2878406063
 20
30.5394780794
 30
0.0
 10
30.2856213794
 20
30.5381893451
 30
0.0
 10
30.2847074447
 20
30.5382029237
 30
0.0
  0
SPLINE
  5
429
100
AcDbEntity
  8
00_COMPONENTS_2
100
AcDbSpline
 62
7
  6
BYLAYER
 70
0
 71
3
 72
18
 73
14
 74
0
 42
0.0000001
 43
0.0000001
 44
0.0000000001
 40
0.0
 40
0.0
 40
0.0
 40
0.0
 40
0.0104728485
 40
0.0293445505
 40
0.0567298147
 40
0.0925074811
 40
0.1363712329
 40
0.1879368634
 40
0.3124147933
 40
0.4614423374
 40
0.6298023518
 40
0.8116995108
 40
1.0
 40
1.0
 40
1.0
 40
1.0
 10
30.3200187686
 20
31.5054801875
 30
0.0
 10
30.3206831969
 20
31.5048920654
 30
0.0
 10
30.3231567446
 20
31.5041182854
 30
0.0
 10
30.3277925581
 20
31.5031128846
 30
0.0
 10
30.334717585
 20
31.5021858032
 30
0.0
 10
30.343728282
 20
31.5012859866
 30
0.0
 10
30.3548204309
 20
31.5004644809
 30
0.0
 10
30.3734206436
 20
31.4994042977
 30
0.0
 10
30.4009480769
 20
31.4983945874
 30
0.0
 10
30.4383781815
 20
31.4976213657
 30
0.0
 10
30.4806806779
 20
31.4972779825
 30
0.0
 10
30.5263113108
 20
31.4973793997
 30
0.0
 10
30.5576753808
 20
31.4977379604
 30
0.0
 10
30.5736274118
 20
31.4979924241
 30
0.0
  0
SPLINE
  5
42A
100
AcDbEntity
  8
00_COMPONENTS_2
100
AcDbSpline
 62
7
  6
BYLAYER
 70
0
 71
3
 72
12
 73
8
 74
0
 42
0.0000001
 43
0.0000001
 44
0.0000000001
 40
0.0
 40
0.0
 40
0.0
 40
0.0
 40
0.2973214996
 40
0.5763631135
 40
0.816498325
 40
0.9163160561
 40
1.0
 40
1.0
 40
1.0
 40
1.0
 10
35.3684412601
 20
46.9817844984
 30
0.0
 10
35.3699160235
 20
47.0739022277
 30
0.0
 10
35.3740245256
 20
47.2524575784
 30
0.0
 10
35.3835537601
 20
47.5052895692
 30
0.0
 10
35.3940837614
 20
47.69682417
 30
0.0
 10
35.4040331008
 20
47.8277206877
 30
0.0
 10
35.4093668804
 20
47.8843368614
 30
0.0
 10
35.4121860356
 20
47.9101138857
 30
0.0
  0
SPLINE
  5
42B
100
AcDbEntity
  8
00_COMPONENTS_2
100
AcDbSpline
 62
7
  6
BYLAYER
 70
0
 71
3
 72
13
 73
9
 74
0
 42
0.0000001
 43
0.0000001
 44
0.0000000001
 40
0.0
 40
0.0
 40
0.0
 40
0.0
 40
0.2642721951
 40
0.5212504773
 40
0.6455383967
 40
0.7663774276
 40
0.8843450872
 40
1.0
 40
1.0
 40
1.0
 40
1.0
 10
35.1585722115
 20
48.1347272182
 30
0.0
 10
35.1913434973
 20
48.133831846
 30
0.0
 10
35.2561806938
 20
48.121157587
 30
0.0
 10
35.3265977509
 20
48.0793551543
 30
0.0
 10
35.3694647762
 20
48.033689617
 30
0.0
 10
35.3933892385
 20
47.9951388209
 30
0.0
 10
35.4083384132
 20
47.953445052
 30
0.0
 10
35.4120125121
 20
47.9244115225
 30
0.0
 10
35.4121807232
 20
47.9100652763
 30
0.0
  0
SPLINE
  5
42C
100
AcDbEntity
  8
00_COMPONENTS_2
100
AcDbSpline
 62
7
  6
BYLAYER
 70
0
 71
3
 72
18
 73
14
 74
0
 42
0.0000001
 43
0.0000001
 44
0.0000000001
 40
0.0
 40
0.0
 40
0.0
 40
0.0
 40
0.0104737683
 40
0.0293463517
 40
0.0567323671
 40
0.0925106411
 40
0.1363748672
 40
0.1879407889
 40
0.3124187594
 40
0.4614457735
 40
0.6298048056
 40
0.8117007938
 40
1.0
 40
1.0
 40
1.0
 40
1.0
 10
35.3684360857
 20
46.9814607411
 30
0.0
 10
35.3677715365
 20
46.9808726388
 30
0.0
 10
35.3652978748
 20
46.9800988489
 30
0.0
 10
35.3606618171
 20
46.9790934299
 30
0.0
 10
35.3537366229
 20
46.9781663117
 30
0.0
 10
35.3447257727
 20
46.9772664512
 30
0.0
 10
35.3336335195
 20
46.9764448898
 30
0.0
 10
35.3150332525
 20
46.9753846114
 30
0.0
 10
35.2875058568
 20
46.9743747503
 30
0.0
 10
35.2500759006
 20
46.9736013148
 30
0.0
 10
35.2077736559
 20
46.9732576805
 30
0.0
 10
35.1621433374
 20
46.9733588203
 30
0.0
 10
35.1307794895
 20
46.9737171851
 30
0.0
 10
35.1148275739
 20
46.9739715484
 30
0.0
  0
SPLINE
  5
42D
100
AcDbEntity
  8
00_COMPONENTS_2
100
AcDbSpline
 62
7
  6
BYLAYER
 70
0
 71
3
 72
12
 73
8
 74
0
 42
0.0000001
 43
0.0000001
 44
0.0000000001
 40
0.0
 40
0.0
 40
0.0
 40
0.0
 40
0.0836309824
 40
0.183425372
 40
0.4235546545
 40
0.7026382275
 40
1.0
 40
1.0
 40
1.0
 40
1.0
 10
35.1585721238
 20
48.1347272175
 30
0.0
 10
35.1557509722
 20
48.1024637121
 30
0.0
 10
35.1504156732
 20
48.0316268358
 30
0.0
 10
35.1404632663
 20
47.867901837
 30
0.0
 10
35.1299311426
 20
47.6284036556
 30
0.0
 10
35.1204038669
 20
47.3123178391
 30
0.0
 10
35.1163013827
 20
47.0891172727
 30
0.0
 10
35.1148263349
 20
46.9739715441
 30
0.0
  0
SPLINE
  5
42E
100
AcDbEntity
  8
00_COMPONENTS_2
100
AcDbSpline
 62
7
  6
BYLAYER
 70
0
 71
3
 72
12
 73
8
 74
0
 42
0.0000001
 43
0.0000001
 44
0.0000000001
 40
0.0
 40
0.0
 40
0.0
 40
0.0
 40
0.2973617838
 40
0.5764453782
 40
0.8165746602
 40
0.9163690845
 40
1.0
 40
1.0
 40
1.0
 40
1.0
 10
30.3261891756
 20
46.9739715441
 30
0.0
 10
30.3247135636
 20
47.0891172593
 30
0.0
 10
30.320611069
 20
47.3123178141
 30
0.0
 10
30.3110833571
 20
47.6284036027
 30
0.0
 10
30.3005515688
 20
47.8679017913
 30
0.0
 10
30.2905999765
 20
48.0316268102
 30
0.0
 10
30.2852652842
 20
48.1024637113
 30
0.0
 10
30.2824444742
 20
48.1347272175
 30
0.0
  0
SPLINE
  5
42F
100
AcDbEntity
  8
00_COMPONENTS_2
100
AcDbSpline
 62
7
  6
BYLAYER
 70
0
 71
3
 72
18
 73
14
 74
0
 42
0.0000001
 43
0.0000001
 44
0.0000000001
 40
0.0
 40
0.0
 40
0.0
 40
0.0
 40
0.1882745623
 40
0.3700879981
 40
0.538392058
 40
0.6874335994
 40
0.8119502381
 40
0.8635451337
 40
0.907443577
 40
0.9432435142
 40
0.9706426242
 40
0.9895238123
 40
1.0
 40
1.0
 40
1.0
 40
1.0
 10
30.3261885191
 20
46.9739715429
 30
0.0
 10
30.3102386903
 20
46.9737171143
 30
0.0
 10
30.278883923
 20
46.9733584746
 30
0.0
 10
30.2332673383
 20
46.9732571221
 30
0.0
 10
30.1909755025
 20
46.9736000001
 30
0.0
 10
30.1535456803
 20
46.9743727351
 30
0.0
 10
30.1260112844
 20
46.9753819649
 30
0.0
 10
30.1074023845
 20
46.9764423734
 30
0.0
 10
30.0963029012
 20
46.9772638593
 30
0.0
 10
30.0872862544
 20
46.9781642262
 30
0.0
 10
30.0803573315
 20
46.979091713
 30
0.0
 10
30.0757193817
 20
46.9800973758
 30
0.0
 10
30.0732445158
 20
46.9808709969
 30
0.0
 10
30.0725798759
 20
46.9814593064
 30
0.0
  0
SPLINE
  5
430
100
AcDbEntity
  8
00_COMPONENTS_2
100
AcDbSpline
 62
7
  6
BYLAYER
 70
0
 71
3
 72
13
 73
9
 74
0
 42
0.0000001
 43
0.0000001
 44
0.0000000001
 40
0.0
 40
0.0
 40
0.0
 40
0.0
 40
0.1156365176
 40
0.2335420858
 40
0.3543221778
 40
0.4785959078
 40
0.7356380458
 40
1.0
 40
1.0
 40
1.0
 40
1.0
 10
30.0288360496
 20
47.9100638404
 30
0.0
 10
30.0290040563
 20
47.9244078747
 30
0.0
 10
30.0326722682
 20
47.9534321892
 30
0.0
 10
30.0476154072
 20
47.9951097943
 30
0.0
 10
30.0715225103
 20
48.0336510222
 30
0.0
 10
30.1143785163
 20
48.0793259985
 30
0.0
 10
30.1848052661
 20
48.1211495745
 30
0.0
 10
30.2496621179
 20
48.1338316539
 30
0.0
 10
30.2824446928
 20
48.1347272117
 30
0.0
  0
SPLINE
  5
431
100
AcDbEntity
  8
00_COMPONENTS_2
100
AcDbSpline
 62
7
  6
BYLAYER
 70
0
 71
3
 72
12
 73
8
 74
0
 42
0.0000001
 43
0.0000001
 44
0.0000000001
 40
0.0
 40
0.0
 40
0.0
 40
0.0
 40
0.0836763555
 40
0.1834827068
 40
0.4236151096
 40
0.7026683096
 40
1.0
 40
1.0
 40
1.0
 40
1.0
 10
30.0288245037
 20
47.9101695024
 30
0.0
 10
30.0316435731
 20
47.8843900638
 30
0.0
 10
30.036978314
 20
47.827769451
 30
0.0
 10
30.0469298315
 20
47.6968557795
 30
0.0
 10
30.0574614383
 20
47.5052869357
 30
0.0
 10
30.0669923735
 20
47.252402816
 30
0.0
 10
30.0711008627
 20
47.0738080483
 30
0.0
 10
30.0725765021
 20
46.9816703228
 30
0.0
  0
ELLIPSE
  5
432
100
AcDbEntity
  8
00_COMPONENTS_2
100
AcDbEllipse
 62
7
  6
BYLAYER
 10
35.3122855281
 20
30.5428958425
 30
0.0
 11
0.1927650592
 21
0.1676703712
 31
0.0
 40
0.9897788372
 41
-2.2917742593
 42
-0.7394494135
  0
ELLIPSE
  5
433
100
AcDbEntity
  8
00_COMPONENTS_2
100
AcDbEllipse
 62
7
  6
BYLAYER
 10
30.1289370463
 20
30.5428958425
 30
0.0
 11
-0.1927621567
 21
0.1676731252
 31
0.0
 40
0.9897811853
 41
0.7394694759
 42
2.2917886934
  0
ELLIPSE
  5
434
100
AcDbEntity
  8
00_COMPONENTS_2
100
AcDbEllipse
 62
7
  6
BYLAYER
 10
35.8262357884
 20
54.0240019057
 30
0.0
 11
0.03191115
 21
0.291992921
 31
0.0
 40
0.8647353445
 41
-1.4663991961
 42
0.0942248393
  0
ELLIPSE
  5
435
100
AcDbEntity
  8
00_COMPONENTS_2
100
AcDbEllipse
 62
7
  6
BYLAYER
 10
29.6148727475
 20
54.0240019057
 30
0.0
 11
0.0319068091
 21
-0.2919932746
 31
0.0
 40
0.8647356978
 41
3.0473806314
 42
4.6080154721
  0
ELLIPSE
  5
436
100
AcDbEntity
  8
00_COMPONENTS_2
100
AcDbEllipse
 62
7
  6
BYLAYER
 10
34.9772342988
 20
38.3770914664
 30
0.0
 11
-0.2498094939
 21
0.2585625687
 31
0.0
 40
0.0266340047
 41
-3.9261242217
 42
-3.1673193445
  0
ELLIPSE
  5
437
100
AcDbEntity
  8
00_COMPONENTS_2
100
AcDbEllipse
 62
7
  6
BYLAYER
 10
35.0340579386
 20
41.9324844681
 30
0.0
 11
-0.2498094939
 21
0.2585625687
 31
0.0
 40
0.0266340047
 41
-3.9261242217
 42
-3.1673193445
  0
ELLIPSE
  5
438
100
AcDbEntity
  8
00_COMPONENTS_2
100
AcDbEllipse
 62
7
  6
BYLAYER
 10
34.9193505508
 20
34.7553686497
 30
0.0
 11
-0.2498094939
 21
0.2585625687
 31
0.0
 40
0.0266340047
 41
-3.9261242217
 42
-3.1673193445
  0
ELLIPSE
  5
439
100
AcDbEntity
  8
00_COMPONENTS_2
100
AcDbEllipse
 62
7
  6
BYLAYER
 10
34.9193505508
 20
34.7553686497
 30
0.0
 11
0.0906631191
 21
0.2430209219
 31
0.0
 40
0.9766053715
 41
-2.7922008884
 42
-2.0333960112
  0
ELLIPSE
  5
43A
100
AcDbEntity
  8
00_COMPONENTS_2
100
AcDbEllipse
 62
7
  6
BYLAYER
 10
30.5217413511
 20
34.7553686497
 30
0.0
 11
-0.0906872486
 21
0.2430124574
 31
0.0
 40
0.976601667
 41
-4.1974971509
 42
-3.4910800048
  0
ELLIPSE
  5
43B
100
AcDbEntity
  8
00_COMPONENTS_2
100
AcDbEllipse
 62
7
  6
BYLAYER
 10
34.9772342988
 20
38.3770914664
 30
0.0
 11
0.2579308225
 21
0.249176363
 31
0.0
 40
0.0257959684
 41
0.0266959297
 42
0.7855008069
  0
ELLIPSE
  5
43C
100
AcDbEntity
  8
00_COMPONENTS_2
100
AcDbEllipse
 62
7
  6
BYLAYER
 10
34.9193505508
 20
34.7553686497
 30
0.0
 11
0.2579308225
 21
0.249176363
 31
0.0
 40
0.0257959684
 41
0.0266959297
 42
0.7855008069
  0
ELLIPSE
  5
43D
100
AcDbEntity
  8
00_COMPONENTS_2
100
AcDbEllipse
 62
7
  6
BYLAYER
 10
30.5220393614
 20
34.7367297004
 30
0.0
 11
0.2498079334
 21
0.258564011
 31
0.0
 40
0.0266281218
 41
-3.1158719467
 42
-2.3046677429
  0
ELLIPSE
  5
43E
100
AcDbEntity
  8
00_COMPONENTS_2
100
AcDbEllipse
 62
7
  6
BYLAYER
 10
30.521454155
 20
34.7733312314
 30
0.0
 11
0.2579324086
 21
-0.2491749471
 31
0.0
 40
0.0257899508
 41
2.3037046644
 42
3.1149026329
  0
ELLIPSE
  5
43F
100
AcDbEntity
  8
00_COMPONENTS_2
100
AcDbEllipse
 62
7
  6
BYLAYER
 10
34.9193505508
 20
34.7553686497
 30
0.0
 11
0.2388762
 21
0.0887411812
 31
0.0
 40
0.9751233142
 41
0.4479955709
 42
1.2068004481
  0
ELLIPSE
  5
440
100
AcDbEntity
  8
00_COMPONENTS_2
100
AcDbEllipse
 62
7
  6
BYLAYER
 10
30.5217413511
 20
34.7553686497
 30
0.0
 11
0.238868457
 21
-0.088763637
 31
0.0
 40
0.9751191029
 41
1.9348886114
 42
2.6413119929
  0
ELLIPSE
  5
441
100
AcDbEntity
  8
00_COMPONENTS_2
100
AcDbEllipse
 62
7
  6
BYLAYER
 10
34.9772342988
 20
38.3770914664
 30
0.0
 11
0.0906631191
 21
0.2430209219
 31
0.0
 40
0.9766053715
 41
-2.7922008884
 42
-2.0333960112
  0
ELLIPSE
  5
442
100
AcDbEntity
  8
00_COMPONENTS_2
100
AcDbEllipse
 62
7
  6
BYLAYER
 10
30.4638351549
 20
38.3770914664
 30
0.0
 11
-0.0906872486
 21
0.2430124574
 31
0.0
 40
0.976601667
 41
-4.2498878195
 42
-3.4910800047
  0
ELLIPSE
  5
443
100
AcDbEntity
  8
00_COMPONENTS_2
100
AcDbEllipse
 62
7
  6
BYLAYER
 10
30.4638351549
 20
38.3770914664
 30
0.0
 11
0.2498079334
 21
0.258564011
 31
0.0
 40
0.0266281218
 41
-3.1158719467
 42
-2.3570584115
  0
ELLIPSE
  5
444
100
AcDbEntity
  8
00_COMPONENTS_2
100
AcDbEllipse
 62
7
  6
BYLAYER
 10
30.4638351549
 20
38.3770914664
 30
0.0
 11
0.2579324086
 21
-0.2491749471
 31
0.0
 40
0.0257899508
 41
2.3560950376
 42
3.1149026329
  0
ELLIPSE
  5
445
100
AcDbEntity
  8
00_COMPONENTS_2
100
AcDbEllipse
 62
7
  6
BYLAYER
 10
34.9772342988
 20
38.3770914664
 30
0.0
 11
0.2388762
 21
0.0887411812
 31
0.0
 40
0.9751233142
 41
0.4479955709
 42
1.2068004481
  0
ELLIPSE
  5
446
100
AcDbEntity
  8
00_COMPONENTS_2
100
AcDbEllipse
 62
7
  6
BYLAYER
 10
30.4638351549
 20
38.3770914664
 30
0.0
 11
0.238868457
 21
-0.088763637
 31
0.0
 40
0.9751191029
 41
1.9348886114
 42
2.6937023661
  0
ELLIPSE
  5
447
100
AcDbEntity
  8
00_COMPONENTS_2
100
AcDbEllipse
 62
7
  6
BYLAYER
 10
35.0340579386
 20
41.9324844681
 30
0.0
 11
0.0906631191
 21
0.2430209219
 31
0.0
 40
0.9766053715
 41
-2.7922008884
 42
-2.0333960112
  0
ELLIPSE
  5
448
100
AcDbEntity
  8
00_COMPONENTS_2
100
AcDbEllipse
 62
7
  6
BYLAYER
 10
30.4069894781
 20
41.9324844681
 30
0.0
 11
-0.0906872486
 21
0.2430124574
 31
0.0
 40
0.976601667
 41
-4.2498878195
 42
-3.4910800048
  0
ELLIPSE
  5
449
100
AcDbEntity
  8
00_COMPONENTS_2
100
AcDbEllipse
 62
7
  6
BYLAYER
 10
30.4069894781
 20
41.9324844681
 30
0.0
 11
0.2498079334
 21
0.258564011
 31
0.0
 40
0.0266281218
 41
-3.1158719467
 42
-2.3570584115
  0
ELLIPSE
  5
44A
100
AcDbEntity
  8
00_COMPONENTS_2
100
AcDbEllipse
 62
7
  6
BYLAYER
 10
30.4069894781
 20
41.9324844681
 30
0.0
 11
0.2579324086
 21
-0.2491749471
 31
0.0
 40
0.0257899508
 41
2.3560950376
 42
3.1149026329
  0
ELLIPSE
  5
44B
100
AcDbEntity
  8
00_COMPONENTS_2
100
AcDbEllipse
 62
7
  6
BYLAYER
 10
35.0340579386
 20
41.9324844681
 30
0.0
 11
0.2388762
 21
0.0887411812
 31
0.0
 40
0.9751233142
 41
0.4479955709
 42
1.2068004481
  0
ELLIPSE
  5
44C
100
AcDbEntity
  8
00_COMPONENTS_2
100
AcDbEllipse
 62
7
  6
BYLAYER
 10
30.4069894781
 20
41.9324844681
 30
0.0
 11
0.238868457
 21
-0.088763637
 31
0.0
 40
0.9751191029
 41
1.9348886114
 42
2.6937023661
  0
ELLIPSE
  5
44D
100
AcDbEntity
  8
00_COMPONENTS_2
100
AcDbEllipse
 62
7
  6
BYLAYER
 10
35.0908815783
 20
45.4878774698
 30
0.0
 11
0.0906631191
 21
0.2430209219
 31
0.0
 40
0.9766053715
 41
-2.7922008884
 42
-2.0333960112
  0
ELLIPSE
  5
44E
100
AcDbEntity
  8
00_COMPONENTS_2
100
AcDbEllipse
 62
7
  6
BYLAYER
 10
30.3501438013
 20
45.4878774698
 30
0.0
 11
-0.0906872486
 21
0.2430124574
 31
0.0
 40
0.976601667
 41
-4.2498878195
 42
-3.4910800048
  0
ELLIPSE
  5
44F
100
AcDbEntity
  8
00_COMPONENTS_2
100
AcDbEllipse
 62
7
  6
BYLAYER
 10
30.3501438013
 20
45.4878774699
 30
0.0
 11
0.2498079334
 21
0.258564011
 31
0.0
 40
0.0266281218
 41
-3.1158719467
 42
-2.3570584115
  0
ELLIPSE
  5
450
100
AcDbEntity
  8
00_COMPONENTS_2
100
AcDbEllipse
 62
7
  6
BYLAYER
 10
30.3501438013
 20
45.4878774698
 30
0.0
 11
0.2579324086
 21
-0.2491749471
 31
0.0
 40
0.0257899508
 41
2.3560950376
 42
3.1149026329
  0
ELLIPSE
  5
451
100
AcDbEntity
  8
00_COMPONENTS_2
100
AcDbEllipse
 62
7
  6
BYLAYER
 10
35.0908815783
 20
45.4878774698
 30
0.0
 11
0.2388762
 21
0.0887411812
 31
0.0
 40
0.9751233142
 41
0.4479955709
 42
1.2068004481
  0
ELLIPSE
  5
452
100
AcDbEntity
  8
00_COMPONENTS_2
100
AcDbEllipse
 62
7
  6
BYLAYER
 10
30.3501438013
 20
45.4878774698
 30
0.0
 11
0.238868457
 21
-0.088763637
 31
0.0
 40
0.9751191029
 41
1.9348886114
 42
2.6937023661
  0
ELLIPSE
  5
453
100
AcDbEntity
  8
00_COMPONENTS_2
100
AcDbEllipse
 62
7
  6
BYLAYER
 10
35.0908815783
 20
45.4878774698
 30
0.0
 11
0.2579308225
 21
0.249176363
 31
0.0
 40
0.0257959684
 41
0.0266959297
 42
0.7855008069
  0
ELLIPSE
  5
454
100
AcDbEntity
  8
00_COMPONENTS_2
100
AcDbEllipse
 62
7
  6
BYLAYER
 10
35.0908815783
 20
45.4878774698
 30
0.0
 11
-0.2498094939
 21
0.2585625687
 31
0.0
 40
0.0266340047
 41
-3.9261242217
 42
-3.1673193445
  0
ELLIPSE
  5
455
100
AcDbEntity
  8
00_COMPONENTS_2
100
AcDbEllipse
 62
7
  6
BYLAYER
 10
35.0340579386
 20
41.9324844681
 30
0.0
 11
0.2579308225
 21
0.249176363
 31
0.0
 40
0.0257959684
 41
0.0266959297
 42
0.7855008069
  0
ENDSEC
  0
SECTION
  2
OBJECTS
  0
DICTIONARY
  5
C
100
AcDbDictionary
280
0
281
1
  3
ACAD_GROUP
350
D
  3
ACAD_MLINESTYLE
350
17
  3
ACAD_LAYOUT
350
1A
  3
ACAD_PLOTSETTINGS
350
19
  3
ACAD_PLOTSTYLENAME
350
E
  0
DICTIONARY
  5
D
102
{ACAD_REACTORS
330
C
102
}
100
AcDbDictionary
280
0
281
1
  0
ACDBDICTIONARYWDFLT
  5
E
102
{ACAD_REACTORS
330
C
102
}
100
AcDbDictionary
281
1
  3
Normal
350
F
100
AcDbDictionaryWithDefault
340
F
  0
DICTIONARY
  5
17
102
{ACAD_REACTORS
330
C
102
}
100
AcDbDictionary
280
0
281
1
  3
Standard
350
18
  0
DICTIONARY
  5
19
102
{ACAD_REACTORS
330
C
102
}
100
AcDbDictionary
281
1
  0
DICTIONARY
  5
1A
102
{ACAD_REACTORS
330
C
102
}
100
AcDbDictionary
281
1
  3
Model
350
456
  3
Layout1
350
457
  0
ACDBPLACEHOLDER
  5
F
102
{ACAD_REACTORS
330
E
102
}
  0
MLINESTYLE
  5
18
102
{ACAD_REACTORS
330
17
102
}
100
AcDbMlineStyle
  2
STANDARD
 70
0
  3

 62
256
 51
90.0
 52
90.0
 71
2
 49
0.5
 62
256
  6
BYLAYER
 49
-0.5
 62
256
  6
BYLAYER
  0
LAYOUT
  5
456
102
{ACAD_REACTORS
330
1A
102
}
100
AcDbPlotSettings
  1

  2
none_device
  4

  6

 40
0.0
 41
0.0
 42
0.0
 43
0.0
 44
210.0
 45
297.0
 46
0.0
 47
0.0
 48
0.0
 49
0.0
140
0.0
141
0.0
142
1.0
143
1.0
 70
1024
 72
1
 73
0
 74
0
  7

 75
0
147
1.0
148
0.0
149
0.0
100
AcDbLayout
  1
Model
 70
0
 71
0
 10
0.0
 20
0.0
 11
210.0
 21
297.0
 12
0.0
 22
0.0
 32
0.0
 14
0.0
 24
0.0
 34
0.0
 15
0.0
 25
0.0
 35
0.0
146
0.0
 13
0.0
 23
0.0
 33
0.0
 16
1.0
 26
0.0
 36
0.0
 17
0.0
 27
1.0
 37
0.0
 76
0
330
221
345
0
346
0
  0
LAYOUT
  5
457
102
{ACAD_REACTORS
330
1A
102
}
100
AcDbPlotSettings
  1

  2
none_device
  4

  6

 40
0.0
 41
0.0
 42
0.0
 43
0.0
 44
210.0
 45
297.0
 46
0.0
 47
0.0
 48
0.0
 49
0.0
140
0.0
141
0.0
142
1.0
143
1.0
 70
0
 72
1
 73
0
 74
0
  7

 75
0
147
1.0
148
0.0
149
0.0
100
AcDbLayout
  1
Layout1
 70
0
 71
1
 10
0.0
 20
0.0
 11
210.0
 21
297.0
 12
0.0
 22
0.0
 32
0.0
 14
0.0
 24
0.0
 34
0.0
 15
0.0
 25
0.0
 35
0.0
146
0.0
 13
0.0
 23
0.0
 33
0.0
 16
1.0
 26
0.0
 36
0.0
 17
0.0
 27
1.0
 37
0.0
 76
0
330
222
345
0
346
0
  0
ENDSEC
  0
EOF
