999
DXF file: C:\Users\sesa63760\Dev\_Creo\CAD\MCADPD0004779_3D-CAD\drw0001_1.dxf
999
Pro/ENGINEER 2019471 by Parametric Technology Corporation
  0
SECTION
  2
HEADER
  9
$ACADVER
  1
AC1024
  9
$DWGCODEPAGE
  3
ANSI_1252
  9
$EXTMAX
 10
43.3194020887
 20
61.2660115255
 30
0.0
  9
$EXTMIN
 10
0.0
 20
0.0
 30
0.0
  9
$LIMMIN
 10
0.0
 20
0.0
  9
$LIMMAX
 10
43.3194020887
 20
61.2660115255
  9
$VIEWCTR
 10
21.6597010444
 20
30.6330057628
  9
$VIEWSIZE
 40
61.2660115255
  9
$CLAYER
  8
0
  9
$LTSCALE
 40
3.9936363068
  9
$CELTYPE
  6
BYLAYER
  9
$DIMSCALE
 40
1.0
  9
$DIMASZ
 40
0.5157071677
  9
$DIMEXO
 40
1.0
  9
$DIMDLI
 40
2.7592396302
  9
$DIMEXE
 40
1.0
  9
$DIMCEN
 40
0.6535041229
  9
$DIMLFAC
 40
1.0
  9
$DIMBLK
  1
_FILLED
  9
$DIMALT
 70
0
  9
$DIMALTF
 40
0.0393700787
  9
$DIMTXT
 40
0.7219900348
  9
$DIMTOL
 70
1
  9
$DIMLIM
 70
0
  9
$DIMTFAC
 40
1.0
  9
$DIMTP
 40
0.01
  9
$DIMTM
 40
0.01
  9
$DIMGAP
 40
0.625
  9
$DIMDSEP
 70
46
  9
$AUNITS
 70
0
  9
$PDMODE
 70
3
  9
$PDSIZE
 40
0.3125
  9
$HANDSEED
  5
2C3
  9
$TILEMODE
 70
1
  9
$MEASUREMENT
 70
1
  9
$INSUNITS
 70
4
  0
ENDSEC
  0
SECTION
  2
CLASSES
  0
CLASS
  1
ACDBDICTIONARYWDFLT
  2
AcDbDictionaryWithDefault
  3
AutoCAD 2000
 90
0
 91
1
280
0
281
0
  0
CLASS
  1
ACDBPLACEHOLDER
  2
AcDbPlaceHolder
  3
AutoCAD 2000
 90
0
 91
1
280
0
281
0
  0
CLASS
  1
LAYOUT
  2
AcDbLayout
  3
AutoCAD 2000
 90
0
 91
0
280
0
281
0
  0
ENDSEC
  0
SECTION
  2
TABLES
  0
TABLE
  2
VPORT
  5
8
100
AcDbSymbolTable
 70
2
  0
VPORT
  5
1F4
100
AcDbSymbolTableRecord
100
AcDbViewportTableRecord
  2
*ACTIVE
 70
0
 10
0.0
 20
0.0
 11
1.0
 21
1.0
 12
21.6597010444
 22
30.6330057628
 13
0.0
 23
0.0
 14
1.0
 24
1.0
 15
0.0
 25
0.0
 16
0.0
 26
0.0
 36
1.0
 17
0.0
 27
0.0
 37
0.0
 40
61.2660115255
 41
0.7070707071
 42
50.0
 43
0.0
 44
0.0
 50
0.0
 51
0.0
 71
0
 72
100
 73
1
 74
1
 75
0
 76
0
 77
0
 78
0
  0
ENDTAB
  0
TABLE
  2
LTYPE
  5
5
100
AcDbSymbolTable
 70
6
  0
LTYPE
  5
14
100
AcDbSymbolTableRecord
100
AcDbLinetypeTableRecord
  2
BYBLOCK
 70
0
  3

 72
65
 73
0
 40
0.0
  0
LTYPE
  5
15
100
AcDbSymbolTableRecord
100
AcDbLinetypeTableRecord
  2
BYLAYER
 70
0
  3

 72
65
 73
0
 40
0.0
  0
LTYPE
  5
16
100
AcDbSymbolTableRecord
100
AcDbLinetypeTableRecord
  2
CONTINUOUS
 70
64
  3
Solid line
 72
65
 73
0
 40
0.0
  0
LTYPE
  5
1F5
100
AcDbSymbolTableRecord
100
AcDbLinetypeTableRecord
  2
CENTER
 70
64
  3
____ _ ____ _ ____ _ ____ _ ____ _ ____ _ ____
 72
65
 73
4
 40
0.6
 49
0.375
 74
0
 49
-0.075
 74
0
 49
0.075
 74
0
 49
-0.075
 74
0
  0
LTYPE
  5
1F6
100
AcDbSymbolTableRecord
100
AcDbLinetypeTableRecord
  2
HIDDEN
 70
64
  3
- - - - - - - - - - - - - - - - - - - -
 72
65
 73
2
 40
0.2
 49
0.1
 74
0
 49
-0.1
 74
0
  0
LTYPE
  5
1F7
100
AcDbSymbolTableRecord
100
AcDbLinetypeTableRecord
  2
PHANTOM
 70
64
  3
_____ _ _ _____ _ _ _____ _ _ _____
 72
65
 73
6
 40
0.8
 49
0.45
 74
0
 49
-0.05
 74
0
 49
0.1
 74
0
 49
-0.05
 74
0
 49
0.1
 74
0
 49
-0.05
 74
0
  0
LTYPE
  5
1F8
100
AcDbSymbolTableRecord
100
AcDbLinetypeTableRecord
  2
DOT
 70
64
  3
. . . . . . . . . . . . . . . . . . . .
 72
65
 73
2
 40
0.2
 49
0.1
 74
0
 49
-0.1
 74
0
  0
LTYPE
  5
1F9
100
AcDbSymbolTableRecord
100
AcDbLinetypeTableRecord
  2
DASHED
 70
64
  3
- - - - - - - - - - - - - - - - - - - -
 72
65
 73
2
 40
0.2
 49
0.1
 74
0
 49
-0.1
 74
0
  0
ENDTAB
  0
TABLE
  2
LAYER
  5
2
100
AcDbSymbolTable
 70
36
  0
LAYER
  5
10
100
AcDbSymbolTableRecord
100
AcDbLayerTableRecord
  2
0
 70
0
 62
7
  6
CONTINUOUS
370
-3
390
F
  0
LAYER
  5
1FA
100
AcDbSymbolTableRecord
100
AcDbLayerTableRecord
  2
DEFAULT_1
 70
0
 62
7
  6
CENTER
370
-3
390
F
  0
LAYER
  5
1FB
100
AcDbSymbolTableRecord
100
AcDbLayerTableRecord
  2
DEFAULT_2
 70
0
 62
7
  6
HIDDEN
370
-3
390
F
  0
LAYER
  5
1FC
100
AcDbSymbolTableRecord
100
AcDbLayerTableRecord
  2
DEFAULT_3
 70
0
 62
7
  6
PHANTOM
370
-3
390
F
  0
LAYER
  5
1FD
100
AcDbSymbolTableRecord
100
AcDbLayerTableRecord
  2
00_COMPONENTS
 70
0
 62
7
  6
CONTINUOUS
370
-3
390
F
  0
LAYER
  5
1FE
100
AcDbSymbolTableRecord
100
AcDbLayerTableRecord
  2
01_1_DEFAULT_DATUMS
 70
0
 62
7
  6
CONTINUOUS
370
-3
390
F
  0
LAYER
  5
1FF
100
AcDbSymbolTableRecord
100
AcDbLayerTableRecord
  2
01_PLANES
 70
0
 62
7
  6
CONTINUOUS
370
-3
390
F
  0
LAYER
  5
200
100
AcDbSymbolTableRecord
100
AcDbLayerTableRecord
  2
02_COORD_SYS
 70
0
 62
7
  6
CONTINUOUS
370
-3
390
F
  0
LAYER
  5
201
100
AcDbSymbolTableRecord
100
AcDbLayerTableRecord
  2
03_AXES
 70
0
 62
7
  6
CONTINUOUS
370
-3
390
F
  0
LAYER
  5
202
100
AcDbSymbolTableRecord
100
AcDbLayerTableRecord
  2
04_POINTS
 70
0
 62
7
  6
CONTINUOUS
370
-3
390
F
  0
LAYER
  5
203
100
AcDbSymbolTableRecord
100
AcDbLayerTableRecord
  2
05_CURVES
 70
0
 62
7
  6
CONTINUOUS
370
-3
390
F
  0
LAYER
  5
204
100
AcDbSymbolTableRecord
100
AcDbLayerTableRecord
  2
06_SURFS
 70
0
 62
7
  6
CONTINUOUS
370
-3
390
F
  0
LAYER
  5
205
100
AcDbSymbolTableRecord
100
AcDbLayerTableRecord
  2
07_COSMETICS
 70
0
 62
7
  6
CONTINUOUS
370
-3
390
F
  0
LAYER
  5
206
100
AcDbSymbolTableRecord
100
AcDbLayerTableRecord
  2
10_NOTES
 70
0
 62
7
  6
CONTINUOUS
370
-3
390
F
  0
LAYER
  5
207
100
AcDbSymbolTableRecord
100
AcDbLayerTableRecord
  2
11_NOTES_PUB
 70
0
 62
7
  6
CONTINUOUS
370
-3
390
F
  0
LAYER
  5
208
100
AcDbSymbolTableRecord
100
AcDbLayerTableRecord
  2
13_REF_GTOL
 70
0
 62
7
  6
CONTINUOUS
370
-3
390
F
  0
LAYER
  5
209
100
AcDbSymbolTableRecord
100
AcDbLayerTableRecord
  2
16_MISC
 70
0
 62
7
  6
CONTINUOUS
370
-3
390
F
  0
LAYER
  5
20A
100
AcDbSymbolTableRecord
100
AcDbLayerTableRecord
  2
17_NO_PRINT
 70
0
 62
7
  6
CONTINUOUS
370
-3
390
F
  0
LAYER
  5
20B
100
AcDbSymbolTableRecord
100
AcDbLayerTableRecord
  2
18_DATUM_CAMS_JOINTS
 70
0
 62
7
  6
CONTINUOUS
370
-3
390
F
  0
LAYER
  5
20C
100
AcDbSymbolTableRecord
100
AcDbLayerTableRecord
  2
19_DATUM_FUNCTIONAL
 70
0
 62
7
  6
CONTINUOUS
370
-3
390
F
  0
LAYER
  5
20D
100
AcDbSymbolTableRecord
100
AcDbLayerTableRecord
  2
20_DATUM_KINEMATIC_SCHEME
 70
0
 62
7
  6
CONTINUOUS
370
-3
390
F
  0
ENDTAB
  0
TABLE
  2
STYLE
  5
3
100
AcDbSymbolTable
 70
1
  0
STYLE
  5
11
100
AcDbSymbolTableRecord
100
AcDbTextStyleTableRecord
  2
STANDARD
 70
0
 40
0.0
 41
1.0
 50
0.0
 71
0
 42
0.2
  3
ARIAL.TTF
  4

  0
STYLE
  5
20E
100
AcDbSymbolTableRecord
100
AcDbTextStyleTableRecord
  2
TEXTSTYLE_1
 70
0
 40
0.0
 41
0.8
 50
0.0
 71
0
 42
0.2
  3
gdt
  4

  0
ENDTAB
  0
TABLE
  2
VIEW
  5
6
100
AcDbSymbolTable
 70
0
  0
ENDTAB
  0
TABLE
  2
UCS
  5
7
100
AcDbSymbolTable
 70
0
  0
ENDTAB
  0
TABLE
  2
APPID
  5
9
100
AcDbSymbolTable
 70
1
  0
APPID
  5
20F
100
AcDbSymbolTableRecord
100
AcDbRegAppTableRecord
  2
ACAD
 70
0
  0
ENDTAB
  0
TABLE
  2
BLOCK_RECORD
  5
1
100
AcDbSymbolTable
 70
0
  0
BLOCK_RECORD
  5
210
100
AcDbSymbolTableRecord
100
AcDbBlockTableRecord
  2
*Model_Space
  0
BLOCK_RECORD
  5
211
100
AcDbSymbolTableRecord
100
AcDbBlockTableRecord
  2
*Paper_Space
  0
BLOCK_RECORD
  5
212
100
AcDbSymbolTableRecord
100
AcDbBlockTableRecord
  2
_FILLED
  0
ENDTAB
  0
TABLE
  2
DIMSTYLE
  5
A
100
AcDbSymbolTable
 70
1
100
AcDbDimStyleTable
 71
0
  0
DIMSTYLE
105
213
100
AcDbSymbolTableRecord
100
AcDbDimStyleTableRecord
  2
STANDARD
 70
0
  3

  4

 40
1.0
 41
0.5157071677
 42
1.0
 43
0.38
 44
1.0
 45
0.0
 46
0.0
 47
0.01
 48
0.01
140
0.7219900348
141
0.09
142
0.0
143
25.4
144
1.0
145
0.0
146
1.0
147
0.625
 71
1
 72
0
 73
0
 74
0
 75
0
 76
0
 77
1
 78
8
 79
2
170
0
171
1
172
0
173
0
174
0
175
0
176
0
177
0
178
0
270
2
179
2
271
2
272
2
273
2
274
2
275
0
280
0
281
0
282
0
283
1
284
8
285
0
286
0
287
3
288
0
340
11
278
46
341
212
342
212
343
212
344
212
  0
ENDTAB
  0
ENDSEC
  0
SECTION
  2
BLOCKS
  0
BLOCK
  5
20
100
AcDbEntity
  8
0
100
AcDbBlockBegin
  2
*Model_Space
 70
0
 10
0.0
 20
0.0
 30
0.0
  3
*Model_Space
  1

  0
ENDBLK
  5
21
100
AcDbEntity
  8
0
100
AcDbBlockEnd
  0
BLOCK
  5
1C
100
AcDbEntity
  8
0
100
AcDbBlockBegin
  2
*Paper_Space
 70
0
 10
0.0
 20
0.0
 30
0.0
  3
*Paper_Space
  1

  0
ENDBLK
  5
1D
100
AcDbEntity
  8
0
100
AcDbBlockEnd
  0
BLOCK
  5
214
100
AcDbEntity
  8
0
100
AcDbBlockBegin
  2
_FILLED
 70
64
 10
0.0
 20
0.0
  3
_FILLED
  1

  0
SOLID
  5
215
100
AcDbEntity
  8
0
  6
BYBLOCK
 62
0
100
AcDbTrace
 10
0.0
 20
0.0
 11
-1.0
 21
0.25
 12
-1.0
 22
-0.25
 13
-1.0
 23
-0.25
  0
ENDBLK
  5
216
100
AcDbEntity
  8
0
  6
BYBLOCK
 62
0
100
AcDbBlockEnd
  0
ENDSEC
  0
SECTION
  2
ENTITIES
  0
LINE
  5
217
100
AcDbEntity
  8
0
100
AcDbLine
 62
7
  6
BYLAYER
 10
5.0255490439
 20
45.1181852481
 11
11.1773524276
 21
48.6699093868
  0
LINE
  5
218
100
AcDbEntity
  8
0
100
AcDbLine
 62
7
  6
BYLAYER
 10
14.6955315573
 20
49.3525598278
 11
12.1199123083
 21
48.1257344968
  0
LINE
  5
219
100
AcDbEntity
  8
0
100
AcDbLine
 62
7
  6
BYLAYER
 10
18.8757020296
 20
51.307998454
 11
18.5438941029
 21
51.1499508817
  0
LINE
  5
21A
100
AcDbEntity
  8
0
100
AcDbLine
 62
7
  6
BYLAYER
 10
12.9684439785
 20
47.6358455914
 11
15.5440632275
 21
48.8626709224
  0
LINE
  5
21B
100
AcDbEntity
  8
0
100
AcDbLine
 62
7
  6
BYLAYER
 10
15.8579346695
 20
48.6814612603
 11
13.3693831549
 21
47.4961082479
  0
LINE
  5
21C
100
AcDbEntity
  8
0
100
AcDbLine
 62
7
  6
BYLAYER
 10
28.4308414971
 20
12.0092409538
 11
27.6959976337
 21
12.0748826343
  0
LINE
  5
21D
100
AcDbEntity
  8
0
100
AcDbLine
 62
7
  6
BYLAYER
 10
5.0255490439
 20
20.5414624925
 11
5.0255490439
 21
45.1181852481
  0
LINE
  5
21E
100
AcDbEntity
  8
0
100
AcDbLine
 62
7
  6
BYLAYER
 10
5.874080714
 20
39.688456719
 11
5.874080714
 21
21.0313764876
  0
LINE
  5
21F
100
AcDbEntity
  8
0
100
AcDbLine
 62
7
  6
BYLAYER
 10
23.6932457877
 20
9.7639065731
 11
5.0255490439
 21
20.5414624925
  0
LINE
  5
220
100
AcDbEntity
  8
0
100
AcDbLine
 62
7
  6
BYLAYER
 10
23.0568470351
 20
10.9478256693
 11
11.9905798365
 21
17.3367934776
  0
LINE
  5
221
100
AcDbEntity
  8
0
100
AcDbLine
 62
7
  6
BYLAYER
 10
5.874080714
 20
21.0313764876
 11
11.2834701114
 21
17.9083347155
  0
LINE
  5
222
100
AcDbEntity
  8
0
100
AcDbLine
 62
7
  6
BYLAYER
 10
23.0568470351
 20
11.1723580843
 11
12.1850333918
 21
17.4490606199
  0
LINE
  5
223
100
AcDbEntity
  8
0
100
AcDbLine
 62
7
  6
BYLAYER
 10
13.3875404776
 20
51.4122532442
 11
13.1631048963
 21
50.5706430741
  0
LINE
  5
224
100
AcDbEntity
  8
0
100
AcDbLine
 62
7
  6
BYLAYER
 10
23.6932457877
 20
14.9078718011
 11
24.4003555129
 21
14.4996310465
  0
LINE
  5
225
100
AcDbEntity
  8
0
100
AcDbLine
 62
7
  6
BYLAYER
 10
11.2834701114
 20
23.8279772397
 11
11.2834701114
 21
17.9083347155
  0
LINE
  5
226
100
AcDbEntity
  8
0
100
AcDbLine
 62
7
  6
BYLAYER
 10
19.8394465607
 20
43.6689601439
 11
13.6876431769
 21
40.1172360052
  0
LINE
  5
227
100
AcDbEntity
  8
0
100
AcDbLine
 62
7
  6
BYLAYER
 10
13.6876431769
 20
38.9741326212
 11
19.8394465607
 21
42.5258567599
  0
LINE
  5
228
100
AcDbEntity
  8
0
100
AcDbLine
 62
7
  6
BYLAYER
 10
20.4404804063
 20
43.485227972
 11
25.8043449057
 21
46.0401571769
  0
LINE
  5
229
100
AcDbEntity
  8
0
100
AcDbLine
 62
7
  6
BYLAYER
 10
27.0074638689
 20
46.6132297771
 11
25.8140104088
 21
46.04501727
  0
LINE
  5
22A
100
AcDbEntity
  8
0
100
AcDbLine
 62
7
  6
BYLAYER
 10
32.2833231555
 20
17.8662613228
 11
33.1931895844
 21
17.8017643073
  0
LINE
  5
22B
100
AcDbEntity
  8
0
100
AcDbLine
 62
7
  6
BYLAYER
 10
23.7639567602
 20
15.601899901
 11
23.0568470351
 21
16.0101406556
  0
LINE
  5
22C
100
AcDbEntity
  8
0
100
AcDbLine
 62
7
  6
BYLAYER
 10
11.9905798365
 20
22.6032340681
 11
13.3340883143
 21
21.8275766345
  0
LINE
  5
22D
100
AcDbEntity
  8
0
100
AcDbLine
 62
7
  6
BYLAYER
 10
23.7639567602
 20
15.826432316
 11
23.2513005903
 21
16.1224077979
  0
LINE
  5
22E
100
AcDbEntity
  8
0
100
AcDbLine
 62
7
  6
BYLAYER
 10
12.6269785892
 20
23.0523198061
 11
11.2834701114
 21
23.8279772397
  0
LINE
  5
22F
100
AcDbEntity
  8
0
100
AcDbLine
 62
7
  6
BYLAYER
 10
11.9905798365
 20
17.3367934776
 11
11.9905798365
 21
22.6032340681
  0
LINE
  5
230
100
AcDbEntity
  8
0
100
AcDbLine
 62
7
  6
BYLAYER
 10
12.1850333918
 20
17.4490606199
 11
12.1850333918
 21
22.4909687954
  0
LINE
  5
231
100
AcDbEntity
  8
0
100
AcDbLine
 62
7
  6
BYLAYER
 10
12.6269785892
 20
23.0523198061
 11
12.6269785892
 21
35.7897575134
  0
LINE
  5
232
100
AcDbEntity
  8
0
100
AcDbLine
 62
7
  6
BYLAYER
 10
15.8089723523
 20
38.8925137417
 11
21.9607757361
 21
42.4442378803
  0
LINE
  5
233
100
AcDbEntity
  8
0
100
AcDbLine
 62
7
  6
BYLAYER
 10
12.3086393984
 20
24.4198554705
 11
12.0258840978
 21
24.5831006263
  0
LINE
  5
234
100
AcDbEntity
  8
0
100
AcDbLine
 62
7
  6
BYLAYER
 10
13.3340883143
 20
21.8275766345
 11
13.3340883143
 21
38.3617505814
  0
LINE
  5
235
100
AcDbEntity
  8
0
100
AcDbLine
 62
7
  6
BYLAYER
 10
13.3693831549
 20
47.4043684867
 11
13.3693831549
 21
47.4961082479
  0
LINE
  5
236
100
AcDbEntity
  8
0
100
AcDbLine
 62
7
  6
BYLAYER
 10
13.5285418696
 20
21.9398437768
 11
13.5285418696
 21
38.2494853087
  0
LINE
  5
237
100
AcDbEntity
  8
0
100
AcDbLine
 62
7
  6
BYLAYER
 10
13.6876431769
 20
40.1172360052
 11
13.6876431769
 21
38.9741326212
  0
LINE
  5
238
100
AcDbEntity
  8
0
100
AcDbLine
 62
7
  6
BYLAYER
 10
16.7105356327
 20
36.6369343283
 11
16.5160820775
 21
36.524667186
  0
LINE
  5
239
100
AcDbEntity
  8
0
100
AcDbLine
 62
7
  6
BYLAYER
 10
15.8089723523
 20
38.8925137417
 11
15.8089723523
 21
37.7494103577
  0
LINE
  5
23A
100
AcDbEntity
  8
0
100
AcDbLine
 62
7
  6
BYLAYER
 10
16.5160820775
 20
36.524667186
 11
16.5160820775
 21
37.66777057
  0
LINE
  5
23B
100
AcDbEntity
  8
0
100
AcDbLine
 62
7
  6
BYLAYER
 10
16.7105356327
 20
36.6369343283
 11
16.7105356327
 21
37.5555052973
  0
LINE
  5
23C
100
AcDbEntity
  8
0
100
AcDbLine
 62
7
  6
BYLAYER
 10
20.2342021478
 20
46.4882355289
 11
20.4586377291
 21
47.329845699
  0
LINE
  5
23D
100
AcDbEntity
  8
0
100
AcDbLine
 62
7
  6
BYLAYER
 10
35.2543545958
 20
17.9900306051
 11
36.8453777487
 21
17.07147374
  0
LINE
  5
23E
100
AcDbEntity
  8
0
100
AcDbLine
 62
7
  6
BYLAYER
 10
34.0523170029
 20
17.9069896225
 11
33.7615049394
 21
18.0807476904
  0
LINE
  5
23F
100
AcDbEntity
  8
0
100
AcDbLine
 62
7
  6
BYLAYER
 10
19.8394465607
 20
43.6689601439
 11
19.8394465607
 21
42.5258567599
  0
LINE
  5
240
100
AcDbEntity
  8
0
100
AcDbLine
 62
7
  6
BYLAYER
 10
24.4003555129
 20
33.9323885742
 11
30.5521588966
 21
37.4841127129
  0
LINE
  5
241
100
AcDbEntity
  8
0
100
AcDbLine
 62
7
  6
BYLAYER
 10
30.693571421
 20
37.5657370315
 11
36.4918228861
 21
40.3275745102
  0
LINE
  5
242
100
AcDbEntity
  8
0
100
AcDbLine
 62
7
  6
BYLAYER
 10
36.3504038851
 20
40.0723680715
 11
30.5521588966
 21
37.3105336778
  0
LINE
  5
243
100
AcDbEntity
  8
0
100
AcDbLine
 62
7
  6
BYLAYER
 10
20.58184936
 20
42.4200648265
 11
20.58184936
 21
42.0972400005
  0
LINE
  5
244
100
AcDbEntity
  8
0
100
AcDbLine
 62
7
  6
BYLAYER
 10
21.5323024218
 20
46.7827300089
 11
21.5323024218
 21
47.4683835745
  0
LINE
  5
245
100
AcDbEntity
  8
0
100
AcDbLine
 62
7
  6
BYLAYER
 10
31.1976345737
 20
36.7984299403
 11
37.1282245827
 21
39.6233032416
  0
LINE
  5
246
100
AcDbEntity
  8
0
100
AcDbLine
 62
7
  6
BYLAYER
 10
37.5524874739
 20
39.7152133784
 11
38.3212194712
 21
40.0813777047
  0
LINE
  5
247
100
AcDbEntity
  8
0
100
AcDbLine
 62
7
  6
BYLAYER
 10
12.6269785892
 20
35.7897575134
 11
5.874080714
 21
39.688456719
  0
LINE
  5
248
100
AcDbEntity
  8
0
100
AcDbLine
 62
7
  6
BYLAYER
 10
37.5524874739
 20
21.929673576
 11
37.1282245827
 21
22.1746163291
  0
LINE
  5
249
100
AcDbEntity
  8
0
100
AcDbLine
 62
7
  6
BYLAYER
 10
23.0568470351
 20
16.0101406556
 11
23.0568470351
 21
10.9478256693
  0
LINE
  5
24A
100
AcDbEntity
  8
0
100
AcDbLine
 62
7
  6
BYLAYER
 10
23.6932457877
 20
14.9078718011
 11
23.6932457877
 21
9.7639065731
  0
LINE
  5
24B
100
AcDbEntity
  8
0
100
AcDbLine
 62
7
  6
BYLAYER
 10
23.7639567602
 20
33.4833028362
 11
23.7639567602
 21
15.601899901
  0
LINE
  5
24C
100
AcDbEntity
  8
0
100
AcDbLine
 62
7
  6
BYLAYER
 10
12.0258840978
 20
24.5831006263
 11
5.874080714
 21
21.0313764876
  0
LINE
  5
24D
100
AcDbEntity
  8
0
100
AcDbLine
 62
7
  6
BYLAYER
 10
12.6269785892
 20
24.6036475909
 11
11.2834701114
 21
23.8279772397
  0
LINE
  5
24E
100
AcDbEntity
  8
0
100
AcDbLine
 62
7
  6
BYLAYER
 10
24.4003555129
 20
14.4996310465
 11
24.4003555129
 21
33.9323885742
  0
LINE
  5
24F
100
AcDbEntity
  8
0
100
AcDbLine
 62
7
  6
BYLAYER
 10
34.7594267281
 20
35.4789045681
 11
32.9780903373
 21
34.4504556624
  0
LINE
  5
250
100
AcDbEntity
  8
0
100
AcDbLine
 62
7
  6
BYLAYER
 10
34.4412305901
 20
34.7896176864
 11
34.0660942968
 21
34.5730339394
  0
LINE
  5
251
100
AcDbEntity
  8
0
100
AcDbLine
 62
7
  6
BYLAYER
 10
13.5285418696
 20
21.9398437768
 11
13.3340883143
 21
21.8275766345
  0
LINE
  5
252
100
AcDbEntity
  8
0
100
AcDbLine
 62
7
  6
BYLAYER
 10
32.9780903373
 20
32.5641902017
 11
33.9002993096
 21
32.4988182697
  0
LINE
  5
253
100
AcDbEntity
  8
0
100
AcDbLine
 62
7
  6
BYLAYER
 10
13.3340883143
 20
38.3617505814
 11
16.5160820775
 21
36.524667186
  0
LINE
  5
254
100
AcDbEntity
  8
0
100
AcDbLine
 62
7
  6
BYLAYER
 10
13.6876431769
 20
38.9741326212
 11
15.8089723523
 21
37.7494103577
  0
LINE
  5
255
100
AcDbEntity
  8
0
100
AcDbLine
 62
7
  6
BYLAYER
 10
16.5160820775
 20
37.66777057
 11
23.7639567602
 21
33.4833028362
  0
LINE
  5
256
100
AcDbEntity
  8
0
100
AcDbLine
 62
7
  6
BYLAYER
 10
33.11543781
 20
32.554454155
 11
32.9780903373
 21
32.475157028
  0
LINE
  5
257
100
AcDbEntity
  8
0
100
AcDbLine
 62
7
  6
BYLAYER
 10
34.4412305901
 20
32.7483616436
 11
34.0660942968
 21
32.5317778965
  0
LINE
  5
258
100
AcDbEntity
  8
0
100
AcDbLine
 62
7
  6
BYLAYER
 10
32.9780903373
 20
31.5613425765
 11
34.7594267281
 21
32.5897914822
  0
LINE
  5
259
100
AcDbEntity
  8
0
100
AcDbLine
 62
7
  6
BYLAYER
 10
33.9002993096
 20
34.5400743125
 11
33.2171873375
 21
34.5884975558
  0
LINE
  5
25A
100
AcDbEntity
  8
0
100
AcDbLine
 62
7
  6
BYLAYER
 10
24.4003555129
 20
33.9323885742
 11
15.8089723523
 21
38.8925137417
  0
LINE
  5
25B
100
AcDbEntity
  8
0
100
AcDbLine
 62
7
  6
BYLAYER
 10
13.6876431769
 20
40.1172360052
 11
5.0255490439
 21
45.1181852481
  0
LINE
  5
25C
100
AcDbEntity
  8
0
100
AcDbLine
 62
7
  6
BYLAYER
 10
12.1850333918
 20
17.4490606199
 11
11.9905798365
 21
17.3367934776
  0
LINE
  5
25D
100
AcDbEntity
  8
0
100
AcDbLine
 62
7
  6
BYLAYER
 10
30.5521588966
 20
37.2391619878
 11
30.5521588966
 21
37.4841127129
  0
LINE
  5
25E
100
AcDbEntity
  8
0
100
AcDbLine
 62
7
  6
BYLAYER
 10
30.693571421
 20
37.5657370315
 11
30.693571421
 21
37.3778916411
  0
LINE
  5
25F
100
AcDbEntity
  8
0
100
AcDbLine
 62
7
  6
BYLAYER
 10
34.4998043065
 20
34.8712658373
 11
34.4412305901
 21
34.7896176864
  0
LINE
  5
260
100
AcDbEntity
  8
0
100
AcDbLine
 62
7
  6
BYLAYER
 10
34.4412305901
 20
32.7483616436
 11
34.4998043065
 21
32.8300097945
  0
LINE
  5
261
100
AcDbEntity
  8
0
100
AcDbLine
 62
7
  6
BYLAYER
 10
19.8394465607
 20
42.5258567599
 11
20.970805014
 21
41.8726814291
  0
LINE
  5
262
100
AcDbEntity
  8
0
100
AcDbLine
 62
7
  6
BYLAYER
 10
34.7594267281
 20
32.5897914822
 11
34.4623361966
 21
32.7673008885
  0
LINE
  5
263
100
AcDbEntity
  8
0
100
AcDbLine
 62
7
  6
BYLAYER
 10
32.2833231555
 20
19.05083737
 11
32.2833231555
 21
16.885666645
  0
LINE
  5
264
100
AcDbEntity
  8
0
100
AcDbLine
 62
7
  6
BYLAYER
 10
32.9780903373
 20
34.4504556624
 11
32.9780903373
 21
31.5613425765
  0
LINE
  5
265
100
AcDbEntity
  8
0
100
AcDbLine
 62
7
  6
BYLAYER
 10
13.3693831549
 20
47.4961082479
 11
20.4404804064
 21
43.485227972
  0
LINE
  5
266
100
AcDbEntity
  8
0
100
AcDbLine
 62
7
  6
BYLAYER
 10
19.8394465607
 20
42.848681586
 11
21.2503835111
 21
42.0340951862
  0
LINE
  5
267
100
AcDbEntity
  8
0
100
AcDbLine
 62
7
  6
BYLAYER
 10
30.5720923927
 20
37.1595787166
 11
31.1976345737
 21
36.7984299403
  0
LINE
  5
268
100
AcDbEntity
  8
0
100
AcDbLine
 62
7
  6
BYLAYER
 10
34.1448022674
 20
35.1240530885
 11
34.4412294125
 21
34.9529146681
  0
LINE
  5
269
100
AcDbEntity
  8
0
100
AcDbLine
 62
7
  6
BYLAYER
 10
11.1773524276
 20
48.6699093868
 11
19.8394465607
 21
43.6689601439
  0
LINE
  5
26A
100
AcDbEntity
  8
0
100
AcDbLine
 62
7
  6
BYLAYER
 10
21.9607757361
 20
42.4442378803
 11
30.5521588966
 21
37.4841127129
  0
LINE
  5
26B
100
AcDbEntity
  8
0
100
AcDbLine
 62
7
  6
BYLAYER
 10
20.4404804064
 20
43.485227972
 11
30.693571421
 21
37.5657370315
  0
LINE
  5
26C
100
AcDbEntity
  8
0
100
AcDbLine
 62
7
  6
BYLAYER
 10
33.1931895844
 20
17.8017643073
 11
33.1931895844
 21
19.576145862
  0
LINE
  5
26D
100
AcDbEntity
  8
0
100
AcDbLine
 62
7
  6
BYLAYER
 10
33.3589845717
 20
19.6718670711
 11
33.3589845717
 21
17.8347239342
  0
LINE
  5
26E
100
AcDbEntity
  8
0
100
AcDbLine
 62
7
  6
BYLAYER
 10
33.734120865
 20
18.0513076812
 11
33.734120865
 21
19.8884508182
  0
LINE
  5
26F
100
AcDbEntity
  8
0
100
AcDbLine
 62
7
  6
BYLAYER
 10
33.7926989199
 20
19.9222706721
 11
33.7926989199
 21
18.1329558321
  0
LINE
  5
270
100
AcDbEntity
  8
0
100
AcDbLine
 62
7
  6
BYLAYER
 10
33.9002993096
 20
32.4988182697
 11
33.9002993096
 21
34.5400743125
  0
LINE
  5
271
100
AcDbEntity
  8
0
100
AcDbLine
 62
7
  6
BYLAYER
 10
34.0523170029
 20
20.0721603475
 11
34.0523170029
 21
17.9069896225
  0
LINE
  5
272
100
AcDbEntity
  8
0
100
AcDbLine
 62
7
  6
BYLAYER
 10
34.0660942968
 20
34.5730339394
 11
34.0660942968
 21
32.5317778965
  0
LINE
  5
273
100
AcDbEntity
  8
0
100
AcDbLine
 62
7
  6
BYLAYER
 10
34.4412305901
 20
32.7483616436
 11
34.4412305901
 21
34.7896176864
  0
LINE
  5
274
100
AcDbEntity
  8
0
100
AcDbLine
 62
7
  6
BYLAYER
 10
34.4998086451
 20
34.8712658373
 11
34.4998086451
 21
32.8300097945
  0
LINE
  5
275
100
AcDbEntity
  8
0
100
AcDbLine
 62
7
  6
BYLAYER
 10
34.7594267281
 20
35.4789045681
 11
34.7594267281
 21
32.5897914822
  0
LINE
  5
276
100
AcDbEntity
  8
0
100
AcDbLine
 62
7
  6
BYLAYER
 10
13.2453392671
 20
50.1898097958
 11
20.3164365185
 21
46.1074022506
  0
LINE
  5
277
100
AcDbEntity
  8
0
100
AcDbLine
 62
7
  6
BYLAYER
 10
13.1631048963
 20
50.5706430741
 11
20.2342021478
 21
46.4882355289
  0
LINE
  5
278
100
AcDbEntity
  8
0
100
AcDbLine
 62
7
  6
BYLAYER
 10
34.4412294125
 20
34.9529146681
 11
34.4998043065
 21
34.8712658373
  0
LINE
  5
279
100
AcDbEntity
  8
0
100
AcDbLine
 62
7
  6
BYLAYER
 10
35.0069071832
 20
17.8471676276
 11
35.0069071832
 21
15.8059115848
  0
LINE
  5
27A
100
AcDbEntity
  8
0
100
AcDbLine
 62
7
  6
BYLAYER
 10
36.4211148576
 20
18.6636559354
 11
36.4211148576
 21
21.439778263
  0
LINE
  5
27B
100
AcDbEntity
  8
0
100
AcDbLine
 62
7
  6
BYLAYER
 10
36.4918228861
 20
40.3275745102
 11
36.4918228861
 21
39.9907216203
  0
LINE
  5
27C
100
AcDbEntity
  8
0
100
AcDbLine
 62
7
  6
BYLAYER
 10
23.2513005903
 20
16.1224077979
 11
23.0568470351
 21
16.0101406556
  0
LINE
  5
27D
100
AcDbEntity
  8
0
100
AcDbLine
 62
7
  6
BYLAYER
 10
20.4586377291
 20
47.329845699
 11
13.3875404776
 21
51.4122532442
  0
LINE
  5
27E
100
AcDbEntity
  8
0
100
AcDbLine
 62
7
  6
BYLAYER
 10
21.543360951
 20
46.7261105959
 11
21.6193513138
 21
46.682238532
  0
LINE
  5
27F
100
AcDbEntity
  8
0
100
AcDbLine
 62
7
  6
BYLAYER
 10
13.5796360129
 20
51.615609124
 11
20.6507332643
 21
47.5332015788
  0
LINE
  5
280
100
AcDbEntity
  8
0
100
AcDbLine
 62
7
  6
BYLAYER
 10
21.450085138
 20
47.5692178746
 11
14.3789878866
 21
51.6516254198
  0
LINE
  5
281
100
AcDbEntity
  8
0
100
AcDbLine
 62
7
  6
BYLAYER
 10
14.4197827062
 20
51.6423483493
 11
21.4908799576
 21
47.5599408041
  0
LINE
  5
282
100
AcDbEntity
  8
0
100
AcDbLine
 62
7
  6
BYLAYER
 10
36.8453777487
 20
17.07147374
 11
36.8453777487
 21
21.6847250952
  0
LINE
  5
283
100
AcDbEntity
  8
0
100
AcDbLine
 62
7
  6
BYLAYER
 10
37.1282245827
 20
21.8480258162
 11
37.1282245827
 21
39.6233032416
  0
LINE
  5
284
100
AcDbEntity
  8
0
100
AcDbLine
 62
7
  6
BYLAYER
 10
37.5524874739
 20
21.929673576
 11
37.5524874739
 21
39.7152133784
  0
LINE
  5
285
100
AcDbEntity
  8
0
100
AcDbLine
 62
7
  6
BYLAYER
 10
38.2595854231
 20
22.3379143305
 11
38.2595854231
 21
18.9085900692
  0
LINE
  5
286
100
AcDbEntity
  8
0
100
AcDbLine
 62
7
  6
BYLAYER
 10
37.1282245827
 20
21.8480258162
 11
24.4003555129
 21
14.4996310465
  0
LINE
  5
287
100
AcDbEntity
  8
0
100
AcDbLine
 62
7
  6
BYLAYER
 10
38.9666951483
 20
22.7461618837
 11
37.5524874739
 21
21.929673576
  0
LINE
  5
288
100
AcDbEntity
  8
0
100
AcDbLine
 62
7
  6
BYLAYER
 10
32.386342007
 20
17.8589587031
 11
32.2833231555
 21
17.7994810965
  0
LINE
  5
289
100
AcDbEntity
  8
0
100
AcDbLine
 62
7
  6
BYLAYER
 10
21.6193513138
 20
46.682238532
 11
26.7824506261
 21
47.1801229638
  0
LINE
  5
28A
100
AcDbEntity
  8
0
100
AcDbLine
 62
7
  6
BYLAYER
 10
25.8631011743
 20
46.3295297209
 11
20.4184235675
 21
46.0842095744
  0
LINE
  5
28B
100
AcDbEntity
  8
0
100
AcDbLine
 62
7
  6
BYLAYER
 10
21.5737266658
 20
46.6911758677
 11
21.6193513138
 21
46.682238532
  0
LINE
  5
28C
100
AcDbEntity
  8
0
100
AcDbLine
 62
7
  6
BYLAYER
 10
20.4184235675
 20
46.0842095744
 11
20.3164479088
 21
46.1074219373
  0
LINE
  5
28D
100
AcDbEntity
  8
0
100
AcDbLine
 62
7
  6
BYLAYER
 10
25.8966066347
 20
46.3219010991
 11
25.8631011743
 21
46.3295297209
  0
LINE
  5
28E
100
AcDbEntity
  8
0
100
AcDbLine
 62
7
  6
BYLAYER
 10
21.450085138
 20
47.5692178746
 11
21.4908743663
 21
47.5599310927
  0
LINE
  5
28F
100
AcDbEntity
  8
0
100
AcDbLine
 62
7
  6
BYLAYER
 10
25.3316458499
 20
46.305584006
 11
25.8043449057
 21
46.0401571769
  0
LINE
  5
290
100
AcDbEntity
  8
0
100
AcDbLine
 62
7
  6
BYLAYER
 10
25.3492339888
 20
46.3063764725
 11
25.8140096998
 21
46.0451298081
  0
LINE
  5
291
100
AcDbEntity
  8
0
100
AcDbLine
 62
7
  6
BYLAYER
 10
25.9306370393
 20
46.2467042509
 11
25.7922811598
 21
46.3263404737
  0
LINE
  5
292
100
AcDbEntity
  8
0
100
AcDbLine
 62
7
  6
BYLAYER
 10
37.1282245827
 20
39.6233032416
 11
36.3504038851
 21
40.0723680715
  0
LINE
  5
293
100
AcDbEntity
  8
0
100
AcDbLine
 62
7
  6
BYLAYER
 10
37.5524874739
 20
39.7152133785
 11
36.4918228861
 21
40.3275745102
  0
LINE
  5
294
100
AcDbEntity
  8
0
100
AcDbLine
 62
7
  6
BYLAYER
 10
38.3212194712
 20
40.0813777047
 11
27.0074638688
 21
46.6132297771
  0
LINE
  5
295
100
AcDbEntity
  8
0
100
AcDbLine
 62
7
  6
BYLAYER
 10
19.0627854207
 20
51.1999882514
 11
18.8757020297
 21
51.3079984541
  0
LINE
  5
296
100
AcDbEntity
  8
0
100
AcDbLine
 62
7
  6
BYLAYER
 10
38.9666951483
 20
39.6406456572
 11
38.9666951483
 21
22.7461618837
  0
LINE
  5
297
100
AcDbEntity
  8
0
100
AcDbLine
 62
7
  6
BYLAYER
 10
33.734120865
 20
18.0513076812
 11
33.7926945813
 21
18.1329558321
  0
LINE
  5
298
100
AcDbEntity
  8
0
100
AcDbLine
 62
7
  6
BYLAYER
 10
33.734120865
 20
18.0513076812
 11
33.3589845717
 21
17.8347239342
  0
LINE
  5
299
100
AcDbEntity
  8
0
100
AcDbLine
 62
7
  6
BYLAYER
 10
32.2833231555
 20
16.885666645
 11
34.0523170029
 21
17.9069896225
  0
LINE
  5
29A
100
AcDbEntity
  8
0
100
AcDbLine
 62
7
  6
BYLAYER
 10
36.4211148576
 20
18.6636559354
 11
35.0069071832
 21
17.8471676276
  0
LINE
  5
29B
100
AcDbEntity
  8
0
100
AcDbLine
 62
7
  6
BYLAYER
 10
20.6507332644
 20
47.5332015788
 11
21.450085138
 21
47.5692178746
  0
LINE
  5
29C
100
AcDbEntity
  8
0
100
AcDbLine
 62
7
  6
BYLAYER
 10
26.7824506261
 20
47.1801229638
 11
27.2386598529
 21
47.0906850667
  0
LINE
  5
29D
100
AcDbEntity
  8
0
100
AcDbLine
 62
7
  6
BYLAYER
 10
19.314065386
 20
51.3250525544
 11
19.4637207111
 21
51.2386509668
  0
LINE
  5
29E
100
AcDbEntity
  8
0
100
AcDbLine
 62
7
  6
BYLAYER
 10
27.4458272252
 20
46.6302838774
 11
38.7595828276
 21
40.0984318051
  0
LINE
  5
29F
100
AcDbEntity
  8
0
100
AcDbLine
 62
7
  6
BYLAYER
 10
26.7824506261
 20
47.1801229638
 11
19.7113533746
 21
51.262530509
  0
LINE
  5
2A0
100
AcDbEntity
  8
0
100
AcDbLine
 62
7
  6
BYLAYER
 10
27.2387149045
 20
47.0907804903
 11
20.167617653
 21
51.1731880355
  0
LINE
  5
2A1
100
AcDbEntity
  8
0
100
AcDbLine
 62
7
  6
BYLAYER
 10
38.2595854231
 20
18.9085900692
 11
37.5179222119
 21
17.4597651491
  0
LINE
  5
2A2
100
AcDbEntity
  8
0
100
AcDbLine
 62
7
  6
BYLAYER
 10
27.6959976337
 20
12.0748826343
 11
23.6932457877
 21
9.7639065731
  0
LINE
  5
2A3
100
AcDbEntity
  8
0
100
AcDbLine
 62
7
  6
BYLAYER
 10
37.5179222119
 20
17.4597651491
 11
36.8453777487
 21
17.07147374
  0
LINE
  5
2A4
100
AcDbEntity
  8
0
100
AcDbLine
 62
7
  6
BYLAYER
 10
28.4308414971
 20
12.0092409538
 11
35.0069071832
 21
15.8059115848
  0
LINE
  5
2A5
100
AcDbEntity
  8
0
100
AcDbLine
 62
7
  6
BYLAYER
 10
20.1675626918
 20
51.1730927683
 11
19.7113533747
 21
51.262530509
  0
LINE
  5
2A6
100
AcDbEntity
  8
0
100
AcDbLine
 62
7
  6
BYLAYER
 10
14.4197769925
 20
51.6423384248
 11
14.3789878866
 21
51.6516254198
  0
LINE
  5
2A7
100
AcDbEntity
  8
0
100
AcDbLine
 62
7
  6
BYLAYER
 10
19.7113533747
 20
51.262530509
 11
15.7408461115
 21
50.8796492911
  0
LINE
  5
2A8
100
AcDbEntity
  8
0
100
AcDbLine
 62
7
  6
BYLAYER
 10
14.3789878866
 20
51.6516254198
 11
13.5796360129
 21
51.615609124
  0
ARC
  5
2A9
100
AcDbEntity
  8
0
100
AcDbCircle
 62
7
  6
BYLAYER
 10
26.5309721526
 20
46.2856700871
 40
1.1107364303
100
AcDbArc
 50
16.2572708687
 51
20.8527854081
  0
SPLINE
  5
2AA
100
AcDbEntity
  8
0
100
AcDbSpline
 62
7
  6
BYLAYER
 70
0
 71
3
 72
24
 73
20
 74
0
 42
0.0000001
 43
0.0000001
 44
0.0000000001
 40
0.0
 40
0.0
 40
0.0
 40
0.0
 40
0.021332961
 40
0.0428944877
 40
0.0874730787
 40
0.1352527096
 40
0.187156456
 40
0.2435988144
 40
0.3045510761
 40
0.3696418118
 40
0.4382441933
 40
0.5095355376
 40
0.5825639832
 40
0.6562994551
 40
0.7296835607
 40
0.8016654623
 40
0.8712572821
 40
0.9376325968
 40
1.0
 40
1.0
 40
1.0
 40
1.0
 10
17.2534116336
 20
15.7331416916
 30
0.0
 10
17.2841247986
 20
15.7508741784
 30
0.0
 10
17.3436726742
 20
15.7905293842
 30
0.0
 10
17.4537910433
 20
15.8859971491
 30
0.0
 10
17.5725621867
 20
16.0359708866
 30
0.0
 10
17.6775162382
 20
16.2533657058
 30
0.0
 10
17.7455969878
 20
16.5051371255
 30
0.0
 10
17.7758698659
 20
16.7859226552
 30
0.0
 10
17.7681240487
 20
17.0899599459
 30
0.0
 10
17.7227035192
 20
17.4109779192
 30
0.0
 10
17.6405726874
 20
17.7422629262
 30
0.0
 10
17.5235166211
 20
18.0768266706
 30
0.0
 10
17.374055503
 20
18.4075761428
 30
0.0
 10
17.1953266107
 20
18.7274491725
 30
0.0
 10
16.9911544423
 20
19.0296228043
 30
0.0
 10
16.7659419953
 20
19.3076738823
 30
0.0
 10
16.524375887
 20
19.5557147861
 30
0.0
 10
16.27164613
 20
19.7683260213
 30
0.0
 10
16.0932173556
 20
19.8876095001
 30
0.0
 10
16.0034259076
 20
19.939449444
 30
0.0
  0
SPLINE
  5
2AB
100
AcDbEntity
  8
0
100
AcDbSpline
 62
7
  6
BYLAYER
 70
0
 71
3
 72
14
 73
10
 74
0
 42
0.0000001
 43
0.0000001
 44
0.0000000001
 40
0.0
 40
0.0
 40
0.0
 40
0.0
 40
0.0950844069
 40
0.2024401166
 40
0.3215339762
 40
0.4505075913
 40
0.7258279689
 40
0.8653646458
 40
1.0
 40
1.0
 40
1.0
 40
1.0
 10
13.5796360129
 20
51.615609124
 30
0.0
 10
13.5703017033
 20
51.6151885492
 30
0.0
 10
13.5505417598
 20
51.611206681
 30
0.0
 10
13.5215359165
 20
51.5982229305
 30
0.0
 10
13.4926201405
 20
51.5783338894
 30
0.0
 10
13.4549145614
 20
51.5431658512
 30
0.0
 10
13.42327323
 20
51.4992831948
 30
0.0
 10
13.3997267591
 20
51.4506096803
 30
0.0
 10
13.390949541
 20
51.4250368787
 30
0.0
 10
13.3875404776
 20
51.4122532442
 30
0.0
  0
SPLINE
  5
2AC
100
AcDbEntity
  8
0
100
AcDbSpline
 62
7
  6
BYLAYER
 70
0
 71
3
 72
13
 73
9
 74
0
 42
0.0000001
 43
0.0000001
 44
0.0000000001
 40
0.0
 40
0.0
 40
0.0
 40
0.0
 40
0.3039934091
 40
0.5706143515
 40
0.6891036049
 40
0.7986302036
 40
0.9012023253
 40
1.0
 40
1.0
 40
1.0
 40
1.0
 10
13.1631048963
 20
50.5706430741
 30
0.0
 10
13.1522411266
 20
50.5299050635
 30
0.0
 10
13.138414999
 20
50.4514431763
 30
0.0
 10
13.1431355788
 20
50.3547152159
 30
0.0
 10
13.1626486927
 20
50.2886214714
 30
0.0
 10
13.1835231697
 20
50.2474575424
 30
0.0
 10
13.2109476665
 20
50.2137263356
 30
0.0
 10
13.2334720655
 20
50.1966601969
 30
0.0
 10
13.2453386216
 20
50.1898086358
 30
0.0
  0
SPLINE
  5
2AD
100
AcDbEntity
  8
0
100
AcDbSpline
 62
7
  6
BYLAYER
 70
0
 71
3
 72
11
 73
7
 74
0
 42
0.0000001
 43
0.0000001
 44
0.0000000001
 40
0.0
 40
0.0
 40
0.0
 40
0.0
 40
0.2177991269
 40
0.4509682954
 40
0.7107869803
 40
1.0
 40
1.0
 40
1.0
 40
1.0
 10
21.4908760448
 20
47.559934004
 30
0.0
 10
21.4974807375
 20
47.5561371178
 30
0.0
 10
21.509830221
 20
47.5457597063
 30
0.0
 10
21.5229744265
 20
47.5242534674
 30
0.0
 10
21.5307337217
 20
47.4977643617
 30
0.0
 10
21.5323024218
 20
47.4784998137
 30
0.0
 10
21.5323024218
 20
47.4683835745
 30
0.0
  0
SPLINE
  5
2AE
100
AcDbEntity
  8
0
100
AcDbSpline
 62
7
  6
BYLAYER
 70
0
 71
3
 72
11
 73
7
 74
0
 42
0.0000001
 43
0.0000001
 44
0.0000000001
 40
0.0
 40
0.0
 40
0.0
 40
0.0
 40
0.2891493137
 40
0.5490239633
 40
0.7822329089
 40
1.0
 40
1.0
 40
1.0
 40
1.0
 10
21.5323024218
 20
46.7827300089
 30
0.0
 10
21.5323024218
 20
46.7726160121
 30
0.0
 10
21.533874985
 20
46.7533521837
 30
0.0
 10
21.5416317292
 20
46.7268615864
 30
0.0
 10
21.5547753364
 20
46.7053521468
 30
0.0
 10
21.5671236245
 20
46.6949733572
 30
0.0
 10
21.5737265852
 20
46.6911757281
 30
0.0
  0
SPLINE
  5
2AF
100
AcDbEntity
  8
0
100
AcDbSpline
 62
7
  6
BYLAYER
 70
0
 71
3
 72
11
 73
7
 74
0
 42
0.0000001
 43
0.0000001
 44
0.0000000001
 40
0.0
 40
0.0
 40
0.0
 40
0.0
 40
0.2369786543
 40
0.4795624655
 40
0.7325979755
 40
1.0
 40
1.0
 40
1.0
 40
1.0
 10
27.2387132897
 20
47.0907776249
 30
0.0
 10
27.2753919452
 20
47.0696022952
 30
0.0
 10
27.3456637164
 20
47.0194767456
 30
0.0
 10
27.4366713611
 20
46.9243970398
 30
0.0
 10
27.512854409
 20
46.8105548206
 30
0.0
 10
27.55192522
 20
46.7257096821
 30
0.0
 10
27.5689532664
 20
46.6810567649
 30
0.0
  0
SPLINE
  5
2B0
100
AcDbEntity
  8
0
100
AcDbSpline
 62
7
  6
BYLAYER
 70
0
 71
3
 72
11
 73
7
 74
0
 42
0.0000001
 43
0.0000001
 44
0.0000000001
 40
0.0
 40
0.0
 40
0.0
 40
0.0
 40
0.2226668956
 40
0.4579526697
 40
0.7155545125
 40
1.0
 40
1.0
 40
1.0
 40
1.0
 10
19.3140614729
 20
51.3250457453
 30
0.0
 10
19.2847859282
 20
51.3419380116
 30
0.0
 10
19.2187976663
 20
51.3674551435
 30
0.0
 10
19.109260756
 20
51.3760272303
 30
0.0
 10
18.9919745668
 20
51.3562376678
 30
0.0
 10
18.9146829487
 20
51.3265659418
 30
0.0
 10
18.8757020296
 20
51.307998454
 30
0.0
  0
SPLINE
  5
2B1
100
AcDbEntity
  8
0
100
AcDbSpline
 62
7
  6
BYLAYER
 70
0
 71
3
 72
10
 73
6
 74
0
 42
0.0000001
 43
0.0000001
 44
0.0000000001
 40
0.0
 40
0.0
 40
0.0
 40
0.0
 40
0.5241669758
 40
0.7720802233
 40
1.0
 40
1.0
 40
1.0
 40
1.0
 10
33.1931895844
 20
17.8017643073
 30
0.0
 10
33.2229990576
 20
17.7996512257
 30
0.0
 10
33.2676505709
 20
17.8021450995
 30
0.0
 10
33.3228159358
 20
17.8170537368
 30
0.0
 10
33.3477311047
 20
17.8282267808
 30
0.0
 10
33.3589845717
 20
17.8347239342
 30
0.0
  0
SPLINE
  5
2B2
100
AcDbEntity
  8
0
100
AcDbSpline
 62
7
  6
BYLAYER
 70
0
 71
3
 72
13
 73
9
 74
0
 42
0.0000001
 43
0.0000001
 44
0.0000000001
 40
0.0
 40
0.0
 40
0.0
 40
0.0
 40
0.1081010094
 40
0.2182409452
 40
0.332250073
 40
0.4516741791
 40
0.7106642318
 40
1.0
 40
1.0
 40
1.0
 40
1.0
 10
38.7595789535
 20
40.0984250637
 30
0.0
 10
38.7759774536
 20
40.0889629345
 30
0.0
 10
38.8074991624
 20
40.0669600636
 30
0.0
 10
38.849139029
 20
40.0259622012
 30
0.0
 10
38.8849760968
 20
39.9773285569
 30
0.0
 10
38.9255936396
 20
39.900950565
 30
0.0
 10
38.9590453215
 20
39.7876381508
 30
0.0
 10
38.9666876049
 20
39.691319313
 30
0.0
 10
38.9666951483
 20
39.6406456572
 30
0.0
  0
SPLINE
  5
2B3
100
AcDbEntity
  8
0
100
AcDbSpline
 62
7
  6
BYLAYER
 70
0
 71
3
 72
10
 73
6
 74
0
 42
0.0000001
 43
0.0000001
 44
0.0000000001
 40
0.0
 40
0.0
 40
0.0
 40
0.0
 40
0.5241669758
 40
0.7720802233
 40
1.0
 40
1.0
 40
1.0
 40
1.0
 10
33.9002993096
 20
32.4988182697
 30
0.0
 10
33.9301087828
 20
32.4967051881
 30
0.0
 10
33.974760296
 20
32.4991990619
 30
0.0
 10
34.0299256609
 20
32.5141076991
 30
0.0
 10
34.0548408299
 20
32.5252807432
 30
0.0
 10
34.0660942968
 20
32.5317778965
 30
0.0
  0
SPLINE
  5
2B4
100
AcDbEntity
  8
0
100
AcDbSpline
 62
7
  6
BYLAYER
 70
0
 71
3
 72
15
 73
11
 74
0
 42
0.0000001
 43
0.0000001
 44
0.0000000001
 40
0.0
 40
0.0
 40
0.0
 40
0.0
 40
0.1484791852
 40
0.289470958
 40
0.4227499327
 40
0.5486578965
 40
0.6679961466
 40
0.7819338503
 40
0.8919888352
 40
1.0
 40
1.0
 40
1.0
 40
1.0
 10
16.0034259076
 20
19.939449444
 30
0.0
 10
15.9470823313
 20
19.971978687
 30
0.0
 10
15.8345215076
 20
20.0308650606
 30
0.0
 10
15.662833636
 20
20.101177576
 30
0.0
 10
15.4941481543
 20
20.1503650219
 30
0.0
 10
15.3301530485
 20
20.1778702241
 30
0.0
 10
15.1723603443
 20
20.1833464798
 30
0.0
 10
15.0222663857
 20
20.1665809956
 30
0.0
 10
14.8814421581
 20
20.1276874787
 30
0.0
 10
14.7944269428
 20
20.0869091391
 30
0.0
 10
14.7534401816
 20
20.0632451108
 30
0.0
  0
SPLINE
  5
2B5
100
AcDbEntity
  8
0
100
AcDbSpline
 62
7
  6
BYLAYER
 70
0
 71
3
 72
13
 73
9
 74
0
 42
0.0000001
 43
0.0000001
 44
0.0000000001
 40
0.0
 40
0.0
 40
0.0
 40
0.0
 40
0.2893374804
 40
0.5483257531
 40
0.6677498599
 40
0.7817588289
 40
0.8918988299
 40
1.0
 40
1.0
 40
1.0
 40
1.0
 10
30.5521588966
 20
37.2391619878
 30
0.0
 10
30.5521588966
 20
37.188488001
 30
0.0
 10
30.559806799
 20
37.0921681424
 30
0.0
 10
30.5932627492
 20
36.9788581071
 30
0.0
 10
30.6338776983
 20
36.902479083
 30
0.0
 10
30.6697145676
 20
36.8538451621
 30
0.0
 10
30.7113547036
 20
36.8128474931
 30
0.0
 10
30.742876579
 20
36.7908447684
 30
0.0
 10
30.7592751304
 20
36.781382649
 30
0.0
  0
SPLINE
  5
2B6
100
AcDbEntity
  8
0
100
AcDbSpline
 62
7
  6
BYLAYER
 70
0
 71
3
 72
12
 73
8
 74
0
 42
0.0000001
 43
0.0000001
 44
0.0000000001
 40
0.0
 40
0.0
 40
0.0
 40
0.0
 40
0.1140834064
 40
0.2377289161
 40
0.5002190857
 40
0.7628602588
 40
1.0
 40
1.0
 40
1.0
 40
1.0
 10
25.8140104088
 20
46.04501727
 30
0.0
 10
25.8219790658
 20
46.0495922031
 30
0.0
 10
25.8377146999
 20
46.0606716646
 30
0.0
 10
25.8671929953
 20
46.088261057
 30
0.0
 10
25.898457161
 20
46.1307843831
 30
0.0
 10
25.9234915643
 20
46.1873248615
 30
0.0
 10
25.930540292
 20
46.2276092335
 30
0.0
 10
25.9306373067
 20
46.2467087944
 30
0.0
  0
SPLINE
  5
2B7
100
AcDbEntity
  8
0
100
AcDbSpline
 62
7
  6
BYLAYER
 70
0
 71
3
 72
11
 73
7
 74
0
 42
0.0000001
 43
0.0000001
 44
0.0000000001
 40
0.0
 40
0.0
 40
0.0
 40
0.0
 40
0.2892107515
 40
0.5490265911
 40
0.7821973507
 40
1.0
 40
1.0
 40
1.0
 40
1.0
 10
25.9306373067
 20
46.2467087944
 30
0.0
 10
25.9306371459
 20
46.2550178113
 30
0.0
 10
25.9293479895
 20
46.270840813
 30
0.0
 10
25.922973249
 20
46.2925973387
 30
0.0
 10
25.9121765259
 20
46.3102613385
 30
0.0
 10
25.902033025
 20
46.3187849798
 30
0.0
 10
25.8966081072
 20
46.3219036532
 30
0.0
  0
SPLINE
  5
2B8
100
AcDbEntity
  8
0
100
AcDbSpline
 62
7
  6
BYLAYER
 70
0
 71
3
 72
14
 73
10
 74
0
 42
0.0000001
 43
0.0000001
 44
0.0000000001
 40
0.0
 40
0.0
 40
0.0
 40
0.0
 40
0.1346353542
 40
0.2741720311
 40
0.5494924087
 40
0.6784660238
 40
0.7975598834
 40
0.9049155931
 40
1.0
 40
1.0
 40
1.0
 40
1.0
 10
20.4586377291
 20
47.329845699
 30
0.0
 10
20.4620467925
 20
47.3426293335
 30
0.0
 10
20.4708240106
 20
47.3682021351
 30
0.0
 10
20.4943704815
 20
47.4168756496
 30
0.0
 10
20.5260118129
 20
47.460758306
 30
0.0
 10
20.563717392
 20
47.4959263442
 30
0.0
 10
20.592633168
 20
47.5158153853
 30
0.0
 10
20.6216390113
 20
47.5287991358
 30
0.0
 10
20.6413989548
 20
47.532781004
 30
0.0
 10
20.6507332644
 20
47.5332015788
 30
0.0
  0
SPLINE
  5
2B9
100
AcDbEntity
  8
0
100
AcDbSpline
 62
7
  6
BYLAYER
 70
0
 71
3
 72
13
 73
9
 74
0
 42
0.0000001
 43
0.0000001
 44
0.0000000001
 40
0.0
 40
0.0
 40
0.0
 40
0.0
 40
0.0987977599
 40
0.2013699193
 40
0.3108965618
 40
0.4293858561
 40
0.6960067126
 40
1.0
 40
1.0
 40
1.0
 40
1.0
 10
20.3164358734
 20
46.1074010913
 30
0.0
 10
20.3045693055
 20
46.1142526558
 30
0.0
 10
20.2820449014
 20
46.1313188166
 30
0.0
 10
20.2546203796
 20
46.1650500332
 30
0.0
 10
20.2337459263
 20
46.2062139954
 30
0.0
 10
20.2142328161
 20
46.2723077384
 30
0.0
 10
20.2095122469
 20
46.3690356788
 30
0.0
 10
20.2233383823
 20
46.4474975343
 30
0.0
 10
20.2342021478
 20
46.4882355289
 30
0.0
  0
LINE
  5
2BA
100
AcDbEntity
  8
0
100
AcDbLine
 62
7
  6
BYLAYER
 10
25.8043449057
 20
46.0401571769
 11
25.8139911451
 21
46.0447518975
  0
SPLINE
  5
2BB
100
AcDbEntity
  8
0
100
AcDbSpline
 62
7
  6
BYLAYER
 70
0
 71
3
 72
24
 73
20
 74
0
 42
0.0000001
 43
0.0000001
 44
0.0000000001
 40
0.0
 40
0.0
 40
0.0
 40
0.0
 40
0.021332961
 40
0.0428944877
 40
0.0874730787
 40
0.1352527096
 40
0.187156456
 40
0.2435988144
 40
0.3045510761
 40
0.3696418118
 40
0.4382441933
 40
0.5095355376
 40
0.5825639832
 40
0.6562994551
 40
0.7296835607
 40
0.8016654623
 40
0.8712572821
 40
0.9376325968
 40
1.0
 40
1.0
 40
1.0
 40
1.0
 10
14.7534401816
 20
20.0632451108
 30
0.0
 10
14.7227270166
 20
20.0455126239
 30
0.0
 10
14.663179141
 20
20.0058574182
 30
0.0
 10
14.5530607719
 20
19.9103896533
 30
0.0
 10
14.4342896285
 20
19.7604159157
 30
0.0
 10
14.3293355769
 20
19.5430210965
 30
0.0
 10
14.2612548274
 20
19.2912496769
 30
0.0
 10
14.2309819493
 20
19.0104641471
 30
0.0
 10
14.2387277664
 20
18.7064268565
 30
0.0
 10
14.284148296
 20
18.3854088832
 30
0.0
 10
14.3662791277
 20
18.0541238762
 30
0.0
 10
14.483335194
 20
17.7195601317
 30
0.0
 10
14.6327963121
 20
17.3888106596
 30
0.0
 10
14.8115252044
 20
17.0689376299
 30
0.0
 10
15.0156973729
 20
16.766763998
 30
0.0
 10
15.2409098198
 20
16.4887129201
 30
0.0
 10
15.4824759282
 20
16.2406720162
 30
0.0
 10
15.7352056851
 20
16.0280607811
 30
0.0
 10
15.9136344595
 20
15.9087773023
 30
0.0
 10
16.0034259076
 20
15.8569373583
 30
0.0
  0
SPLINE
  5
2BC
100
AcDbEntity
  8
0
100
AcDbSpline
 62
7
  6
BYLAYER
 70
0
 71
3
 72
11
 73
7
 74
0
 42
0.0000001
 43
0.0000001
 44
0.0000000001
 40
0.0
 40
0.0
 40
0.0
 40
0.0
 40
0.284445471
 40
0.5420471613
 40
0.7773330097
 40
1.0
 40
1.0
 40
1.0
 40
1.0
 10
38.3212194712
 20
40.0813777047
 30
0.0
 10
38.3602003893
 20
40.099945192
 30
0.0
 10
38.4374919779
 20
40.1296169282
 30
0.0
 10
38.5547781701
 20
40.149406465
 30
0.0
 10
38.6643150565
 20
40.1408343753
 30
0.0
 10
38.7303034258
 20
40.1153173905
 30
0.0
 10
38.7595789535
 20
40.0984250637
 30
0.0
  0
SPLINE
  5
2BD
100
AcDbEntity
  8
0
100
AcDbSpline
 62
7
  6
BYLAYER
 70
0
 71
3
 72
15
 73
11
 74
0
 42
0.0000001
 43
0.0000001
 44
0.0000000001
 40
0.0
 40
0.0
 40
0.0
 40
0.0
 40
0.1484791852
 40
0.289470958
 40
0.4227499327
 40
0.5486578965
 40
0.6679961466
 40
0.7819338503
 40
0.8919888352
 40
1.0
 40
1.0
 40
1.0
 40
1.0
 10
16.0034259076
 20
15.8569373583
 30
0.0
 10
16.0597694838
 20
15.8244081153
 30
0.0
 10
16.1723303076
 20
15.7655217417
 30
0.0
 10
16.3440181792
 20
15.6952092264
 30
0.0
 10
16.5127036609
 20
15.6460217805
 30
0.0
 10
16.6766987666
 20
15.6185165782
 30
0.0
 10
16.8344914709
 20
15.6130403226
 30
0.0
 10
16.9845854294
 20
15.6298058067
 30
0.0
 10
17.125409657
 20
15.6686993236
 30
0.0
 10
17.2124248724
 20
15.7094776633
 30
0.0
 10
17.2534116336
 20
15.7331416916
 30
0.0
  0
SPLINE
  5
2BE
100
AcDbEntity
  8
0
100
AcDbSpline
 62
7
  6
BYLAYER
 70
0
 71
3
 72
11
 73
7
 74
0
 42
0.0000001
 43
0.0000001
 44
0.0000000001
 40
0.0
 40
0.0
 40
0.0
 40
0.0
 40
0.2226668956
 40
0.4579526697
 40
0.7155545125
 40
1.0
 40
1.0
 40
1.0
 40
1.0
 10
30.7592751304
 20
36.781382649
 30
0.0
 10
30.7885506752
 20
36.7644903827
 30
0.0
 10
30.854538937
 20
36.7389732509
 30
0.0
 10
30.9640758474
 20
36.7304011641
 30
0.0
 10
31.0813620365
 20
36.7501907265
 30
0.0
 10
31.1586536547
 20
36.7798624525
 30
0.0
 10
31.1976345737
 20
36.7984299403
 30
0.0
  0
SPLINE
  5
2BF
100
AcDbEntity
  8
0
100
AcDbSpline
 62
7
  6
BYLAYER
 70
0
 71
3
 72
11
 73
7
 74
0
 42
0.0000001
 43
0.0000001
 44
0.0000000001
 40
0.0
 40
0.0
 40
0.0
 40
0.0
 40
0.2226664102
 40
0.4579515972
 40
0.71555417
 40
1.0
 40
1.0
 40
1.0
 40
1.0
 10
27.4458229518
 20
46.6302764445
 30
0.0
 10
27.4165471844
 20
46.6471681582
 30
0.0
 10
27.3505598207
 20
46.6726866062
 30
0.0
 10
27.2410227343
 20
46.6812587013
 30
0.0
 10
27.1237366028
 20
46.6614690108
 30
0.0
 10
27.0464448237
 20
46.6317972819
 30
0.0
 10
27.0074638689
 20
46.6132297771
 30
0.0
  0
SPLINE
  5
2C0
100
AcDbEntity
  8
0
100
AcDbSpline
 62
7
  6
BYLAYER
 70
0
 71
3
 72
10
 73
6
 74
0
 42
0.0000001
 43
0.0000001
 44
0.0000000001
 40
0.0
 40
0.0
 40
0.0
 40
0.0
 40
0.2279197767
 40
0.4758330242
 40
1.0
 40
1.0
 40
1.0
 40
1.0
 10
34.0660942968
 20
34.5730339394
 30
0.0
 10
34.0548408299
 20
34.566536786
 30
0.0
 10
34.0299256609
 20
34.555363742
 30
0.0
 10
33.974760296
 20
34.5404551047
 30
0.0
 10
33.9301087828
 20
34.5379612309
 30
0.0
 10
33.9002993096
 20
34.5400743125
 30
0.0
  0
ENDSEC
  0
SECTION
  2
OBJECTS
  0
DICTIONARY
  5
C
100
AcDbDictionary
280
0
281
1
  3
ACAD_GROUP
350
D
  3
ACAD_MLINESTYLE
350
17
  3
ACAD_LAYOUT
350
1A
  3
ACAD_PLOTSETTINGS
350
19
  3
ACAD_PLOTSTYLENAME
350
E
  0
DICTIONARY
  5
D
102
{ACAD_REACTORS
330
C
102
}
100
AcDbDictionary
280
0
281
1
  0
ACDBDICTIONARYWDFLT
  5
E
102
{ACAD_REACTORS
330
C
102
}
100
AcDbDictionary
281
1
  3
Normal
350
F
100
AcDbDictionaryWithDefault
340
F
  0
DICTIONARY
  5
17
102
{ACAD_REACTORS
330
C
102
}
100
AcDbDictionary
280
0
281
1
  3
Standard
350
18
  0
DICTIONARY
  5
19
102
{ACAD_REACTORS
330
C
102
}
100
AcDbDictionary
281
1
  0
DICTIONARY
  5
1A
102
{ACAD_REACTORS
330
C
102
}
100
AcDbDictionary
281
1
  3
Model
350
2C1
  3
Layout1
350
2C2
  0
ACDBPLACEHOLDER
  5
F
102
{ACAD_REACTORS
330
E
102
}
  0
MLINESTYLE
  5
18
102
{ACAD_REACTORS
330
17
102
}
100
AcDbMlineStyle
  2
STANDARD
 70
0
  3

 62
256
 51
90.0
 52
90.0
 71
2
 49
0.5
 62
256
  6
BYLAYER
 49
-0.5
 62
256
  6
BYLAYER
  0
LAYOUT
  5
2C1
102
{ACAD_REACTORS
330
1A
102
}
100
AcDbPlotSettings
  1

  2
none_device
  4

  6

 40
0.0
 41
0.0
 42
0.0
 43
0.0
 44
210.0
 45
297.0
 46
0.0
 47
0.0
 48
0.0
 49
0.0
140
0.0
141
0.0
142
1.0
143
1.0
 70
1024
 72
1
 73
0
 74
0
  7

 75
0
147
1.0
148
0.0
149
0.0
100
AcDbLayout
  1
Model
 70
0
 71
0
 10
0.0
 20
0.0
 11
210.0
 21
297.0
 12
0.0
 22
0.0
 32
0.0
 14
0.0
 24
0.0
 34
0.0
 15
0.0
 25
0.0
 35
0.0
146
0.0
 13
0.0
 23
0.0
 33
0.0
 16
1.0
 26
0.0
 36
0.0
 17
0.0
 27
1.0
 37
0.0
 76
0
330
210
345
0
346
0
  0
LAYOUT
  5
2C2
102
{ACAD_REACTORS
330
1A
102
}
100
AcDbPlotSettings
  1

  2
none_device
  4

  6

 40
0.0
 41
0.0
 42
0.0
 43
0.0
 44
210.0
 45
297.0
 46
0.0
 47
0.0
 48
0.0
 49
0.0
140
0.0
141
0.0
142
1.0
143
1.0
 70
0
 72
1
 73
0
 74
0
  7

 75
0
147
1.0
148
0.0
149
0.0
100
AcDbLayout
  1
Layout1
 70
0
 71
1
 10
0.0
 20
0.0
 11
210.0
 21
297.0
 12
0.0
 22
0.0
 32
0.0
 14
0.0
 24
0.0
 34
0.0
 15
0.0
 25
0.0
 35
0.0
146
0.0
 13
0.0
 23
0.0
 33
0.0
 16
1.0
 26
0.0
 36
0.0
 17
0.0
 27
1.0
 37
0.0
 76
0
330
211
345
0
346
0
  0
ENDSEC
  0
EOF
