999
DXF file: C:\Users\sesa63760\Dev\_Creo\CAD\MCADID0005615_3D-CAD\mcadid0005615_3d-simplified_3.dxf
999
Pro/ENGINEER 2019471 by Parametric Technology Corporation
  0
SECTION
  2
HEADER
  9
$ACADVER
  1
AC1024
  9
$DWGCODEPAGE
  3
ANSI_1252
  9
$EXTMAX
 10
38898.8404530193
 20
55014.0743549844
 30
0.0
  9
$EXTMIN
 10
0.0
 20
0.0
 30
0.0
  9
$LIMMIN
 10
0.0
 20
0.0
  9
$LIMMAX
 10
38898.8404530193
 20
55014.0743549844
  9
$VIEWCTR
 10
19449.4202265096
 20
27507.0371774922
  9
$VIEWSIZE
 40
55014.0743549844
  9
$CLAYER
  8
0
  9
$LTSCALE
 40
3586.1026246212
  9
$CELTYPE
  6
BYLAYER
  9
$DIMSCALE
 40
1.0
  9
$DIMASZ
 40
463.0814339645
  9
$DIMEXO
 40
1.0
  9
$DIMDLI
 40
2477.6709042837
  9
$DIMEXE
 40
1.0
  9
$DIMCEN
 40
586.8167931198
  9
$DIMLFAC
 40
1.0
  9
$DIMBLK
  1
_FILLED
  9
$DIMALT
 70
0
  9
$DIMALTF
 40
0.0393700787
  9
$DIMTXT
 40
648.3140075503
  9
$DIMTOL
 70
1
  9
$DIMLIM
 70
0
  9
$DIMTFAC
 40
1.0
  9
$DIMTP
 40
0.01
  9
$DIMTM
 40
0.01
  9
$DIMGAP
 40
0.625
  9
$DIMDSEP
 70
46
  9
$AUNITS
 70
0
  9
$PDMODE
 70
3
  9
$PDSIZE
 40
0.3125
  9
$HANDSEED
  5
42C
  9
$TILEMODE
 70
1
  9
$MEASUREMENT
 70
1
  9
$INSUNITS
 70
4
  0
ENDSEC
  0
SECTION
  2
CLASSES
  0
CLASS
  1
ACDBDICTIONARYWDFLT
  2
AcDbDictionaryWithDefault
  3
AutoCAD 2000
 90
0
 91
1
280
0
281
0
  0
CLASS
  1
ACDBPLACEHOLDER
  2
AcDbPlaceHolder
  3
AutoCAD 2000
 90
0
 91
1
280
0
281
0
  0
CLASS
  1
LAYOUT
  2
AcDbLayout
  3
AutoCAD 2000
 90
0
 91
0
280
0
281
0
  0
ENDSEC
  0
SECTION
  2
TABLES
  0
TABLE
  2
VPORT
  5
8
100
AcDbSymbolTable
 70
2
  0
VPORT
  5
1F4
100
AcDbSymbolTableRecord
100
AcDbViewportTableRecord
  2
*ACTIVE
 70
0
 10
0.0
 20
0.0
 11
1.0
 21
1.0
 12
19449.4202265096
 22
27507.0371774922
 13
0.0
 23
0.0
 14
1.0
 24
1.0
 15
0.0
 25
0.0
 16
0.0
 26
0.0
 36
1.0
 17
0.0
 27
0.0
 37
0.0
 40
55014.0743549844
 41
0.7070707071
 42
50.0
 43
0.0
 44
0.0
 50
0.0
 51
0.0
 71
0
 72
100
 73
1
 74
1
 75
0
 76
0
 77
0
 78
0
  0
ENDTAB
  0
TABLE
  2
LTYPE
  5
5
100
AcDbSymbolTable
 70
6
  0
LTYPE
  5
14
100
AcDbSymbolTableRecord
100
AcDbLinetypeTableRecord
  2
BYBLOCK
 70
0
  3

 72
65
 73
0
 40
0.0
  0
LTYPE
  5
15
100
AcDbSymbolTableRecord
100
AcDbLinetypeTableRecord
  2
BYLAYER
 70
0
  3

 72
65
 73
0
 40
0.0
  0
LTYPE
  5
16
100
AcDbSymbolTableRecord
100
AcDbLinetypeTableRecord
  2
CONTINUOUS
 70
64
  3
Solid line
 72
65
 73
0
 40
0.0
  0
LTYPE
  5
1F5
100
AcDbSymbolTableRecord
100
AcDbLinetypeTableRecord
  2
CENTER
 70
64
  3
____ _ ____ _ ____ _ ____ _ ____ _ ____ _ ____
 72
65
 73
4
 40
0.6
 49
0.375
 74
0
 49
-0.075
 74
0
 49
0.075
 74
0
 49
-0.075
 74
0
  0
LTYPE
  5
1F6
100
AcDbSymbolTableRecord
100
AcDbLinetypeTableRecord
  2
HIDDEN
 70
64
  3
- - - - - - - - - - - - - - - - - - - -
 72
65
 73
2
 40
0.2
 49
0.1
 74
0
 49
-0.1
 74
0
  0
LTYPE
  5
1F7
100
AcDbSymbolTableRecord
100
AcDbLinetypeTableRecord
  2
PHANTOM
 70
64
  3
_____ _ _ _____ _ _ _____ _ _ _____
 72
65
 73
6
 40
0.8
 49
0.45
 74
0
 49
-0.05
 74
0
 49
0.1
 74
0
 49
-0.05
 74
0
 49
0.1
 74
0
 49
-0.05
 74
0
  0
LTYPE
  5
1F8
100
AcDbSymbolTableRecord
100
AcDbLinetypeTableRecord
  2
DOT
 70
64
  3
. . . . . . . . . . . . . . . . . . . .
 72
65
 73
2
 40
0.2
 49
0.1
 74
0
 49
-0.1
 74
0
  0
LTYPE
  5
1F9
100
AcDbSymbolTableRecord
100
AcDbLinetypeTableRecord
  2
DASHED
 70
64
  3
- - - - - - - - - - - - - - - - - - - -
 72
65
 73
2
 40
0.2
 49
0.1
 74
0
 49
-0.1
 74
0
  0
ENDTAB
  0
TABLE
  2
LAYER
  5
2
100
AcDbSymbolTable
 70
36
  0
LAYER
  5
10
100
AcDbSymbolTableRecord
100
AcDbLayerTableRecord
  2
0
 70
0
 62
7
  6
CONTINUOUS
370
-3
390
F
  0
LAYER
  5
1FA
100
AcDbSymbolTableRecord
100
AcDbLayerTableRecord
  2
DEFAULT_1
 70
0
 62
7
  6
CENTER
370
-3
390
F
  0
LAYER
  5
1FB
100
AcDbSymbolTableRecord
100
AcDbLayerTableRecord
  2
DEFAULT_2
 70
0
 62
7
  6
HIDDEN
370
-3
390
F
  0
LAYER
  5
1FC
100
AcDbSymbolTableRecord
100
AcDbLayerTableRecord
  2
DEFAULT_3
 70
0
 62
7
  6
PHANTOM
370
-3
390
F
  0
LAYER
  5
1FD
100
AcDbSymbolTableRecord
100
AcDbLayerTableRecord
  2
00_COMPONENTS
 70
0
 62
7
  6
CONTINUOUS
370
-3
390
F
  0
LAYER
  5
1FE
100
AcDbSymbolTableRecord
100
AcDbLayerTableRecord
  2
01_1_DEFAULT_DATUMS
 70
0
 62
7
  6
CONTINUOUS
370
-3
390
F
  0
LAYER
  5
1FF
100
AcDbSymbolTableRecord
100
AcDbLayerTableRecord
  2
01_PLANES
 70
0
 62
7
  6
CONTINUOUS
370
-3
390
F
  0
LAYER
  5
200
100
AcDbSymbolTableRecord
100
AcDbLayerTableRecord
  2
02_COORD_SYS
 70
0
 62
7
  6
CONTINUOUS
370
-3
390
F
  0
LAYER
  5
201
100
AcDbSymbolTableRecord
100
AcDbLayerTableRecord
  2
03_AXES
 70
0
 62
7
  6
CONTINUOUS
370
-3
390
F
  0
LAYER
  5
202
100
AcDbSymbolTableRecord
100
AcDbLayerTableRecord
  2
04_POINTS
 70
0
 62
7
  6
CONTINUOUS
370
-3
390
F
  0
LAYER
  5
203
100
AcDbSymbolTableRecord
100
AcDbLayerTableRecord
  2
05_CURVES
 70
0
 62
7
  6
CONTINUOUS
370
-3
390
F
  0
LAYER
  5
204
100
AcDbSymbolTableRecord
100
AcDbLayerTableRecord
  2
06_SURFS
 70
0
 62
7
  6
CONTINUOUS
370
-3
390
F
  0
LAYER
  5
205
100
AcDbSymbolTableRecord
100
AcDbLayerTableRecord
  2
07_COSMETICS
 70
0
 62
7
  6
CONTINUOUS
370
-3
390
F
  0
LAYER
  5
206
100
AcDbSymbolTableRecord
100
AcDbLayerTableRecord
  2
10_NOTES
 70
0
 62
7
  6
CONTINUOUS
370
-3
390
F
  0
LAYER
  5
207
100
AcDbSymbolTableRecord
100
AcDbLayerTableRecord
  2
11_NOTES_PUB
 70
0
 62
7
  6
CONTINUOUS
370
-3
390
F
  0
LAYER
  5
208
100
AcDbSymbolTableRecord
100
AcDbLayerTableRecord
  2
13_REF_GTOL
 70
0
 62
7
  6
CONTINUOUS
370
-3
390
F
  0
LAYER
  5
209
100
AcDbSymbolTableRecord
100
AcDbLayerTableRecord
  2
16_MISC
 70
0
 62
7
  6
CONTINUOUS
370
-3
390
F
  0
LAYER
  5
20A
100
AcDbSymbolTableRecord
100
AcDbLayerTableRecord
  2
17_NO_PRINT
 70
0
 62
7
  6
CONTINUOUS
370
-3
390
F
  0
LAYER
  5
20B
100
AcDbSymbolTableRecord
100
AcDbLayerTableRecord
  2
18_DATUM_CAMS_JOINTS
 70
0
 62
7
  6
CONTINUOUS
370
-3
390
F
  0
LAYER
  5
20C
100
AcDbSymbolTableRecord
100
AcDbLayerTableRecord
  2
19_DATUM_FUNCTIONAL
 70
0
 62
7
  6
CONTINUOUS
370
-3
390
F
  0
LAYER
  5
20D
100
AcDbSymbolTableRecord
100
AcDbLayerTableRecord
  2
20_DATUM_KINEMATIC_SCHEME
 70
0
 62
7
  6
CONTINUOUS
370
-3
390
F
  0
ENDTAB
  0
TABLE
  2
STYLE
  5
3
100
AcDbSymbolTable
 70
1
  0
STYLE
  5
11
100
AcDbSymbolTableRecord
100
AcDbTextStyleTableRecord
  2
STANDARD
 70
0
 40
0.0
 41
1.0
 50
0.0
 71
0
 42
0.2
  3
ARIAL.TTF
  4

  0
STYLE
  5
20E
100
AcDbSymbolTableRecord
100
AcDbTextStyleTableRecord
  2
TEXTSTYLE_1
 70
0
 40
0.0
 41
0.8
 50
0.0
 71
0
 42
0.2
  3
gdt
  4

  0
ENDTAB
  0
TABLE
  2
VIEW
  5
6
100
AcDbSymbolTable
 70
0
  0
ENDTAB
  0
TABLE
  2
UCS
  5
7
100
AcDbSymbolTable
 70
0
  0
ENDTAB
  0
TABLE
  2
APPID
  5
9
100
AcDbSymbolTable
 70
1
  0
APPID
  5
20F
100
AcDbSymbolTableRecord
100
AcDbRegAppTableRecord
  2
ACAD
 70
0
  0
ENDTAB
  0
TABLE
  2
BLOCK_RECORD
  5
1
100
AcDbSymbolTable
 70
0
  0
BLOCK_RECORD
  5
210
100
AcDbSymbolTableRecord
100
AcDbBlockTableRecord
  2
*Model_Space
  0
BLOCK_RECORD
  5
211
100
AcDbSymbolTableRecord
100
AcDbBlockTableRecord
  2
*Paper_Space
  0
BLOCK_RECORD
  5
212
100
AcDbSymbolTableRecord
100
AcDbBlockTableRecord
  2
_FILLED
  0
ENDTAB
  0
TABLE
  2
DIMSTYLE
  5
A
100
AcDbSymbolTable
 70
1
100
AcDbDimStyleTable
 71
0
  0
DIMSTYLE
105
213
100
AcDbSymbolTableRecord
100
AcDbDimStyleTableRecord
  2
STANDARD
 70
0
  3

  4

 40
1.0
 41
463.0814339645
 42
1.0
 43
0.38
 44
1.0
 45
0.0
 46
0.0
 47
0.01
 48
0.01
140
648.3140075503
141
0.09
142
0.0
143
25.4
144
1.0
145
0.0
146
1.0
147
0.625
 71
1
 72
0
 73
0
 74
0
 75
0
 76
0
 77
1
 78
8
 79
2
170
0
171
1
172
0
173
0
174
0
175
0
176
0
177
0
178
0
270
2
179
2
271
2
272
2
273
2
274
2
275
0
280
0
281
0
282
0
283
1
284
8
285
0
286
0
287
3
288
0
340
11
278
46
341
212
342
212
343
212
344
212
  0
ENDTAB
  0
ENDSEC
  0
SECTION
  2
BLOCKS
  0
BLOCK
  5
20
100
AcDbEntity
  8
0
100
AcDbBlockBegin
  2
*Model_Space
 70
0
 10
0.0
 20
0.0
 30
0.0
  3
*Model_Space
  1

  0
ENDBLK
  5
21
100
AcDbEntity
  8
0
100
AcDbBlockEnd
  0
BLOCK
  5
1C
100
AcDbEntity
  8
0
100
AcDbBlockBegin
  2
*Paper_Space
 70
0
 10
0.0
 20
0.0
 30
0.0
  3
*Paper_Space
  1

  0
ENDBLK
  5
1D
100
AcDbEntity
  8
0
100
AcDbBlockEnd
  0
BLOCK
  5
214
100
AcDbEntity
  8
0
100
AcDbBlockBegin
  2
_FILLED
 70
64
 10
0.0
 20
0.0
  3
_FILLED
  1

  0
SOLID
  5
215
100
AcDbEntity
  8
0
  6
BYBLOCK
 62
0
100
AcDbTrace
 10
0.0
 20
0.0
 11
-1.0
 21
0.25
 12
-1.0
 22
-0.25
 13
-1.0
 23
-0.25
  0
ENDBLK
  5
216
100
AcDbEntity
  8
0
  6
BYBLOCK
 62
0
100
AcDbBlockEnd
  0
ENDSEC
  0
SECTION
  2
ENTITIES
  0
LINE
  5
217
100
AcDbEntity
  8
0
100
AcDbLine
 62
7
  6
BYLAYER
 10
26945.7696193319
 20
35216.2675388518
 11
26945.3886193319
 21
35216.1385108127
  0
LINE
  5
218
100
AcDbEntity
  8
0
100
AcDbLine
 62
7
  6
BYLAYER
 10
26947.0396193319
 20
35214.6858485001
 11
26947.4206193319
 21
35214.8148765392
  0
LINE
  5
219
100
AcDbEntity
  8
0
100
AcDbLine
 62
7
  6
BYLAYER
 10
27267.6485078475
 20
35329.0875806652
 11
26740.4989112269
 21
35154.630643898
  0
LINE
  5
21A
100
AcDbEntity
  8
0
100
AcDbLine
 62
7
  6
BYLAYER
 10
27293.8228869617
 20
35329.0875806652
 11
26725.1363617351
 21
35154.630643898
  0
LINE
  5
21B
100
AcDbEntity
  8
0
100
AcDbLine
 62
7
  6
BYLAYER
 10
26943.1643771478
 20
35218.8851020783
 11
26942.4723123496
 21
35218.4845760659
  0
LINE
  5
21C
100
AcDbEntity
  8
0
100
AcDbLine
 62
7
  6
BYLAYER
 10
26949.6464677118
 20
35211.3901108648
 11
26950.2549703969
 21
35211.6953486562
  0
LINE
  5
21D
100
AcDbEntity
  8
0
100
AcDbLine
 62
7
  6
BYLAYER
 10
26963.8036193319
 20
35222.3435927249
 11
26963.0162193319
 21
35222.0174409659
  0
LINE
  5
21E
100
AcDbEntity
  8
0
100
AcDbLine
 62
7
  6
BYLAYER
 10
26929.0056193319
 20
35207.9297891814
 11
26929.7930193319
 21
35208.2559409404
  0
LINE
  5
21F
100
AcDbEntity
  8
0
100
AcDbLine
 62
7
  6
BYLAYER
 10
4601.6804526124
 20
16822.2815838373
 11
35374.5470134788
 21
42152.6849337088
  0
LINE
  5
220
100
AcDbEntity
  8
0
100
AcDbLine
 62
7
  6
BYLAYER
 10
26737.3278780278
 20
35049.5215010547
 11
26993.6648909834
 21
35248.2622123998
  0
LINE
  5
221
100
AcDbEntity
  8
0
100
AcDbLine
 62
7
  6
BYLAYER
 10
26943.2657786863
 20
35219.1476436459
 11
26942.6991945477
 21
35218.7298652113
  0
LINE
  5
222
100
AcDbEntity
  8
0
100
AcDbLine
 62
7
  6
BYLAYER
 10
26949.5452914505
 20
35211.12755212
 11
26950.0175150586
 21
35211.4509313415
  0
LINE
  5
223
100
AcDbEntity
  8
0
100
AcDbLine
 62
7
  6
BYLAYER
 10
26737.9535890693
 20
35067.256262012
 11
27010.2201851727
 21
35243.5441946768
  0
LINE
  5
224
100
AcDbEntity
  8
0
100
AcDbLine
 62
7
  6
BYLAYER
 10
27108.1868689646
 20
35329.0875806652
 11
26836.4862880236
 21
35154.630643898
  0
LINE
  5
225
100
AcDbEntity
  8
0
100
AcDbLine
 62
7
  6
BYLAYER
 10
26871.0556880236
 20
35154.630643898
 11
27142.7562689646
 21
35329.0875806652
  0
LINE
  5
226
100
AcDbEntity
  8
0
100
AcDbLine
 62
7
  6
BYLAYER
 10
26761.6475387305
 20
35039.655454105
 11
26987.195077802
 21
35272.7538071145
  0
LINE
  5
227
100
AcDbEntity
  8
0
100
AcDbLine
 62
7
  6
BYLAYER
 10
26939.171414999
 20
35232.5991909532
 11
26928.9421193319
 21
35222.3698952861
  0
LINE
  5
228
100
AcDbEntity
  8
0
100
AcDbLine
 62
7
  6
BYLAYER
 10
26939.5238693192
 20
35231.7482909532
 11
26929.7930193319
 21
35222.0174409659
  0
LINE
  5
229
100
AcDbEntity
  8
0
100
AcDbLine
 62
7
  6
BYLAYER
 10
27038.536909044
 20
35329.0875806652
 11
26926.7450193319
 21
35217.2956909531
  0
LINE
  5
22A
100
AcDbEntity
  8
0
100
AcDbLine
 62
7
  6
BYLAYER
 10
26926.1448078708
 20
35216.6954794921
 11
26864.0799722767
 21
35154.630643898
  0
LINE
  5
22B
100
AcDbEntity
  8
0
100
AcDbLine
 62
7
  6
BYLAYER
 10
26926.7450193319
 20
35217.2956909531
 11
26926.1448078708
 21
35216.6954794921
  0
LINE
  5
22C
100
AcDbEntity
  8
0
100
AcDbLine
 62
7
  6
BYLAYER
 10
26954.7993193319
 20
35210.3106909531
 11
26955.1803193319
 21
35210.6916909532
  0
LINE
  5
22D
100
AcDbEntity
  8
0
100
AcDbLine
 62
7
  6
BYLAYER
 10
26899.1192722767
 20
35154.630643898
 11
27073.576209044
 21
35329.0875806652
  0
LINE
  5
22E
100
AcDbEntity
  8
0
100
AcDbLine
 62
7
  6
BYLAYER
 10
26963.0162193319
 20
35208.2559409404
 11
26953.2853693446
 21
35198.5250909531
  0
LINE
  5
22F
100
AcDbEntity
  8
0
100
AcDbLine
 62
7
  6
BYLAYER
 10
26963.8036193319
 20
35207.9297891814
 11
26953.6115211036
 21
35197.7376909532
  0
LINE
  5
230
100
AcDbEntity
  8
0
100
AcDbLine
 62
7
  6
BYLAYER
 10
26917.0897722767
 20
35154.630643898
 11
27091.546709044
 21
35329.0875806652
  0
LINE
  5
231
100
AcDbEntity
  8
0
100
AcDbLine
 62
7
  6
BYLAYER
 10
27060.7629853671
 20
35329.0875806652
 11
26868.707091981
 21
35154.630643898
  0
LINE
  5
232
100
AcDbEntity
  8
0
100
AcDbLine
 62
7
  6
BYLAYER
 10
26893.1430242776
 20
35154.630643898
 11
27085.1989176636
 21
35329.0875806652
  0
LINE
  5
233
100
AcDbEntity
  8
0
100
AcDbLine
 62
7
  6
BYLAYER
 10
26759.0588491928
 20
35056.377458956
 11
27004.6055060942
 21
35268.3052151408
  0
LINE
  5
234
100
AcDbEntity
  8
0
100
AcDbLine
 62
7
  6
BYLAYER
 10
26799.6484275275
 20
34992.036148045
 11
26977.08561722
 21
35263.5551681357
  0
LINE
  5
235
100
AcDbEntity
  8
0
100
AcDbLine
 62
7
  6
BYLAYER
 10
27051.2400903892
 20
35329.0875806652
 11
26920.9168687161
 21
35154.630643898
  0
LINE
  5
236
100
AcDbEntity
  8
0
100
AcDbLine
 62
7
  6
BYLAYER
 10
26784.6920691521
 20
35019.863361364
 11
26981.0644903525
 21
35278.0191413668
  0
LINE
  5
237
100
AcDbEntity
  8
0
100
AcDbLine
 62
7
  6
BYLAYER
 10
27038.5279787666
 20
35329.0875806652
 11
26891.5849280363
 21
35154.630643898
  0
LWPOLYLINE
  5
238
100
AcDbEntity
  8
0
100
AcDbPolyline
 62
7
  6
BYLAYER
 90
4
 70
0
 10
26941.2484502246
 20
35214.9559110014
 10
26943.5592631689
 20
35219.4405389403
 10
26949.1785443898
 20
35219.4869198565
 10
26951.560783047
 20
35214.9557803313
  0
LWPOLYLINE
  5
239
100
AcDbEntity
  8
0
100
AcDbPolyline
 62
7
  6
BYLAYER
 90
4
 70
0
 10
26951.5607884079
 20
35215.3174708373
 10
26949.2499791687
 20
35210.8328454153
 10
26943.630712556
 20
35210.7864504966
 10
26941.2484555602
 20
35215.3176009715
  0
LINE
  5
23A
100
AcDbEntity
  8
0
100
AcDbLine
 62
7
  6
BYLAYER
 10
26830.2754815594
 20
34981.6134882828
 11
26985.6595877094
 21
35266.3279313884
  0
LINE
  5
23B
100
AcDbEntity
  8
0
100
AcDbLine
 62
7
  6
BYLAYER
 10
26946.4046193319
 20
35188.0883589933
 11
27060.0279142473
 21
35396.0744052365
  0
LINE
  5
23C
100
AcDbEntity
  8
0
100
AcDbLine
 62
7
  6
BYLAYER
 10
26937.3319320179
 20
35220.4018672932
 11
26937.0225017115
 21
35219.8659182811
  0
LINE
  5
23D
100
AcDbEntity
  8
0
100
AcDbLine
 62
7
  6
BYLAYER
 10
26899.3588984857
 20
35154.630643898
 11
27000.0816578903
 21
35329.0875806652
  0
LINE
  5
23E
100
AcDbEntity
  8
0
100
AcDbLine
 62
7
  6
BYLAYER
 10
26921.2348023966
 20
35154.630643898
 11
27021.9575618012
 21
35329.0875806652
  0
LINE
  5
23F
100
AcDbEntity
  8
0
100
AcDbLine
 62
7
  6
BYLAYER
 10
26815.6318705693
 20
35007.5198159854
 11
26989.5552599626
 21
35281.3029220729
  0
LINE
  5
240
100
AcDbEntity
  8
0
100
AcDbLine
 62
7
  6
BYLAYER
 10
11258.2550753953
 20
10895.0671810768
 11
32863.772731394
 21
44388.3539271756
  0
LINE
  5
241
100
AcDbEntity
  8
0
100
AcDbLine
 62
7
  6
BYLAYER
 10
26946.4046193319
 20
35154.630643898
 11
27008.4703149589
 21
35362.6166901411
  0
LINE
  5
242
100
AcDbEntity
  8
0
100
AcDbLine
 62
7
  6
BYLAYER
 10
26967.4274835205
 20
35329.0875806652
 11
26900.4597398331
 21
35154.630643898
  0
LINE
  5
243
100
AcDbEntity
  8
0
100
AcDbLine
 62
7
  6
BYLAYER
 10
26988.2850532521
 20
35329.0875806652
 11
26917.9501540156
 21
35154.630643898
  0
LINE
  5
244
100
AcDbEntity
  8
0
100
AcDbLine
 62
7
  6
BYLAYER
 10
26926.8991053106
 20
35154.630643898
 11
26997.2340045471
 21
35329.0875806652
  0
LINE
  5
245
100
AcDbEntity
  8
0
100
AcDbLine
 62
7
  6
BYLAYER
 10
26953.6115211036
 20
35232.5356909531
 11
26953.2853693446
 21
35231.7482909532
  0
LINE
  5
246
100
AcDbEntity
  8
0
100
AcDbLine
 62
7
  6
BYLAYER
 10
26939.1977175602
 20
35197.7376909532
 11
26939.5238693192
 21
35198.5250909531
  0
LINE
  5
247
100
AcDbEntity
  8
0
100
AcDbLine
 62
7
  6
BYLAYER
 10
26946.4046193319
 20
35170.5443804463
 11
27034.3397092757
 21
35378.5304266894
  0
LINE
  5
248
100
AcDbEntity
  8
0
100
AcDbLine
 62
7
  6
BYLAYER
 10
26946.4046193319
 20
35329.0875806652
 11
26925.5364075838
 21
35121.1015344221
  0
LINE
  5
249
100
AcDbEntity
  8
0
100
AcDbLine
 62
7
  6
BYLAYER
 10
26924.5278025149
 20
35154.630643898
 11
26959.8919743618
 21
35329.0875806652
  0
LINE
  5
24A
100
AcDbEntity
  8
0
100
AcDbLine
 62
7
  6
BYLAYER
 10
26946.4037064259
 20
35154.630643898
 11
26981.7678782727
 21
35329.0875806652
  0
LINE
  5
24B
100
AcDbEntity
  8
0
100
AcDbLine
 62
7
  6
BYLAYER
 10
26946.4046193319
 20
35166.8222775654
 11
26999.5121759668
 21
35374.8083238085
  0
LINE
  5
24C
100
AcDbEntity
  8
0
100
AcDbLine
 62
7
  6
BYLAYER
 10
27397.4422856873
 20
35329.0875806652
 11
26699.0344901564
 21
35154.630643898
  0
LINE
  5
24D
100
AcDbEntity
  8
0
100
AcDbLine
 62
7
  6
BYLAYER
 10
27430.7129584279
 20
35329.0875806652
 11
26679.5069073101
 21
35154.630643898
  0
LINE
  5
24E
100
AcDbEntity
  8
0
100
AcDbLine
 62
7
  6
BYLAYER
 10
26946.4046193319
 20
35329.0875806652
 11
26967.2728310801
 21
35121.1015344221
  0
LINE
  5
24F
100
AcDbEntity
  8
0
100
AcDbLine
 62
7
  6
BYLAYER
 10
26966.664430793
 20
35216.6954794921
 11
26966.7324889704
 21
35215.1366909531
  0
LWPOLYLINE
  5
250
100
AcDbEntity
  8
0
100
AcDbPolyline
 62
7
  6
BYLAYER
 90
12
 70
0
 10
26941.2451368687
 20
35215.300697711
 10
26941.2728085456
 20
35214.5775662801
 10
26941.6114536925
 20
35213.2190024262
 10
26942.4128473228
 20
35211.862670268
 10
26943.8667730366
 20
35210.6410989101
 10
26945.9118570219
 20
35209.9981302625
 10
26946.9676333347
 20
35210.0053464425
 10
26948.9558596392
 20
35210.648682882
 10
26950.3985814245
 20
35211.865346352
 10
26951.201067661
 20
35213.2272238241
 10
26951.5367955383
 20
35214.58093812
 10
26951.5641082622
 20
35215.3005787476
  0
LWPOLYLINE
  5
251
100
AcDbEntity
  8
0
100
AcDbPolyline
 62
7
  6
BYLAYER
 90
12
 70
0
 10
26951.5641017121
 20
35214.9726840058
 10
26951.5364199537
 20
35215.6959084359
 10
26951.197697037
 20
35217.0545989762
 10
26950.3960565663
 20
35218.4111198547
 10
26948.9417559019
 20
35219.6326834092
 10
26946.8972531152
 20
35220.275263767
 10
26945.8417918796
 20
35220.2680556682
 10
26943.8538944677
 20
35219.6249918009
 10
26942.4110011754
 20
35218.4084553099
 10
26941.6082890989
 20
35217.0464548574
 10
26941.2724533402
 20
35215.6925375798
 10
26941.2451304487
 20
35214.9728028778
  0
LWPOLYLINE
  5
252
100
AcDbEntity
  8
0
100
AcDbPolyline
 62
7
  6
BYLAYER
 90
10
 70
0
 10
26935.5284054806
 20
35215.7391495126
 10
26935.598790661
 20
35213.663327018
 10
26937.2706845337
 20
35208.8240369248
 10
26941.231960552
 20
35205.284056171
 10
26946.1579310908
 20
35204.2478898119
 10
26948.5171338798
 20
35204.3754505768
 10
26952.4637342781
 20
35205.7726196646
 10
26955.6250107186
 20
35208.9616820368
 10
26957.1737351808
 20
35213.3727969636
 10
26957.2808597753
 20
35215.7386960964
  0
LWPOLYLINE
  5
253
100
AcDbEntity
  8
0
100
AcDbPolyline
 62
7
  6
BYLAYER
 90
10
 70
0
 10
26957.2807168879
 20
35214.5342358937
 10
26957.2103057114
 20
35216.6102722113
 10
26955.5383258475
 20
35221.4494869564
 10
26951.5771198014
 20
35224.9892770839
 10
26946.6513873969
 20
35226.0253747024
 10
26944.2922831399
 20
35225.8978402138
 10
26940.345649785
 20
35224.5007198071
 10
26937.1843523526
 20
35221.3116843633
 10
26935.6356255576
 20
35216.9006193659
 10
26935.5284950921
 20
35214.5346897029
  0
LINE
  5
254
100
AcDbEntity
  8
0
100
AcDbLine
 62
7
  6
BYLAYER
 10
26933.5239746564
 20
35223.0106909531
 11
26933.6014027351
 21
35220.4018672932
  0
LINE
  5
255
100
AcDbEntity
  8
0
100
AcDbLine
 62
7
  6
BYLAYER
 10
26961.0627419981
 20
35220.4706909531
 11
26961.1446170576
 21
35217.2956909531
  0
LINE
  5
256
100
AcDbEntity
  8
0
100
AcDbLine
 62
7
  6
BYLAYER
 10
26953.5201937896
 20
35428.3930864769
 11
26963.3805232911
 21
35012.5931725051
  0
LINE
  5
257
100
AcDbEntity
  8
0
100
AcDbLine
 62
7
  6
BYLAYER
 10
26956.567337115
 20
35428.4653468026
 11
26961.0627419981
 21
35220.4706909531
  0
LINE
  5
258
100
AcDbEntity
  8
0
100
AcDbLine
 62
7
  6
BYLAYER
 10
26961.1446170576
 20
35217.2956909531
 11
26966.4276666164
 21
35012.6654328309
  0
LINE
  5
259
100
AcDbEntity
  8
0
100
AcDbLine
 62
7
  6
BYLAYER
 10
26954.3079754955
 20
35220.4706909531
 11
26954.3597436134
 21
35217.2956909532
  0
LINE
  5
25A
100
AcDbEntity
  8
0
100
AcDbLine
 62
7
  6
BYLAYER
 10
26955.650973119
 20
35220.4706909531
 11
26955.7027412368
 21
35217.2956909532
  0
LINE
  5
25B
100
AcDbEntity
  8
0
100
AcDbLine
 62
7
  6
BYLAYER
 10
26956.2871050761
 20
35206.8054909531
 11
26956.2579335878
 21
35209.1930909532
  0
LINE
  5
25C
100
AcDbEntity
  8
0
100
AcDbLine
 62
7
  6
BYLAYER
 10
26932.4241772915
 20
35197.9259329936
 11
26932.4292153851
 21
35197.2042909532
  0
LINE
  5
25D
100
AcDbEntity
  8
0
100
AcDbLine
 62
7
  6
BYLAYER
 10
26931.3571675975
 20
35210.9749477653
 11
26931.4181230186
 21
35198.9319872664
  0
LINE
  5
25E
100
AcDbEntity
  8
0
100
AcDbLine
 62
7
  6
BYLAYER
 10
26957.99855501
 20
35220.4706909531
 11
26958.0129921717
 21
35217.2956909531
  0
LINE
  5
25F
100
AcDbEntity
  8
0
100
AcDbLine
 62
7
  6
BYLAYER
 10
26933.9108330414
 20
35219.8659182811
 11
26933.9363848609
 21
35212.5458909531
  0
LINE
  5
260
100
AcDbEntity
  8
0
100
AcDbLine
 62
7
  6
BYLAYER
 10
26959.163797968
 20
35197.2042909532
 11
26959.1470406958
 21
35206.8054909531
  0
LINE
  5
261
100
AcDbEntity
  8
0
100
AcDbLine
 62
7
  6
BYLAYER
 10
26736.6405730888
 20
35219.9989593549
 11
26736.6405730888
 21
35210.2744225514
  0
LINE
  5
262
100
AcDbEntity
  8
0
100
AcDbLine
 62
7
  6
BYLAYER
 10
26924.1796193319
 20
35425.4849371963
 11
26924.8146193319
 21
35215.1366909531
  0
LINE
  5
263
100
AcDbEntity
  8
0
100
AcDbLine
 62
7
  6
BYLAYER
 10
26924.8146193319
 20
35214.7302909531
 11
26924.8146193319
 21
35213.9682909532
  0
LINE
  5
264
100
AcDbEntity
  8
0
100
AcDbLine
 62
7
  6
BYLAYER
 10
26924.8146193319
 20
35213.5618909532
 11
26924.8146193319
 21
35007.22938471
  0
LINE
  5
265
100
AcDbEntity
  8
0
100
AcDbLine
 62
7
  6
BYLAYER
 10
26924.8146193319
 20
35213.5618909532
 11
26924.8146193319
 21
35213.9682909532
  0
LINE
  5
266
100
AcDbEntity
  8
0
100
AcDbLine
 62
7
  6
BYLAYER
 10
26924.8146193319
 20
35214.7302909531
 11
26924.8146193319
 21
35215.1366909531
  0
LINE
  5
267
100
AcDbEntity
  8
0
100
AcDbLine
 62
7
  6
BYLAYER
 10
26926.5164193319
 20
35215.1366909531
 11
26926.5164193319
 21
35212.4950909531
  0
LINE
  5
268
100
AcDbEntity
  8
0
100
AcDbLine
 62
7
  6
BYLAYER
 10
26926.5164193319
 20
34988.21367471
 11
26926.5164193319
 21
35212.4950909531
  0
LINE
  5
269
100
AcDbEntity
  8
0
100
AcDbLine
 62
7
  6
BYLAYER
 10
26926.5164193319
 20
35215.1366909531
 11
26925.9576193319
 21
35425.4849371963
  0
LINE
  5
26A
100
AcDbEntity
  8
0
100
AcDbLine
 62
7
  6
BYLAYER
 10
26926.5164193319
 20
35215.1366909531
 11
26926.8212193319
 21
35423.9101371963
  0
LINE
  5
26B
100
AcDbEntity
  8
0
100
AcDbLine
 62
7
  6
BYLAYER
 10
26927.6340193319
 20
35007.15064471
 11
26928.2436193319
 21
35215.1366909531
  0
LINE
  5
26C
100
AcDbEntity
  8
0
100
AcDbLine
 62
7
  6
BYLAYER
 10
26928.2436193319
 20
35216.4066909531
 11
26927.6340193319
 21
35423.1227371963
  0
LINE
  5
26D
100
AcDbEntity
  8
0
100
AcDbLine
 62
7
  6
BYLAYER
 10
26928.2436193319
 20
35215.1366909531
 11
26928.2436193319
 21
35216.4066909531
  0
LINE
  5
26E
100
AcDbEntity
  8
0
100
AcDbLine
 62
7
  6
BYLAYER
 10
26928.6137153851
 20
35007.93804471
 11
26928.9421193319
 21
35207.9034866202
  0
LINE
  5
26F
100
AcDbEntity
  8
0
100
AcDbLine
 62
7
  6
BYLAYER
 10
26928.2436193319
 20
35216.4066909531
 11
26928.6137153851
 21
35423.9101371963
  0
LINE
  5
270
100
AcDbEntity
  8
0
100
AcDbLine
 62
7
  6
BYLAYER
 10
26928.9421193319
 20
35222.3698952861
 11
26928.9421193319
 21
35207.9034866202
  0
LINE
  5
271
100
AcDbEntity
  8
0
100
AcDbLine
 62
7
  6
BYLAYER
 10
26929.7930193319
 20
35222.0174409659
 11
26929.7930193319
 21
35208.2559409404
  0
LINE
  5
272
100
AcDbEntity
  8
0
100
AcDbLine
 62
7
  6
BYLAYER
 10
26930.9356193319
 20
35222.2740909531
 11
26930.9356193319
 21
35213.6126909532
  0
LINE
  5
273
100
AcDbEntity
  8
0
100
AcDbLine
 62
7
  6
BYLAYER
 10
26930.9356193319
 20
35213.6126909532
 11
26930.9995193319
 21
34997.82884471
  0
LINE
  5
274
100
AcDbEntity
  8
0
100
AcDbLine
 62
7
  6
BYLAYER
 10
26930.9356193319
 20
35222.2740909531
 11
26931.1646193319
 21
35430.9967371963
  0
LINE
  5
275
100
AcDbEntity
  8
0
100
AcDbLine
 62
7
  6
BYLAYER
 10
26932.0282193319
 20
35215.1366909531
 11
26932.0282193319
 21
35215.9304409531
  0
LINE
  5
276
100
AcDbEntity
  8
0
100
AcDbLine
 62
7
  6
BYLAYER
 10
26932.0282193319
 20
35007.15064471
 11
26932.0282193319
 21
35215.1366909531
  0
LINE
  5
277
100
AcDbEntity
  8
0
100
AcDbLine
 62
7
  6
BYLAYER
 10
26932.0282193319
 20
35215.9304409531
 11
26931.8141153851
 21
35423.9101371963
  0
LINE
  5
278
100
AcDbEntity
  8
0
100
AcDbLine
 62
7
  6
BYLAYER
 10
26932.903855693
 20
35206.9832909531
 11
26932.903855693
 21
35197.9662909531
  0
LINE
  5
279
100
AcDbEntity
  8
0
100
AcDbLine
 62
7
  6
BYLAYER
 10
26932.903855693
 20
34998.99724471
 11
26932.903855693
 21
35197.9662909531
  0
LINE
  5
27A
100
AcDbEntity
  8
0
100
AcDbLine
 62
7
  6
BYLAYER
 10
26932.903855693
 20
35206.9832909531
 11
26932.903855693
 21
35414.9693371963
  0
LINE
  5
27B
100
AcDbEntity
  8
0
100
AcDbLine
 62
7
  6
BYLAYER
 10
26933.9363848609
 20
35212.5458909531
 11
26933.662197968
 21
35206.8054909531
  0
LINE
  5
27C
100
AcDbEntity
  8
0
100
AcDbLine
 62
7
  6
BYLAYER
 10
26933.6454406958
 20
35197.2042909532
 11
26933.7046193319
 21
35007.55704471
  0
LINE
  5
27D
100
AcDbEntity
  8
0
100
AcDbLine
 62
7
  6
BYLAYER
 10
26933.7204173765
 20
35433.5773771963
 11
26933.9108330414
 21
35219.8659182811
  0
LINE
  5
27E
100
AcDbEntity
  8
0
100
AcDbLine
 62
7
  6
BYLAYER
 10
26935.0508193319
 20
35007.93804471
 11
26935.4666673765
 21
35195.1951509532
  0
LINE
  5
27F
100
AcDbEntity
  8
0
100
AcDbLine
 62
7
  6
BYLAYER
 10
26935.4666673765
 20
35223.0106909531
 11
26935.0508193319
 21
35423.9101371963
  0
LINE
  5
280
100
AcDbEntity
  8
0
100
AcDbLine
 62
7
  6
BYLAYER
 10
26935.4666673765
 20
35195.2581906779
 11
26935.4666673765
 21
35212.5458909531
  0
LINE
  5
281
100
AcDbEntity
  8
0
100
AcDbLine
 62
7
  6
BYLAYER
 10
26935.4666673765
 20
35223.0106909531
 11
26935.4666673765
 21
35212.5458909531
  0
LINE
  5
282
100
AcDbEntity
  8
0
100
AcDbLine
 62
7
  6
BYLAYER
 10
26935.4666673765
 20
35195.1951509532
 11
26935.4666673765
 21
35195.2581906779
  0
LINE
  5
283
100
AcDbEntity
  8
0
100
AcDbLine
 62
7
  6
BYLAYER
 10
26936.3716193319
 20
35220.8728185668
 11
26936.3716193319
 21
35209.4005633395
  0
LINE
  5
284
100
AcDbEntity
  8
0
100
AcDbLine
 62
7
  6
BYLAYER
 10
26937.2129173765
 20
35433.5773771963
 11
26937.7813193319
 21
35225.0485426222
  0
LINE
  5
285
100
AcDbEntity
  8
0
100
AcDbLine
 62
7
  6
BYLAYER
 10
26937.2129173765
 20
35214.8826909531
 11
26937.7813193319
 21
35206.3567831342
  0
LINE
  5
286
100
AcDbEntity
  8
0
100
AcDbLine
 62
7
  6
BYLAYER
 10
26937.7813193319
 20
35223.9165987721
 11
26937.2129173765
 21
35220.1957278874
  0
LINE
  5
287
100
AcDbEntity
  8
0
100
AcDbLine
 62
7
  6
BYLAYER
 10
26937.7813193319
 20
35205.2248392841
 11
26937.2129173765
 21
35012.48464471
  0
LINE
  5
288
100
AcDbEntity
  8
0
100
AcDbLine
 62
7
  6
BYLAYER
 10
26937.2129173765
 20
35220.1957278874
 11
26937.2129173765
 21
35214.8826909531
  0
LINE
  5
289
100
AcDbEntity
  8
0
100
AcDbLine
 62
7
  6
BYLAYER
 10
26937.7813193319
 20
35225.0485426222
 11
26937.7813193319
 21
35223.9165987721
  0
LINE
  5
28A
100
AcDbEntity
  8
0
100
AcDbLine
 62
7
  6
BYLAYER
 10
26937.7813193319
 20
35206.3567831342
 11
26937.7813193319
 21
35205.2248392841
  0
LINE
  5
28B
100
AcDbEntity
  8
0
100
AcDbLine
 62
7
  6
BYLAYER
 10
26938.0099193319
 20
35210.3106909531
 11
26937.7813193319
 21
35223.9165987721
  0
LINE
  5
28C
100
AcDbEntity
  8
0
100
AcDbLine
 62
7
  6
BYLAYER
 10
26938.4671193319
 20
35201.6429409531
 11
26938.4671193319
 21
35228.6304409532
  0
LINE
  5
28D
100
AcDbEntity
  8
0
100
AcDbLine
 62
7
  6
BYLAYER
 10
26938.0099193319
 20
34988.21367471
 11
26938.4671193319
 21
35201.6429409531
  0
LINE
  5
28E
100
AcDbEntity
  8
0
100
AcDbLine
 62
7
  6
BYLAYER
 10
26938.4671193319
 20
35228.6304409532
 11
26938.4671193319
 21
35407.2477371963
  0
LINE
  5
28F
100
AcDbEntity
  8
0
100
AcDbLine
 62
7
  6
BYLAYER
 10
26941.3563693319
 20
35202.762864183
 11
26941.3563693319
 21
35203.5874129698
  0
LINE
  5
290
100
AcDbEntity
  8
0
100
AcDbLine
 62
7
  6
BYLAYER
 10
26941.3563693319
 20
35226.6859689365
 11
26941.3563693319
 21
35227.5105177233
  0
LINE
  5
291
100
AcDbEntity
  8
0
100
AcDbLine
 62
7
  6
BYLAYER
 10
26941.4516193319
 20
35007.93804471
 11
26941.3563693319
 21
35202.762864183
  0
LINE
  5
292
100
AcDbEntity
  8
0
100
AcDbLine
 62
7
  6
BYLAYER
 10
26941.3563693319
 20
35203.5874129698
 11
26941.3563693319
 21
35226.6859689365
  0
LINE
  5
293
100
AcDbEntity
  8
0
100
AcDbLine
 62
7
  6
BYLAYER
 10
26941.3563693319
 20
35227.5105177233
 11
26941.4516193319
 21
35423.9101371963
  0
LINE
  5
294
100
AcDbEntity
  8
0
100
AcDbLine
 62
7
  6
BYLAYER
 10
26942.296300599
 20
35212.9776909532
 11
26942.296300599
 21
35213.1808909531
  0
LINE
  5
295
100
AcDbEntity
  8
0
100
AcDbLine
 62
7
  6
BYLAYER
 10
26942.9553577646
 20
35212.9776909532
 11
26942.9553577646
 21
35213.1808909531
  0
LINE
  5
296
100
AcDbEntity
  8
0
100
AcDbLine
 62
7
  6
BYLAYER
 10
26942.6962193319
 20
35007.15064471
 11
26943.1026193319
 21
35426.8819371963
  0
LINE
  5
297
100
AcDbEntity
  8
0
100
AcDbLine
 62
7
  6
BYLAYER
 10
26943.6191362097
 20
35212.9776909532
 11
26943.6191362097
 21
35213.1808909531
  0
LINE
  5
298
100
AcDbEntity
  8
0
100
AcDbLine
 62
7
  6
BYLAYER
 10
26944.3569480922
 20
35212.9776909532
 11
26944.3569480922
 21
35213.1808909531
  0
LINE
  5
299
100
AcDbEntity
  8
0
100
AcDbLine
 62
7
  6
BYLAYER
 10
26944.6266193319
 20
35213.8555234828
 11
26944.8171193319
 21
35219.2006909531
  0
LINE
  5
29A
100
AcDbEntity
  8
0
100
AcDbLine
 62
7
  6
BYLAYER
 10
26944.6520193319
 20
35007.93804471
 11
26945.0218443128
 21
35212.9776909532
  0
LINE
  5
29B
100
AcDbEntity
  8
0
100
AcDbLine
 62
7
  6
BYLAYER
 10
26944.8171193319
 20
35219.2006909531
 11
26944.8171193319
 21
35424.3927371963
  0
LINE
  5
29C
100
AcDbEntity
  8
0
100
AcDbLine
 62
7
  6
BYLAYER
 10
26945.0218443128
 20
35213.1808909531
 11
26944.6266193319
 21
35213.8555234828
  0
LINE
  5
29D
100
AcDbEntity
  8
0
100
AcDbLine
 62
7
  6
BYLAYER
 10
26945.0218443128
 20
35212.9776909532
 11
26945.0218443128
 21
35213.1808909531
  0
LINE
  5
29E
100
AcDbEntity
  8
0
100
AcDbLine
 62
7
  6
BYLAYER
 10
26945.3886193319
 20
35216.1385108127
 11
26945.3886193319
 21
35214.3673542216
  0
LINE
  5
29F
100
AcDbEntity
  8
0
100
AcDbLine
 62
7
  6
BYLAYER
 10
26946.4046193319
 20
35197.2042909532
 11
26946.4046193319
 21
35240.5366909532
  0
LINE
  5
2A0
100
AcDbEntity
  8
0
100
AcDbLine
 62
7
  6
BYLAYER
 10
26947.0688553505
 20
35212.9776909532
 11
26947.0688553505
 21
35213.1808909531
  0
LINE
  5
2A1
100
AcDbEntity
  8
0
100
AcDbLine
 62
7
  6
BYLAYER
 10
26947.8556144112
 20
35212.9776909532
 11
26947.8556144112
 21
35213.1808909531
  0
LINE
  5
2A2
100
AcDbEntity
  8
0
100
AcDbLine
 62
7
  6
BYLAYER
 10
26947.4206193319
 20
35214.3673542216
 11
26947.9921193319
 21
35219.2006909531
  0
LINE
  5
2A3
100
AcDbEntity
  8
0
100
AcDbLine
 62
7
  6
BYLAYER
 10
26947.9921193319
 20
35008.42064471
 11
26948.5143379654
 21
35212.9776909532
  0
LINE
  5
2A4
100
AcDbEntity
  8
0
100
AcDbLine
 62
7
  6
BYLAYER
 10
26947.9921193319
 20
35219.2006909531
 11
26947.9921193319
 21
35424.3927371963
  0
LINE
  5
2A5
100
AcDbEntity
  8
0
100
AcDbLine
 62
7
  6
BYLAYER
 10
26948.5143379654
 20
35213.1808909531
 11
26947.4206193319
 21
35214.3673542216
  0
LINE
  5
2A6
100
AcDbEntity
  8
0
100
AcDbLine
 62
7
  6
BYLAYER
 10
26948.1826193319
 20
35216.4178584235
 11
26948.1826193319
 21
35214.4275523469
  0
LINE
  5
2A7
100
AcDbEntity
  8
0
100
AcDbLine
 62
7
  6
BYLAYER
 10
26948.5143379654
 20
35212.9776909532
 11
26948.5143379654
 21
35213.1808909531
  0
LINE
  5
2A8
100
AcDbEntity
  8
0
100
AcDbLine
 62
7
  6
BYLAYER
 10
26948.8430193319
 20
35216.4066909531
 11
26948.8430193319
 21
35215.1366909531
  0
LINE
  5
2A9
100
AcDbEntity
  8
0
100
AcDbLine
 62
7
  6
BYLAYER
 10
26949.1999907559
 20
35212.9776909532
 11
26949.1999907559
 21
35213.1808909531
  0
LINE
  5
2AA
100
AcDbEntity
  8
0
100
AcDbLine
 62
7
  6
BYLAYER
 10
26949.8662338842
 20
35212.9776909532
 11
26949.8662338842
 21
35213.1808909531
  0
LINE
  5
2AB
100
AcDbEntity
  8
0
100
AcDbLine
 62
7
  6
BYLAYER
 10
26949.7066193319
 20
35007.15064471
 11
26949.7066193319
 21
35426.8819371963
  0
LINE
  5
2AC
100
AcDbEntity
  8
0
100
AcDbLine
 62
7
  6
BYLAYER
 10
26950.5194193319
 20
35007.93804471
 11
26950.565759002
 21
35212.9776909532
  0
LINE
  5
2AD
100
AcDbEntity
  8
0
100
AcDbLine
 62
7
  6
BYLAYER
 10
26950.565759002
 20
35213.1808909531
 11
26950.5194193319
 21
35423.9101371963
  0
LINE
  5
2AE
100
AcDbEntity
  8
0
100
AcDbLine
 62
7
  6
BYLAYER
 10
26950.565759002
 20
35212.9776909532
 11
26950.565759002
 21
35213.1808909531
  0
LINE
  5
2AF
100
AcDbEntity
  8
0
100
AcDbLine
 62
7
  6
BYLAYER
 10
26951.3576193319
 20
35007.93804471
 11
26951.4528693319
 21
35202.762864183
  0
LINE
  5
2B0
100
AcDbEntity
  8
0
100
AcDbLine
 62
7
  6
BYLAYER
 10
26951.4528693319
 20
35227.5105177233
 11
26951.3576193319
 21
35423.9101371963
  0
LINE
  5
2B1
100
AcDbEntity
  8
0
100
AcDbLine
 62
7
  6
BYLAYER
 10
26951.4528693319
 20
35203.5874129698
 11
26951.4528693319
 21
35226.6859689365
  0
LINE
  5
2B2
100
AcDbEntity
  8
0
100
AcDbLine
 62
7
  6
BYLAYER
 10
26951.4528693319
 20
35227.5105177233
 11
26951.4528693319
 21
35226.6859689365
  0
LINE
  5
2B3
100
AcDbEntity
  8
0
100
AcDbLine
 62
7
  6
BYLAYER
 10
26951.4528693319
 20
35203.5874129698
 11
26951.4528693319
 21
35202.762864183
  0
LINE
  5
2B4
100
AcDbEntity
  8
0
100
AcDbLine
 62
7
  6
BYLAYER
 10
26954.3421193319
 20
35201.6429409531
 11
26954.3421193319
 21
35228.6304409532
  0
LINE
  5
2B5
100
AcDbEntity
  8
0
100
AcDbLine
 62
7
  6
BYLAYER
 10
26954.3421193319
 20
35228.6304409532
 11
26954.3421193319
 21
35407.2477371963
  0
LINE
  5
2B6
100
AcDbEntity
  8
0
100
AcDbLine
 62
7
  6
BYLAYER
 10
26954.7993193319
 20
34988.21367471
 11
26954.3421193319
 21
35201.6429409531
  0
LINE
  5
2B7
100
AcDbEntity
  8
0
100
AcDbLine
 62
7
  6
BYLAYER
 10
26955.0279193319
 20
35205.2248392841
 11
26955.0279193319
 21
35206.3567831342
  0
LINE
  5
2B8
100
AcDbEntity
  8
0
100
AcDbLine
 62
7
  6
BYLAYER
 10
26955.0279193319
 20
35223.9165987721
 11
26955.0279193319
 21
35225.0485426222
  0
LINE
  5
2B9
100
AcDbEntity
  8
0
100
AcDbLine
 62
7
  6
BYLAYER
 10
26955.5963212874
 20
35433.5773771963
 11
26955.0279193319
 21
35225.0485426222
  0
LINE
  5
2BA
100
AcDbEntity
  8
0
100
AcDbLine
 62
7
  6
BYLAYER
 10
26955.0279193319
 20
35205.2248392841
 11
26955.5963212874
 21
35017.60528471
  0
LINE
  5
2BB
100
AcDbEntity
  8
0
100
AcDbLine
 62
7
  6
BYLAYER
 10
26955.0279193319
 20
35223.9165987721
 11
26955.5963212874
 21
35220.1957278874
  0
LINE
  5
2BC
100
AcDbEntity
  8
0
100
AcDbLine
 62
7
  6
BYLAYER
 10
26955.5963212874
 20
35214.8826909531
 11
26955.0279193319
 21
35206.3567831342
  0
LINE
  5
2BD
100
AcDbEntity
  8
0
100
AcDbLine
 62
7
  6
BYLAYER
 10
26955.5963212874
 20
35220.1957278874
 11
26955.5963212874
 21
35214.8826909531
  0
LINE
  5
2BE
100
AcDbEntity
  8
0
100
AcDbLine
 62
7
  6
BYLAYER
 10
26956.4376193319
 20
35220.8728185668
 11
26956.4376193319
 21
35209.4005633395
  0
LINE
  5
2BF
100
AcDbEntity
  8
0
100
AcDbLine
 62
7
  6
BYLAYER
 10
26957.3425712874
 20
35223.0106909531
 11
26957.3425712874
 21
35212.5458909531
  0
LINE
  5
2C0
100
AcDbEntity
  8
0
100
AcDbLine
 62
7
  6
BYLAYER
 10
26957.3425712874
 20
35195.1951509532
 11
26957.3425712874
 21
35195.2581906779
  0
LINE
  5
2C1
100
AcDbEntity
  8
0
100
AcDbLine
 62
7
  6
BYLAYER
 10
26957.3425712874
 20
35223.0106909531
 11
26957.7584193319
 21
35423.9101371963
  0
LINE
  5
2C2
100
AcDbEntity
  8
0
100
AcDbLine
 62
7
  6
BYLAYER
 10
26957.7584193319
 20
35007.93804471
 11
26957.3425712874
 21
35212.5458909531
  0
LINE
  5
2C3
100
AcDbEntity
  8
0
100
AcDbLine
 62
7
  6
BYLAYER
 10
26958.5712193319
 20
35007.15064471
 11
26959.163797968
 21
35197.2042909532
  0
LINE
  5
2C4
100
AcDbEntity
  8
0
100
AcDbLine
 62
7
  6
BYLAYER
 10
26959.0888212874
 20
35214.8826909531
 11
26959.1470406958
 21
35206.8054909531
  0
LINE
  5
2C5
100
AcDbEntity
  8
0
100
AcDbLine
 62
7
  6
BYLAYER
 10
26959.0888212874
 20
35220.1957278874
 11
26959.0888212874
 21
35214.8826909531
  0
LINE
  5
2C6
100
AcDbEntity
  8
0
100
AcDbLine
 62
7
  6
BYLAYER
 10
26959.0888212874
 20
35433.5773771963
 11
26959.0888212874
 21
35220.1957278874
  0
LINE
  5
2C7
100
AcDbEntity
  8
0
100
AcDbLine
 62
7
  6
BYLAYER
 10
26959.0888212874
 20
35214.8826909531
 11
26959.1470406958
 21
35206.8054909531
  0
LINE
  5
2C8
100
AcDbEntity
  8
0
100
AcDbLine
 62
7
  6
BYLAYER
 10
26959.1470406958
 20
35206.8054909531
 11
26959.0888212874
 21
35214.8826909531
  0
LINE
  5
2C9
100
AcDbEntity
  8
0
100
AcDbLine
 62
7
  6
BYLAYER
 10
26959.9053829708
 20
35206.9832909531
 11
26959.9053829708
 21
35197.9662909531
  0
LINE
  5
2CA
100
AcDbEntity
  8
0
100
AcDbLine
 62
7
  6
BYLAYER
 10
26959.9053829708
 20
34998.99724471
 11
26959.9053829708
 21
35197.9662909531
  0
LINE
  5
2CB
100
AcDbEntity
  8
0
100
AcDbLine
 62
7
  6
BYLAYER
 10
26959.9053829708
 20
35206.9832909531
 11
26959.9053829708
 21
35414.9693371963
  0
LINE
  5
2CC
100
AcDbEntity
  8
0
100
AcDbLine
 62
7
  6
BYLAYER
 10
26960.7810193319
 20
35215.1366909531
 11
26960.7810193319
 21
35215.9304409531
  0
LINE
  5
2CD
100
AcDbEntity
  8
0
100
AcDbLine
 62
7
  6
BYLAYER
 10
26960.7048193319
 20
35007.15064471
 11
26960.7810193319
 21
35215.1366909531
  0
LINE
  5
2CE
100
AcDbEntity
  8
0
100
AcDbLine
 62
7
  6
BYLAYER
 10
26960.7810193319
 20
35215.9304409531
 11
26960.9951232787
 21
35423.9101371963
  0
LINE
  5
2CF
100
AcDbEntity
  8
0
100
AcDbLine
 62
7
  6
BYLAYER
 10
26961.6446193319
 20
35430.9967371963
 11
26961.8736193319
 21
35222.2740909531
  0
LINE
  5
2D0
100
AcDbEntity
  8
0
100
AcDbLine
 62
7
  6
BYLAYER
 10
26961.8736193319
 20
35189.7366909531
 11
26961.8097193319
 21
34997.82884471
  0
LINE
  5
2D1
100
AcDbEntity
  8
0
100
AcDbLine
 62
7
  6
BYLAYER
 10
26961.8736193319
 20
35222.2740909531
 11
26961.8736193319
 21
35189.7366909531
  0
LINE
  5
2D2
100
AcDbEntity
  8
0
100
AcDbLine
 62
7
  6
BYLAYER
 10
26963.0162193319
 20
35222.0174409659
 11
26963.0162193319
 21
35208.2559409404
  0
LINE
  5
2D3
100
AcDbEntity
  8
0
100
AcDbLine
 62
7
  6
BYLAYER
 10
26963.8036193319
 20
35222.3435927249
 11
26963.8036193319
 21
35207.9297891814
  0
LINE
  5
2D4
100
AcDbEntity
  8
0
100
AcDbLine
 62
7
  6
BYLAYER
 10
26964.1955232787
 20
35007.93804471
 11
26963.8036193319
 21
35207.9297891814
  0
LINE
  5
2D5
100
AcDbEntity
  8
0
100
AcDbLine
 62
7
  6
BYLAYER
 10
26963.8036193319
 20
35222.3435927249
 11
26964.1955232787
 21
35423.9101371963
  0
LINE
  5
2D6
100
AcDbEntity
  8
0
100
AcDbLine
 62
7
  6
BYLAYER
 10
26964.5148193319
 20
35212.9776909532
 11
26964.5148193319
 21
35213.1808909531
  0
LINE
  5
2D7
100
AcDbEntity
  8
0
100
AcDbLine
 62
7
  6
BYLAYER
 10
26964.5656193319
 20
35215.1366909531
 11
26964.5656193319
 21
35216.4066909531
  0
LINE
  5
2D8
100
AcDbEntity
  8
0
100
AcDbLine
 62
7
  6
BYLAYER
 10
26965.0736193319
 20
35007.15064471
 11
26964.5656193319
 21
35215.1366909531
  0
LINE
  5
2D9
100
AcDbEntity
  8
0
100
AcDbLine
 62
7
  6
BYLAYER
 10
26964.5656193319
 20
35216.4066909531
 11
26965.0736193319
 21
35423.1227371963
  0
LINE
  5
2DA
100
AcDbEntity
  8
0
100
AcDbLine
 62
7
  6
BYLAYER
 10
26966.2928193319
 20
35215.1366909531
 11
26966.2928193319
 21
35212.4950909531
  0
LINE
  5
2DB
100
AcDbEntity
  8
0
100
AcDbLine
 62
7
  6
BYLAYER
 10
26966.2928193319
 20
34988.21367471
 11
26966.2928193319
 21
35212.4950909531
  0
LINE
  5
2DC
100
AcDbEntity
  8
0
100
AcDbLine
 62
7
  6
BYLAYER
 10
26966.2928193319
 20
35215.1366909531
 11
26965.9880193319
 21
35423.9101371963
  0
LINE
  5
2DD
100
AcDbEntity
  8
0
100
AcDbLine
 62
7
  6
BYLAYER
 10
26966.2928193319
 20
35215.1366909531
 11
26966.8516193319
 21
35425.4849371963
  0
LINE
  5
2DE
100
AcDbEntity
  8
0
100
AcDbLine
 62
7
  6
BYLAYER
 10
26967.9946193319
 20
35213.5618909532
 11
26967.9946193319
 21
35213.9682909532
  0
LINE
  5
2DF
100
AcDbEntity
  8
0
100
AcDbLine
 62
7
  6
BYLAYER
 10
26967.9946193319
 20
35214.7302909531
 11
26967.9946193319
 21
35215.1366909531
  0
LINE
  5
2E0
100
AcDbEntity
  8
0
100
AcDbLine
 62
7
  6
BYLAYER
 10
26967.9946193319
 20
35007.22938471
 11
26968.6296193319
 21
35425.4849371963
  0
LINE
  5
2E1
100
AcDbEntity
  8
0
100
AcDbLine
 62
7
  6
BYLAYER
 10
27152.6126655751
 20
35219.9989593549
 11
27152.6126655751
 21
35210.2744225514
  0
LINE
  5
2E2
100
AcDbEntity
  8
0
100
AcDbLine
 62
7
  6
BYLAYER
 10
26933.6454406958
 20
35197.2042909532
 11
26933.662197968
 21
35206.8054909531
  0
LINE
  5
2E3
100
AcDbEntity
  8
0
100
AcDbLine
 62
7
  6
BYLAYER
 10
26934.810128966
 20
35220.4706909531
 11
26934.7956795965
 21
35217.2956909531
  0
LINE
  5
2E4
100
AcDbEntity
  8
0
100
AcDbLine
 62
7
  6
BYLAYER
 10
26961.4520710663
 20
35210.9749477653
 11
26961.3911156452
 21
35198.9319872664
  0
LINE
  5
2E5
100
AcDbEntity
  8
0
100
AcDbLine
 62
7
  6
BYLAYER
 10
26960.3850613724
 20
35197.9259329936
 11
26960.3800232787
 21
35197.2042909532
  0
LINE
  5
2E6
100
AcDbEntity
  8
0
100
AcDbLine
 62
7
  6
BYLAYER
 10
26936.5221335878
 20
35206.8054909531
 11
26936.5513050761
 21
35209.1930909532
  0
LINE
  5
2E7
100
AcDbEntity
  8
0
100
AcDbLine
 62
7
  6
BYLAYER
 10
26937.1597320341
 20
35220.4706909531
 11
26937.1079583099
 21
35217.2956909531
  0
LINE
  5
2E8
100
AcDbEntity
  8
0
100
AcDbLine
 62
7
  6
BYLAYER
 10
26938.5024987457
 20
35220.4706909531
 11
26938.4507250215
 21
35217.2956909531
  0
LINE
  5
2E9
100
AcDbEntity
  8
0
100
AcDbLine
 62
7
  6
BYLAYER
 10
26936.2422772839
 20
35428.4653468026
 11
26931.3330165345
 21
35220.4706909531
  0
LINE
  5
2EA
100
AcDbEntity
  8
0
100
AcDbLine
 62
7
  6
BYLAYER
 10
26931.2577242001
 20
35217.2956909531
 11
26926.3819477825
 21
35012.6654328309
  0
LINE
  5
2EB
100
AcDbEntity
  8
0
100
AcDbLine
 62
7
  6
BYLAYER
 10
26931.3330165345
 20
35220.4706909531
 11
26931.2577242001
 21
35217.2956909531
  0
LINE
  5
2EC
100
AcDbEntity
  8
0
100
AcDbLine
 62
7
  6
BYLAYER
 10
26939.2894206093
 20
35428.3930864769
 11
26929.4290911078
 21
35012.5931725051
  0
LINE
  5
2ED
100
AcDbEntity
  8
0
100
AcDbLine
 62
7
  6
BYLAYER
 10
26937.4093600965
 20
35223.0106909531
 11
26937.3319320179
 21
35220.4018672932
  0
LINE
  5
2EE
100
AcDbEntity
  8
0
100
AcDbLine
 62
7
  6
BYLAYER
 10
26926.1448078708
 20
35216.6954794921
 11
26926.0767496934
 21
35215.1366909531
  0
LINE
  5
2EF
100
AcDbEntity
  8
0
100
AcDbLine
 62
7
  6
BYLAYER
 10
27788.0885644677
 20
35329.0875806652
 11
26445.3629317013
 21
35154.630643898
  0
LINE
  5
2F0
100
AcDbEntity
  8
0
100
AcDbLine
 62
7
  6
BYLAYER
 10
26439.1841150268
 20
35154.630643898
 11
27781.9097477933
 21
35329.0875806652
  0
LINE
  5
2F1
100
AcDbEntity
  8
0
100
AcDbLine
 62
7
  6
BYLAYER
 10
27766.2126605568
 20
35329.0875806652
 11
26423.4870277904
 21
35154.630643898
  0
LINE
  5
2F2
100
AcDbEntity
  8
0
100
AcDbLine
 62
7
  6
BYLAYER
 10
26417.3082111159
 20
35154.630643898
 11
27760.0338438823
 21
35329.0875806652
  0
LINE
  5
2F3
100
AcDbEntity
  8
0
100
AcDbLine
 62
7
  6
BYLAYER
 10
27879.8849139411
 20
35329.0875806652
 11
26415.874048369
 21
35154.630643898
  0
LINE
  5
2F4
100
AcDbEntity
  8
0
100
AcDbLine
 62
7
  6
BYLAYER
 10
28053.0744778088
 20
35329.0875806652
 11
26314.2237576489
 21
35154.630643898
  0
LINE
  5
2F5
100
AcDbEntity
  8
0
100
AcDbLine
 62
7
  6
BYLAYER
 10
28031.3121708769
 20
35329.0875806652
 11
26292.2811801712
 21
35154.630643898
  0
LINE
  5
2F6
100
AcDbEntity
  8
0
100
AcDbLine
 62
7
  6
BYLAYER
 10
26966.4044276666
 20
35012.6691963372
 11
26966.1524373271
 21
35012.6446507403
  0
LWPOLYLINE
  5
2F7
100
AcDbEntity
  8
0
100
AcDbPolyline
 62
7
  6
BYLAYER
 90
3
 70
0
 10
26963.403762241
 20
35012.5894089988
 10
26963.6557525805
 20
35012.6139545957
 10
26966.1524373271
 20
35012.6446507403
  0
LINE
  5
2F8
100
AcDbEntity
  8
0
100
AcDbLine
 62
7
  6
BYLAYER
 10
26956.5440981651
 20
35428.469110309
 11
26956.2921078256
 21
35428.444564712
  0
LWPOLYLINE
  5
2F9
100
AcDbEntity
  8
0
100
AcDbPolyline
 62
7
  6
BYLAYER
 90
3
 70
0
 10
26953.5434327395
 20
35428.3893229705
 10
26953.795423079
 20
35428.4138685674
 10
26956.2921078256
 20
35428.444564712
  0
LINE
  5
2FA
100
AcDbEntity
  8
0
100
AcDbLine
 62
7
  6
BYLAYER
 10
28180.682789883
 20
35329.0875806652
 11
26204.610962013
 21
35154.630643898
  0
LINE
  5
2FB
100
AcDbEntity
  8
0
100
AcDbLine
 62
7
  6
BYLAYER
 10
28507.5617207899
 20
35329.0875806652
 11
26047.4711927375
 21
35154.630643898
  0
LWPOLYLINE
  5
2FC
100
AcDbEntity
  8
0
100
AcDbPolyline
 62
7
  6
BYLAYER
 90
4
 70
0
 10
26965.9808959184
 20
35012.6692030569
 10
26966.4270141577
 20
35012.6973459474
 10
26965.9806447064
 20
35012.7043287677
 10
26964.0306464565
 20
35012.5882325722
  0
LWPOLYLINE
  5
2FD
100
AcDbEntity
  8
0
100
AcDbPolyline
 62
7
  6
BYLAYER
 90
3
 70
0
 10
26963.8259888193
 20
35012.6532438392
 10
26963.3798705799
 20
35012.6251009487
 10
26963.8262400312
 20
35012.6181181284
  0
LWPOLYLINE
  5
2FE
100
AcDbEntity
  8
0
100
AcDbPolyline
 62
7
  6
BYLAYER
 90
4
 70
0
 10
26956.1208280506
 20
35428.4691683932
 10
26956.56694629
 20
35428.4973112837
 10
26956.1205768386
 20
35428.504294104
 10
26954.1703169551
 20
35428.388146544
  0
LWPOLYLINE
  5
2FF
100
AcDbEntity
  8
0
100
AcDbPolyline
 62
7
  6
BYLAYER
 90
3
 70
0
 10
26953.9659209515
 20
35428.4532091755
 10
26953.5198027121
 20
35428.425066285
 10
26953.9661721634
 20
35428.4180834647
  0
LWPOLYLINE
  5
300
100
AcDbEntity
  8
0
100
AcDbPolyline
 62
7
  6
BYLAYER
 90
3
 70
0
 10
26957.9005126489
 20
35012.6446395309
 10
26957.2737691437
 20
35012.6111068032
 10
26957.5260673144
 20
35012.5882213628
  0
LWPOLYLINE
  5
301
100
AcDbEntity
  8
0
100
AcDbPolyline
 62
7
  6
BYLAYER
 90
3
 70
0
 10
26951.1209280756
 20
35428.4445931192
 10
26950.4941845704
 20
35428.4110603915
 10
26950.7464827411
 20
35428.3881749512
  0
LWPOLYLINE
  5
302
100
AcDbEntity
  8
0
100
AcDbPolyline
 62
7
  6
BYLAYER
 90
4
 70
0
 10
26935.5284950921
 20
35214.5346897029
 10
26938.3726084021
 20
35214.6587449442
 10
26940.4932857998
 20
35214.8187930768
 10
26941.2451304487
 20
35214.9728028778
  0
LWPOLYLINE
  5
303
100
AcDbEntity
  8
0
100
AcDbPolyline
 62
7
  6
BYLAYER
 90
4
 70
0
 10
26957.2808597753
 20
35215.7386960964
 10
26954.436699761
 20
35215.6146411431
 10
26952.3159734088
 20
35215.4545911241
 10
26951.5641082622
 20
35215.3005787476
  0
LWPOLYLINE
  5
304
100
AcDbEntity
  8
0
100
AcDbPolyline
 62
7
  6
BYLAYER
 90
3
 70
0
 10
26935.1135264692
 20
35012.6181323747
 10
26935.5600460387
 20
35012.6364015241
 10
26935.113945697
 20
35012.6692222812
  0
LWPOLYLINE
  5
305
100
AcDbEntity
  8
0
100
AcDbPolyline
 62
7
  6
BYLAYER
 90
3
 70
0
 10
26941.893844813
 20
35428.4180592625
 10
26942.3403643825
 20
35428.4363284119
 10
26941.8942640408
 20
35428.469149169
  0
LINE
  5
306
100
AcDbEntity
  8
0
100
AcDbLine
 62
7
  6
BYLAYER
 10
26957.6984167821
 20
35012.6692287392
 11
26959.8536487074
 21
35012.6532695215
  0
LINE
  5
307
100
AcDbEntity
  8
0
100
AcDbLine
 62
7
  6
BYLAYER
 10
26950.9170326568
 20
35428.469142711
 11
26953.0722645821
 21
35428.4531834932
  0
LWPOLYLINE
  5
308
100
AcDbEntity
  8
0
100
AcDbPolyline
 62
7
  6
BYLAYER
 90
5
 70
0
 10
26958.5096143142
 20
35012.5893891905
 10
26959.6482616499
 20
35012.6139261885
 10
26960.2750051551
 20
35012.6474589162
 10
26960.0227069844
 20
35012.6703443565
 10
26957.5260673144
 20
35012.5882213628
  0
LWPOLYLINE
  5
309
100
AcDbEntity
  8
0
100
AcDbPolyline
 62
7
  6
BYLAYER
 90
5
 70
0
 10
26951.7300297409
 20
35428.3893427788
 10
26952.8686770766
 20
35428.4138797768
 10
26953.4954205818
 20
35428.4474125046
 10
26953.2431224111
 20
35428.4702979449
 10
26950.7464827411
 20
35428.3881749512
  0
LWPOLYLINE
  5
30A
100
AcDbEntity
  8
0
100
AcDbPolyline
 62
7
  6
BYLAYER
 90
4
 70
0
 10
26957.6986736762
 20
35012.6181371606
 10
26959.8533918134
 20
35012.7043611
 10
26960.2998302027
 20
35012.6860914609
 10
26959.8536487074
 20
35012.6532695215
  0
LWPOLYLINE
  5
30B
100
AcDbEntity
  8
0
100
AcDbPolyline
 62
7
  6
BYLAYER
 90
4
 70
0
 10
26950.9172895509
 20
35428.4180511324
 10
26953.0720076881
 20
35428.5042750718
 10
26953.5184460774
 20
35428.4860054326
 10
26953.0722645821
 20
35428.4531834932
  0
LINE
  5
30C
100
AcDbEntity
  8
0
100
AcDbLine
 62
7
  6
BYLAYER
 10
26928.7789679424
 20
35012.5882325722
 11
26929.4058521579
 21
35012.5894089988
  0
LINE
  5
30D
100
AcDbEntity
  8
0
100
AcDbLine
 62
7
  6
BYLAYER
 10
26927.0320709479
 20
35012.6703727638
 11
26926.4051867323
 21
35012.6691963372
  0
LINE
  5
30E
100
AcDbEntity
  8
0
100
AcDbLine
 62
7
  6
BYLAYER
 10
26938.6392974438
 20
35428.388146544
 11
26939.2661816594
 21
35428.3893229705
  0
LINE
  5
30F
100
AcDbEntity
  8
0
100
AcDbLine
 62
7
  6
BYLAYER
 10
26936.8924004494
 20
35428.4702867355
 11
26936.2655162338
 21
35428.469110309
  0
LINE
  5
310
100
AcDbEntity
  8
0
100
AcDbLine
 62
7
  6
BYLAYER
 10
26966.2928193319
 20
34988.21367471
 11
26926.5164193319
 21
34988.21367471
  0
LINE
  5
311
100
AcDbEntity
  8
0
100
AcDbLine
 62
7
  6
BYLAYER
 10
26954.3421193319
 20
34991.27564471
 11
26938.4671193319
 21
34991.27564471
  0
LINE
  5
312
100
AcDbEntity
  8
0
100
AcDbLine
 62
7
  6
BYLAYER
 10
26961.8097193319
 20
34997.82884471
 11
26930.9995193319
 21
34997.82884471
  0
LINE
  5
313
100
AcDbEntity
  8
0
100
AcDbLine
 62
7
  6
BYLAYER
 10
26959.9053829708
 20
34998.99724471
 11
26932.903855693
 21
34998.99724471
  0
LINE
  5
314
100
AcDbEntity
  8
0
100
AcDbLine
 62
7
  6
BYLAYER
 10
26967.9946193319
 20
35007.22938471
 11
26924.8146193319
 21
35007.22938471
  0
LINE
  5
315
100
AcDbEntity
  8
0
100
AcDbLine
 62
7
  6
BYLAYER
 10
26965.9880193319
 20
35007.93804471
 11
26957.7584193319
 21
35007.93804471
  0
LINE
  5
316
100
AcDbEntity
  8
0
100
AcDbLine
 62
7
  6
BYLAYER
 10
26951.3576193319
 20
35007.93804471
 11
26941.4516193319
 21
35007.93804471
  0
LINE
  5
317
100
AcDbEntity
  8
0
100
AcDbLine
 62
7
  6
BYLAYER
 10
26935.0508193319
 20
35007.93804471
 11
26926.8212193319
 21
35007.93804471
  0
LINE
  5
318
100
AcDbEntity
  8
0
100
AcDbLine
 62
7
  6
BYLAYER
 10
26924.1796193319
 20
35009.51284471
 11
26968.6296193319
 21
35009.51284471
  0
LINE
  5
319
100
AcDbEntity
  8
0
100
AcDbLine
 62
7
  6
BYLAYER
 10
26949.7066193319
 20
35010.90984471
 11
26943.1026193319
 21
35010.90984471
  0
LINE
  5
31A
100
AcDbEntity
  8
0
100
AcDbLine
 62
7
  6
BYLAYER
 10
26961.6446193319
 20
35015.02464471
 11
26931.1646193319
 21
35015.02464471
  0
LINE
  5
31B
100
AcDbEntity
  8
0
100
AcDbLine
 62
7
  6
BYLAYER
 10
26959.0888212874
 20
35017.60528471
 11
26955.5963212874
 21
35017.60528471
  0
LINE
  5
31C
100
AcDbEntity
  8
0
100
AcDbLine
 62
7
  6
BYLAYER
 10
26937.2129173765
 20
35017.60528471
 11
26933.7204173765
 21
35017.60528471
  0
LINE
  5
31D
100
AcDbEntity
  8
0
100
AcDbLine
 62
7
  6
BYLAYER
 10
26967.2728310801
 20
35121.1015344221
 11
26925.5364075838
 21
35121.1015344221
  0
LINE
  5
31E
100
AcDbEntity
  8
0
100
AcDbLine
 62
7
  6
BYLAYER
 10
26047.4711927375
 20
35154.630643898
 11
27867.2139498373
 21
35154.630643898
  0
LINE
  5
31F
100
AcDbEntity
  8
0
100
AcDbLine
 62
7
  6
BYLAYER
 10
26953.6378236649
 20
35197.6741909531
 11
26939.171414999
 21
35197.6741909531
  0
LINE
  5
320
100
AcDbEntity
  8
0
100
AcDbLine
 62
7
  6
BYLAYER
 10
26953.2853693446
 20
35198.5250909531
 11
26939.5238693192
 21
35198.5250909531
  0
LINE
  5
321
100
AcDbEntity
  8
0
100
AcDbLine
 62
7
  6
BYLAYER
 10
26954.7523369922
 20
35206.5006909764
 11
26954.2786193294
 21
35206.5006909701
  0
LINE
  5
322
100
AcDbEntity
  8
0
100
AcDbLine
 62
7
  6
BYLAYER
 10
26941.5443369922
 20
35206.5006909764
 11
26941.0706193294
 21
35206.5006909701
  0
LINE
  5
323
100
AcDbEntity
  8
0
100
AcDbLine
 62
7
  6
BYLAYER
 10
26938.0569016716
 20
35206.5006909299
 11
26938.5306193344
 21
35206.5006909362
  0
LINE
  5
324
100
AcDbEntity
  8
0
100
AcDbLine
 62
7
  6
BYLAYER
 10
26951.2649016716
 20
35206.5006909299
 11
26951.7386193344
 21
35206.5006909362
  0
LINE
  5
325
100
AcDbEntity
  8
0
100
AcDbLine
 62
7
  6
BYLAYER
 10
26946.7856193319
 20
35208.6320358095
 11
26946.0236193319
 21
35208.6320358095
  0
LINE
  5
326
100
AcDbEntity
  8
0
100
AcDbLine
 62
7
  6
BYLAYER
 10
26958.6833789443
 20
35209.4484208934
 11
26957.980416887
 21
35209.4484208934
  0
LINE
  5
327
100
AcDbEntity
  8
0
100
AcDbLine
 62
7
  6
BYLAYER
 10
26955.0893989562
 20
35209.4484208934
 11
26954.3864368989
 21
35209.4484208934
  0
LINE
  5
328
100
AcDbEntity
  8
0
100
AcDbLine
 62
7
  6
BYLAYER
 10
26934.8288217768
 20
35209.4484208934
 11
26934.1258597195
 21
35209.4484208934
  0
LINE
  5
329
100
AcDbEntity
  8
0
100
AcDbLine
 62
7
  6
BYLAYER
 10
26938.4015578073
 20
35209.4484208934
 11
26937.6988158883
 21
35209.4484208934
  0
LINE
  5
32A
100
AcDbEntity
  8
0
100
AcDbLine
 62
7
  6
BYLAYER
 10
26958.2255394144
 20
35210.2090909531
 11
26957.5291988988
 21
35210.2090909531
  0
LINE
  5
32B
100
AcDbEntity
  8
0
100
AcDbLine
 62
7
  6
BYLAYER
 10
26955.7091885194
 20
35210.2090909531
 11
26955.0128480039
 21
35210.2090909531
  0
LINE
  5
32C
100
AcDbEntity
  8
0
100
AcDbLine
 62
7
  6
BYLAYER
 10
26937.7761564115
 20
35210.2090909531
 11
26937.079965759
 21
35210.2090909531
  0
LINE
  5
32D
100
AcDbEntity
  8
0
100
AcDbLine
 62
7
  6
BYLAYER
 10
26935.280039765
 20
35210.2090909531
 11
26934.5836992495
 21
35210.2090909531
  0
LINE
  5
32E
100
AcDbEntity
  8
0
100
AcDbLine
 62
7
  6
BYLAYER
 10
26736.6405730888
 20
35209.7225629751
 11
26934.5836992495
 21
35210.2090909531
  0
LINE
  5
32F
100
AcDbEntity
  8
0
100
AcDbLine
 62
7
  6
BYLAYER
 10
26955.7091885194
 20
35210.2090909531
 11
26957.5291988988
 21
35210.2090909531
  0
LINE
  5
330
100
AcDbEntity
  8
0
100
AcDbLine
 62
7
  6
BYLAYER
 10
26935.280039765
 20
35210.2090909531
 11
26937.079965759
 21
35210.2090909531
  0
LINE
  5
331
100
AcDbEntity
  8
0
100
AcDbLine
 62
7
  6
BYLAYER
 10
26952.1054280102
 20
35210.6916909532
 11
26955.0128480039
 21
35210.2090909531
  0
LINE
  5
332
100
AcDbEntity
  8
0
100
AcDbLine
 62
7
  6
BYLAYER
 10
26952.1054280102
 20
35210.6916909532
 11
26952.0718197693
 21
35210.6916909532
  0
LINE
  5
333
100
AcDbEntity
  8
0
100
AcDbLine
 62
7
  6
BYLAYER
 10
26958.9221353368
 20
35210.6916909532
 11
26958.8890502236
 21
35210.6916909532
  0
LINE
  5
334
100
AcDbEntity
  8
0
100
AcDbLine
 62
7
  6
BYLAYER
 10
26940.7048485409
 20
35210.6916909532
 11
26940.7378032264
 21
35210.6916909532
  0
LINE
  5
335
100
AcDbEntity
  8
0
100
AcDbLine
 62
7
  6
BYLAYER
 10
26933.8876324156
 20
35210.6916909532
 11
26933.9206894445
 21
35210.6916909532
  0
LINE
  5
336
100
AcDbEntity
  8
0
100
AcDbLine
 62
7
  6
BYLAYER
 10
26736.6405730888
 20
35210.754681874
 11
26933.8876324156
 21
35210.6916909532
  0
LINE
  5
337
100
AcDbEntity
  8
0
100
AcDbLine
 62
7
  6
BYLAYER
 10
26952.1054280102
 20
35210.6916909532
 11
26955.0128480039
 21
35210.2090909531
  0
LINE
  5
338
100
AcDbEntity
  8
0
100
AcDbLine
 62
7
  6
BYLAYER
 10
26958.2255394144
 20
35210.2090909531
 11
27152.6126655751
 21
35210.754681874
  0
LINE
  5
339
100
AcDbEntity
  8
0
100
AcDbLine
 62
7
  6
BYLAYER
 10
26937.7761564115
 20
35210.2090909531
 11
26952.0718197693
 21
35210.6916909532
  0
LINE
  5
33A
100
AcDbEntity
  8
0
100
AcDbLine
 62
7
  6
BYLAYER
 10
26933.9206894445
 20
35210.6916909532
 11
26934.5836992495
 21
35210.2090909531
  0
LINE
  5
33B
100
AcDbEntity
  8
0
100
AcDbLine
 62
7
  6
BYLAYER
 10
26964.9466193319
 20
35212.9776909532
 11
26960.6956692927
 21
35212.9776909532
  0
LINE
  5
33C
100
AcDbEntity
  8
0
100
AcDbLine
 62
7
  6
BYLAYER
 10
26955.3514441192
 20
35212.9776909532
 11
26953.4918966361
 21
35212.9776909532
  0
LINE
  5
33D
100
AcDbEntity
  8
0
100
AcDbLine
 62
7
  6
BYLAYER
 10
26950.7870392195
 20
35212.9776909532
 11
26950.689240408
 21
35212.9776909532
  0
LINE
  5
33E
100
AcDbEntity
  8
0
100
AcDbLine
 62
7
  6
BYLAYER
 10
26932.113100053
 20
35212.9776909532
 11
26930.2536089057
 21
35212.9776909532
  0
LINE
  5
33F
100
AcDbEntity
  8
0
100
AcDbLine
 62
7
  6
BYLAYER
 10
26939.8732668914
 20
35212.9166146065
 11
26937.4590481565
 21
35212.9776909532
  0
LINE
  5
340
100
AcDbEntity
  8
0
100
AcDbLine
 62
7
  6
BYLAYER
 10
26942.5482167252
 20
35212.9776909532
 11
26942.399856275
 21
35212.9776909532
  0
LINE
  5
341
100
AcDbEntity
  8
0
100
AcDbLine
 62
7
  6
BYLAYER
 10
26948.1826193319
 20
35212.765930424
 11
26943.8314651844
 21
35212.9776909532
  0
LINE
  5
342
100
AcDbEntity
  8
0
100
AcDbLine
 62
7
  6
BYLAYER
 10
26938.3602361301
 20
35213.591190661
 11
26939.6920819035
 21
35213.591190661
  0
LINE
  5
343
100
AcDbEntity
  8
0
100
AcDbLine
 62
7
  6
BYLAYER
 10
26954.3903067226
 20
35213.6634909531
 11
26953.2215269622
 21
35213.6634909531
  0
LINE
  5
344
100
AcDbEntity
  8
0
100
AcDbLine
 62
7
  6
BYLAYER
 10
26944.6266193319
 20
35213.8555234828
 11
26948.1826193319
 21
35213.8555234828
  0
LINE
  5
345
100
AcDbEntity
  8
0
100
AcDbLine
 62
7
  6
BYLAYER
 10
26736.6405730888
 20
35214.4623128103
 11
26944.6266193319
 21
35213.8555234828
  0
LINE
  5
346
100
AcDbEntity
  8
0
100
AcDbLine
 62
7
  6
BYLAYER
 10
26948.1826193319
 20
35213.8555234828
 11
27152.6126655751
 21
35214.4623128103
  0
LINE
  5
347
100
AcDbEntity
  8
0
100
AcDbLine
 62
7
  6
BYLAYER
 10
26959.8031193318
 20
35215.1366909569
 11
26958.9595879142
 21
35215.1366909531
  0
LINE
  5
348
100
AcDbEntity
  8
0
100
AcDbLine
 62
7
  6
BYLAYER
 10
26962.0002193318
 20
35215.1366909566
 11
26961.2128193318
 21
35215.1366909556
  0
LINE
  5
349
100
AcDbEntity
  8
0
100
AcDbLine
 62
7
  6
BYLAYER
 10
26934.9614356461
 20
35215.1366909531
 11
26934.9502364633
 21
35215.1366909531
  0
LINE
  5
34A
100
AcDbEntity
  8
0
100
AcDbLine
 62
7
  6
BYLAYER
 10
26935.7112193319
 20
35215.1366909531
 11
26938.2521397808
 21
35215.1366909531
  0
LINE
  5
34B
100
AcDbEntity
  8
0
100
AcDbLine
 62
7
  6
BYLAYER
 10
26939.0132193319
 20
35215.1366909531
 11
26940.9196299208
 21
35215.1366909531
  0
LINE
  5
34C
100
AcDbEntity
  8
0
100
AcDbLine
 62
7
  6
BYLAYER
 10
26933.006119332
 20
35215.136690954
 11
26933.8496507496
 21
35215.1366909531
  0
LINE
  5
34D
100
AcDbEntity
  8
0
100
AcDbLine
 62
7
  6
BYLAYER
 10
26943.2296193319
 20
35215.1366909531
 11
26949.5796193319
 21
35215.1366909531
  0
LINE
  5
34E
100
AcDbEntity
  8
0
100
AcDbLine
 62
7
  6
BYLAYER
 10
26930.809019332
 20
35215.1366909497
 11
26931.596419332
 21
35215.1366909507
  0
LINE
  5
34F
100
AcDbEntity
  8
0
100
AcDbLine
 62
7
  6
BYLAYER
 10
26957.8478030177
 20
35215.1366909531
 11
26957.8590022005
 21
35215.1366909531
  0
LINE
  5
350
100
AcDbEntity
  8
0
100
AcDbLine
 62
7
  6
BYLAYER
 10
26951.8896087431
 20
35215.1366909531
 11
26957.0980193319
 21
35215.1366909531
  0
LINE
  5
351
100
AcDbEntity
  8
0
100
AcDbLine
 62
7
  6
BYLAYER
 10
26736.6405730888
 20
35215.811069096
 11
26945.1346193319
 21
35215.8056974759
  0
LINE
  5
352
100
AcDbEntity
  8
0
100
AcDbLine
 62
7
  6
BYLAYER
 10
26948.7160193319
 20
35216.4066909531
 11
26953.2215269622
 21
35216.6098909532
  0
LINE
  5
353
100
AcDbEntity
  8
0
100
AcDbLine
 62
7
  6
BYLAYER
 10
26954.3903067227
 20
35216.6098909532
 11
27152.6126655751
 21
35215.811069096
  0
LINE
  5
354
100
AcDbEntity
  8
0
100
AcDbLine
 62
7
  6
BYLAYER
 10
26945.1346193319
 20
35215.8056974759
 11
26948.7160193319
 21
35216.4066909531
  0
LINE
  5
355
100
AcDbEntity
  8
0
100
AcDbLine
 62
7
  6
BYLAYER
 10
26938.4189319412
 20
35216.6098909532
 11
26939.5877117016
 21
35216.6098909532
  0
LINE
  5
356
100
AcDbEntity
  8
0
100
AcDbLine
 62
7
  6
BYLAYER
 10
26953.2215269622
 20
35216.6098909532
 11
26954.3903067227
 21
35216.6098909532
  0
LINE
  5
357
100
AcDbEntity
  8
0
100
AcDbLine
 62
7
  6
BYLAYER
 10
26944.6266193319
 20
35217.0200247827
 11
26948.1826193319
 21
35217.0200247827
  0
LINE
  5
358
100
AcDbEntity
  8
0
100
AcDbLine
 62
7
  6
BYLAYER
 10
26962.3932569369
 20
35217.2956909531
 11
26959.3288801341
 21
35217.2956909531
  0
LINE
  5
359
100
AcDbEntity
  8
0
100
AcDbLine
 62
7
  6
BYLAYER
 10
26958.0129921717
 20
35217.2956909531
 11
26952.5618979429
 21
35217.2956909531
  0
LINE
  5
35A
100
AcDbEntity
  8
0
100
AcDbLine
 62
7
  6
BYLAYER
 10
26940.2484018597
 20
35217.2956909531
 11
26934.7956795965
 21
35217.2956909531
  0
LINE
  5
35B
100
AcDbEntity
  8
0
100
AcDbLine
 62
7
  6
BYLAYER
 10
26933.4808459715
 20
35217.2956909531
 11
26930.4167428171
 21
35217.2956909531
  0
LINE
  5
35C
100
AcDbEntity
  8
0
100
AcDbLine
 62
7
  6
BYLAYER
 10
26944.8171193319
 20
35219.2006909531
 11
26947.9921193319
 21
35219.2006909531
  0
LINE
  5
35D
100
AcDbEntity
  8
0
100
AcDbLine
 62
7
  6
BYLAYER
 10
26736.6405730888
 20
35219.5187000323
 11
27152.6126655751
 21
35219.9989593549
  0
LINE
  5
35E
100
AcDbEntity
  8
0
100
AcDbLine
 62
7
  6
BYLAYER
 10
26961.0531976392
 20
35220.4706909531
 11
26958.8953411911
 21
35220.4706909531
  0
LINE
  5
35F
100
AcDbEntity
  8
0
100
AcDbLine
 62
7
  6
BYLAYER
 10
26954.3093310952
 20
35220.4706909531
 11
26952.1520163932
 21
35220.4706909531
  0
LINE
  5
360
100
AcDbEntity
  8
0
100
AcDbLine
 62
7
  6
BYLAYER
 10
26957.99855501
 20
35220.4706909531
 11
26955.6520166895
 21
35220.4706909531
  0
LINE
  5
361
100
AcDbEntity
  8
0
100
AcDbLine
 62
7
  6
BYLAYER
 10
26933.913937466
 20
35220.4706909531
 11
26931.7564900986
 21
35220.4706909531
  0
LINE
  5
362
100
AcDbEntity
  8
0
100
AcDbLine
 62
7
  6
BYLAYER
 10
26937.1582655449
 20
35220.4706909531
 11
26934.810128966
 21
35220.4706909531
  0
LINE
  5
363
100
AcDbEntity
  8
0
100
AcDbLine
 62
7
  6
BYLAYER
 10
26940.6582478263
 20
35220.4706909531
 11
26938.5012631684
 21
35220.4706909531
  0
LINE
  5
364
100
AcDbEntity
  8
0
100
AcDbLine
 62
7
  6
BYLAYER
 10
26736.6405730888
 20
35220.5508189312
 11
26931.7564900986
 21
35220.4706909531
  0
LINE
  5
365
100
AcDbEntity
  8
0
100
AcDbLine
 62
7
  6
BYLAYER
 10
26961.0531976392
 20
35220.4706909531
 11
27152.6126655751
 21
35220.5508189312
  0
LINE
  5
366
100
AcDbEntity
  8
0
100
AcDbLine
 62
7
  6
BYLAYER
 10
26954.3093310952
 20
35220.4706909531
 11
26955.6520166895
 21
35220.4706909531
  0
LINE
  5
367
100
AcDbEntity
  8
0
100
AcDbLine
 62
7
  6
BYLAYER
 10
26957.99855501
 20
35220.4706909531
 11
26958.8953411911
 21
35220.4706909531
  0
LINE
  5
368
100
AcDbEntity
  8
0
100
AcDbLine
 62
7
  6
BYLAYER
 10
26933.913937466
 20
35220.4706909531
 11
26934.810128966
 21
35220.4706909531
  0
LINE
  5
369
100
AcDbEntity
  8
0
100
AcDbLine
 62
7
  6
BYLAYER
 10
26937.1582655449
 20
35220.4706909531
 11
26938.5012631684
 21
35220.4706909531
  0
LINE
  5
36A
100
AcDbEntity
  8
0
100
AcDbLine
 62
7
  6
BYLAYER
 10
26940.6582478263
 20
35220.4706909531
 11
26952.1520163932
 21
35220.4706909531
  0
LINE
  5
36B
100
AcDbEntity
  8
0
100
AcDbLine
 62
7
  6
BYLAYER
 10
26946.0236193319
 20
35221.6413460968
 11
26946.7856193319
 21
35221.6413460968
  0
LINE
  5
36C
100
AcDbEntity
  8
0
100
AcDbLine
 62
7
  6
BYLAYER
 10
26954.7523369922
 20
35223.7726909764
 11
26954.2786193294
 21
35223.7726909701
  0
LINE
  5
36D
100
AcDbEntity
  8
0
100
AcDbLine
 62
7
  6
BYLAYER
 10
26941.5443369922
 20
35223.7726909764
 11
26941.0706193294
 21
35223.7726909701
  0
LINE
  5
36E
100
AcDbEntity
  8
0
100
AcDbLine
 62
7
  6
BYLAYER
 10
26938.0569016716
 20
35223.7726909299
 11
26938.5306193344
 21
35223.7726909362
  0
LINE
  5
36F
100
AcDbEntity
  8
0
100
AcDbLine
 62
7
  6
BYLAYER
 10
26951.2649016716
 20
35223.7726909299
 11
26951.7386193344
 21
35223.7726909362
  0
LINE
  5
370
100
AcDbEntity
  8
0
100
AcDbLine
 62
7
  6
BYLAYER
 10
26953.2853693446
 20
35231.7482909532
 11
26939.5238693192
 21
35231.7482909532
  0
LINE
  5
371
100
AcDbEntity
  8
0
100
AcDbLine
 62
7
  6
BYLAYER
 10
26953.6115211036
 20
35232.5356909531
 11
26939.1977175602
 21
35232.5356909531
  0
LINE
  5
372
100
AcDbEntity
  8
0
100
AcDbLine
 62
7
  6
BYLAYER
 10
25407.1234217849
 20
35329.0875806652
 11
28507.5617207899
 21
35329.0875806652
  0
LINE
  5
373
100
AcDbEntity
  8
0
100
AcDbLine
 62
7
  6
BYLAYER
 10
27008.4703149589
 20
35362.6166901411
 11
26884.3389237049
 21
35362.6166901411
  0
LINE
  5
374
100
AcDbEntity
  8
0
100
AcDbLine
 62
7
  6
BYLAYER
 10
26893.297062697
 20
35374.8064426751
 11
26999.5121759668
 21
35374.8064426751
  0
LINE
  5
375
100
AcDbEntity
  8
0
100
AcDbLine
 62
7
  6
BYLAYER
 10
27034.3397092757
 20
35378.5304266894
 11
26858.4695293881
 21
35378.5304266894
  0
LINE
  5
376
100
AcDbEntity
  8
0
100
AcDbLine
 62
7
  6
BYLAYER
 10
27060.0279142473
 20
35396.0744052365
 11
26832.7813244165
 21
35396.0744052365
  0
LINE
  5
377
100
AcDbEntity
  8
0
100
AcDbLine
 62
7
  6
BYLAYER
 10
26966.2928193319
 20
35404.1857671963
 11
26926.5164193319
 21
35404.1857671963
  0
LINE
  5
378
100
AcDbEntity
  8
0
100
AcDbLine
 62
7
  6
BYLAYER
 10
26954.3421193319
 20
35407.2477371963
 11
26938.4671193319
 21
35407.2477371963
  0
LINE
  5
379
100
AcDbEntity
  8
0
100
AcDbLine
 62
7
  6
BYLAYER
 10
26961.8097193319
 20
35413.8009371963
 11
26930.9995193319
 21
35413.8009371963
  0
LINE
  5
37A
100
AcDbEntity
  8
0
100
AcDbLine
 62
7
  6
BYLAYER
 10
26959.9053829708
 20
35414.9693371963
 11
26932.903855693
 21
35414.9693371963
  0
LINE
  5
37B
100
AcDbEntity
  8
0
100
AcDbLine
 62
7
  6
BYLAYER
 10
26967.9946193319
 20
35423.2014771963
 11
26924.8146193319
 21
35423.2014771963
  0
LINE
  5
37C
100
AcDbEntity
  8
0
100
AcDbLine
 62
7
  6
BYLAYER
 10
26965.9880193319
 20
35423.9101371963
 11
26957.7584193319
 21
35423.9101371963
  0
LINE
  5
37D
100
AcDbEntity
  8
0
100
AcDbLine
 62
7
  6
BYLAYER
 10
26951.3576193319
 20
35423.9101371963
 11
26941.4516193319
 21
35423.9101371963
  0
LINE
  5
37E
100
AcDbEntity
  8
0
100
AcDbLine
 62
7
  6
BYLAYER
 10
26935.0508193319
 20
35423.9101371963
 11
26926.8212193319
 21
35423.9101371963
  0
LINE
  5
37F
100
AcDbEntity
  8
0
100
AcDbLine
 62
7
  6
BYLAYER
 10
26924.1796193319
 20
35425.4849371963
 11
26968.6296193319
 21
35425.4849371963
  0
LINE
  5
380
100
AcDbEntity
  8
0
100
AcDbLine
 62
7
  6
BYLAYER
 10
26964.0306464565
 20
35012.5882325722
 11
26963.403762241
 21
35012.5894089988
  0
LINE
  5
381
100
AcDbEntity
  8
0
100
AcDbLine
 62
7
  6
BYLAYER
 10
26965.777543451
 20
35012.6703727638
 11
26966.4044276666
 21
35012.6691963372
  0
LWPOLYLINE
  5
382
100
AcDbEntity
  8
0
100
AcDbPolyline
 62
7
  6
BYLAYER
 90
4
 70
0
 10
26935.1135264692
 20
35012.6181323747
 10
26932.9589706012
 20
35012.7043529699
 10
26932.5124510317
 20
35012.6860838205
 10
26932.9585513734
 20
35012.6532630634
  0
LWPOLYLINE
  5
383
100
AcDbEntity
  8
0
100
AcDbPolyline
 62
7
  6
BYLAYER
 90
5
 70
0
 10
26934.2996243496
 20
35012.5893891905
 10
26933.1609770139
 20
35012.6139261885
 10
26932.5342335088
 20
35012.6474589162
 10
26932.7865316794
 20
35012.6703443565
 10
26937.2129173765
 20
35012.48464471
  0
LINE
  5
384
100
AcDbEntity
  8
0
100
AcDbLine
 62
7
  6
BYLAYER
 10
26935.113945697
 20
35012.6692222812
 11
26932.9585513734
 21
35012.6532630634
  0
LINE
  5
385
100
AcDbEntity
  8
0
100
AcDbLine
 62
7
  6
BYLAYER
 10
26926.8285769521
 20
35012.6692357778
 11
26928.9839858163
 21
35012.65327656
  0
LWPOLYLINE
  5
386
100
AcDbEntity
  8
0
100
AcDbPolyline
 62
7
  6
BYLAYER
 90
3
 70
0
 10
26957.6986736762
 20
35012.6181371606
 10
26957.2522352869
 20
35012.6364067998
 10
26957.6984167821
 20
35012.6692287392
  0
LWPOLYLINE
  5
387
100
AcDbEntity
  8
0
100
AcDbPolyline
 62
7
  6
BYLAYER
 90
3
 70
0
 10
26934.9087260149
 20
35012.6446395309
 10
26935.5354695201
 20
35012.6111068032
 10
26935.2831713495
 20
35012.5882213628
  0
LINE
  5
388
100
AcDbEntity
  8
0
100
AcDbLine
 62
7
  6
BYLAYER
 10
26949.7066193319
 20
35426.8819371963
 11
26943.1026193319
 21
35426.8819371963
  0
LINE
  5
389
100
AcDbEntity
  8
0
100
AcDbLine
 62
7
  6
BYLAYER
 10
26937.2129173765
 20
35428.4567371963
 11
26933.7204173765
 21
35428.4567371963
  0
LINE
  5
38A
100
AcDbEntity
  8
0
100
AcDbLine
 62
7
  6
BYLAYER
 10
26961.6446193319
 20
35430.9967371963
 11
26931.1646193319
 21
35430.9967371963
  0
LINE
  5
38B
100
AcDbEntity
  8
0
100
AcDbLine
 62
7
  6
BYLAYER
 10
26959.0888212874
 20
35433.5773771963
 11
26955.5963212874
 21
35433.5773771963
  0
LINE
  5
38C
100
AcDbEntity
  8
0
100
AcDbLine
 62
7
  6
BYLAYER
 10
26937.2129173765
 20
35433.5773771963
 11
26933.7204173765
 21
35433.5773771963
  0
LINE
  5
38D
100
AcDbEntity
  8
0
100
AcDbLine
 62
7
  6
BYLAYER
 10
26954.1703169551
 20
35428.388146544
 11
26953.5434327395
 21
35428.3893229705
  0
LINE
  5
38E
100
AcDbEntity
  8
0
100
AcDbLine
 62
7
  6
BYLAYER
 10
26955.9172139495
 20
35428.4702867355
 11
26956.5440981651
 21
35428.469110309
  0
LWPOLYLINE
  5
38F
100
AcDbEntity
  8
0
100
AcDbPolyline
 62
7
  6
BYLAYER
 90
4
 70
0
 10
26941.893844813
 20
35428.4180592625
 10
26939.739288945
 20
35428.5042798577
 10
26939.2927693755
 20
35428.4860107083
 10
26939.7388697172
 20
35428.4531899512
  0
LWPOLYLINE
  5
390
100
AcDbEntity
  8
0
100
AcDbPolyline
 62
7
  6
BYLAYER
 90
5
 70
0
 10
26941.0792089229
 20
35428.3893427788
 10
26939.9405615872
 20
35428.4138797768
 10
26939.3138180821
 20
35428.4474125046
 10
26939.5661162527
 20
35428.4702979449
 10
26942.0627559228
 20
35428.3881749512
  0
LINE
  5
391
100
AcDbEntity
  8
0
100
AcDbLine
 62
7
  6
BYLAYER
 10
26941.8942640408
 20
35428.469149169
 11
26939.7388697172
 21
35428.4531899512
  0
LINE
  5
392
100
AcDbEntity
  8
0
100
AcDbLine
 62
7
  6
BYLAYER
 10
26936.6887013067
 20
35428.4691356724
 11
26938.8441101709
 21
35428.4531764546
  0
LWPOLYLINE
  5
393
100
AcDbEntity
  8
0
100
AcDbPolyline
 62
7
  6
BYLAYER
 90
3
 70
0
 10
26950.9172895509
 20
35428.4180511324
 10
26950.4708511616
 20
35428.4363207715
 10
26950.9170326568
 20
35428.469142711
  0
LWPOLYLINE
  5
394
100
AcDbEntity
  8
0
100
AcDbPolyline
 62
7
  6
BYLAYER
 90
4
 70
0
 10
26957.2807168879
 20
35214.5342358937
 10
26954.436600009
 20
35214.6583838764
 10
26952.3159327626
 20
35214.8185544448
 10
26951.5641017121
 20
35214.9726840058
  0
LWPOLYLINE
  5
395
100
AcDbEntity
  8
0
100
AcDbPolyline
 62
7
  6
BYLAYER
 90
4
 70
0
 10
26935.5284054806
 20
35215.7391495126
 10
26938.3725689831
 20
35215.6150018509
 10
26940.4932852369
 20
35215.4548295716
 10
26941.2451368687
 20
35215.300697711
  0
LWPOLYLINE
  5
396
100
AcDbEntity
  8
0
100
AcDbPolyline
 62
7
  6
BYLAYER
 90
3
 70
0
 10
26941.6883105882
 20
35428.4445931192
 10
26942.3150540934
 20
35428.4110603915
 10
26942.0627559228
 20
35428.3881749512
  0
LWPOLYLINE
  5
397
100
AcDbEntity
  8
0
100
AcDbPolyline
 62
7
  6
BYLAYER
 90
4
 70
0
 10
26926.8285769521
 20
35012.6692357778
 10
26926.3827096829
 20
35012.6973846592
 10
26926.8293300531
 20
35012.7043699609
 10
26928.9832327153
 20
35012.6181423768
  0
LWPOLYLINE
  5
398
100
AcDbEntity
  8
0
100
AcDbPolyline
 62
7
  6
BYLAYER
 90
3
 70
0
 10
26928.9839858163
 20
35012.65327656
 10
26929.4298530855
 20
35012.6251276786
 10
26928.9832327153
 20
35012.6181423768
  0
LWPOLYLINE
  5
399
100
AcDbEntity
  8
0
100
AcDbPolyline
 62
7
  6
BYLAYER
 90
4
 70
0
 10
26936.6887013067
 20
35428.4691356724
 10
26936.2428340375
 20
35428.4972845538
 10
26936.6894544077
 20
35428.5042698556
 10
26938.84335707
 20
35428.4180422715
  0
LWPOLYLINE
  5
39A
100
AcDbEntity
  8
0
100
AcDbPolyline
 62
7
  6
BYLAYER
 90
3
 70
0
 10
26938.8441101709
 20
35428.4531764546
 10
26939.2899774401
 20
35428.4250275732
 10
26938.84335707
 20
35428.4180422715
  0
LINE
  5
39B
100
AcDbEntity
  8
0
100
AcDbLine
 62
7
  6
BYLAYER
 10
25407.1234217849
 20
35329.0875806652
 11
27867.2139498373
 21
35154.630643898
  0
LINE
  5
39C
100
AcDbEntity
  8
0
100
AcDbLine
 62
7
  6
BYLAYER
 10
26926.4051867323
 20
35012.6691963372
 11
26926.6571770718
 21
35012.6446507403
  0
LINE
  5
39D
100
AcDbEntity
  8
0
100
AcDbLine
 62
7
  6
BYLAYER
 10
26929.4058521579
 20
35012.5894089988
 11
26929.1538618184
 21
35012.6139545957
  0
LINE
  5
39E
100
AcDbEntity
  8
0
100
AcDbLine
 62
7
  6
BYLAYER
 10
26936.2655162338
 20
35428.469110309
 11
26936.5175065733
 21
35428.444564712
  0
LINE
  5
39F
100
AcDbEntity
  8
0
100
AcDbLine
 62
7
  6
BYLAYER
 10
26939.2661816594
 20
35428.3893229705
 11
26939.0141913199
 21
35428.4138685674
  0
LINE
  5
3A0
100
AcDbEntity
  8
0
100
AcDbLine
 62
7
  6
BYLAYER
 10
26104.7206741961
 20
35329.0875806652
 11
27447.4463069625
 21
35154.630643898
  0
LINE
  5
3A1
100
AcDbEntity
  8
0
100
AcDbLine
 62
7
  6
BYLAYER
 10
27453.625123637
 20
35154.630643898
 11
26110.8994908706
 21
35329.0875806652
  0
LINE
  5
3A2
100
AcDbEntity
  8
0
100
AcDbLine
 62
7
  6
BYLAYER
 10
26126.596578107
 20
35329.0875806652
 11
27469.3222108735
 21
35154.630643898
  0
LINE
  5
3A3
100
AcDbEntity
  8
0
100
AcDbLine
 62
7
  6
BYLAYER
 10
27475.5010275479
 20
35154.630643898
 11
26132.7753947815
 21
35329.0875806652
  0
LINE
  5
3A4
100
AcDbEntity
  8
0
100
AcDbLine
 62
7
  6
BYLAYER
 10
26268.1685600425
 20
35329.0875806652
 11
27346.7151684753
 21
35154.630643898
  0
LINE
  5
3A5
100
AcDbEntity
  8
0
100
AcDbLine
 62
7
  6
BYLAYER
 10
27351.6783132949
 20
35154.630643898
 11
26273.1317048621
 21
35329.0875806652
  0
LINE
  5
3A6
100
AcDbEntity
  8
0
100
AcDbLine
 62
7
  6
BYLAYER
 10
26348.2146898287
 20
35329.0875806652
 11
27297.3836170569
 21
35154.630643898
  0
LINE
  5
3A7
100
AcDbEntity
  8
0
100
AcDbLine
 62
7
  6
BYLAYER
 10
27301.7514049738
 20
35154.630643898
 11
26352.5824777456
 21
35329.0875806652
  0
LINE
  5
3A8
100
AcDbEntity
  8
0
100
AcDbLine
 62
7
  6
BYLAYER
 10
26370.1514691553
 20
35329.0875806652
 11
27319.2220041171
 21
35154.630643898
  0
LINE
  5
3A9
100
AcDbEntity
  8
0
100
AcDbLine
 62
7
  6
BYLAYER
 10
27323.5893392626
 20
35154.630643898
 11
26374.5188043008
 21
35329.0875806652
  0
LINE
  5
3AA
100
AcDbEntity
  8
0
100
AcDbLine
 62
7
  6
BYLAYER
 10
26462.9619187553
 20
35329.0875806652
 11
27262.023942464
 21
35154.630643898
  0
LINE
  5
3AB
100
AcDbEntity
  8
0
100
AcDbLine
 62
7
  6
BYLAYER
 10
27265.7009838756
 20
35154.630643898
 11
26466.6389601669
 21
35329.0875806652
  0
LINE
  5
3AC
100
AcDbEntity
  8
0
100
AcDbLine
 62
7
  6
BYLAYER
 10
26925.3817551433
 20
35329.0875806652
 11
26992.3494988307
 21
35154.630643898
  0
LINE
  5
3AD
100
AcDbEntity
  8
0
100
AcDbLine
 62
7
  6
BYLAYER
 10
26946.4046193319
 20
35154.630643898
 11
26884.3389237049
 21
35362.6166901411
  0
LINE
  5
3AE
100
AcDbEntity
  8
0
100
AcDbLine
 62
7
  6
BYLAYER
 10
26946.4046193319
 20
35166.820396432
 11
26893.297062697
 21
35374.8064426751
  0
LINE
  5
3AF
100
AcDbEntity
  8
0
100
AcDbLine
 62
7
  6
BYLAYER
 10
26946.405532238
 20
35154.630643898
 11
26911.0413603912
 21
35329.0875806652
  0
LINE
  5
3B0
100
AcDbEntity
  8
0
100
AcDbLine
 62
7
  6
BYLAYER
 10
26968.2814361489
 20
35154.630643898
 11
26932.9172643021
 21
35329.0875806652
  0
LINE
  5
3B1
100
AcDbEntity
  8
0
100
AcDbLine
 62
7
  6
BYLAYER
 10
26945.7696193319
 20
35214.0058430545
 11
26945.3886193319
 21
35214.1348710936
  0
LINE
  5
3B2
100
AcDbEntity
  8
0
100
AcDbLine
 62
7
  6
BYLAYER
 10
26947.0396193319
 20
35215.5875334062
 11
26947.4206193319
 21
35215.4585053671
  0
LINE
  5
3B3
100
AcDbEntity
  8
0
100
AcDbLine
 62
7
  6
BYLAYER
 10
26963.8036193319
 20
35207.9297891814
 11
26963.0162193319
 21
35208.2559409404
  0
LINE
  5
3B4
100
AcDbEntity
  8
0
100
AcDbLine
 62
7
  6
BYLAYER
 10
26929.0056193319
 20
35222.3435927249
 11
26929.7930193319
 21
35222.0174409659
  0
LINE
  5
3B5
100
AcDbEntity
  8
0
100
AcDbLine
 62
7
  6
BYLAYER
 10
26703.6684036489
 20
35329.0875806652
 11
27113.6791771645
 21
35154.630643898
  0
LINE
  5
3B6
100
AcDbEntity
  8
0
100
AcDbLine
 62
7
  6
BYLAYER
 10
27115.5659225593
 20
35154.630643898
 11
26705.5551490437
 21
35329.0875806652
  0
LINE
  5
3B7
100
AcDbEntity
  8
0
100
AcDbLine
 62
7
  6
BYLAYER
 10
26721.4978041428
 20
35329.0875806652
 11
27102.6911132872
 21
35154.630643898
  0
LINE
  5
3B8
100
AcDbEntity
  8
0
100
AcDbLine
 62
7
  6
BYLAYER
 10
27104.4452494393
 20
35154.630643898
 11
26723.2519402948
 21
35329.0875806652
  0
LINE
  5
3B9
100
AcDbEntity
  8
0
100
AcDbLine
 62
7
  6
BYLAYER
 10
26949.6469593736
 20
35218.8827260123
 11
26950.2298668589
 21
35218.605790918
  0
LINE
  5
3BA
100
AcDbEntity
  8
0
100
AcDbLine
 62
7
  6
BYLAYER
 10
26743.4273717406
 20
35329.0875806652
 11
27053.8183779753
 21
35154.630643898
  0
LINE
  5
3BB
100
AcDbEntity
  8
0
100
AcDbLine
 62
7
  6
BYLAYER
 10
27055.2467033741
 20
35154.630643898
 11
26744.8556971394
 21
35329.0875806652
  0
LINE
  5
3BC
100
AcDbEntity
  8
0
100
AcDbLine
 62
7
  6
BYLAYER
 10
26943.1644062871
 20
35211.3882444894
 11
26942.4708114653
 21
35211.7905621992
  0
LINE
  5
3BD
100
AcDbEntity
  8
0
100
AcDbLine
 62
7
  6
BYLAYER
 10
26757.4539437773
 20
35329.0875806652
 11
27045.1739555466
 21
35154.630643898
  0
LINE
  5
3BE
100
AcDbEntity
  8
0
100
AcDbLine
 62
7
  6
BYLAYER
 10
27046.4979558956
 20
35154.630643898
 11
26758.7779441262
 21
35329.0875806652
  0
LINE
  5
3BF
100
AcDbEntity
  8
0
100
AcDbLine
 62
7
  6
BYLAYER
 10
27021.7535506402
 20
35154.630643898
 11
26750.0529696992
 21
35329.0875806652
  0
LINE
  5
3C0
100
AcDbEntity
  8
0
100
AcDbLine
 62
7
  6
BYLAYER
 10
26784.6223696992
 20
35329.0875806652
 11
27056.3229506402
 21
35154.630643898
  0
LINE
  5
3C1
100
AcDbEntity
  8
0
100
AcDbLine
 62
7
  6
BYLAYER
 10
26949.5458161533
 20
35219.1453300882
 11
26949.9912059
 21
35218.8479238126
  0
LINE
  5
3C2
100
AcDbEntity
  8
0
100
AcDbLine
 62
7
  6
BYLAYER
 10
26943.2657995146
 20
35211.1257172872
 11
26942.6981520671
 21
35211.5445864124
  0
LINE
  5
3C3
100
AcDbEntity
  8
0
100
AcDbLine
 62
7
  6
BYLAYER
 10
26975.7194663871
 20
35154.630643898
 11
26801.2625296198
 21
35329.0875806652
  0
LINE
  5
3C4
100
AcDbEntity
  8
0
100
AcDbLine
 62
7
  6
BYLAYER
 10
26939.171414999
 20
35197.6741909531
 11
26928.9421193319
 21
35207.9034866202
  0
LINE
  5
3C5
100
AcDbEntity
  8
0
100
AcDbLine
 62
7
  6
BYLAYER
 10
26939.5238693192
 20
35198.5250909531
 11
26929.7930193319
 21
35208.2559409404
  0
LINE
  5
3C6
100
AcDbEntity
  8
0
100
AcDbLine
 62
7
  6
BYLAYER
 10
26938.0099193319
 20
35210.3106909531
 11
26937.6289193319
 21
35210.6916909532
  0
LINE
  5
3C7
100
AcDbEntity
  8
0
100
AcDbLine
 62
7
  6
BYLAYER
 10
26993.6899663871
 20
35154.630643898
 11
26819.2330296198
 21
35329.0875806652
  0
LINE
  5
3C8
100
AcDbEntity
  8
0
100
AcDbLine
 62
7
  6
BYLAYER
 10
26854.2723296198
 20
35329.0875806652
 11
26966.0642193319
 21
35217.2956909531
  0
LINE
  5
3C9
100
AcDbEntity
  8
0
100
AcDbLine
 62
7
  6
BYLAYER
 10
26966.664430793
 20
35216.6954794921
 11
27028.7292663871
 21
35154.630643898
  0
LINE
  5
3CA
100
AcDbEntity
  8
0
100
AcDbLine
 62
7
  6
BYLAYER
 10
26966.0642193319
 20
35217.2956909531
 11
26966.664430793
 21
35216.6954794921
  0
LINE
  5
3CB
100
AcDbEntity
  8
0
100
AcDbLine
 62
7
  6
BYLAYER
 10
26963.0162193319
 20
35222.0174409659
 11
26953.2853693446
 21
35231.7482909532
  0
LINE
  5
3CC
100
AcDbEntity
  8
0
100
AcDbLine
 62
7
  6
BYLAYER
 10
26963.8036193319
 20
35222.3435927249
 11
26953.6115211036
 21
35232.5356909531
  0
LINE
  5
3CD
100
AcDbEntity
  8
0
100
AcDbLine
 62
7
  6
BYLAYER
 10
26854.2812598973
 20
35329.0875806652
 11
27001.2243106275
 21
35154.630643898
  0
LINE
  5
3CE
100
AcDbEntity
  8
0
100
AcDbLine
 62
7
  6
BYLAYER
 10
26841.5691482746
 20
35329.0875806652
 11
26971.8923699477
 21
35154.630643898
  0
LINE
  5
3CF
100
AcDbEntity
  8
0
100
AcDbLine
 62
7
  6
BYLAYER
 10
26933.6014027351
 20
35220.4018672932
 11
26933.9108330414
 21
35219.8659182811
  0
LINE
  5
3D0
100
AcDbEntity
  8
0
100
AcDbLine
 62
7
  6
BYLAYER
 10
26971.5744362672
 20
35154.630643898
 11
26870.8516768626
 21
35329.0875806652
  0
LINE
  5
3D1
100
AcDbEntity
  8
0
100
AcDbLine
 62
7
  6
BYLAYER
 10
26993.4503401781
 20
35154.630643898
 11
26892.7275807736
 21
35329.0875806652
  0
LINE
  5
3D2
100
AcDbEntity
  8
0
100
AcDbLine
 62
7
  6
BYLAYER
 10
26946.4046193319
 20
35188.0883589933
 11
26832.7813244165
 21
35396.0744052365
  0
LINE
  5
3D3
100
AcDbEntity
  8
0
100
AcDbLine
 62
7
  6
BYLAYER
 10
26946.4046193319
 20
35170.5443804463
 11
26858.4695293881
 21
35378.5304266894
  0
LINE
  5
3D4
100
AcDbEntity
  8
0
100
AcDbLine
 62
7
  6
BYLAYER
 10
26939.1977175602
 20
35232.5356909531
 11
26939.5238693192
 21
35231.7482909532
  0
LINE
  5
3D5
100
AcDbEntity
  8
0
100
AcDbLine
 62
7
  6
BYLAYER
 10
26953.6115211036
 20
35197.7376909532
 11
26953.2853693446
 21
35198.5250909531
  0
ARC
  5
3D6
100
AcDbEntity
  8
0
100
AcDbCircle
 62
7
  6
BYLAYER
 10
26946.4046193319
 20
35215.1366909531
 40
28941.0403592915
100
AcDbArc
 50
219.4591911464
 51
237.1751478106
  0
ARC
  5
3D7
100
AcDbEntity
  8
0
100
AcDbCircle
 62
7
  6
BYLAYER
 10
26946.4046193319
 20
35215.1366909531
 40
10916.1879718415
100
AcDbArc
 50
39.4591911464
 51
57.1751478106
  0
CIRCLE
  5
3D8
100
AcDbEntity
  8
0
100
AcDbCircle
 62
7
  6
BYLAYER
 10
26946.4046193319
 20
35215.1366909531
 40
287.670875
  0
CIRCLE
  5
3D9
100
AcDbEntity
  8
0
100
AcDbCircle
 62
7
  6
BYLAYER
 10
26946.4046193319
 20
35215.1366909531
 40
275.326475
  0
ARC
  5
3DA
100
AcDbEntity
  8
0
100
AcDbCircle
 62
7
  6
BYLAYER
 10
26668.990279547
 20
35215.1359683359
 40
274.3048353735
100
AcDbArc
 50
359.1623237521
 51
0.8379737742
  0
ARC
  5
3DB
100
AcDbEntity
  8
0
100
AcDbCircle
 62
7
  6
BYLAYER
 10
26946.4046193319
 20
35215.1366909531
 40
266.855575
100
AcDbArc
 50
219.4591911464
 51
237.1751478106
  0
ARC
  5
3DC
100
AcDbEntity
  8
0
100
AcDbCircle
 62
7
  6
BYLAYER
 10
26946.4046193319
 20
35215.1366909531
 40
264.271125
100
AcDbArc
 50
219.4591911464
 51
237.1751478106
  0
CIRCLE
  5
3DD
100
AcDbEntity
  8
0
100
AcDbCircle
 62
7
  6
BYLAYER
 10
26946.4046193319
 20
35215.1366909531
 40
263.578975
  0
ARC
  5
3DE
100
AcDbEntity
  8
0
100
AcDbCircle
 62
7
  6
BYLAYER
 10
26946.4046193319
 20
35215.1366909531
 40
262.677275
100
AcDbArc
 50
219.4591911464
 51
237.1751478106
  0
ARC
  5
3DF
100
AcDbEntity
  8
0
100
AcDbCircle
 62
7
  6
BYLAYER
 10
26946.4046193319
 20
35215.1366909531
 40
258.676775
100
AcDbArc
 50
219.4591911464
 51
237.1751478106
  0
ARC
  5
3E0
100
AcDbEntity
  8
0
100
AcDbCircle
 62
7
  6
BYLAYER
 10
26953.0086193319
 20
35223.7726909531
 40
256.1985109878
100
AcDbArc
 50
220.7970003435
 51
237.5738476568
  0
CIRCLE
  5
3E1
100
AcDbEntity
  8
0
100
AcDbCircle
 62
7
  6
BYLAYER
 10
26939.8006193319
 20
35223.7726909531
 40
256.1985109878
  0
CIRCLE
  5
3E2
100
AcDbEntity
  8
0
100
AcDbCircle
 62
7
  6
BYLAYER
 10
26939.8006193319
 20
35206.5006909532
 40
256.1985109878
  0
ARC
  5
3E3
100
AcDbEntity
  8
0
100
AcDbCircle
 62
7
  6
BYLAYER
 10
26953.0086193319
 20
35206.5006909532
 40
256.1985109878
100
AcDbArc
 50
212.9223617637
 51
241.3763094184
  0
ARC
  5
3E4
100
AcDbEntity
  8
0
100
AcDbCircle
 62
7
  6
BYLAYER
 10
27205.322811846
 20
35215.1197029404
 40
255.8086726868
100
AcDbArc
 50
179.0983066997
 51
180.8941943838
  0
ARC
  5
3E5
100
AcDbEntity
  8
0
100
AcDbCircle
 62
7
  6
BYLAYER
 10
26946.4046193319
 20
35215.1366909531
 40
254.600075
100
AcDbArc
 50
219.4591911464
 51
237.1751478106
  0
CIRCLE
  5
3E6
100
AcDbEntity
  8
0
100
AcDbCircle
 62
7
  6
BYLAYER
 10
26954.0500193319
 20
35215.1366909531
 40
120.0807997862
  0
CIRCLE
  5
3E7
100
AcDbEntity
  8
0
100
AcDbCircle
 62
7
  6
BYLAYER
 10
26946.4046193319
 20
35207.4912909531
 40
120.0807997862
  0
CIRCLE
  5
3E8
100
AcDbEntity
  8
0
100
AcDbCircle
 62
7
  6
BYLAYER
 10
26938.7592193319
 20
35215.1366909531
 40
120.0807997862
  0
CIRCLE
  5
3E9
100
AcDbEntity
  8
0
100
AcDbCircle
 62
7
  6
BYLAYER
 10
26946.4046193319
 20
35222.7820909532
 40
120.0807997862
  0
CIRCLE
  5
3EA
100
AcDbEntity
  8
0
100
AcDbCircle
 62
7
  6
BYLAYER
 10
26946.4046193319
 20
35215.1366909531
 40
113.6232949154
  0
ARC
  5
3EB
100
AcDbEntity
  8
0
100
AcDbCircle
 62
7
  6
BYLAYER
 10
26946.4046193319
 20
35215.1366909531
 40
93.2286871519
100
AcDbArc
 50
39.4591911464
 51
57.1751478106
  0
ARC
  5
3EC
100
AcDbEntity
  8
0
100
AcDbCircle
 62
7
  6
BYLAYER
 10
26946.4046193319
 20
35215.1366909531
 40
89.1519871519
100
AcDbArc
 50
39.4591911464
 51
57.1751478106
  0
ARC
  5
3ED
100
AcDbEntity
  8
0
100
AcDbCircle
 62
7
  6
BYLAYER
 10
26946.4046193319
 20
35215.1366909531
 40
85.1514871519
100
AcDbArc
 50
39.4591911464
 51
57.1751478106
  0
CIRCLE
  5
3EE
100
AcDbEntity
  8
0
100
AcDbCircle
 62
7
  6
BYLAYER
 10
26946.4046193319
 20
35215.1366909531
 40
84.2497871519
  0
ARC
  5
3EF
100
AcDbEntity
  8
0
100
AcDbCircle
 62
7
  6
BYLAYER
 10
26946.4046193319
 20
35215.1366909531
 40
83.5576371519
100
AcDbArc
 50
39.4591911464
 51
57.1751478106
  0
ARC
  5
3F0
100
AcDbEntity
  8
0
100
AcDbCircle
 62
7
  6
BYLAYER
 10
26946.4046193319
 20
35215.1366909531
 40
80.9731871519
100
AcDbArc
 50
39.4591911464
 51
57.1751478106
  0
CIRCLE
  5
3F1
100
AcDbEntity
  8
0
100
AcDbCircle
 62
7
  6
BYLAYER
 10
26946.4046193319
 20
35215.1366909531
 40
74.7856775925
  0
CIRCLE
  5
3F2
100
AcDbEntity
  8
0
100
AcDbCircle
 62
7
  6
BYLAYER
 10
26946.4046193319
 20
35215.1366909531
 40
72.5022871519
  0
ARC
  5
3F3
100
AcDbEntity
  8
0
100
AcDbCircle
 62
7
  6
BYLAYER
 10
26953.0086193319
 20
35223.7726909531
 40
68.1570571114
100
AcDbArc
 50
40.7970003435
 51
57.5738476568
  0
CIRCLE
  5
3F4
100
AcDbEntity
  8
0
100
AcDbCircle
 62
7
  6
BYLAYER
 10
26939.8006193319
 20
35223.7726909531
 40
68.1570571114
  0
CIRCLE
  5
3F5
100
AcDbEntity
  8
0
100
AcDbCircle
 62
7
  6
BYLAYER
 10
26939.8006193319
 20
35206.5006909532
 40
68.1570571114
  0
ARC
  5
3F6
100
AcDbEntity
  8
0
100
AcDbCircle
 62
7
  6
BYLAYER
 10
26953.0086193319
 20
35206.5006909532
 40
68.1570571114
100
AcDbArc
 50
32.9223617637
 51
61.3763094184
  0
CIRCLE
  5
3F7
100
AcDbEntity
  8
0
100
AcDbCircle
 62
7
  6
BYLAYER
 10
26946.4046193319
 20
35215.1366909531
 40
60.1578871519
  0
CIRCLE
  5
3F8
100
AcDbEntity
  8
0
100
AcDbCircle
 62
7
  6
BYLAYER
 10
26946.4046193319
 20
35215.1366909531
 40
20.3490983128
  0
CIRCLE
  5
3F9
100
AcDbEntity
  8
0
100
AcDbCircle
 62
7
  6
BYLAYER
 10
26946.4046193319
 20
35215.1366909531
 40
17.4625
  0
CIRCLE
  5
3FA
100
AcDbEntity
  8
0
100
AcDbCircle
 62
7
  6
BYLAYER
 10
26946.4046193319
 20
35215.1366909531
 40
15.4178
  0
CIRCLE
  5
3FB
100
AcDbEntity
  8
0
100
AcDbCircle
 62
7
  6
BYLAYER
 10
26946.4046193319
 20
35215.1366909531
 40
14.0208
  0
CIRCLE
  5
3FC
100
AcDbEntity
  8
0
100
AcDbCircle
 62
7
  6
BYLAYER
 10
26946.4046193319
 20
35215.1366909531
 40
13.2715
  0
CIRCLE
  5
3FD
100
AcDbEntity
  8
0
100
AcDbCircle
 62
7
  6
BYLAYER
 10
26946.4046193319
 20
35215.1366909531
 40
12.5550266116
  0
CIRCLE
  5
3FE
100
AcDbEntity
  8
0
100
AcDbCircle
 62
7
  6
BYLAYER
 10
26946.4046193319
 20
35215.1366909531
 40
11.557
  0
CIRCLE
  5
3FF
100
AcDbEntity
  8
0
100
AcDbCircle
 62
7
  6
BYLAYER
 10
26946.4046193319
 20
35215.1366909531
 40
10.795
  0
CIRCLE
  5
400
100
AcDbEntity
  8
0
100
AcDbCircle
 62
7
  6
BYLAYER
 10
26946.4046193319
 20
35215.1366909531
 40
10.1346
  0
CIRCLE
  5
401
100
AcDbEntity
  8
0
100
AcDbCircle
 62
7
  6
BYLAYER
 10
26946.4046193319
 20
35215.1366909531
 40
8.36295
  0
CIRCLE
  5
402
100
AcDbEntity
  8
0
100
AcDbCircle
 62
7
  6
BYLAYER
 10
26946.4046193319
 20
35215.1366909531
 40
7.6708
  0
CIRCLE
  5
403
100
AcDbEntity
  8
0
100
AcDbCircle
 62
7
  6
BYLAYER
 10
26946.4046193319
 20
35215.1366909531
 40
6.731
  0
CIRCLE
  5
404
100
AcDbEntity
  8
0
100
AcDbCircle
 62
7
  6
BYLAYER
 10
26946.4046193319
 20
35215.1366909531
 40
5.159375
  0
CIRCLE
  5
405
100
AcDbEntity
  8
0
100
AcDbCircle
 62
7
  6
BYLAYER
 10
26937.4153829547
 20
35224.1259273303
 40
4.5212
  0
CIRCLE
  5
406
100
AcDbEntity
  8
0
100
AcDbCircle
 62
7
  6
BYLAYER
 10
26955.3938557091
 20
35224.1259273303
 40
4.5212
  0
CIRCLE
  5
407
100
AcDbEntity
  8
0
100
AcDbCircle
 62
7
  6
BYLAYER
 10
26955.3938557091
 20
35206.147454576
 40
4.5212
  0
CIRCLE
  5
408
100
AcDbEntity
  8
0
100
AcDbCircle
 62
7
  6
BYLAYER
 10
26937.4153829547
 20
35206.147454576
 40
4.5212
  0
CIRCLE
  5
409
100
AcDbEntity
  8
0
100
AcDbCircle
 62
7
  6
BYLAYER
 10
26946.4046193319
 20
35214.4175616194
 40
4.4402456663
  0
CIRCLE
  5
40A
100
AcDbEntity
  8
0
100
AcDbCircle
 62
7
  6
BYLAYER
 10
26946.4046193319
 20
35215.8558202869
 40
4.4402456663
  0
CIRCLE
  5
40B
100
AcDbEntity
  8
0
100
AcDbCircle
 62
7
  6
BYLAYER
 10
26946.4046193319
 20
35208.7866909532
 40
3.175
  0
CIRCLE
  5
40C
100
AcDbEntity
  8
0
100
AcDbCircle
 62
7
  6
BYLAYER
 10
26946.4046193319
 20
35221.4866909531
 40
3.175
  0
CIRCLE
  5
40D
100
AcDbEntity
  8
0
100
AcDbCircle
 62
7
  6
BYLAYER
 10
26934.7333193319
 20
35223.9165987721
 40
3.048
  0
CIRCLE
  5
40E
100
AcDbEntity
  8
0
100
AcDbCircle
 62
7
  6
BYLAYER
 10
26934.7333193319
 20
35206.3567831342
 40
3.048
  0
CIRCLE
  5
40F
100
AcDbEntity
  8
0
100
AcDbCircle
 62
7
  6
BYLAYER
 10
26958.0759193319
 20
35206.3567831342
 40
3.048
  0
CIRCLE
  5
410
100
AcDbEntity
  8
0
100
AcDbCircle
 62
7
  6
BYLAYER
 10
26958.0759193319
 20
35223.9165987721
 40
3.048
  0
CIRCLE
  5
411
100
AcDbEntity
  8
0
100
AcDbCircle
 62
7
  6
BYLAYER
 10
26947.0142193319
 20
35212.6177501204
 40
2.54
  0
CIRCLE
  5
412
100
AcDbEntity
  8
0
100
AcDbCircle
 62
7
  6
BYLAYER
 10
26945.7950193319
 20
35217.655631786
 40
2.54
  0
CIRCLE
  5
413
100
AcDbEntity
  8
0
100
AcDbCircle
 62
7
  6
BYLAYER
 10
26940.7150193319
 20
35222.0249073037
 40
2.54
  0
CIRCLE
  5
414
100
AcDbEntity
  8
0
100
AcDbCircle
 62
7
  6
BYLAYER
 10
26940.7150193319
 20
35208.2484746026
 40
2.54
  0
CIRCLE
  5
415
100
AcDbEntity
  8
0
100
AcDbCircle
 62
7
  6
BYLAYER
 10
26945.7950193319
 20
35212.6177501204
 40
2.54
  0
CIRCLE
  5
416
100
AcDbEntity
  8
0
100
AcDbCircle
 62
7
  6
BYLAYER
 10
26952.0942193319
 20
35222.0249073037
 40
2.54
  0
CIRCLE
  5
417
100
AcDbEntity
  8
0
100
AcDbCircle
 62
7
  6
BYLAYER
 10
26952.0942193319
 20
35208.2484746026
 40
2.54
  0
CIRCLE
  5
418
100
AcDbEntity
  8
0
100
AcDbCircle
 62
7
  6
BYLAYER
 10
26947.0142193319
 20
35217.655631786
 40
2.54
  0
CIRCLE
  5
419
100
AcDbEntity
  8
0
100
AcDbCircle
 62
7
  6
BYLAYER
 10
26951.9608693319
 20
35201.6429409531
 40
2.38125
  0
CIRCLE
  5
41A
100
AcDbEntity
  8
0
100
AcDbCircle
 62
7
  6
BYLAYER
 10
26940.8483693319
 20
35201.6429409531
 40
2.38125
  0
CIRCLE
  5
41B
100
AcDbEntity
  8
0
100
AcDbCircle
 62
7
  6
BYLAYER
 10
26940.8483693319
 20
35228.6304409532
 40
2.38125
  0
CIRCLE
  5
41C
100
AcDbEntity
  8
0
100
AcDbCircle
 62
7
  6
BYLAYER
 10
26951.9608693319
 20
35228.6304409532
 40
2.38125
  0
CIRCLE
  5
41D
100
AcDbEntity
  8
0
100
AcDbCircle
 62
7
  6
BYLAYER
 10
26946.4046193319
 20
35215.1366909531
 40
2.1788625726
  0
CIRCLE
  5
41E
100
AcDbEntity
  8
0
100
AcDbCircle
 62
7
  6
BYLAYER
 10
26939.3053193319
 20
35205.2248392841
 40
1.524
  0
CIRCLE
  5
41F
100
AcDbEntity
  8
0
100
AcDbCircle
 62
7
  6
BYLAYER
 10
26953.5039193319
 20
35205.2248392841
 40
1.524
  0
CIRCLE
  5
420
100
AcDbEntity
  8
0
100
AcDbCircle
 62
7
  6
BYLAYER
 10
26953.5039193319
 20
35225.0485426222
 40
1.524
  0
CIRCLE
  5
421
100
AcDbEntity
  8
0
100
AcDbCircle
 62
7
  6
BYLAYER
 10
26939.3053193319
 20
35225.0485426222
 40
1.524
  0
CIRCLE
  5
422
100
AcDbEntity
  8
0
100
AcDbCircle
 62
7
  6
BYLAYER
 10
26940.8863716976
 20
35219.1765152252
 40
1.524
  0
CIRCLE
  5
423
100
AcDbEntity
  8
0
100
AcDbCircle
 62
7
  6
BYLAYER
 10
26942.3647950599
 20
35220.6549385875
 40
1.524
  0
CIRCLE
  5
424
100
AcDbEntity
  8
0
100
AcDbCircle
 62
7
  6
BYLAYER
 10
26950.4444436039
 20
35220.6549385875
 40
1.524
  0
CIRCLE
  5
425
100
AcDbEntity
  8
0
100
AcDbCircle
 62
7
  6
BYLAYER
 10
26951.9228669663
 20
35219.1765152252
 40
1.524
  0
CIRCLE
  5
426
100
AcDbEntity
  8
0
100
AcDbCircle
 62
7
  6
BYLAYER
 10
26951.9228669663
 20
35211.0968666811
 40
1.524
  0
CIRCLE
  5
427
100
AcDbEntity
  8
0
100
AcDbCircle
 62
7
  6
BYLAYER
 10
26950.4444436039
 20
35209.6184433188
 40
1.524
  0
CIRCLE
  5
428
100
AcDbEntity
  8
0
100
AcDbCircle
 62
7
  6
BYLAYER
 10
26942.3647950599
 20
35209.6184433188
 40
1.524
  0
CIRCLE
  5
429
100
AcDbEntity
  8
0
100
AcDbCircle
 62
7
  6
BYLAYER
 10
26940.8863716976
 20
35211.0968666811
 40
1.524
  0
ENDSEC
  0
SECTION
  2
OBJECTS
  0
DICTIONARY
  5
C
100
AcDbDictionary
280
0
281
1
  3
ACAD_GROUP
350
D
  3
ACAD_MLINESTYLE
350
17
  3
ACAD_LAYOUT
350
1A
  3
ACAD_PLOTSETTINGS
350
19
  3
ACAD_PLOTSTYLENAME
350
E
  0
DICTIONARY
  5
D
102
{ACAD_REACTORS
330
C
102
}
100
AcDbDictionary
280
0
281
1
  0
ACDBDICTIONARYWDFLT
  5
E
102
{ACAD_REACTORS
330
C
102
}
100
AcDbDictionary
281
1
  3
Normal
350
F
100
AcDbDictionaryWithDefault
340
F
  0
DICTIONARY
  5
17
102
{ACAD_REACTORS
330
C
102
}
100
AcDbDictionary
280
0
281
1
  3
Standard
350
18
  0
DICTIONARY
  5
19
102
{ACAD_REACTORS
330
C
102
}
100
AcDbDictionary
281
1
  0
DICTIONARY
  5
1A
102
{ACAD_REACTORS
330
C
102
}
100
AcDbDictionary
281
1
  3
Model
350
42A
  3
Layout1
350
42B
  0
ACDBPLACEHOLDER
  5
F
102
{ACAD_REACTORS
330
E
102
}
  0
MLINESTYLE
  5
18
102
{ACAD_REACTORS
330
17
102
}
100
AcDbMlineStyle
  2
STANDARD
 70
0
  3

 62
256
 51
90.0
 52
90.0
 71
2
 49
0.5
 62
256
  6
BYLAYER
 49
-0.5
 62
256
  6
BYLAYER
  0
LAYOUT
  5
42A
102
{ACAD_REACTORS
330
1A
102
}
100
AcDbPlotSettings
  1

  2
none_device
  4

  6

 40
0.0
 41
0.0
 42
0.0
 43
0.0
 44
210.0
 45
297.0
 46
0.0
 47
0.0
 48
0.0
 49
0.0
140
0.0
141
0.0
142
1.0
143
1.0
 70
1024
 72
1
 73
0
 74
0
  7

 75
0
147
1.0
148
0.0
149
0.0
100
AcDbLayout
  1
Model
 70
0
 71
0
 10
0.0
 20
0.0
 11
210.0
 21
297.0
 12
0.0
 22
0.0
 32
0.0
 14
0.0
 24
0.0
 34
0.0
 15
0.0
 25
0.0
 35
0.0
146
0.0
 13
0.0
 23
0.0
 33
0.0
 16
1.0
 26
0.0
 36
0.0
 17
0.0
 27
1.0
 37
0.0
 76
0
330
210
345
0
346
0
  0
LAYOUT
  5
42B
102
{ACAD_REACTORS
330
1A
102
}
100
AcDbPlotSettings
  1

  2
none_device
  4

  6

 40
0.0
 41
0.0
 42
0.0
 43
0.0
 44
210.0
 45
297.0
 46
0.0
 47
0.0
 48
0.0
 49
0.0
140
0.0
141
0.0
142
1.0
143
1.0
 70
0
 72
1
 73
0
 74
0
  7

 75
0
147
1.0
148
0.0
149
0.0
100
AcDbLayout
  1
Layout1
 70
0
 71
1
 10
0.0
 20
0.0
 11
210.0
 21
297.0
 12
0.0
 22
0.0
 32
0.0
 14
0.0
 24
0.0
 34
0.0
 15
0.0
 25
0.0
 35
0.0
146
0.0
 13
0.0
 23
0.0
 33
0.0
 16
1.0
 26
0.0
 36
0.0
 17
0.0
 27
1.0
 37
0.0
 76
0
330
211
345
0
346
0
  0
ENDSEC
  0
EOF
