999
DXF file: C:\Users\sesa63760\Dev\_Creo\CAD\MCADID0002333_3D-CAD\drw0001_4.dxf
999
Pro/ENGINEER 2019471 by Parametric Technology Corporation
  0
SECTION
  2
HEADER
  9
$ACADVER
  1
AC1024
  9
$DWGCODEPAGE
  3
ANSI_1252
  9
$EXTMAX
 10
89.6394984326
 20
126.775862069
 30
0.0
  9
$EXTMIN
 10
0.0
 20
0.0
 30
0.0
  9
$LIMMIN
 10
0.0
 20
0.0
  9
$LIMMAX
 10
89.6394984326
 20
126.775862069
  9
$VIEWCTR
 10
44.8197492163
 20
63.3879310345
  9
$VIEWSIZE
 40
126.775862069
  9
$CLAYER
  8
0
  9
$LTSCALE
 40
8.263908046
  9
$CELTYPE
  6
BYLAYER
  9
$DIMSCALE
 40
1.0
  9
$DIMASZ
 40
1.0671368861
  9
$DIMEXO
 40
1.0
  9
$DIMDLI
 40
5.7096091954
  9
$DIMEXE
 40
1.0
  9
$DIMCEN
 40
1.3522758621
  9
$DIMLFAC
 40
1.0
  9
$DIMBLK
  1
_FILLED
  9
$DIMALT
 70
0
  9
$DIMALTF
 40
0.0393700787
  9
$DIMTXT
 40
1.4939916405
  9
$DIMTOL
 70
1
  9
$DIMLIM
 70
0
  9
$DIMTFAC
 40
1.0
  9
$DIMTP
 40
0.01
  9
$DIMTM
 40
0.01
  9
$DIMGAP
 40
0.625
  9
$DIMDSEP
 70
46
  9
$AUNITS
 70
0
  9
$PDMODE
 70
3
  9
$PDSIZE
 40
0.3125
  9
$HANDSEED
  5
4C2
  9
$TILEMODE
 70
1
  9
$MEASUREMENT
 70
1
  9
$INSUNITS
 70
4
  0
ENDSEC
  0
SECTION
  2
CLASSES
  0
CLASS
  1
ACDBDICTIONARYWDFLT
  2
AcDbDictionaryWithDefault
  3
AutoCAD 2000
 90
0
 91
1
280
0
281
0
  0
CLASS
  1
ACDBPLACEHOLDER
  2
AcDbPlaceHolder
  3
AutoCAD 2000
 90
0
 91
1
280
0
281
0
  0
CLASS
  1
LAYOUT
  2
AcDbLayout
  3
AutoCAD 2000
 90
0
 91
0
280
0
281
0
  0
ENDSEC
  0
SECTION
  2
TABLES
  0
TABLE
  2
VPORT
  5
8
100
AcDbSymbolTable
 70
2
  0
VPORT
  5
1F4
100
AcDbSymbolTableRecord
100
AcDbViewportTableRecord
  2
*ACTIVE
 70
0
 10
0.0
 20
0.0
 11
1.0
 21
1.0
 12
44.8197492163
 22
63.3879310345
 13
0.0
 23
0.0
 14
1.0
 24
1.0
 15
0.0
 25
0.0
 16
0.0
 26
0.0
 36
1.0
 17
0.0
 27
0.0
 37
0.0
 40
126.775862069
 41
0.7070707071
 42
50.0
 43
0.0
 44
0.0
 50
0.0
 51
0.0
 71
0
 72
100
 73
1
 74
1
 75
0
 76
0
 77
0
 78
0
  0
ENDTAB
  0
TABLE
  2
LTYPE
  5
5
100
AcDbSymbolTable
 70
6
  0
LTYPE
  5
14
100
AcDbSymbolTableRecord
100
AcDbLinetypeTableRecord
  2
BYBLOCK
 70
0
  3

 72
65
 73
0
 40
0.0
  0
LTYPE
  5
15
100
AcDbSymbolTableRecord
100
AcDbLinetypeTableRecord
  2
BYLAYER
 70
0
  3

 72
65
 73
0
 40
0.0
  0
LTYPE
  5
16
100
AcDbSymbolTableRecord
100
AcDbLinetypeTableRecord
  2
CONTINUOUS
 70
64
  3
Solid line
 72
65
 73
0
 40
0.0
  0
LTYPE
  5
1F5
100
AcDbSymbolTableRecord
100
AcDbLinetypeTableRecord
  2
CENTER
 70
64
  3
____ _ ____ _ ____ _ ____ _ ____ _ ____ _ ____
 72
65
 73
4
 40
0.6
 49
0.375
 74
0
 49
-0.075
 74
0
 49
0.075
 74
0
 49
-0.075
 74
0
  0
LTYPE
  5
1F6
100
AcDbSymbolTableRecord
100
AcDbLinetypeTableRecord
  2
HIDDEN
 70
64
  3
- - - - - - - - - - - - - - - - - - - -
 72
65
 73
2
 40
0.2
 49
0.1
 74
0
 49
-0.1
 74
0
  0
LTYPE
  5
1F7
100
AcDbSymbolTableRecord
100
AcDbLinetypeTableRecord
  2
PHANTOM
 70
64
  3
_____ _ _ _____ _ _ _____ _ _ _____
 72
65
 73
6
 40
0.8
 49
0.45
 74
0
 49
-0.05
 74
0
 49
0.1
 74
0
 49
-0.05
 74
0
 49
0.1
 74
0
 49
-0.05
 74
0
  0
LTYPE
  5
1F8
100
AcDbSymbolTableRecord
100
AcDbLinetypeTableRecord
  2
DOT
 70
64
  3
. . . . . . . . . . . . . . . . . . . .
 72
65
 73
2
 40
0.2
 49
0.1
 74
0
 49
-0.1
 74
0
  0
LTYPE
  5
1F9
100
AcDbSymbolTableRecord
100
AcDbLinetypeTableRecord
  2
DASHED
 70
64
  3
- - - - - - - - - - - - - - - - - - - -
 72
65
 73
2
 40
0.2
 49
0.1
 74
0
 49
-0.1
 74
0
  0
ENDTAB
  0
TABLE
  2
LAYER
  5
2
100
AcDbSymbolTable
 70
36
  0
LAYER
  5
10
100
AcDbSymbolTableRecord
100
AcDbLayerTableRecord
  2
0
 70
0
 62
7
  6
CONTINUOUS
370
-3
390
F
  0
LAYER
  5
1FA
100
AcDbSymbolTableRecord
100
AcDbLayerTableRecord
  2
DEFAULT_1
 70
0
 62
7
  6
CENTER
370
-3
390
F
  0
LAYER
  5
1FB
100
AcDbSymbolTableRecord
100
AcDbLayerTableRecord
  2
DEFAULT_2
 70
0
 62
8
  6
HIDDEN
370
-3
390
F
  0
LAYER
  5
1FC
100
AcDbSymbolTableRecord
100
AcDbLayerTableRecord
  2
DEFAULT_3
 70
0
 62
7
  6
PHANTOM
370
-3
390
F
  0
LAYER
  5
1FD
100
AcDbSymbolTableRecord
100
AcDbLayerTableRecord
  2
00_COMPONENTS
 70
0
 62
7
  6
CONTINUOUS
370
-3
390
F
  0
LAYER
  5
1FE
100
AcDbSymbolTableRecord
100
AcDbLayerTableRecord
  2
01_1_DEFAULT_DATUMS
 70
0
 62
7
  6
CONTINUOUS
370
-3
390
F
  0
LAYER
  5
1FF
100
AcDbSymbolTableRecord
100
AcDbLayerTableRecord
  2
01_PLANES
 70
0
 62
7
  6
CONTINUOUS
370
-3
390
F
  0
LAYER
  5
200
100
AcDbSymbolTableRecord
100
AcDbLayerTableRecord
  2
02_COORD_SYS
 70
0
 62
7
  6
CONTINUOUS
370
-3
390
F
  0
LAYER
  5
201
100
AcDbSymbolTableRecord
100
AcDbLayerTableRecord
  2
03_AXES
 70
0
 62
7
  6
CONTINUOUS
370
-3
390
F
  0
LAYER
  5
202
100
AcDbSymbolTableRecord
100
AcDbLayerTableRecord
  2
04_POINTS
 70
0
 62
7
  6
CONTINUOUS
370
-3
390
F
  0
LAYER
  5
203
100
AcDbSymbolTableRecord
100
AcDbLayerTableRecord
  2
05_CURVES
 70
0
 62
7
  6
CONTINUOUS
370
-3
390
F
  0
LAYER
  5
204
100
AcDbSymbolTableRecord
100
AcDbLayerTableRecord
  2
06_SURFS
 70
0
 62
7
  6
CONTINUOUS
370
-3
390
F
  0
LAYER
  5
205
100
AcDbSymbolTableRecord
100
AcDbLayerTableRecord
  2
07_COSMETICS
 70
0
 62
7
  6
CONTINUOUS
370
-3
390
F
  0
LAYER
  5
206
100
AcDbSymbolTableRecord
100
AcDbLayerTableRecord
  2
10_NOTES
 70
0
 62
7
  6
CONTINUOUS
370
-3
390
F
  0
LAYER
  5
207
100
AcDbSymbolTableRecord
100
AcDbLayerTableRecord
  2
11_NOTES_PUB
 70
0
 62
7
  6
CONTINUOUS
370
-3
390
F
  0
LAYER
  5
208
100
AcDbSymbolTableRecord
100
AcDbLayerTableRecord
  2
13_REF_GTOL
 70
0
 62
7
  6
CONTINUOUS
370
-3
390
F
  0
LAYER
  5
209
100
AcDbSymbolTableRecord
100
AcDbLayerTableRecord
  2
16_MISC
 70
0
 62
7
  6
CONTINUOUS
370
-3
390
F
  0
LAYER
  5
20A
100
AcDbSymbolTableRecord
100
AcDbLayerTableRecord
  2
17_NO_PRINT
 70
0
 62
7
  6
CONTINUOUS
370
-3
390
F
  0
LAYER
  5
20B
100
AcDbSymbolTableRecord
100
AcDbLayerTableRecord
  2
18_DATUM_CAMS_JOINTS
 70
0
 62
7
  6
CONTINUOUS
370
-3
390
F
  0
LAYER
  5
20C
100
AcDbSymbolTableRecord
100
AcDbLayerTableRecord
  2
19_DATUM_FUNCTIONAL
 70
0
 62
7
  6
CONTINUOUS
370
-3
390
F
  0
LAYER
  5
20D
100
AcDbSymbolTableRecord
100
AcDbLayerTableRecord
  2
20_DATUM_KINEMATIC_SCHEME
 70
0
 62
7
  6
CONTINUOUS
370
-3
390
F
  0
ENDTAB
  0
TABLE
  2
STYLE
  5
3
100
AcDbSymbolTable
 70
1
  0
STYLE
  5
11
100
AcDbSymbolTableRecord
100
AcDbTextStyleTableRecord
  2
STANDARD
 70
0
 40
0.0
 41
0.8
 50
0.0
 71
0
 42
0.2
  3
txt
  4

  0
STYLE
  5
20E
100
AcDbSymbolTableRecord
100
AcDbTextStyleTableRecord
  2
TEXTSTYLE_1
 70
0
 40
0.0
 41
0.8
 50
0.0
 71
0
 42
0.2
  3
gdt
  4

  0
ENDTAB
  0
TABLE
  2
VIEW
  5
6
100
AcDbSymbolTable
 70
0
  0
ENDTAB
  0
TABLE
  2
UCS
  5
7
100
AcDbSymbolTable
 70
0
  0
ENDTAB
  0
TABLE
  2
APPID
  5
9
100
AcDbSymbolTable
 70
1
  0
APPID
  5
20F
100
AcDbSymbolTableRecord
100
AcDbRegAppTableRecord
  2
ACAD
 70
0
  0
ENDTAB
  0
TABLE
  2
BLOCK_RECORD
  5
1
100
AcDbSymbolTable
 70
0
  0
BLOCK_RECORD
  5
210
100
AcDbSymbolTableRecord
100
AcDbBlockTableRecord
  2
*Model_Space
  0
BLOCK_RECORD
  5
211
100
AcDbSymbolTableRecord
100
AcDbBlockTableRecord
  2
*Paper_Space
  0
BLOCK_RECORD
  5
212
100
AcDbSymbolTableRecord
100
AcDbBlockTableRecord
  2
_FILLED
  0
ENDTAB
  0
TABLE
  2
DIMSTYLE
  5
A
100
AcDbSymbolTable
 70
1
100
AcDbDimStyleTable
 71
0
  0
DIMSTYLE
105
213
100
AcDbSymbolTableRecord
100
AcDbDimStyleTableRecord
  2
STANDARD
 70
0
  3

  4

 40
1.0
 41
1.0671368861
 42
1.0
 43
0.38
 44
1.0
 45
0.0
 46
0.0
 47
0.01
 48
0.01
140
1.4939916405
141
0.09
142
0.0
143
25.4
144
1.0
145
0.0
146
1.0
147
0.625
 71
1
 72
0
 73
0
 74
0
 75
0
 76
0
 77
1
 78
8
 79
2
170
0
171
1
172
0
173
0
174
0
175
0
176
0
177
0
178
0
270
2
179
2
271
2
272
2
273
2
274
2
275
0
280
0
281
0
282
0
283
1
284
8
285
0
286
0
287
3
288
0
340
11
278
46
341
212
342
212
343
212
344
212
  0
ENDTAB
  0
ENDSEC
  0
SECTION
  2
BLOCKS
  0
BLOCK
  5
20
100
AcDbEntity
  8
0
100
AcDbBlockBegin
  2
*Model_Space
 70
0
 10
0.0
 20
0.0
 30
0.0
  3
*Model_Space
  1

  0
ENDBLK
  5
21
100
AcDbEntity
  8
0
100
AcDbBlockEnd
  0
BLOCK
  5
1C
100
AcDbEntity
  8
0
100
AcDbBlockBegin
  2
*Paper_Space
 70
0
 10
0.0
 20
0.0
 30
0.0
  3
*Paper_Space
  1

  0
ENDBLK
  5
1D
100
AcDbEntity
  8
0
100
AcDbBlockEnd
  0
BLOCK
  5
214
100
AcDbEntity
  8
0
100
AcDbBlockBegin
  2
_FILLED
 70
64
 10
0.0
 20
0.0
  3
_FILLED
  1

  0
SOLID
  5
215
100
AcDbEntity
  8
0
  6
BYBLOCK
 62
0
100
AcDbTrace
 10
0.0
 20
0.0
 11
-1.0
 21
0.25
 12
-1.0
 22
-0.25
 13
-1.0
 23
-0.25
  0
ENDBLK
  5
216
100
AcDbEntity
  8
0
  6
BYBLOCK
 62
0
100
AcDbBlockEnd
  0
ENDSEC
  0
SECTION
  2
ENTITIES
  0
LINE
  5
217
100
AcDbEntity
  8
0
100
AcDbLine
 62
7
  6
CONTINUOUS
 10
21.8297840143
 20
96.3048535835
 11
21.9346497632
 21
96.3572909494
  0
LINE
  5
218
100
AcDbEntity
  8
0
100
AcDbLine
 62
7
  6
CONTINUOUS
 10
29.9472523173
 20
29.6853379167
 11
29.9275645944
 21
29.6951464202
  0
LINE
  5
219
100
AcDbEntity
  8
0
100
AcDbLine
 62
7
  6
CONTINUOUS
 10
10.1092423197
 20
29.3131979956
 11
10.1315832329
 21
28.0332879364
  0
LINE
  5
21A
100
AcDbEntity
  8
0
100
AcDbLine
 62
7
  6
CONTINUOUS
 10
11.2542193504
 20
29.873500322
 11
11.2330295924
 21
31.0874607445
  0
LINE
  5
21B
100
AcDbEntity
  8
0
100
AcDbLine
 62
7
  6
CONTINUOUS
 10
9.9835423197
 20
27.0
 11
9.9835423197
 21
99.0
  0
LINE
  5
21C
100
AcDbEntity
  8
0
100
AcDbLine
 62
7
  6
CONTINUOUS
 10
10.0335423197
 20
27.0500000009
 11
10.0335423197
 21
98.9500000009
  0
LINE
  5
21D
100
AcDbEntity
  8
0
100
AcDbLine
 62
7
  6
CONTINUOUS
 10
10.0795451769
 20
81.3195979956
 11
10.0795451769
 21
80.7933979956
  0
LINE
  5
21E
100
AcDbEntity
  8
0
100
AcDbLine
 62
7
  6
CONTINUOUS
 10
10.0795451769
 20
45.2931979956
 11
10.0795451769
 21
44.7669979956
  0
LINE
  5
21F
100
AcDbEntity
  8
0
100
AcDbLine
 62
7
  6
CONTINUOUS
 10
10.0925398272
 20
98.898262637
 11
10.0925398272
 21
81.3195979956
  0
LINE
  5
220
100
AcDbEntity
  8
0
100
AcDbLine
 62
7
  6
CONTINUOUS
 10
10.0925398272
 20
80.7933979956
 11
10.0925398272
 21
45.2931979956
  0
LINE
  5
221
100
AcDbEntity
  8
0
100
AcDbLine
 62
7
  6
CONTINUOUS
 10
10.0925398272
 20
44.7669979956
 11
10.0925398272
 21
27.1112360399
  0
LINE
  5
222
100
AcDbEntity
  8
0
100
AcDbLine
 62
7
  6
CONTINUOUS
 10
10.1311105105
 20
30.6148807852
 11
10.1311105105
 21
28.0115152059
  0
LINE
  5
223
100
AcDbEntity
  8
0
100
AcDbLine
 62
7
  6
CONTINUOUS
 10
10.3835423207
 20
73.0431979965
 11
10.3835423207
 21
53.0431979965
  0
LINE
  5
224
100
AcDbEntity
  8
0
100
AcDbLine
 62
7
  6
CONTINUOUS
 10
10.4562158788
 20
27.1196108144
 11
10.4562158788
 21
27.6097719059
  0
LINE
  5
225
100
AcDbEntity
  8
0
100
AcDbLine
 62
7
  6
CONTINUOUS
 10
10.4562158788
 20
31.0166240853
 11
10.4562158788
 21
44.7669979956
  0
LINE
  5
226
100
AcDbEntity
  8
0
100
AcDbLine
 62
7
  6
CONTINUOUS
 10
10.4562158788
 20
45.2931979956
 11
10.4562158788
 21
80.7933979956
  0
LINE
  5
227
100
AcDbEntity
  8
0
100
AcDbLine
 62
7
  6
CONTINUOUS
 10
10.4562158788
 20
81.3195979956
 11
10.4562158788
 21
98.8906030019
  0
LINE
  5
228
100
AcDbEntity
  8
0
100
AcDbLine
 62
7
  6
CONTINUOUS
 10
10.6490813624
 20
27.5101385786
 11
10.6490813624
 21
31.1162574125
  0
LINE
  5
229
100
AcDbEntity
  8
0
100
AcDbLine
 62
7
  6
CONTINUOUS
 10
11.2330295924
 20
27.5389352466
 11
11.2330295924
 21
31.0874607445
  0
LINE
  5
22A
100
AcDbEntity
  8
0
100
AcDbLine
 62
7
  6
CONTINUOUS
 10
11.2542193504
 20
28.7528956691
 11
11.2542193504
 21
29.873500322
  0
LINE
  5
22B
100
AcDbEntity
  8
0
100
AcDbLine
 62
7
  6
CONTINUOUS
 10
11.316364127
 20
29.8745850631
 11
11.316364127
 21
28.751810928
  0
LINE
  5
22C
100
AcDbEntity
  8
0
100
AcDbLine
 62
7
  6
CONTINUOUS
 10
11.5128736457
 20
27.559194172
 11
11.5128736457
 21
31.0672018191
  0
LINE
  5
22D
100
AcDbEntity
  8
0
100
AcDbLine
 62
7
  6
CONTINUOUS
 10
11.7785349368
 20
65.0431979956
 11
11.7785349368
 21
61.0431979956
  0
LINE
  5
22E
100
AcDbEntity
  8
0
100
AcDbLine
 62
7
  6
CONTINUOUS
 10
11.9835423188
 20
53.0431979965
 11
11.9835423188
 21
73.0431979965
  0
LINE
  5
22F
100
AcDbEntity
  8
0
100
AcDbLine
 62
7
  6
CONTINUOUS
 10
12.2422691875
 20
96.2844901662
 11
12.2422691875
 21
29.8019058286
  0
LINE
  5
230
100
AcDbEntity
  8
0
100
AcDbLine
 62
7
  6
CONTINUOUS
 10
12.2794576149
 20
36.8931979956
 11
12.2794576149
 21
39.1931979956
  0
LINE
  5
231
100
AcDbEntity
  8
0
100
AcDbLine
 62
7
  6
CONTINUOUS
 10
12.2794576149
 20
41.8931979956
 11
12.2794576149
 21
44.1931979956
  0
LINE
  5
232
100
AcDbEntity
  8
0
100
AcDbLine
 62
7
  6
CONTINUOUS
 10
12.2794576149
 20
46.8931979956
 11
12.2794576149
 21
49.1931979956
  0
LINE
  5
233
100
AcDbEntity
  8
0
100
AcDbLine
 62
7
  6
CONTINUOUS
 10
12.2794576149
 20
51.8931979956
 11
12.2794576149
 21
54.1931979956
  0
LINE
  5
234
100
AcDbEntity
  8
0
100
AcDbLine
 62
7
  6
CONTINUOUS
 10
12.2794576149
 20
71.8931979956
 11
12.2794576149
 21
74.1931979956
  0
LINE
  5
235
100
AcDbEntity
  8
0
100
AcDbLine
 62
7
  6
CONTINUOUS
 10
12.2794576149
 20
76.8931979956
 11
12.2794576149
 21
79.1931979956
  0
LINE
  5
236
100
AcDbEntity
  8
0
100
AcDbLine
 62
7
  6
CONTINUOUS
 10
12.2794576149
 20
81.8931979956
 11
12.2794576149
 21
84.1931979956
  0
LINE
  5
237
100
AcDbEntity
  8
0
100
AcDbLine
 62
7
  6
CONTINUOUS
 10
12.2794576149
 20
86.8931979956
 11
12.2794576149
 21
89.1931979956
  0
LINE
  5
238
100
AcDbEntity
  8
0
100
AcDbLine
 62
7
  6
CONTINUOUS
 10
12.4189142106
 20
89.1931979956
 11
12.4189142106
 21
86.8931979956
  0
LINE
  5
239
100
AcDbEntity
  8
0
100
AcDbLine
 62
7
  6
CONTINUOUS
 10
12.4189142106
 20
84.1931979956
 11
12.4189142106
 21
81.8931979956
  0
LINE
  5
23A
100
AcDbEntity
  8
0
100
AcDbLine
 62
7
  6
CONTINUOUS
 10
12.4189142106
 20
79.1931979956
 11
12.4189142106
 21
76.8931979956
  0
LINE
  5
23B
100
AcDbEntity
  8
0
100
AcDbLine
 62
7
  6
CONTINUOUS
 10
12.4189142106
 20
74.1931979956
 11
12.4189142106
 21
71.8931979956
  0
LINE
  5
23C
100
AcDbEntity
  8
0
100
AcDbLine
 62
7
  6
CONTINUOUS
 10
12.4189142106
 20
54.1931979956
 11
12.4189142106
 21
51.8931979956
  0
LINE
  5
23D
100
AcDbEntity
  8
0
100
AcDbLine
 62
7
  6
CONTINUOUS
 10
12.4189142106
 20
49.1931979956
 11
12.4189142106
 21
46.8931979956
  0
LINE
  5
23E
100
AcDbEntity
  8
0
100
AcDbLine
 62
7
  6
CONTINUOUS
 10
12.4189142106
 20
44.1931979956
 11
12.4189142106
 21
41.8931979956
  0
LINE
  5
23F
100
AcDbEntity
  8
0
100
AcDbLine
 62
7
  6
CONTINUOUS
 10
12.4189142106
 20
39.1931979956
 11
12.4189142106
 21
36.8931979956
  0
LINE
  5
240
100
AcDbEntity
  8
0
100
AcDbLine
 62
7
  6
CONTINUOUS
 10
10.1092423197
 20
29.3131979956
 11
10.1315832329
 21
30.5931080547
  0
LINE
  5
241
100
AcDbEntity
  8
0
100
AcDbLine
 62
7
  6
CONTINUOUS
 10
11.2542193504
 20
28.7528956691
 11
11.2330295924
 21
27.5389352466
  0
LINE
  5
242
100
AcDbEntity
  8
0
100
AcDbLine
 62
7
  6
CONTINUOUS
 10
31.8297854264
 20
96.3048535835
 11
31.934668138
 21
96.3572909456
  0
LINE
  5
243
100
AcDbEntity
  8
0
100
AcDbLine
 62
7
  6
CONTINUOUS
 10
11.2330295924
 20
27.5389352466
 11
10.6490813624
 21
27.5101385786
  0
LINE
  5
244
100
AcDbEntity
  8
0
100
AcDbLine
 62
7
  6
CONTINUOUS
 10
80.7340550471
 20
31.0874607445
 11
81.318003277
 21
31.1162574125
  0
LINE
  5
245
100
AcDbEntity
  8
0
100
AcDbLine
 62
7
  6
CONTINUOUS
 10
80.7128652891
 20
28.7528956691
 11
80.6507205125
 21
28.751810928
  0
LINE
  5
246
100
AcDbEntity
  8
0
100
AcDbLine
 62
7
  6
CONTINUOUS
 10
16.9835423197
 20
27.1297000274
 11
16.4835423197
 21
27.1283798796
  0
LINE
  5
247
100
AcDbEntity
  8
0
100
AcDbLine
 62
7
  6
CONTINUOUS
 10
81.9835423197
 20
27.0
 11
9.9835423197
 21
27.0
  0
LINE
  5
248
100
AcDbEntity
  8
0
100
AcDbLine
 62
7
  6
CONTINUOUS
 10
81.9335423197
 20
27.0500000009
 11
10.0335423197
 21
27.0500000009
  0
LINE
  5
249
100
AcDbEntity
  8
0
100
AcDbLine
 62
7
  6
CONTINUOUS
 10
12.7422428349
 20
29.3019248671
 11
79.224842374
 21
29.3019248671
  0
LINE
  5
24A
100
AcDbEntity
  8
0
100
AcDbLine
 62
7
  6
CONTINUOUS
 10
79.5561173231
 20
29.4274250004
 11
78.8936319228
 21
29.4273679521
  0
LINE
  5
24B
100
AcDbEntity
  8
0
100
AcDbLine
 62
7
  6
CONTINUOUS
 10
75.4835423197
 20
27.1283798796
 11
74.9835423197
 21
27.1297000274
  0
LINE
  5
24C
100
AcDbEntity
  8
0
100
AcDbLine
 62
7
  6
CONTINUOUS
 10
11.2542193504
 20
28.7528956691
 11
11.316364127
 21
28.751810928
  0
LINE
  5
24D
100
AcDbEntity
  8
0
100
AcDbLine
 62
7
  6
CONTINUOUS
 10
80.7340550471
 20
27.5389352466
 11
81.318003277
 21
27.5101385786
  0
LINE
  5
24E
100
AcDbEntity
  8
0
100
AcDbLine
 62
7
  6
CONTINUOUS
 10
11.2330295924
 20
31.0874607445
 11
10.6490813624
 21
31.1162574125
  0
LINE
  5
24F
100
AcDbEntity
  8
0
100
AcDbLine
 62
7
  6
CONTINUOUS
 10
31.9257480396
 20
29.642636896
 11
31.8579791271
 21
29.6810506352
  0
LWPOLYLINE
  5
250
100
AcDbEntity
  8
0
100
AcDbPolyline
 62
7
  6
CONTINUOUS
 90
4
 70
0
 10
12.7968405218
 20
45.0326707319
 10
12.7969646793
 20
45.0318689047
 10
12.7971833454
 20
45.0313384139
 10
12.7975107031
 20
45.0308080769
  0
LINE
  5
251
100
AcDbEntity
  8
0
100
AcDbLine
 62
7
  6
CONTINUOUS
 10
12.5741758872
 20
96.4297239521
 11
12.5741758872
 21
88.6329184491
  0
LINE
  5
252
100
AcDbEntity
  8
0
100
AcDbLine
 62
7
  6
CONTINUOUS
 10
12.5741758872
 20
37.453477542
 11
12.5741758872
 21
29.5702760516
  0
LINE
  5
253
100
AcDbEntity
  8
0
100
AcDbLine
 62
7
  6
CONTINUOUS
 10
12.7164216189
 20
88.6615788834
 11
12.7164216189
 21
81.4262910103
  0
LINE
  5
254
100
AcDbEntity
  8
0
100
AcDbLine
 62
7
  6
CONTINUOUS
 10
12.7164216189
 20
44.5737089916
 11
12.7164216189
 21
37.4248171078
  0
LINE
  5
255
100
AcDbEntity
  8
0
100
AcDbLine
 62
7
  6
CONTINUOUS
 10
12.7968405218
 20
80.9586432616
 11
12.7968405218
 21
45.0326851864
  0
LINE
  5
256
100
AcDbEntity
  8
0
100
AcDbLine
 62
7
  6
CONTINUOUS
 10
12.9835423197
 20
89.1931979956
 11
12.9835423197
 21
86.8931979956
  0
LINE
  5
257
100
AcDbEntity
  8
0
100
AcDbLine
 62
7
  6
CONTINUOUS
 10
12.9835423197
 20
84.1931979956
 11
12.9835423197
 21
81.8931979956
  0
LINE
  5
258
100
AcDbEntity
  8
0
100
AcDbLine
 62
7
  6
CONTINUOUS
 10
12.9835423197
 20
79.1931979956
 11
12.9835423197
 21
76.8931979956
  0
LINE
  5
259
100
AcDbEntity
  8
0
100
AcDbLine
 62
7
  6
CONTINUOUS
 10
12.9835423197
 20
74.1931979956
 11
12.9835423197
 21
71.8931979956
  0
LINE
  5
25A
100
AcDbEntity
  8
0
100
AcDbLine
 62
7
  6
CONTINUOUS
 10
12.9835423197
 20
54.1931979956
 11
12.9835423197
 21
51.8931979956
  0
LINE
  5
25B
100
AcDbEntity
  8
0
100
AcDbLine
 62
7
  6
CONTINUOUS
 10
12.9835423197
 20
49.1931979956
 11
12.9835423197
 21
46.8931979956
  0
LINE
  5
25C
100
AcDbEntity
  8
0
100
AcDbLine
 62
7
  6
CONTINUOUS
 10
12.9835423197
 20
44.1931979956
 11
12.9835423197
 21
41.8931979956
  0
LINE
  5
25D
100
AcDbEntity
  8
0
100
AcDbLine
 62
7
  6
CONTINUOUS
 10
12.9835423197
 20
39.1931979956
 11
12.9835423197
 21
36.8931979956
  0
LINE
  5
25E
100
AcDbEntity
  8
0
100
AcDbLine
 62
7
  6
CONTINUOUS
 10
13.715950594
 20
79.9691067196
 11
13.715950594
 21
73.0000000009
  0
LINE
  5
25F
100
AcDbEntity
  8
0
100
AcDbLine
 62
7
  6
CONTINUOUS
 10
13.715950594
 20
53.0000000009
 11
13.715950594
 21
46.0310290228
  0
LINE
  5
260
100
AcDbEntity
  8
0
100
AcDbLine
 62
7
  6
CONTINUOUS
 10
13.7633012797
 20
73.0000000009
 11
13.7633012797
 21
53.0000000009
  0
LINE
  5
261
100
AcDbEntity
  8
0
100
AcDbLine
 62
7
  6
CONTINUOUS
 10
14.260770148
 20
28.0408609917
 11
14.260770148
 21
30.5855349995
  0
LINE
  5
262
100
AcDbEntity
  8
0
100
AcDbLine
 62
7
  6
CONTINUOUS
 10
15.3835423197
 20
57.3950265485
 11
15.3835423197
 21
55.9999971105
  0
LINE
  5
263
100
AcDbEntity
  8
0
100
AcDbLine
 62
7
  6
CONTINUOUS
 10
41.8297842272
 20
96.3048535835
 11
41.9346497632
 21
96.3572909494
  0
LINE
  5
264
100
AcDbEntity
  8
0
100
AcDbLine
 62
7
  6
CONTINUOUS
 10
11.2542193504
 20
29.873500322
 11
11.316364127
 21
29.8745850631
  0
LINE
  5
265
100
AcDbEntity
  8
0
100
AcDbLine
 62
7
  6
CONTINUOUS
 10
79.4132662718
 20
29.5702760516
 11
71.1112806966
 21
29.5702760516
  0
LINE
  5
266
100
AcDbEntity
  8
0
100
AcDbLine
 62
7
  6
CONTINUOUS
 10
20.8558039429
 20
29.5702760516
 11
12.5741758872
 21
29.5702760516
  0
LINE
  5
267
100
AcDbEntity
  8
0
100
AcDbLine
 62
7
  6
CONTINUOUS
 10
40.041336602
 20
29.642636896
 11
31.9257480396
 21
29.642636896
  0
LINE
  5
268
100
AcDbEntity
  8
0
100
AcDbLine
 62
7
  6
CONTINUOUS
 10
60.0324165125
 20
29.6427090545
 11
51.9346497468
 21
29.6427090543
  0
LINE
  5
269
100
AcDbEntity
  8
0
100
AcDbLine
 62
7
  6
CONTINUOUS
 10
50.0324348927
 20
29.6427090543
 11
41.9346497448
 21
29.6427090543
  0
LINE
  5
26A
100
AcDbEntity
  8
0
100
AcDbLine
 62
7
  6
CONTINUOUS
 10
62.0198323259
 20
29.6853379167
 11
60.609029362
 21
29.6853379167
  0
LINE
  5
26B
100
AcDbEntity
  8
0
100
AcDbLine
 62
7
  6
CONTINUOUS
 10
31.3580552796
 20
29.6853379167
 11
29.9472523173
 21
29.6853379167
  0
LINE
  5
26C
100
AcDbEntity
  8
0
100
AcDbLine
 62
7
  6
CONTINUOUS
 10
51.3385891007
 20
29.6950702649
 11
50.6284955388
 21
29.6950702649
  0
LINE
  5
26D
100
AcDbEntity
  8
0
100
AcDbLine
 62
7
  6
CONTINUOUS
 10
41.3385890987
 20
29.6950702649
 11
40.6284955408
 21
29.6950702649
  0
LINE
  5
26E
100
AcDbEntity
  8
0
100
AcDbLine
 62
7
  6
CONTINUOUS
 10
20.5846644928
 20
29.6951083433
 11
29.9275645944
 21
29.6951083433
  0
LINE
  5
26F
100
AcDbEntity
  8
0
100
AcDbLine
 62
7
  6
CONTINUOUS
 10
62.0395215624
 20
29.6951083433
 11
71.3824171373
 21
29.6951083433
  0
LINE
  5
270
100
AcDbEntity
  8
0
100
AcDbLine
 62
7
  6
CONTINUOUS
 10
20.3644553113
 20
30.6951083433
 11
29.418882426
 21
30.6951083433
  0
LINE
  5
271
100
AcDbEntity
  8
0
100
AcDbLine
 62
7
  6
CONTINUOUS
 10
62.5482050748
 20
30.6951083433
 11
71.6026293282
 21
30.6951083433
  0
LINE
  5
272
100
AcDbEntity
  8
0
100
AcDbLine
 62
7
  6
CONTINUOUS
 10
80.7128652891
 20
29.873500322
 11
80.6507205125
 21
29.8745850631
  0
LINE
  5
273
100
AcDbEntity
  8
0
100
AcDbLine
 62
7
  6
CONTINUOUS
 10
41.9346497448
 20
29.6427090543
 11
41.8385129463
 21
29.6907829834
  0
LINE
  5
274
100
AcDbEntity
  8
0
100
AcDbLine
 62
7
  6
CONTINUOUS
 10
16.4835423197
 20
27.1283798796
 11
16.4835423197
 21
44.7669979956
  0
LINE
  5
275
100
AcDbEntity
  8
0
100
AcDbLine
 62
7
  6
CONTINUOUS
 10
16.4835423197
 20
45.2931979956
 11
16.4835423197
 21
80.7933979956
  0
LINE
  5
276
100
AcDbEntity
  8
0
100
AcDbLine
 62
7
  6
CONTINUOUS
 10
16.4835423197
 20
81.3195979956
 11
16.4835423197
 21
98.8825827454
  0
LINE
  5
277
100
AcDbEntity
  8
0
100
AcDbLine
 62
7
  6
CONTINUOUS
 10
16.9835423197
 20
98.8813753278
 11
16.9835423197
 21
81.3195979956
  0
LINE
  5
278
100
AcDbEntity
  8
0
100
AcDbLine
 62
7
  6
CONTINUOUS
 10
16.9835423197
 20
80.7933979956
 11
16.9835423197
 21
45.2931979956
  0
LINE
  5
279
100
AcDbEntity
  8
0
100
AcDbLine
 62
7
  6
CONTINUOUS
 10
16.9835423197
 20
44.7669979956
 11
16.9835423197
 21
27.1297000274
  0
LINE
  5
27A
100
AcDbEntity
  8
0
100
AcDbLine
 62
7
  6
CONTINUOUS
 10
12.7975107031
 20
45.0308080769
 11
12.7164216189
 21
44.5737089916
  0
LINE
  5
27B
100
AcDbEntity
  8
0
100
AcDbLine
 62
7
  6
CONTINUOUS
 10
51.8297854264
 20
96.3048535835
 11
51.934668138
 21
96.3572909456
  0
LINE
  5
27C
100
AcDbEntity
  8
0
100
AcDbLine
 62
7
  6
CONTINUOUS
 10
32.5535423197
 20
34.9131979956
 11
39.4135423197
 21
34.9131979956
  0
LINE
  5
27D
100
AcDbEntity
  8
0
100
AcDbLine
 62
7
  6
CONTINUOUS
 10
42.5535423197
 20
34.9131979956
 11
49.4135423197
 21
34.9131979956
  0
LINE
  5
27E
100
AcDbEntity
  8
0
100
AcDbLine
 62
7
  6
CONTINUOUS
 10
52.5535423197
 20
34.9131979956
 11
59.4135423197
 21
34.9131979956
  0
LINE
  5
27F
100
AcDbEntity
  8
0
100
AcDbLine
 62
7
  6
CONTINUOUS
 10
51.9346497468
 20
29.6427090543
 11
51.8385129483
 21
29.6907829834
  0
LINE
  5
280
100
AcDbEntity
  8
0
100
AcDbLine
 62
7
  6
CONTINUOUS
 10
12.7164216189
 20
81.4262910103
 11
12.7975107031
 21
80.9605411842
  0
LINE
  5
281
100
AcDbEntity
  8
0
100
AcDbLine
 62
7
  6
CONTINUOUS
 10
20.3644553113
 20
95.97635385
 11
20.3644553113
 21
92.0431980653
  0
LINE
  5
282
100
AcDbEntity
  8
0
100
AcDbLine
 62
7
  6
CONTINUOUS
 10
20.3644553113
 20
34.0431979258
 11
20.3644553113
 21
30.1134169341
  0
LINE
  5
283
100
AcDbEntity
  8
0
100
AcDbLine
 62
7
  6
CONTINUOUS
 10
20.8558039429
 20
29.6091486911
 11
20.8558039429
 21
29.5702760516
  0
LINE
  5
284
100
AcDbEntity
  8
0
100
AcDbLine
 62
7
  6
CONTINUOUS
 10
21.3211340522
 20
81.3481979956
 11
21.3211350237
 21
95.3048916604
  0
LINE
  5
285
100
AcDbEntity
  8
0
100
AcDbLine
 62
7
  6
CONTINUOUS
 10
21.8210578997
 20
96.165816479
 11
21.8210578997
 21
81.3481979956
  0
LINE
  5
286
100
AcDbEntity
  8
0
100
AcDbLine
 62
7
  6
CONTINUOUS
 10
21.9346497632
 20
96.3572909494
 11
21.9346497632
 21
81.3481979956
  0
LINE
  5
287
100
AcDbEntity
  8
0
100
AcDbLine
 62
7
  6
CONTINUOUS
 10
22.5535423197
 20
91.1731979956
 11
22.5535423197
 21
84.3131979956
  0
LINE
  5
288
100
AcDbEntity
  8
0
100
AcDbLine
 62
7
  6
CONTINUOUS
 10
56.3585423197
 20
36.823056438
 11
55.6085423197
 21
36.823056438
  0
LINE
  5
289
100
AcDbEntity
  8
0
100
AcDbLine
 62
7
  6
CONTINUOUS
 10
46.3585423197
 20
36.823056438
 11
45.6085423197
 21
36.823056438
  0
LINE
  5
28A
100
AcDbEntity
  8
0
100
AcDbLine
 62
7
  6
CONTINUOUS
 10
36.3585423197
 20
36.823056438
 11
35.6085423197
 21
36.823056438
  0
LINE
  5
28B
100
AcDbEntity
  8
0
100
AcDbLine
 62
7
  6
CONTINUOUS
 10
12.9835423197
 20
36.8931979956
 11
12.2794576149
 21
36.8931979956
  0
LINE
  5
28C
100
AcDbEntity
  8
0
100
AcDbLine
 62
7
  6
CONTINUOUS
 10
78.9835423197
 20
36.8931979956
 11
79.6899079808
 21
36.8931979956
  0
LINE
  5
28D
100
AcDbEntity
  8
0
100
AcDbLine
 62
7
  6
CONTINUOUS
 10
79.220547209
 20
37.4241109174
 11
74.9835423197
 21
37.4241109174
  0
LINE
  5
28E
100
AcDbEntity
  8
0
100
AcDbLine
 62
7
  6
CONTINUOUS
 10
16.9835423197
 20
37.4241109174
 11
12.7465374305
 21
37.4241109174
  0
LINE
  5
28F
100
AcDbEntity
  8
0
100
AcDbLine
 62
7
  6
CONTINUOUS
 10
57.5036838773
 20
37.9681979956
 11
56.6585423197
 21
37.9681979956
  0
LINE
  5
290
100
AcDbEntity
  8
0
100
AcDbLine
 62
7
  6
CONTINUOUS
 10
55.3085423197
 20
37.9681979956
 11
54.4634007622
 21
37.9681979956
  0
LINE
  5
291
100
AcDbEntity
  8
0
100
AcDbLine
 62
7
  6
CONTINUOUS
 10
47.5036838773
 20
37.9681979956
 11
46.6585423197
 21
37.9681979956
  0
LINE
  5
292
100
AcDbEntity
  8
0
100
AcDbLine
 62
7
  6
CONTINUOUS
 10
45.3085423197
 20
37.9681979956
 11
44.4634007622
 21
37.9681979956
  0
LINE
  5
293
100
AcDbEntity
  8
0
100
AcDbLine
 62
7
  6
CONTINUOUS
 10
37.5036838773
 20
37.9681979956
 11
36.6585423197
 21
37.9681979956
  0
LINE
  5
294
100
AcDbEntity
  8
0
100
AcDbLine
 62
7
  6
CONTINUOUS
 10
35.3085423197
 20
37.9681979956
 11
34.4634007622
 21
37.9681979956
  0
LINE
  5
295
100
AcDbEntity
  8
0
100
AcDbLine
 62
7
  6
CONTINUOUS
 10
34.4634007622
 20
38.7181979956
 11
35.3085423197
 21
38.7181979956
  0
LINE
  5
296
100
AcDbEntity
  8
0
100
AcDbLine
 62
7
  6
CONTINUOUS
 10
36.6585423197
 20
38.7181979956
 11
37.5036838773
 21
38.7181979956
  0
LINE
  5
297
100
AcDbEntity
  8
0
100
AcDbLine
 62
7
  6
CONTINUOUS
 10
44.4634007622
 20
38.7181979956
 11
45.3085423197
 21
38.7181979956
  0
LINE
  5
298
100
AcDbEntity
  8
0
100
AcDbLine
 62
7
  6
CONTINUOUS
 10
46.6585423197
 20
38.7181979956
 11
47.5036838773
 21
38.7181979956
  0
LINE
  5
299
100
AcDbEntity
  8
0
100
AcDbLine
 62
7
  6
CONTINUOUS
 10
54.4634007622
 20
38.7181979956
 11
55.3085423197
 21
38.7181979956
  0
LINE
  5
29A
100
AcDbEntity
  8
0
100
AcDbLine
 62
7
  6
CONTINUOUS
 10
56.6585423197
 20
38.7181979956
 11
57.5036838773
 21
38.7181979956
  0
LINE
  5
29B
100
AcDbEntity
  8
0
100
AcDbLine
 62
7
  6
CONTINUOUS
 10
12.9835423197
 20
39.1931979956
 11
12.2794576149
 21
39.1931979956
  0
LINE
  5
29C
100
AcDbEntity
  8
0
100
AcDbLine
 62
7
  6
CONTINUOUS
 10
78.9835423197
 20
39.1931979956
 11
79.6899079808
 21
39.1931979956
  0
LINE
  5
29D
100
AcDbEntity
  8
0
100
AcDbLine
 62
7
  6
CONTINUOUS
 10
24.4634007622
 20
87.3681979956
 11
24.4634007622
 21
88.1181979956
  0
LINE
  5
29E
100
AcDbEntity
  8
0
100
AcDbLine
 62
7
  6
CONTINUOUS
 10
25.6085423197
 20
86.223056438
 11
25.6085423197
 21
87.0681979956
  0
LINE
  5
29F
100
AcDbEntity
  8
0
100
AcDbLine
 62
7
  6
CONTINUOUS
 10
25.6085423197
 20
88.4181979956
 11
25.6085423197
 21
89.2633395531
  0
LINE
  5
2A0
100
AcDbEntity
  8
0
100
AcDbLine
 62
7
  6
CONTINUOUS
 10
61.8297854264
 20
96.3048535835
 11
61.934668138
 21
96.3572909456
  0
LINE
  5
2A1
100
AcDbEntity
  8
0
100
AcDbLine
 62
7
  6
CONTINUOUS
 10
35.6085423197
 20
39.8633395531
 11
36.3585423197
 21
39.8633395531
  0
LINE
  5
2A2
100
AcDbEntity
  8
0
100
AcDbLine
 62
7
  6
CONTINUOUS
 10
45.6085423197
 20
39.8633395531
 11
46.3585423197
 21
39.8633395531
  0
LINE
  5
2A3
100
AcDbEntity
  8
0
100
AcDbLine
 62
7
  6
CONTINUOUS
 10
55.6085423197
 20
39.8633395531
 11
56.3585423197
 21
39.8633395531
  0
LINE
  5
2A4
100
AcDbEntity
  8
0
100
AcDbLine
 62
7
  6
CONTINUOUS
 10
32.5535423197
 20
41.7731979956
 11
39.4135423197
 21
41.7731979956
  0
LINE
  5
2A5
100
AcDbEntity
  8
0
100
AcDbLine
 62
7
  6
CONTINUOUS
 10
42.5535423197
 20
41.7731979956
 11
49.4135423197
 21
41.7731979956
  0
LINE
  5
2A6
100
AcDbEntity
  8
0
100
AcDbLine
 62
7
  6
CONTINUOUS
 10
52.5535423197
 20
41.7731979956
 11
59.4135423197
 21
41.7731979956
  0
LINE
  5
2A7
100
AcDbEntity
  8
0
100
AcDbLine
 62
7
  6
CONTINUOUS
 10
12.9835423197
 20
41.8931979956
 11
12.2794576149
 21
41.8931979956
  0
LINE
  5
2A8
100
AcDbEntity
  8
0
100
AcDbLine
 62
7
  6
CONTINUOUS
 10
78.9835423197
 20
41.8931979956
 11
79.6899079808
 21
41.8931979956
  0
LINE
  5
2A9
100
AcDbEntity
  8
0
100
AcDbLine
 62
7
  6
CONTINUOUS
 10
26.3585423197
 20
89.2633395531
 11
26.3585423197
 21
88.4181979956
  0
LINE
  5
2AA
100
AcDbEntity
  8
0
100
AcDbLine
 62
7
  6
CONTINUOUS
 10
26.3585423197
 20
87.0681979956
 11
26.3585423197
 21
86.223056438
  0
LINE
  5
2AB
100
AcDbEntity
  8
0
100
AcDbLine
 62
7
  6
CONTINUOUS
 10
27.5036838773
 20
88.1181979956
 11
27.5036838773
 21
87.3681979956
  0
LINE
  5
2AC
100
AcDbEntity
  8
0
100
AcDbLine
 62
7
  6
CONTINUOUS
 10
29.4135423197
 20
91.1731979956
 11
29.4135423197
 21
84.3131979956
  0
LINE
  5
2AD
100
AcDbEntity
  8
0
100
AcDbLine
 62
7
  6
CONTINUOUS
 10
29.418882426
 20
30.6951083433
 11
29.418882426
 21
44.6381979956
  0
LINE
  5
2AE
100
AcDbEntity
  8
0
100
AcDbLine
 62
7
  6
CONTINUOUS
 10
12.9835423197
 20
44.1931979956
 11
12.2794576149
 21
44.1931979956
  0
LINE
  5
2AF
100
AcDbEntity
  8
0
100
AcDbLine
 62
7
  6
CONTINUOUS
 10
78.9835423197
 20
44.1931979956
 11
79.6899079808
 21
44.1931979956
  0
LINE
  5
2B0
100
AcDbEntity
  8
0
100
AcDbLine
 62
7
  6
CONTINUOUS
 10
79.2797451908
 20
44.5737089916
 11
62.5482022168
 21
44.5737089916
  0
LINE
  5
2B1
100
AcDbEntity
  8
0
100
AcDbLine
 62
7
  6
CONTINUOUS
 10
29.418882426
 20
44.5737089916
 11
12.7164216189
 21
44.5737089916
  0
LINE
  5
2B2
100
AcDbEntity
  8
0
100
AcDbLine
 62
7
  6
CONTINUOUS
 10
29.418882426
 20
44.6381979956
 11
62.5482022168
 21
44.6381979956
  0
LINE
  5
2B3
100
AcDbEntity
  8
0
100
AcDbLine
 62
7
  6
CONTINUOUS
 10
10.0795451769
 20
44.7669979956
 11
81.8875394626
 21
44.7669979956
  0
LINE
  5
2B4
100
AcDbEntity
  8
0
100
AcDbLine
 62
7
  6
CONTINUOUS
 10
79.203357455
 20
45.0323994881
 11
12.796329171
 21
45.0323994881
  0
LINE
  5
2B5
100
AcDbEntity
  8
0
100
AcDbLine
 62
7
  6
CONTINUOUS
 10
81.8875394626
 20
45.2931979956
 11
10.0795451769
 21
45.2931979956
  0
LINE
  5
2B6
100
AcDbEntity
  8
0
100
AcDbLine
 62
7
  6
CONTINUOUS
 10
13.715950594
 20
46.0310290228
 11
13.7633012797
 21
46.0310290228
  0
LINE
  5
2B7
100
AcDbEntity
  8
0
100
AcDbLine
 62
7
  6
CONTINUOUS
 10
29.9188062736
 20
44.6381979956
 11
29.9188062736
 21
29.8341835252
  0
LINE
  5
2B8
100
AcDbEntity
  8
0
100
AcDbLine
 62
7
  6
CONTINUOUS
 10
29.9472523173
 20
29.6853379167
 11
29.9472523173
 21
44.6381979956
  0
LINE
  5
2B9
100
AcDbEntity
  8
0
100
AcDbLine
 62
7
  6
CONTINUOUS
 10
30.0324165052
 20
96.3572909456
 11
30.0324165052
 21
81.3481979956
  0
LINE
  5
2BA
100
AcDbEntity
  8
0
100
AcDbLine
 62
7
  6
CONTINUOUS
 10
30.1460267435
 20
81.3481979956
 11
30.1460267435
 21
96.1658163128
  0
LINE
  5
2BB
100
AcDbEntity
  8
0
100
AcDbLine
 62
7
  6
CONTINUOUS
 10
30.645950591
 20
95.3048916604
 11
30.645950591
 21
81.3481979956
  0
LINE
  5
2BC
100
AcDbEntity
  8
0
100
AcDbLine
 62
7
  6
CONTINUOUS
 10
31.3211340522
 20
81.3481979956
 11
31.3211340522
 21
95.3048916604
  0
LINE
  5
2BD
100
AcDbEntity
  8
0
100
AcDbLine
 62
7
  6
CONTINUOUS
 10
31.3580552796
 20
29.6853379167
 11
31.3580552796
 21
44.6381979956
  0
LINE
  5
2BE
100
AcDbEntity
  8
0
100
AcDbLine
 62
7
  6
CONTINUOUS
 10
31.8210578997
 20
96.1658164783
 11
31.8210578997
 21
81.3481979956
  0
LINE
  5
2BF
100
AcDbEntity
  8
0
100
AcDbLine
 62
7
  6
CONTINUOUS
 10
31.8579791271
 20
44.6381979956
 11
31.8579791271
 21
29.6810506352
  0
LINE
  5
2C0
100
AcDbEntity
  8
0
100
AcDbLine
 62
7
  6
CONTINUOUS
 10
31.9257480396
 20
29.642636896
 11
31.9257480396
 21
44.6381979956
  0
LINE
  5
2C1
100
AcDbEntity
  8
0
100
AcDbLine
 62
7
  6
CONTINUOUS
 10
31.934668138
 20
96.3572909456
 11
31.934668138
 21
81.3481979956
  0
LINE
  5
2C2
100
AcDbEntity
  8
0
100
AcDbLine
 62
7
  6
CONTINUOUS
 10
32.5535423197
 20
91.1731979956
 11
32.5535423197
 21
84.3131979956
  0
LINE
  5
2C3
100
AcDbEntity
  8
0
100
AcDbLine
 62
7
  6
CONTINUOUS
 10
32.5535423197
 20
41.7731979956
 11
32.5535423197
 21
34.9131979956
  0
LINE
  5
2C4
100
AcDbEntity
  8
0
100
AcDbLine
 62
7
  6
CONTINUOUS
 10
12.9835423197
 20
46.8931979956
 11
12.2794576149
 21
46.8931979956
  0
LINE
  5
2C5
100
AcDbEntity
  8
0
100
AcDbLine
 62
7
  6
CONTINUOUS
 10
78.9835423197
 20
46.8931979956
 11
79.6899079808
 21
46.8931979956
  0
LINE
  5
2C6
100
AcDbEntity
  8
0
100
AcDbLine
 62
7
  6
CONTINUOUS
 10
12.9835423197
 20
49.1931979956
 11
12.2794576149
 21
49.1931979956
  0
LINE
  5
2C7
100
AcDbEntity
  8
0
100
AcDbLine
 62
7
  6
CONTINUOUS
 10
78.9835423197
 20
49.1931979956
 11
79.6899079808
 21
49.1931979956
  0
LINE
  5
2C8
100
AcDbEntity
  8
0
100
AcDbLine
 62
7
  6
CONTINUOUS
 10
34.4634007622
 20
37.9681979956
 11
34.4634007622
 21
38.7181979956
  0
LINE
  5
2C9
100
AcDbEntity
  8
0
100
AcDbLine
 62
7
  6
CONTINUOUS
 10
34.4634007622
 20
87.3681979956
 11
34.4634007622
 21
88.1181979956
  0
LINE
  5
2CA
100
AcDbEntity
  8
0
100
AcDbLine
 62
7
  6
CONTINUOUS
 10
35.6085423197
 20
36.823056438
 11
35.6085423197
 21
37.6681979956
  0
LINE
  5
2CB
100
AcDbEntity
  8
0
100
AcDbLine
 62
7
  6
CONTINUOUS
 10
35.6085423197
 20
39.0181979956
 11
35.6085423197
 21
39.8633395531
  0
LINE
  5
2CC
100
AcDbEntity
  8
0
100
AcDbLine
 62
7
  6
CONTINUOUS
 10
35.6085423197
 20
86.223056438
 11
35.6085423197
 21
87.0681979956
  0
LINE
  5
2CD
100
AcDbEntity
  8
0
100
AcDbLine
 62
7
  6
CONTINUOUS
 10
35.6085423197
 20
88.4181979956
 11
35.6085423197
 21
89.2633395531
  0
LINE
  5
2CE
100
AcDbEntity
  8
0
100
AcDbLine
 62
7
  6
CONTINUOUS
 10
12.9835423197
 20
51.8931979956
 11
12.2794576149
 21
51.8931979956
  0
LINE
  5
2CF
100
AcDbEntity
  8
0
100
AcDbLine
 62
7
  6
CONTINUOUS
 10
78.9835423197
 20
51.8931979956
 11
79.6899079808
 21
51.8931979956
  0
LINE
  5
2D0
100
AcDbEntity
  8
0
100
AcDbLine
 62
7
  6
CONTINUOUS
 10
79.7248154501
 20
53.0000000009
 11
12.2422691875
 21
53.0000000009
  0
LINE
  5
2D1
100
AcDbEntity
  8
0
100
AcDbLine
 62
7
  6
CONTINUOUS
 10
10.3835423207
 20
53.0431979965
 11
12.2422691875
 21
53.0431979965
  0
LINE
  5
2D2
100
AcDbEntity
  8
0
100
AcDbLine
 62
7
  6
CONTINUOUS
 10
79.7248154501
 20
53.0431979965
 11
81.5835423207
 21
53.0431979965
  0
LINE
  5
2D3
100
AcDbEntity
  8
0
100
AcDbLine
 62
7
  6
CONTINUOUS
 10
36.3585423197
 20
89.2633395531
 11
36.3585423197
 21
88.4181979956
  0
LINE
  5
2D4
100
AcDbEntity
  8
0
100
AcDbLine
 62
7
  6
CONTINUOUS
 10
36.3585423197
 20
87.0681979956
 11
36.3585423197
 21
86.223056438
  0
LINE
  5
2D5
100
AcDbEntity
  8
0
100
AcDbLine
 62
7
  6
CONTINUOUS
 10
36.3585423197
 20
39.8633395531
 11
36.3585423197
 21
39.0181979956
  0
LINE
  5
2D6
100
AcDbEntity
  8
0
100
AcDbLine
 62
7
  6
CONTINUOUS
 10
36.3585423197
 20
37.6681979956
 11
36.3585423197
 21
36.823056438
  0
LINE
  5
2D7
100
AcDbEntity
  8
0
100
AcDbLine
 62
7
  6
CONTINUOUS
 10
37.5036838773
 20
88.1181979956
 11
37.5036838773
 21
87.3681979956
  0
LINE
  5
2D8
100
AcDbEntity
  8
0
100
AcDbLine
 62
7
  6
CONTINUOUS
 10
37.5036838773
 20
38.7181979956
 11
37.5036838773
 21
37.9681979956
  0
LINE
  5
2D9
100
AcDbEntity
  8
0
100
AcDbLine
 62
7
  6
CONTINUOUS
 10
39.4135423197
 20
91.1731979956
 11
39.4135423197
 21
84.3131979956
  0
LINE
  5
2DA
100
AcDbEntity
  8
0
100
AcDbLine
 62
7
  6
CONTINUOUS
 10
39.4135423197
 20
41.7731979956
 11
39.4135423197
 21
34.9131979956
  0
LINE
  5
2DB
100
AcDbEntity
  8
0
100
AcDbLine
 62
7
  6
CONTINUOUS
 10
12.9835423197
 20
54.1931979956
 11
12.2794576149
 21
54.1931979956
  0
LINE
  5
2DC
100
AcDbEntity
  8
0
100
AcDbLine
 62
7
  6
CONTINUOUS
 10
78.9835423197
 20
54.1931979956
 11
79.6899079808
 21
54.1931979956
  0
LINE
  5
2DD
100
AcDbEntity
  8
0
100
AcDbLine
 62
7
  6
CONTINUOUS
 10
15.3835423197
 20
55.9999971104
 11
76.5835423197
 21
55.9999971104
  0
LINE
  5
2DE
100
AcDbEntity
  8
0
100
AcDbLine
 62
7
  6
CONTINUOUS
 10
40.0324165052
 20
96.3572909456
 11
40.0324165052
 21
81.3481979956
  0
LINE
  5
2DF
100
AcDbEntity
  8
0
100
AcDbLine
 62
7
  6
CONTINUOUS
 10
40.041336602
 20
29.642636896
 11
40.041336602
 21
44.6381979956
  0
LINE
  5
2E0
100
AcDbEntity
  8
0
100
AcDbLine
 62
7
  6
CONTINUOUS
 10
40.1285716932
 20
29.6907829834
 11
40.1285716932
 21
44.6381979956
  0
LINE
  5
2E1
100
AcDbEntity
  8
0
100
AcDbLine
 62
7
  6
CONTINUOUS
 10
40.1460267435
 20
81.3481979956
 11
40.1460267435
 21
96.1658163128
  0
LINE
  5
2E2
100
AcDbEntity
  8
0
100
AcDbLine
 62
7
  6
CONTINUOUS
 10
40.6284955408
 20
44.6381979956
 11
40.6284955408
 21
29.6950616852
  0
LINE
  5
2E3
100
AcDbEntity
  8
0
100
AcDbLine
 62
7
  6
CONTINUOUS
 10
40.645950591
 20
95.3048916604
 11
40.645950591
 21
81.3481979956
  0
LINE
  5
2E4
100
AcDbEntity
  8
0
100
AcDbLine
 62
7
  6
CONTINUOUS
 10
41.3211340522
 20
81.3481979956
 11
41.3211340522
 21
95.3048916604
  0
LINE
  5
2E5
100
AcDbEntity
  8
0
100
AcDbLine
 62
7
  6
CONTINUOUS
 10
41.3385890987
 20
29.6950702649
 11
41.3385890987
 21
44.6381979956
  0
LINE
  5
2E6
100
AcDbEntity
  8
0
100
AcDbLine
 62
7
  6
CONTINUOUS
 10
41.8224657571
 20
96.2084506729
 11
41.8224657571
 21
81.3481979956
  0
LINE
  5
2E7
100
AcDbEntity
  8
0
100
AcDbLine
 62
7
  6
CONTINUOUS
 10
41.8385129463
 20
44.6381979956
 11
41.8385129463
 21
29.6907829834
  0
LINE
  5
2E8
100
AcDbEntity
  8
0
100
AcDbLine
 62
7
  6
CONTINUOUS
 10
41.9346497632
 20
96.3572909494
 11
41.9346497632
 21
81.3481979956
  0
LINE
  5
2E9
100
AcDbEntity
  8
0
100
AcDbLine
 62
7
  6
CONTINUOUS
 10
41.9346497448
 20
29.6427090543
 11
41.9346497448
 21
44.6381979956
  0
LINE
  5
2EA
100
AcDbEntity
  8
0
100
AcDbLine
 62
7
  6
CONTINUOUS
 10
42.5535423197
 20
91.1731979956
 11
42.5535423197
 21
84.3131979956
  0
LINE
  5
2EB
100
AcDbEntity
  8
0
100
AcDbLine
 62
7
  6
CONTINUOUS
 10
42.5535423197
 20
41.7731979956
 11
42.5535423197
 21
34.9131979956
  0
LINE
  5
2EC
100
AcDbEntity
  8
0
100
AcDbLine
 62
7
  6
CONTINUOUS
 10
15.3835423197
 20
57.3949926171
 11
76.5835423197
 21
57.3949926171
  0
LINE
  5
2ED
100
AcDbEntity
  8
0
100
AcDbLine
 62
7
  6
CONTINUOUS
 10
44.4634007622
 20
37.9681979956
 11
44.4634007622
 21
38.7181979956
  0
LINE
  5
2EE
100
AcDbEntity
  8
0
100
AcDbLine
 62
7
  6
CONTINUOUS
 10
44.4634007622
 20
87.3681979956
 11
44.4634007622
 21
88.1181979956
  0
LINE
  5
2EF
100
AcDbEntity
  8
0
100
AcDbLine
 62
7
  6
CONTINUOUS
 10
45.6085423197
 20
36.823056438
 11
45.6085423197
 21
37.6681979956
  0
LINE
  5
2F0
100
AcDbEntity
  8
0
100
AcDbLine
 62
7
  6
CONTINUOUS
 10
45.6085423197
 20
39.0181979956
 11
45.6085423197
 21
39.8633395531
  0
LINE
  5
2F1
100
AcDbEntity
  8
0
100
AcDbLine
 62
7
  6
CONTINUOUS
 10
45.6085423197
 20
86.223056438
 11
45.6085423197
 21
87.0681979956
  0
LINE
  5
2F2
100
AcDbEntity
  8
0
100
AcDbLine
 62
7
  6
CONTINUOUS
 10
45.6085423197
 20
88.4181979956
 11
45.6085423197
 21
89.2633395531
  0
LINE
  5
2F3
100
AcDbEntity
  8
0
100
AcDbLine
 62
7
  6
CONTINUOUS
 10
46.3585423197
 20
89.2633395531
 11
46.3585423197
 21
88.4181979956
  0
LINE
  5
2F4
100
AcDbEntity
  8
0
100
AcDbLine
 62
7
  6
CONTINUOUS
 10
46.3585423197
 20
87.0681979956
 11
46.3585423197
 21
86.223056438
  0
LINE
  5
2F5
100
AcDbEntity
  8
0
100
AcDbLine
 62
7
  6
CONTINUOUS
 10
46.3585423197
 20
39.8633395531
 11
46.3585423197
 21
39.0181979956
  0
LINE
  5
2F6
100
AcDbEntity
  8
0
100
AcDbLine
 62
7
  6
CONTINUOUS
 10
46.3585423197
 20
37.6681979956
 11
46.3585423197
 21
36.823056438
  0
LINE
  5
2F7
100
AcDbEntity
  8
0
100
AcDbLine
 62
7
  6
CONTINUOUS
 10
10.0925398272
 20
27.1112360399
 11
9.9835423197
 21
27.0
  0
LINE
  5
2F8
100
AcDbEntity
  8
0
100
AcDbLine
 62
7
  6
CONTINUOUS
 10
79.4132662718
 20
96.4297239521
 11
79.5993153184
 21
96.6157729986
  0
LINE
  5
2F9
100
AcDbEntity
  8
0
100
AcDbLine
 62
7
  6
CONTINUOUS
 10
81.8745448123
 20
98.898262637
 11
81.9835423197
 21
99.0
  0
LINE
  5
2FA
100
AcDbEntity
  8
0
100
AcDbLine
 62
7
  6
CONTINUOUS
 10
10.3835423197
 20
61.0431979956
 11
11.7785349359
 21
61.0431979956
  0
LINE
  5
2FB
100
AcDbEntity
  8
0
100
AcDbLine
 62
7
  6
CONTINUOUS
 10
79.5561173229
 20
29.4274250005
 11
79.4132662718
 21
29.5702760516
  0
LINE
  5
2FC
100
AcDbEntity
  8
0
100
AcDbLine
 62
7
  6
CONTINUOUS
 10
47.5036838773
 20
88.1181979956
 11
47.5036838773
 21
87.3681979956
  0
LINE
  5
2FD
100
AcDbEntity
  8
0
100
AcDbLine
 62
7
  6
CONTINUOUS
 10
47.5036838773
 20
38.7181979956
 11
47.5036838773
 21
37.9681979956
  0
LINE
  5
2FE
100
AcDbEntity
  8
0
100
AcDbLine
 62
7
  6
CONTINUOUS
 10
49.4135423197
 20
91.1731979956
 11
49.4135423197
 21
84.3131979956
  0
LINE
  5
2FF
100
AcDbEntity
  8
0
100
AcDbLine
 62
7
  6
CONTINUOUS
 10
49.4135423197
 20
41.7731979956
 11
49.4135423197
 21
34.9131979956
  0
LINE
  5
300
100
AcDbEntity
  8
0
100
AcDbLine
 62
7
  6
CONTINUOUS
 10
12.5741758872
 20
29.5702760516
 11
12.4166844999
 21
29.4224444082
  0
LINE
  5
301
100
AcDbEntity
  8
0
100
AcDbLine
 62
7
  6
CONTINUOUS
 10
11.7785349359
 20
65.0431979956
 11
10.3835423197
 21
65.0431979956
  0
LINE
  5
302
100
AcDbEntity
  8
0
100
AcDbLine
 62
7
  6
CONTINUOUS
 10
9.9835423197
 20
99.0
 11
10.0925398272
 21
98.898262637
  0
LINE
  5
303
100
AcDbEntity
  8
0
100
AcDbLine
 62
7
  6
CONTINUOUS
 10
12.3715126205
 20
96.6199568549
 11
12.5741758872
 21
96.4297239521
  0
LINE
  5
304
100
AcDbEntity
  8
0
100
AcDbLine
 62
7
  6
CONTINUOUS
 10
81.9835423197
 20
27.0
 11
81.8745448123
 21
27.1112360399
  0
LINE
  5
305
100
AcDbEntity
  8
0
100
AcDbLine
 62
7
  6
CONTINUOUS
 10
50.0324165052
 20
96.3572909456
 11
50.0324165052
 21
81.3481979956
  0
LINE
  5
306
100
AcDbEntity
  8
0
100
AcDbLine
 62
7
  6
CONTINUOUS
 10
50.0324348927
 20
29.6427090543
 11
50.0324348927
 21
44.6381979956
  0
LINE
  5
307
100
AcDbEntity
  8
0
100
AcDbLine
 62
7
  6
CONTINUOUS
 10
50.1285716912
 20
29.6907829834
 11
50.1285716912
 21
44.6381979956
  0
LINE
  5
308
100
AcDbEntity
  8
0
100
AcDbLine
 62
7
  6
CONTINUOUS
 10
50.1460267435
 20
81.3481979956
 11
50.1460267435
 21
96.1658163128
  0
LINE
  5
309
100
AcDbEntity
  8
0
100
AcDbLine
 62
7
  6
CONTINUOUS
 10
50.6284955388
 20
44.6381979956
 11
50.6284955388
 21
29.6950616852
  0
LINE
  5
30A
100
AcDbEntity
  8
0
100
AcDbLine
 62
7
  6
CONTINUOUS
 10
50.645950591
 20
95.3048916604
 11
50.645950591
 21
81.3481979956
  0
LINE
  5
30B
100
AcDbEntity
  8
0
100
AcDbLine
 62
7
  6
CONTINUOUS
 10
51.3211340522
 20
81.3481979956
 11
51.3211340522
 21
95.3048916604
  0
LINE
  5
30C
100
AcDbEntity
  8
0
100
AcDbLine
 62
7
  6
CONTINUOUS
 10
51.3385891007
 20
29.6950616853
 11
51.3385891007
 21
44.6381979956
  0
LINE
  5
30D
100
AcDbEntity
  8
0
100
AcDbLine
 62
7
  6
CONTINUOUS
 10
51.8210578997
 20
96.1658164783
 11
51.8210578997
 21
81.3481979956
  0
LINE
  5
30E
100
AcDbEntity
  8
0
100
AcDbLine
 62
7
  6
CONTINUOUS
 10
51.8385129483
 20
44.6381979956
 11
51.8385129483
 21
29.6907829834
  0
LINE
  5
30F
100
AcDbEntity
  8
0
100
AcDbLine
 62
7
  6
CONTINUOUS
 10
51.9346497468
 20
29.6427090543
 11
51.9346497468
 21
44.6381979956
  0
LINE
  5
310
100
AcDbEntity
  8
0
100
AcDbLine
 62
7
  6
CONTINUOUS
 10
51.934668138
 20
96.3572909456
 11
51.934668138
 21
81.3481979956
  0
LINE
  5
311
100
AcDbEntity
  8
0
100
AcDbLine
 62
7
  6
CONTINUOUS
 10
52.5535423197
 20
91.1731979956
 11
52.5535423197
 21
84.3131979956
  0
LINE
  5
312
100
AcDbEntity
  8
0
100
AcDbLine
 62
7
  6
CONTINUOUS
 10
52.5535423197
 20
41.7731979956
 11
52.5535423197
 21
34.9131979956
  0
LINE
  5
313
100
AcDbEntity
  8
0
100
AcDbLine
 62
7
  6
CONTINUOUS
 10
77.1399515034
 20
68.6050073848
 11
14.8271331361
 21
68.6050073848
  0
LINE
  5
314
100
AcDbEntity
  8
0
100
AcDbLine
 62
7
  6
CONTINUOUS
 10
77.2393729989
 20
70.0000000009
 11
14.7277116406
 21
70.0000000009
  0
LINE
  5
315
100
AcDbEntity
  8
0
100
AcDbLine
 62
7
  6
CONTINUOUS
 10
54.4634007622
 20
37.9681979956
 11
54.4634007622
 21
38.7181979956
  0
LINE
  5
316
100
AcDbEntity
  8
0
100
AcDbLine
 62
7
  6
CONTINUOUS
 10
54.4634007622
 20
87.3681979956
 11
54.4634007622
 21
88.1181979956
  0
LINE
  5
317
100
AcDbEntity
  8
0
100
AcDbLine
 62
7
  6
CONTINUOUS
 10
55.6085423197
 20
36.823056438
 11
55.6085423197
 21
37.6681979956
  0
LINE
  5
318
100
AcDbEntity
  8
0
100
AcDbLine
 62
7
  6
CONTINUOUS
 10
55.6085423197
 20
39.0181979956
 11
55.6085423197
 21
39.8633395531
  0
LINE
  5
319
100
AcDbEntity
  8
0
100
AcDbLine
 62
7
  6
CONTINUOUS
 10
55.6085423197
 20
86.223056438
 11
55.6085423197
 21
87.0681979956
  0
LINE
  5
31A
100
AcDbEntity
  8
0
100
AcDbLine
 62
7
  6
CONTINUOUS
 10
55.6085423197
 20
88.4181979956
 11
55.6085423197
 21
89.2633395531
  0
LINE
  5
31B
100
AcDbEntity
  8
0
100
AcDbLine
 62
7
  6
CONTINUOUS
 10
56.3585423197
 20
89.2633395531
 11
56.3585423197
 21
88.4181979956
  0
LINE
  5
31C
100
AcDbEntity
  8
0
100
AcDbLine
 62
7
  6
CONTINUOUS
 10
56.3585423197
 20
87.0681979956
 11
56.3585423197
 21
86.223056438
  0
LINE
  5
31D
100
AcDbEntity
  8
0
100
AcDbLine
 62
7
  6
CONTINUOUS
 10
56.3585423197
 20
39.8633395531
 11
56.3585423197
 21
39.0181979956
  0
LINE
  5
31E
100
AcDbEntity
  8
0
100
AcDbLine
 62
7
  6
CONTINUOUS
 10
56.3585423197
 20
37.6681979956
 11
56.3585423197
 21
36.823056438
  0
LINE
  5
31F
100
AcDbEntity
  8
0
100
AcDbLine
 62
7
  6
CONTINUOUS
 10
12.9835423197
 20
71.8931979956
 11
12.2794576149
 21
71.8931979956
  0
LINE
  5
320
100
AcDbEntity
  8
0
100
AcDbLine
 62
7
  6
CONTINUOUS
 10
78.9835423197
 20
71.8931979956
 11
79.6899079808
 21
71.8931979956
  0
LINE
  5
321
100
AcDbEntity
  8
0
100
AcDbLine
 62
7
  6
CONTINUOUS
 10
81.5835423207
 20
73.0000000009
 11
10.3835423207
 21
73.0000000009
  0
LINE
  5
322
100
AcDbEntity
  8
0
100
AcDbLine
 62
7
  6
CONTINUOUS
 10
81.5835423207
 20
73.0431979965
 11
79.9835423188
 21
73.0431979965
  0
LINE
  5
323
100
AcDbEntity
  8
0
100
AcDbLine
 62
7
  6
CONTINUOUS
 10
11.9835423188
 20
73.0431979965
 11
10.3835423207
 21
73.0431979965
  0
LINE
  5
324
100
AcDbEntity
  8
0
100
AcDbLine
 62
7
  6
CONTINUOUS
 10
57.5036838773
 20
88.1181979956
 11
57.5036838773
 21
87.3681979956
  0
LINE
  5
325
100
AcDbEntity
  8
0
100
AcDbLine
 62
7
  6
CONTINUOUS
 10
57.5036838773
 20
38.7181979956
 11
57.5036838773
 21
37.9681979956
  0
LINE
  5
326
100
AcDbEntity
  8
0
100
AcDbLine
 62
7
  6
CONTINUOUS
 10
59.4135423197
 20
91.1731979956
 11
59.4135423197
 21
84.3131979956
  0
LINE
  5
327
100
AcDbEntity
  8
0
100
AcDbLine
 62
7
  6
CONTINUOUS
 10
59.4135423197
 20
41.7731979956
 11
59.4135423197
 21
34.9131979956
  0
LINE
  5
328
100
AcDbEntity
  8
0
100
AcDbLine
 62
7
  6
CONTINUOUS
 10
12.9835423197
 20
74.1931979956
 11
12.2794576149
 21
74.1931979956
  0
LINE
  5
329
100
AcDbEntity
  8
0
100
AcDbLine
 62
7
  6
CONTINUOUS
 10
78.9835423197
 20
74.1931979956
 11
79.6899079808
 21
74.1931979956
  0
LINE
  5
32A
100
AcDbEntity
  8
0
100
AcDbLine
 62
7
  6
CONTINUOUS
 10
12.9835423197
 20
76.8931979956
 11
12.2794576149
 21
76.8931979956
  0
LINE
  5
32B
100
AcDbEntity
  8
0
100
AcDbLine
 62
7
  6
CONTINUOUS
 10
78.9835423197
 20
76.8931979956
 11
79.6899079808
 21
76.8931979956
  0
LINE
  5
32C
100
AcDbEntity
  8
0
100
AcDbLine
 62
7
  6
CONTINUOUS
 10
60.0324165125
 20
29.6427090545
 11
60.0324165125
 21
44.6381979956
  0
LINE
  5
32D
100
AcDbEntity
  8
0
100
AcDbLine
 62
7
  6
CONTINUOUS
 10
60.03243488
 20
96.3572909494
 11
60.03243488
 21
81.3481979956
  0
LINE
  5
32E
100
AcDbEntity
  8
0
100
AcDbLine
 62
7
  6
CONTINUOUS
 10
60.1091055144
 20
29.6810506352
 11
60.1091055144
 21
44.6381979956
  0
LINE
  5
32F
100
AcDbEntity
  8
0
100
AcDbLine
 62
7
  6
CONTINUOUS
 10
60.1460267435
 20
81.3481979956
 11
60.1460267435
 21
96.1658163128
  0
LINE
  5
330
100
AcDbEntity
  8
0
100
AcDbLine
 62
7
  6
CONTINUOUS
 10
60.609029362
 20
44.6381979956
 11
60.609029362
 21
29.6853379167
  0
LINE
  5
331
100
AcDbEntity
  8
0
100
AcDbLine
 62
7
  6
CONTINUOUS
 10
60.645950591
 20
95.3048916604
 11
60.645950591
 21
81.3481979956
  0
LINE
  5
332
100
AcDbEntity
  8
0
100
AcDbLine
 62
7
  6
CONTINUOUS
 10
61.3211340522
 20
81.3481979956
 11
61.3211340522
 21
95.3048916604
  0
LINE
  5
333
100
AcDbEntity
  8
0
100
AcDbLine
 62
7
  6
CONTINUOUS
 10
61.8212022274
 20
96.1706479516
 11
61.8212022274
 21
81.3481979956
  0
LINE
  5
334
100
AcDbEntity
  8
0
100
AcDbLine
 62
7
  6
CONTINUOUS
 10
61.934668138
 20
96.3572909456
 11
61.934668138
 21
81.3481979956
  0
LINE
  5
335
100
AcDbEntity
  8
0
100
AcDbLine
 62
7
  6
CONTINUOUS
 10
62.0198323259
 20
29.6853379167
 11
62.0198323259
 21
44.6381979956
  0
LINE
  5
336
100
AcDbEntity
  8
0
100
AcDbLine
 62
7
  6
CONTINUOUS
 10
62.0476717285
 20
29.8145777081
 11
62.0476717285
 21
44.6381979956
  0
LINE
  5
337
100
AcDbEntity
  8
0
100
AcDbLine
 62
7
  6
CONTINUOUS
 10
62.5482022168
 20
44.6381979956
 11
62.5482022168
 21
30.6951042135
  0
LINE
  5
338
100
AcDbEntity
  8
0
100
AcDbLine
 62
7
  6
CONTINUOUS
 10
62.5535423197
 20
91.1731979956
 11
62.5535423197
 21
84.3131979956
  0
LINE
  5
339
100
AcDbEntity
  8
0
100
AcDbLine
 62
7
  6
CONTINUOUS
 10
12.9835423197
 20
79.1931979956
 11
12.2794576149
 21
79.1931979956
  0
LINE
  5
33A
100
AcDbEntity
  8
0
100
AcDbLine
 62
7
  6
CONTINUOUS
 10
78.9835423197
 20
79.1931979956
 11
79.6899079808
 21
79.1931979956
  0
LINE
  5
33B
100
AcDbEntity
  8
0
100
AcDbLine
 62
7
  6
CONTINUOUS
 10
13.7624471172
 20
79.968970979
 11
13.7160135812
 21
79.968970979
  0
LINE
  5
33C
100
AcDbEntity
  8
0
100
AcDbLine
 62
7
  6
CONTINUOUS
 10
64.4634007622
 20
87.3681979956
 11
64.4634007622
 21
88.1181979956
  0
LINE
  5
33D
100
AcDbEntity
  8
0
100
AcDbLine
 62
7
  6
CONTINUOUS
 10
65.6085423197
 20
86.223056438
 11
65.6085423197
 21
87.0681979956
  0
LINE
  5
33E
100
AcDbEntity
  8
0
100
AcDbLine
 62
7
  6
CONTINUOUS
 10
65.6085423197
 20
88.4181979956
 11
65.6085423197
 21
89.2633395531
  0
LINE
  5
33F
100
AcDbEntity
  8
0
100
AcDbLine
 62
7
  6
CONTINUOUS
 10
66.3585423197
 20
89.2633395531
 11
66.3585423197
 21
88.4181979956
  0
LINE
  5
340
100
AcDbEntity
  8
0
100
AcDbLine
 62
7
  6
CONTINUOUS
 10
66.3585423197
 20
87.0681979956
 11
66.3585423197
 21
86.223056438
  0
LINE
  5
341
100
AcDbEntity
  8
0
100
AcDbLine
 62
7
  6
CONTINUOUS
 10
10.0795451769
 20
80.7933979956
 11
81.8875394626
 21
80.7933979956
  0
LINE
  5
342
100
AcDbEntity
  8
0
100
AcDbLine
 62
7
  6
CONTINUOUS
 10
12.805237336
 20
80.9519440787
 11
79.1900983881
 21
80.9519440787
  0
LINE
  5
343
100
AcDbEntity
  8
0
100
AcDbLine
 62
7
  6
CONTINUOUS
 10
81.8875394626
 20
81.3195979956
 11
10.0795451769
 21
81.3195979956
  0
LINE
  5
344
100
AcDbEntity
  8
0
100
AcDbLine
 62
7
  6
CONTINUOUS
 10
70.645950591
 20
81.3481979956
 11
21.3211340522
 21
81.3481979956
  0
LINE
  5
345
100
AcDbEntity
  8
0
100
AcDbLine
 62
7
  6
CONTINUOUS
 10
30.645950591
 20
81.3728913976
 11
31.3211340522
 21
81.3728913976
  0
LINE
  5
346
100
AcDbEntity
  8
0
100
AcDbLine
 62
7
  6
CONTINUOUS
 10
40.645950591
 20
81.3728913976
 11
41.3211340522
 21
81.3728913976
  0
LINE
  5
347
100
AcDbEntity
  8
0
100
AcDbLine
 62
7
  6
CONTINUOUS
 10
50.645950591
 20
81.3728913976
 11
51.3211340522
 21
81.3728913976
  0
LINE
  5
348
100
AcDbEntity
  8
0
100
AcDbLine
 62
7
  6
CONTINUOUS
 10
60.645950591
 20
81.3728913976
 11
61.3211340522
 21
81.3728913976
  0
LINE
  5
349
100
AcDbEntity
  8
0
100
AcDbLine
 62
7
  6
CONTINUOUS
 10
79.2797451908
 20
81.4262910103
 11
70.645950591
 21
81.4262910103
  0
LINE
  5
34A
100
AcDbEntity
  8
0
100
AcDbLine
 62
7
  6
CONTINUOUS
 10
61.3211340522
 20
81.4262910103
 11
60.645950591
 21
81.4262910103
  0
LINE
  5
34B
100
AcDbEntity
  8
0
100
AcDbLine
 62
7
  6
CONTINUOUS
 10
51.3211340522
 20
81.4262910103
 11
50.645950591
 21
81.4262910103
  0
LINE
  5
34C
100
AcDbEntity
  8
0
100
AcDbLine
 62
7
  6
CONTINUOUS
 10
41.3211340522
 20
81.4262910103
 11
40.645950591
 21
81.4262910103
  0
LINE
  5
34D
100
AcDbEntity
  8
0
100
AcDbLine
 62
7
  6
CONTINUOUS
 10
31.3211340522
 20
81.4262910103
 11
30.645950591
 21
81.4262910103
  0
LINE
  5
34E
100
AcDbEntity
  8
0
100
AcDbLine
 62
7
  6
CONTINUOUS
 10
21.3211350237
 20
81.4262910103
 11
12.7164216189
 21
81.4262910103
  0
LINE
  5
34F
100
AcDbEntity
  8
0
100
AcDbLine
 62
7
  6
CONTINUOUS
 10
12.9835423197
 20
81.8931979956
 11
12.2794576149
 21
81.8931979956
  0
LINE
  5
350
100
AcDbEntity
  8
0
100
AcDbLine
 62
7
  6
CONTINUOUS
 10
78.9835423197
 20
81.8931979956
 11
79.6899079808
 21
81.8931979956
  0
LINE
  5
351
100
AcDbEntity
  8
0
100
AcDbLine
 62
7
  6
CONTINUOUS
 10
67.5036838773
 20
88.1181979956
 11
67.5036838773
 21
87.3681979956
  0
LINE
  5
352
100
AcDbEntity
  8
0
100
AcDbLine
 62
7
  6
CONTINUOUS
 10
69.4135423197
 20
91.1731979956
 11
69.4135423197
 21
84.3131979956
  0
LINE
  5
353
100
AcDbEntity
  8
0
100
AcDbLine
 62
7
  6
CONTINUOUS
 10
70.0413365873
 20
96.3573631077
 11
70.0413365873
 21
81.3481979956
  0
LINE
  5
354
100
AcDbEntity
  8
0
100
AcDbLine
 62
7
  6
CONTINUOUS
 10
70.1460267435
 20
81.3481979956
 11
70.1460267435
 21
96.1658058065
  0
LINE
  5
355
100
AcDbEntity
  8
0
100
AcDbLine
 62
7
  6
CONTINUOUS
 10
12.9835423197
 20
84.1931979956
 11
12.2794576149
 21
84.1931979956
  0
LINE
  5
356
100
AcDbEntity
  8
0
100
AcDbLine
 62
7
  6
CONTINUOUS
 10
78.9835423197
 20
84.1931979956
 11
79.6899079808
 21
84.1931979956
  0
LINE
  5
357
100
AcDbEntity
  8
0
100
AcDbLine
 62
7
  6
CONTINUOUS
 10
22.5535423197
 20
84.3131979956
 11
29.4135423197
 21
84.3131979956
  0
LINE
  5
358
100
AcDbEntity
  8
0
100
AcDbLine
 62
7
  6
CONTINUOUS
 10
32.5535423197
 20
84.3131979956
 11
39.4135423197
 21
84.3131979956
  0
LINE
  5
359
100
AcDbEntity
  8
0
100
AcDbLine
 62
7
  6
CONTINUOUS
 10
42.5535423197
 20
84.3131979956
 11
49.4135423197
 21
84.3131979956
  0
LINE
  5
35A
100
AcDbEntity
  8
0
100
AcDbLine
 62
7
  6
CONTINUOUS
 10
52.5535423197
 20
84.3131979956
 11
59.4135423197
 21
84.3131979956
  0
LINE
  5
35B
100
AcDbEntity
  8
0
100
AcDbLine
 62
7
  6
CONTINUOUS
 10
62.5535423197
 20
84.3131979956
 11
69.4135423197
 21
84.3131979956
  0
LINE
  5
35C
100
AcDbEntity
  8
0
100
AcDbLine
 62
7
  6
CONTINUOUS
 10
66.3585423197
 20
86.223056438
 11
65.6085423197
 21
86.223056438
  0
LINE
  5
35D
100
AcDbEntity
  8
0
100
AcDbLine
 62
7
  6
CONTINUOUS
 10
56.3585423197
 20
86.223056438
 11
55.6085423197
 21
86.223056438
  0
LINE
  5
35E
100
AcDbEntity
  8
0
100
AcDbLine
 62
7
  6
CONTINUOUS
 10
46.3585423197
 20
86.223056438
 11
45.6085423197
 21
86.223056438
  0
LINE
  5
35F
100
AcDbEntity
  8
0
100
AcDbLine
 62
7
  6
CONTINUOUS
 10
36.3585423197
 20
86.223056438
 11
35.6085423197
 21
86.223056438
  0
LINE
  5
360
100
AcDbEntity
  8
0
100
AcDbLine
 62
7
  6
CONTINUOUS
 10
26.3585423197
 20
86.223056438
 11
25.6085423197
 21
86.223056438
  0
LINE
  5
361
100
AcDbEntity
  8
0
100
AcDbLine
 62
7
  6
CONTINUOUS
 10
12.9835423197
 20
86.8931979956
 11
12.2794576149
 21
86.8931979956
  0
LINE
  5
362
100
AcDbEntity
  8
0
100
AcDbLine
 62
7
  6
CONTINUOUS
 10
78.9835423197
 20
86.8931979956
 11
79.6899079808
 21
86.8931979956
  0
LINE
  5
363
100
AcDbEntity
  8
0
100
AcDbLine
 62
7
  6
CONTINUOUS
 10
30.0324165052
 20
96.3572909456
 11
30.1372992168
 21
96.3048535835
  0
LINE
  5
364
100
AcDbEntity
  8
0
100
AcDbLine
 62
7
  6
CONTINUOUS
 10
70.645950591
 20
95.3048916604
 11
70.645950591
 21
81.3481979956
  0
LINE
  5
365
100
AcDbEntity
  8
0
100
AcDbLine
 62
7
  6
CONTINUOUS
 10
71.1112806966
 20
29.5702760516
 11
71.1112806966
 21
29.6091486911
  0
LINE
  5
366
100
AcDbEntity
  8
0
100
AcDbLine
 62
7
  6
CONTINUOUS
 10
71.6026293282
 20
95.972979057
 11
71.6026293282
 21
92.0431980653
  0
LINE
  5
367
100
AcDbEntity
  8
0
100
AcDbLine
 62
7
  6
CONTINUOUS
 10
71.6026293282
 20
30.1134169341
 11
71.6026293282
 21
34.0431979258
  0
LINE
  5
368
100
AcDbEntity
  8
0
100
AcDbLine
 62
7
  6
CONTINUOUS
 10
40.1285716932
 20
29.6907829834
 11
40.041336602
 21
29.642636896
  0
LINE
  5
369
100
AcDbEntity
  8
0
100
AcDbLine
 62
7
  6
CONTINUOUS
 10
67.5036838773
 20
87.3681979956
 11
66.6585423197
 21
87.3681979956
  0
LINE
  5
36A
100
AcDbEntity
  8
0
100
AcDbLine
 62
7
  6
CONTINUOUS
 10
65.3085423197
 20
87.3681979956
 11
64.4634007622
 21
87.3681979956
  0
LINE
  5
36B
100
AcDbEntity
  8
0
100
AcDbLine
 62
7
  6
CONTINUOUS
 10
57.5036838773
 20
87.3681979956
 11
56.6585423197
 21
87.3681979956
  0
LINE
  5
36C
100
AcDbEntity
  8
0
100
AcDbLine
 62
7
  6
CONTINUOUS
 10
55.3085423197
 20
87.3681979956
 11
54.4634007622
 21
87.3681979956
  0
LINE
  5
36D
100
AcDbEntity
  8
0
100
AcDbLine
 62
7
  6
CONTINUOUS
 10
47.5036838773
 20
87.3681979956
 11
46.6585423197
 21
87.3681979956
  0
LINE
  5
36E
100
AcDbEntity
  8
0
100
AcDbLine
 62
7
  6
CONTINUOUS
 10
45.3085423197
 20
87.3681979956
 11
44.4634007622
 21
87.3681979956
  0
LINE
  5
36F
100
AcDbEntity
  8
0
100
AcDbLine
 62
7
  6
CONTINUOUS
 10
37.5036838773
 20
87.3681979956
 11
36.6585423197
 21
87.3681979956
  0
LINE
  5
370
100
AcDbEntity
  8
0
100
AcDbLine
 62
7
  6
CONTINUOUS
 10
35.3085423197
 20
87.3681979956
 11
34.4634007622
 21
87.3681979956
  0
LINE
  5
371
100
AcDbEntity
  8
0
100
AcDbLine
 62
7
  6
CONTINUOUS
 10
27.5036838773
 20
87.3681979956
 11
26.6585423197
 21
87.3681979956
  0
LINE
  5
372
100
AcDbEntity
  8
0
100
AcDbLine
 62
7
  6
CONTINUOUS
 10
25.3085423197
 20
87.3681979956
 11
24.4634007622
 21
87.3681979956
  0
LINE
  5
373
100
AcDbEntity
  8
0
100
AcDbLine
 62
7
  6
CONTINUOUS
 10
24.4634007622
 20
88.1181979956
 11
25.3085423197
 21
88.1181979956
  0
LINE
  5
374
100
AcDbEntity
  8
0
100
AcDbLine
 62
7
  6
CONTINUOUS
 10
26.6585423197
 20
88.1181979956
 11
27.5036838773
 21
88.1181979956
  0
LINE
  5
375
100
AcDbEntity
  8
0
100
AcDbLine
 62
7
  6
CONTINUOUS
 10
34.4634007622
 20
88.1181979956
 11
35.3085423197
 21
88.1181979956
  0
LINE
  5
376
100
AcDbEntity
  8
0
100
AcDbLine
 62
7
  6
CONTINUOUS
 10
36.6585423197
 20
88.1181979956
 11
37.5036838773
 21
88.1181979956
  0
LINE
  5
377
100
AcDbEntity
  8
0
100
AcDbLine
 62
7
  6
CONTINUOUS
 10
44.4634007622
 20
88.1181979956
 11
45.3085423197
 21
88.1181979956
  0
LINE
  5
378
100
AcDbEntity
  8
0
100
AcDbLine
 62
7
  6
CONTINUOUS
 10
46.6585423197
 20
88.1181979956
 11
47.5036838773
 21
88.1181979956
  0
LINE
  5
379
100
AcDbEntity
  8
0
100
AcDbLine
 62
7
  6
CONTINUOUS
 10
54.4634007622
 20
88.1181979956
 11
55.3085423197
 21
88.1181979956
  0
LINE
  5
37A
100
AcDbEntity
  8
0
100
AcDbLine
 62
7
  6
CONTINUOUS
 10
56.6585423197
 20
88.1181979956
 11
57.5036838773
 21
88.1181979956
  0
LINE
  5
37B
100
AcDbEntity
  8
0
100
AcDbLine
 62
7
  6
CONTINUOUS
 10
64.4634007622
 20
88.1181979956
 11
65.3085423197
 21
88.1181979956
  0
LINE
  5
37C
100
AcDbEntity
  8
0
100
AcDbLine
 62
7
  6
CONTINUOUS
 10
66.6585423197
 20
88.1181979956
 11
67.5036838773
 21
88.1181979956
  0
LINE
  5
37D
100
AcDbEntity
  8
0
100
AcDbLine
 62
7
  6
CONTINUOUS
 10
79.220547209
 20
88.6622850737
 11
74.9835423197
 21
88.6622850737
  0
LINE
  5
37E
100
AcDbEntity
  8
0
100
AcDbLine
 62
7
  6
CONTINUOUS
 10
16.9835423197
 20
88.6622850737
 11
12.7465374305
 21
88.6622850737
  0
LINE
  5
37F
100
AcDbEntity
  8
0
100
AcDbLine
 62
7
  6
CONTINUOUS
 10
12.9835423197
 20
89.1931979956
 11
12.2794576149
 21
89.1931979956
  0
LINE
  5
380
100
AcDbEntity
  8
0
100
AcDbLine
 62
7
  6
CONTINUOUS
 10
78.9835423197
 20
89.1931979956
 11
79.6899079808
 21
89.1931979956
  0
LINE
  5
381
100
AcDbEntity
  8
0
100
AcDbLine
 62
7
  6
CONTINUOUS
 10
25.6085423197
 20
89.2633395531
 11
26.3585423197
 21
89.2633395531
  0
LINE
  5
382
100
AcDbEntity
  8
0
100
AcDbLine
 62
7
  6
CONTINUOUS
 10
35.6085423197
 20
89.2633395531
 11
36.3585423197
 21
89.2633395531
  0
LINE
  5
383
100
AcDbEntity
  8
0
100
AcDbLine
 62
7
  6
CONTINUOUS
 10
45.6085423197
 20
89.2633395531
 11
46.3585423197
 21
89.2633395531
  0
LINE
  5
384
100
AcDbEntity
  8
0
100
AcDbLine
 62
7
  6
CONTINUOUS
 10
55.6085423197
 20
89.2633395531
 11
56.3585423197
 21
89.2633395531
  0
LINE
  5
385
100
AcDbEntity
  8
0
100
AcDbLine
 62
7
  6
CONTINUOUS
 10
65.6085423197
 20
89.2633395531
 11
66.3585423197
 21
89.2633395531
  0
LINE
  5
386
100
AcDbEntity
  8
0
100
AcDbLine
 62
7
  6
CONTINUOUS
 10
40.0324165052
 20
96.3572909456
 11
40.1372992168
 21
96.3048535835
  0
LINE
  5
387
100
AcDbEntity
  8
0
100
AcDbLine
 62
7
  6
CONTINUOUS
 10
74.9835423197
 20
27.1297000274
 11
74.9835423197
 21
44.7669979956
  0
LINE
  5
388
100
AcDbEntity
  8
0
100
AcDbLine
 62
7
  6
CONTINUOUS
 10
74.9835423197
 20
45.2931979956
 11
74.9835423197
 21
80.7933979956
  0
LINE
  5
389
100
AcDbEntity
  8
0
100
AcDbLine
 62
7
  6
CONTINUOUS
 10
74.9835423197
 20
81.3195979956
 11
74.9835423197
 21
98.8813753278
  0
LINE
  5
38A
100
AcDbEntity
  8
0
100
AcDbLine
 62
7
  6
CONTINUOUS
 10
75.4835423197
 20
98.8825827454
 11
75.4835423197
 21
81.3195979956
  0
LINE
  5
38B
100
AcDbEntity
  8
0
100
AcDbLine
 62
7
  6
CONTINUOUS
 10
75.4835423197
 20
80.7933979956
 11
75.4835423197
 21
45.2931979956
  0
LINE
  5
38C
100
AcDbEntity
  8
0
100
AcDbLine
 62
7
  6
CONTINUOUS
 10
75.4835423197
 20
44.7669979956
 11
75.4835423197
 21
27.1283798796
  0
LINE
  5
38D
100
AcDbEntity
  8
0
100
AcDbLine
 62
7
  6
CONTINUOUS
 10
76.5835423197
 20
56.0000000009
 11
76.5835423197
 21
57.4381906117
  0
LINE
  5
38E
100
AcDbEntity
  8
0
100
AcDbLine
 62
7
  6
CONTINUOUS
 10
79.2037452848
 20
80.9612483812
 11
79.2797451908
 21
81.4262910103
  0
LINE
  5
38F
100
AcDbEntity
  8
0
100
AcDbLine
 62
7
  6
CONTINUOUS
 10
22.5535423197
 20
91.1731979956
 11
29.4135423197
 21
91.1731979956
  0
LINE
  5
390
100
AcDbEntity
  8
0
100
AcDbLine
 62
7
  6
CONTINUOUS
 10
32.5535423197
 20
91.1731979956
 11
39.4135423197
 21
91.1731979956
  0
LINE
  5
391
100
AcDbEntity
  8
0
100
AcDbLine
 62
7
  6
CONTINUOUS
 10
42.5535423197
 20
91.1731979956
 11
49.4135423197
 21
91.1731979956
  0
LINE
  5
392
100
AcDbEntity
  8
0
100
AcDbLine
 62
7
  6
CONTINUOUS
 10
52.5535423197
 20
91.1731979956
 11
59.4135423197
 21
91.1731979956
  0
LINE
  5
393
100
AcDbEntity
  8
0
100
AcDbLine
 62
7
  6
CONTINUOUS
 10
62.5535423197
 20
91.1731979956
 11
69.4135423197
 21
91.1731979956
  0
LINE
  5
394
100
AcDbEntity
  8
0
100
AcDbLine
 62
7
  6
CONTINUOUS
 10
79.2797451908
 20
44.5737089916
 11
79.2037452848
 21
45.0301140152
  0
LWPOLYLINE
  5
395
100
AcDbEntity
  8
0
100
AcDbPolyline
 62
7
  6
CONTINUOUS
 90
4
 70
0
 10
79.2038413736
 20
45.0308211484
 10
79.203788169
 20
45.0313473406
 10
79.2036285612
 20
45.0318734735
 10
79.2033625726
 20
45.0324020737
  0
LINE
  5
396
100
AcDbEntity
  8
0
100
AcDbLine
 62
7
  6
CONTINUOUS
 10
80.7128652891
 20
28.7528956691
 11
80.7340550471
 21
27.5389352466
  0
LINE
  5
397
100
AcDbEntity
  8
0
100
AcDbLine
 62
7
  6
CONTINUOUS
 10
77.7063144915
 20
30.5854233208
 11
77.7063144915
 21
28.0409726703
  0
LINE
  5
398
100
AcDbEntity
  8
0
100
AcDbLine
 62
7
  6
CONTINUOUS
 10
78.2037833617
 20
45.7807228522
 11
78.2037833617
 21
80.2193709476
  0
LINE
  5
399
100
AcDbEntity
  8
0
100
AcDbLine
 62
7
  6
CONTINUOUS
 10
78.9835423197
 20
89.1931979956
 11
78.9835423197
 21
86.8931979956
  0
LINE
  5
39A
100
AcDbEntity
  8
0
100
AcDbLine
 62
7
  6
CONTINUOUS
 10
78.9835423197
 20
84.1931979956
 11
78.9835423197
 21
81.8931979956
  0
LINE
  5
39B
100
AcDbEntity
  8
0
100
AcDbLine
 62
7
  6
CONTINUOUS
 10
78.9835423197
 20
79.1931979956
 11
78.9835423197
 21
76.8931979956
  0
LINE
  5
39C
100
AcDbEntity
  8
0
100
AcDbLine
 62
7
  6
CONTINUOUS
 10
78.9835423197
 20
74.1931979956
 11
78.9835423197
 21
71.8931979956
  0
LINE
  5
39D
100
AcDbEntity
  8
0
100
AcDbLine
 62
7
  6
CONTINUOUS
 10
78.9835423197
 20
54.1931979956
 11
78.9835423197
 21
51.8931979956
  0
LINE
  5
39E
100
AcDbEntity
  8
0
100
AcDbLine
 62
7
  6
CONTINUOUS
 10
78.9835423197
 20
49.1931979956
 11
78.9835423197
 21
46.8931979956
  0
LINE
  5
39F
100
AcDbEntity
  8
0
100
AcDbLine
 62
7
  6
CONTINUOUS
 10
78.9835423197
 20
44.1931979956
 11
78.9835423197
 21
41.8931979956
  0
LINE
  5
3A0
100
AcDbEntity
  8
0
100
AcDbLine
 62
7
  6
CONTINUOUS
 10
78.9835423197
 20
39.1931979956
 11
78.9835423197
 21
36.8931979956
  0
LINE
  5
3A1
100
AcDbEntity
  8
0
100
AcDbLine
 62
7
  6
CONTINUOUS
 10
79.2037452848
 20
80.9612483812
 11
79.2037452848
 21
45.0301140152
  0
LINE
  5
3A2
100
AcDbEntity
  8
0
100
AcDbLine
 62
7
  6
CONTINUOUS
 10
79.2797451908
 20
37.427225819
 11
79.2797451908
 21
44.5737089916
  0
LINE
  5
3A3
100
AcDbEntity
  8
0
100
AcDbLine
 62
7
  6
CONTINUOUS
 10
79.2797451908
 20
81.4262910103
 11
79.2797451908
 21
88.6591701721
  0
LINE
  5
3A4
100
AcDbEntity
  8
0
100
AcDbLine
 62
7
  6
CONTINUOUS
 10
79.4132662718
 20
29.5702760516
 11
79.4132662718
 21
37.46127744
  0
LINE
  5
3A5
100
AcDbEntity
  8
0
100
AcDbLine
 62
7
  6
CONTINUOUS
 10
79.4132662718
 20
88.6251185511
 11
79.4132662718
 21
96.4297239521
  0
LINE
  5
3A6
100
AcDbEntity
  8
0
100
AcDbLine
 62
7
  6
CONTINUOUS
 10
79.5590049639
 20
36.8931979956
 11
79.5590049639
 21
39.1931979956
  0
LINE
  5
3A7
100
AcDbEntity
  8
0
100
AcDbLine
 62
7
  6
CONTINUOUS
 10
79.5590049639
 20
41.8931979956
 11
79.5590049639
 21
44.1931979956
  0
LINE
  5
3A8
100
AcDbEntity
  8
0
100
AcDbLine
 62
7
  6
CONTINUOUS
 10
79.5590049639
 20
46.8931979956
 11
79.5590049639
 21
49.1931979956
  0
LINE
  5
3A9
100
AcDbEntity
  8
0
100
AcDbLine
 62
7
  6
CONTINUOUS
 10
79.5590049639
 20
51.8931979956
 11
79.5590049639
 21
54.1931979956
  0
LINE
  5
3AA
100
AcDbEntity
  8
0
100
AcDbLine
 62
7
  6
CONTINUOUS
 10
79.5590049639
 20
71.8931979956
 11
79.5590049639
 21
74.1931979956
  0
LINE
  5
3AB
100
AcDbEntity
  8
0
100
AcDbLine
 62
7
  6
CONTINUOUS
 10
79.5590049639
 20
76.8931979956
 11
79.5590049639
 21
79.1931979956
  0
LINE
  5
3AC
100
AcDbEntity
  8
0
100
AcDbLine
 62
7
  6
CONTINUOUS
 10
79.5590049639
 20
81.8931979956
 11
79.5590049639
 21
84.1931979956
  0
LINE
  5
3AD
100
AcDbEntity
  8
0
100
AcDbLine
 62
7
  6
CONTINUOUS
 10
79.5590049639
 20
86.8931979956
 11
79.5590049639
 21
89.1931979956
  0
LINE
  5
3AE
100
AcDbEntity
  8
0
100
AcDbLine
 62
7
  6
CONTINUOUS
 10
79.6899079808
 20
89.1931979956
 11
79.6899079808
 21
86.8931979956
  0
LINE
  5
3AF
100
AcDbEntity
  8
0
100
AcDbLine
 62
7
  6
CONTINUOUS
 10
79.6899079808
 20
84.1931979956
 11
79.6899079808
 21
81.8931979956
  0
LINE
  5
3B0
100
AcDbEntity
  8
0
100
AcDbLine
 62
7
  6
CONTINUOUS
 10
79.6899079808
 20
79.1931979956
 11
79.6899079808
 21
76.8931979956
  0
LINE
  5
3B1
100
AcDbEntity
  8
0
100
AcDbLine
 62
7
  6
CONTINUOUS
 10
79.6899079808
 20
74.1931979956
 11
79.6899079808
 21
71.8931979956
  0
LINE
  5
3B2
100
AcDbEntity
  8
0
100
AcDbLine
 62
7
  6
CONTINUOUS
 10
79.6899079808
 20
54.1931979956
 11
79.6899079808
 21
51.8931979956
  0
LINE
  5
3B3
100
AcDbEntity
  8
0
100
AcDbLine
 62
7
  6
CONTINUOUS
 10
79.6899079808
 20
49.1931979956
 11
79.6899079808
 21
46.8931979956
  0
LINE
  5
3B4
100
AcDbEntity
  8
0
100
AcDbLine
 62
7
  6
CONTINUOUS
 10
79.6899079808
 20
44.1931979956
 11
79.6899079808
 21
41.8931979956
  0
LINE
  5
3B5
100
AcDbEntity
  8
0
100
AcDbLine
 62
7
  6
CONTINUOUS
 10
79.6899079808
 20
39.1931979956
 11
79.6899079808
 21
36.8931979956
  0
LINE
  5
3B6
100
AcDbEntity
  8
0
100
AcDbLine
 62
7
  6
CONTINUOUS
 10
79.7248154501
 20
29.8019058286
 11
79.7248154501
 21
96.2844901662
  0
LINE
  5
3B7
100
AcDbEntity
  8
0
100
AcDbLine
 62
7
  6
CONTINUOUS
 10
79.9835423188
 20
53.0431979965
 11
79.9835423188
 21
73.0431979965
  0
LINE
  5
3B8
100
AcDbEntity
  8
0
100
AcDbLine
 62
7
  6
CONTINUOUS
 10
80.0835423207
 20
60.1788463652
 11
80.0835423207
 21
65.9071498883
  0
LINE
  5
3B9
100
AcDbEntity
  8
0
100
AcDbLine
 62
7
  6
CONTINUOUS
 10
50.1285716912
 20
29.6907829834
 11
50.0324348927
 21
29.6427090543
  0
LINE
  5
3BA
100
AcDbEntity
  8
0
100
AcDbLine
 62
7
  6
CONTINUOUS
 10
71.6026293282
 20
95.3048916604
 11
70.645950591
 21
95.3048916604
  0
LINE
  5
3BB
100
AcDbEntity
  8
0
100
AcDbLine
 62
7
  6
CONTINUOUS
 10
61.3211340522
 20
95.3048916604
 11
60.645950591
 21
95.3048916604
  0
LINE
  5
3BC
100
AcDbEntity
  8
0
100
AcDbLine
 62
7
  6
CONTINUOUS
 10
51.3211340522
 20
95.3048916604
 11
50.645950591
 21
95.3048916604
  0
LINE
  5
3BD
100
AcDbEntity
  8
0
100
AcDbLine
 62
7
  6
CONTINUOUS
 10
41.3189845988
 20
95.3048916604
 11
40.645950591
 21
95.3048916604
  0
LINE
  5
3BE
100
AcDbEntity
  8
0
100
AcDbLine
 62
7
  6
CONTINUOUS
 10
31.3211340522
 20
95.3048916604
 11
30.645950591
 21
95.3048916604
  0
LINE
  5
3BF
100
AcDbEntity
  8
0
100
AcDbLine
 62
7
  6
CONTINUOUS
 10
21.3211350237
 20
95.3048916604
 11
20.3644553113
 21
95.3048916604
  0
LINE
  5
3C0
100
AcDbEntity
  8
0
100
AcDbLine
 62
7
  6
CONTINUOUS
 10
20.4872070939
 20
96.3048535835
 11
21.8297840143
 21
96.3048535835
  0
LINE
  5
3C1
100
AcDbEntity
  8
0
100
AcDbLine
 62
7
  6
CONTINUOUS
 10
30.1372992168
 20
96.3048535835
 11
31.8297854264
 21
96.3048535835
  0
LINE
  5
3C2
100
AcDbEntity
  8
0
100
AcDbLine
 62
7
  6
CONTINUOUS
 10
40.1372992168
 20
96.3048535835
 11
41.8297842272
 21
96.3048535835
  0
LINE
  5
3C3
100
AcDbEntity
  8
0
100
AcDbLine
 62
7
  6
CONTINUOUS
 10
50.1372992168
 20
96.3048535835
 11
51.8297854264
 21
96.3048535835
  0
LINE
  5
3C4
100
AcDbEntity
  8
0
100
AcDbLine
 62
7
  6
CONTINUOUS
 10
60.1373006289
 20
96.3048535835
 11
61.8297854264
 21
96.3048535835
  0
LINE
  5
3C5
100
AcDbEntity
  8
0
100
AcDbLine
 62
7
  6
CONTINUOUS
 10
70.1379946609
 20
96.3048535835
 11
71.4798775456
 21
96.3048535835
  0
LINE
  5
3C6
100
AcDbEntity
  8
0
100
AcDbLine
 62
7
  6
CONTINUOUS
 10
61.934668138
 20
96.3572909456
 11
70.0413365873
 21
96.3573631077
  0
LINE
  5
3C7
100
AcDbEntity
  8
0
100
AcDbLine
 62
7
  6
CONTINUOUS
 10
21.9346497632
 20
96.3572909494
 11
30.0324165052
 21
96.3572909456
  0
LINE
  5
3C8
100
AcDbEntity
  8
0
100
AcDbLine
 62
7
  6
CONTINUOUS
 10
31.934668138
 20
96.3572909456
 11
40.0324165052
 21
96.3572909456
  0
LINE
  5
3C9
100
AcDbEntity
  8
0
100
AcDbLine
 62
7
  6
CONTINUOUS
 10
41.9346497632
 20
96.3572909494
 11
50.0324165052
 21
96.3572909456
  0
LINE
  5
3CA
100
AcDbEntity
  8
0
100
AcDbLine
 62
7
  6
CONTINUOUS
 10
51.934668138
 20
96.3572909456
 11
60.03243488
 21
96.3572909494
  0
LINE
  5
3CB
100
AcDbEntity
  8
0
100
AcDbLine
 62
7
  6
CONTINUOUS
 10
12.5741758872
 20
96.4297239521
 11
20.6523009742
 21
96.4297239521
  0
LINE
  5
3CC
100
AcDbEntity
  8
0
100
AcDbLine
 62
7
  6
CONTINUOUS
 10
71.3147836653
 20
96.4297239521
 11
79.4132662718
 21
96.4297239521
  0
LINE
  5
3CD
100
AcDbEntity
  8
0
100
AcDbLine
 62
7
  6
CONTINUOUS
 10
79.4281392077
 20
96.7412731322
 11
12.53894543
 21
96.7412731322
  0
LINE
  5
3CE
100
AcDbEntity
  8
0
100
AcDbLine
 62
7
  6
CONTINUOUS
 10
50.0324165052
 20
96.3572909456
 11
50.1372992168
 21
96.3048535835
  0
LINE
  5
3CF
100
AcDbEntity
  8
0
100
AcDbLine
 62
7
  6
CONTINUOUS
 10
81.8578423197
 20
29.3131979956
 11
81.8355014066
 21
30.5931080547
  0
LINE
  5
3D0
100
AcDbEntity
  8
0
100
AcDbLine
 62
7
  6
CONTINUOUS
 10
80.4542109938
 20
31.0672018191
 11
80.4542109938
 21
27.559194172
  0
LINE
  5
3D1
100
AcDbEntity
  8
0
100
AcDbLine
 62
7
  6
CONTINUOUS
 10
80.6494836415
 20
28.7518148442
 11
80.6507205125
 21
29.8745850631
  0
LINE
  5
3D2
100
AcDbEntity
  8
0
100
AcDbLine
 62
7
  6
CONTINUOUS
 10
80.7128652891
 20
29.873500322
 11
80.7128652891
 21
28.7528956691
  0
LINE
  5
3D3
100
AcDbEntity
  8
0
100
AcDbLine
 62
7
  6
CONTINUOUS
 10
80.7340550471
 20
31.0874607445
 11
80.7340550471
 21
27.5389352466
  0
LINE
  5
3D4
100
AcDbEntity
  8
0
100
AcDbLine
 62
7
  6
CONTINUOUS
 10
81.318003277
 20
31.1162574125
 11
81.318003277
 21
27.5101385786
  0
LINE
  5
3D5
100
AcDbEntity
  8
0
100
AcDbLine
 62
7
  6
CONTINUOUS
 10
81.4604115712
 20
27.1198553937
 11
81.4604115712
 21
27.5893387783
  0
LINE
  5
3D6
100
AcDbEntity
  8
0
100
AcDbLine
 62
7
  6
CONTINUOUS
 10
81.4604115712
 20
31.0370572128
 11
81.4604115712
 21
44.7669979956
  0
LINE
  5
3D7
100
AcDbEntity
  8
0
100
AcDbLine
 62
7
  6
CONTINUOUS
 10
81.4604115712
 20
45.2931979956
 11
81.4604115712
 21
80.7933979956
  0
LINE
  5
3D8
100
AcDbEntity
  8
0
100
AcDbLine
 62
7
  6
CONTINUOUS
 10
81.4604115712
 20
81.3195979956
 11
81.4604115712
 21
98.8903793077
  0
LINE
  5
3D9
100
AcDbEntity
  8
0
100
AcDbLine
 62
7
  6
CONTINUOUS
 10
81.5835423207
 20
53.0431979965
 11
81.5835423207
 21
73.0431979965
  0
LINE
  5
3DA
100
AcDbEntity
  8
0
100
AcDbLine
 62
7
  6
CONTINUOUS
 10
81.835974129
 20
30.6148807852
 11
81.835974129
 21
28.0115152059
  0
LINE
  5
3DB
100
AcDbEntity
  8
0
100
AcDbLine
 62
7
  6
CONTINUOUS
 10
81.8745448123
 20
27.1112360399
 11
81.8745448123
 21
44.7669979956
  0
LINE
  5
3DC
100
AcDbEntity
  8
0
100
AcDbLine
 62
7
  6
CONTINUOUS
 10
81.8745448123
 20
45.2931979956
 11
81.8745448123
 21
80.7933979956
  0
LINE
  5
3DD
100
AcDbEntity
  8
0
100
AcDbLine
 62
7
  6
CONTINUOUS
 10
81.8745448123
 20
81.3195979956
 11
81.8745448123
 21
98.898262637
  0
LINE
  5
3DE
100
AcDbEntity
  8
0
100
AcDbLine
 62
7
  6
CONTINUOUS
 10
81.8875394626
 20
44.7669979956
 11
81.8875394626
 21
45.2931979956
  0
LINE
  5
3DF
100
AcDbEntity
  8
0
100
AcDbLine
 62
7
  6
CONTINUOUS
 10
81.8875394626
 20
80.7933979956
 11
81.8875394626
 21
81.3195979956
  0
LINE
  5
3E0
100
AcDbEntity
  8
0
100
AcDbLine
 62
7
  6
CONTINUOUS
 10
81.9335423197
 20
98.9500000009
 11
81.9335423197
 21
27.0500000009
  0
LINE
  5
3E1
100
AcDbEntity
  8
0
100
AcDbLine
 62
7
  6
CONTINUOUS
 10
81.9835423197
 20
27.0
 11
81.9835423197
 21
99.0
  0
LINE
  5
3E2
100
AcDbEntity
  8
0
100
AcDbLine
 62
7
  6
CONTINUOUS
 10
80.7128652891
 20
29.873500322
 11
80.7340550471
 21
31.0874607445
  0
LINE
  5
3E3
100
AcDbEntity
  8
0
100
AcDbLine
 62
7
  6
CONTINUOUS
 10
81.8578423197
 20
29.3131979956
 11
81.8355014066
 21
28.0332879364
  0
LINE
  5
3E4
100
AcDbEntity
  8
0
100
AcDbLine
 62
7
  6
CONTINUOUS
 10
60.1091055144
 20
29.6810506352
 11
60.0324165125
 21
29.6427090545
  0
LINE
  5
3E5
100
AcDbEntity
  8
0
100
AcDbLine
 62
7
  6
CONTINUOUS
 10
62.0395215624
 20
29.6951464202
 11
62.0198323259
 21
29.6853379167
  0
LINE
  5
3E6
100
AcDbEntity
  8
0
100
AcDbLine
 62
7
  6
CONTINUOUS
 10
74.9835423197
 20
98.8813753278
 11
75.4835423197
 21
98.8825827454
  0
LINE
  5
3E7
100
AcDbEntity
  8
0
100
AcDbLine
 62
7
  6
CONTINUOUS
 10
81.9335423197
 20
98.9500000009
 11
10.0335423197
 21
98.9500000009
  0
LINE
  5
3E8
100
AcDbEntity
  8
0
100
AcDbLine
 62
7
  6
CONTINUOUS
 10
81.9835423197
 20
99.0
 11
9.9835423197
 21
99.0
  0
LINE
  5
3E9
100
AcDbEntity
  8
0
100
AcDbLine
 62
7
  6
CONTINUOUS
 10
16.4835423197
 20
98.8825827454
 11
16.9835423197
 21
98.8813753278
  0
LINE
  5
3EA
100
AcDbEntity
  8
0
100
AcDbLine
 62
7
  6
CONTINUOUS
 10
60.03243488
 20
96.3572909494
 11
60.1373006289
 21
96.3048535835
  0
LINE
  5
3EB
100
AcDbEntity
  8
0
100
AcDbLine
 62
7
  6
CONTINUOUS
 10
70.0413365873
 20
96.3573631077
 11
70.1379946609
 21
96.3048535835
  0
ARC
  5
3EC
100
AcDbEntity
  8
0
100
AcDbCircle
 62
7
  6
CONTINUOUS
 10
8.981703879
 20
8.0349501491
 40
23.1709179227
100
AcDbArc
 50
79.4081770231
 51
83.7285462395
  0
ARC
  5
3ED
100
AcDbEntity
  8
0
100
AcDbCircle
 62
7
  6
CONTINUOUS
 10
10.1443374746
 20
14.2214596113
 40
16.8761279901
100
AcDbArc
 50
79.4274909085
 51
85.3486038835
  0
ARC
  5
3EE
100
AcDbEntity
  8
0
100
AcDbCircle
 62
7
  6
CONTINUOUS
 10
10.3476436037
 20
15.3055573918
 40
15.7731293566
100
AcDbArc
 50
75.6355528634
 51
79.4309227276
  0
ARC
  5
3EF
100
AcDbEntity
  8
0
100
AcDbCircle
 62
7
  6
CONTINUOUS
 10
12.6077075812
 20
21.2315911288
 40
8.6322067243
100
AcDbArc
 50
98.6032267539
 51
99.0193472762
  0
ARC
  5
3F0
100
AcDbEntity
  8
0
100
AcDbCircle
 62
7
  6
CONTINUOUS
 10
10.6327529523
 20
28.0115152059
 40
0.5016424418
100
AcDbArc
 50
177.5124162863
 51
271.8653012404
  0
ARC
  5
3F1
100
AcDbEntity
  8
0
100
AcDbCircle
 62
7
  6
CONTINUOUS
 10
11.317600998
 20
28.5564869452
 40
0.195327899
100
AcDbArc
 50
358.6371846294
 51
90.0
  0
ARC
  5
3F2
100
AcDbEntity
  8
0
100
AcDbCircle
 62
7
  6
CONTINUOUS
 10
8.981703879
 20
50.591445842
 40
23.1709179227
100
AcDbArc
 50
276.2714537605
 51
280.5918236578
  0
ARC
  5
3F3
100
AcDbEntity
  8
0
100
AcDbCircle
 62
7
  6
CONTINUOUS
 10
10.1478922801
 20
44.3783208515
 40
16.8492960182
100
AcDbArc
 50
274.6466872509
 51
280.5772311731
  0
ARC
  5
3F4
100
AcDbEntity
  8
0
100
AcDbCircle
 62
7
  6
CONTINUOUS
 10
10.3940565433
 20
43.1108760064
 40
15.5581644571
100
AcDbArc
 50
280.5428776009
 51
284.3906951676
  0
ARC
  5
3F5
100
AcDbEntity
  8
0
100
AcDbCircle
 62
7
  6
CONTINUOUS
 10
12.6942707848
 20
37.9532491904
 40
9.1973182695
100
AcDbArc
 50
260.9934439665
 51
261.3839970034
  0
ARC
  5
3F6
100
AcDbEntity
  8
0
100
AcDbCircle
 62
7
  6
CONTINUOUS
 10
16.9835423197
 20
34.0431979258
 40
3.3809129916
100
AcDbArc
 50
0.0
 51
90.0
  0
ARC
  5
3F7
100
AcDbEntity
  8
0
100
AcDbCircle
 62
7
  6
CONTINUOUS
 10
10.6327529523
 20
30.6148807852
 40
0.5016424418
100
AcDbArc
 50
88.1346987596
 51
182.4875837137
  0
ARC
  5
3F8
100
AcDbEntity
  8
0
100
AcDbCircle
 62
7
  6
CONTINUOUS
 10
12.7432200578
 20
37.9251444154
 40
0.5010444802
100
AcDbArc
 50
250.2824536262
 51
270.3793532337
  0
ARC
  5
3F9
100
AcDbEntity
  8
0
100
AcDbCircle
 62
7
  6
CONTINUOUS
 10
20.8654888093
 20
30.1100995614
 40
0.5010444802
100
AcDbArc
 50
180.0
 51
268.8924405818
  0
ARC
  5
3FA
100
AcDbEntity
  8
0
100
AcDbCircle
 62
7
  6
CONTINUOUS
 10
12.7422428352
 20
29.8018985147
 40
0.4999736477
100
AcDbArc
 50
180.0
 51
270.0
  0
ARC
  5
3FB
100
AcDbEntity
  8
0
100
AcDbCircle
 62
7
  6
CONTINUOUS
 10
11.317600998
 20
30.069909046
 40
0.195327899
100
AcDbArc
 50
270.0
 51
1.3628153706
  0
CIRCLE
  5
3FC
100
AcDbEntity
  8
0
100
AcDbCircle
 62
7
  6
CONTINUOUS
 10
35.9835423197
 20
38.3431979956
 40
2.75
  0
CIRCLE
  5
3FD
100
AcDbEntity
  8
0
100
AcDbCircle
 62
7
  6
CONTINUOUS
 10
35.9835423197
 20
38.3431979956
 40
2.1875010671
  0
CIRCLE
  5
3FE
100
AcDbEntity
  8
0
100
AcDbCircle
 62
7
  6
CONTINUOUS
 10
35.9835423197
 20
38.3431979956
 40
1.5
  0
ARC
  5
3FF
100
AcDbEntity
  8
0
100
AcDbCircle
 62
7
  6
CONTINUOUS
 10
36.6585423197
 20
39.0181979956
 40
0.3
100
AcDbArc
 50
180.0
 51
270.0000000001
  0
ARC
  5
400
100
AcDbEntity
  8
0
100
AcDbCircle
 62
7
  6
CONTINUOUS
 10
35.3085423197
 20
39.0181979956
 40
0.3
100
AcDbArc
 50
269.9999999999
 51
360.0
  0
ARC
  5
401
100
AcDbEntity
  8
0
100
AcDbCircle
 62
7
  6
CONTINUOUS
 10
35.3085423197
 20
37.6681979956
 40
0.3
100
AcDbArc
 50
0.0000000001
 51
90.0
  0
ARC
  5
402
100
AcDbEntity
  8
0
100
AcDbCircle
 62
7
  6
CONTINUOUS
 10
36.6585423197
 20
37.6681979956
 40
0.3
100
AcDbArc
 50
90.0000000001
 51
180.0
  0
ARC
  5
403
100
AcDbEntity
  8
0
100
AcDbCircle
 62
7
  6
CONTINUOUS
 10
-48.0583703509
 20
78.2241669459
 40
125.5673660953
100
AcDbArc
 50
355.606517751
 51
356.2446641425
  0
CIRCLE
  5
404
100
AcDbEntity
  8
0
100
AcDbCircle
 62
7
  6
CONTINUOUS
 10
17.9835423197
 20
63.0431979956
 40
7.5
  0
CIRCLE
  5
405
100
AcDbEntity
  8
0
100
AcDbCircle
 62
7
  6
CONTINUOUS
 10
17.9835423197
 20
63.0431979956
 40
6.999460789
  0
ARC
  5
406
100
AcDbEntity
  8
0
100
AcDbCircle
 62
7
  6
CONTINUOUS
 10
15.3835423197
 20
65.0431979956
 40
5.0
100
AcDbArc
 50
97.5369840315
 51
180.0
  0
ARC
  5
407
100
AcDbEntity
  8
0
100
AcDbCircle
 62
7
  6
CONTINUOUS
 10
15.3835423197
 20
61.0431979956
 40
5.0
100
AcDbArc
 50
180.0000000936
 51
270.0
  0
CIRCLE
  5
408
100
AcDbEntity
  8
0
100
AcDbCircle
 62
7
  6
CONTINUOUS
 10
17.9835423197
 20
63.0431979956
 40
4.5
  0
CIRCLE
  5
409
100
AcDbEntity
  8
0
100
AcDbCircle
 62
7
  6
CONTINUOUS
 10
17.9835423197
 20
63.0431979956
 40
4.0
  0
ARC
  5
40A
100
AcDbEntity
  8
0
100
AcDbCircle
 62
7
  6
CONTINUOUS
 10
15.3835423197
 20
65.0431979956
 40
3.6050073838
100
AcDbArc
 50
98.8787324868
 51
179.9999998762
  0
ARC
  5
40B
100
AcDbEntity
  8
0
100
AcDbCircle
 62
7
  6
CONTINUOUS
 10
15.3835423197
 20
61.0431979956
 40
3.6050073838
100
AcDbArc
 50
180.0000001299
 51
270.0
  0
CIRCLE
  5
40C
100
AcDbEntity
  8
0
100
AcDbCircle
 62
7
  6
CONTINUOUS
 10
17.9835423197
 20
63.0431979956
 40
3.0
  0
CIRCLE
  5
40D
100
AcDbEntity
  8
0
100
AcDbCircle
 62
7
  6
CONTINUOUS
 10
17.9835423197
 20
63.0431979956
 40
2.0
  0
ARC
  5
40E
100
AcDbEntity
  8
0
100
AcDbCircle
 62
7
  6
CONTINUOUS
 10
12.7432200578
 20
88.1612515757
 40
0.5010444802
100
AcDbArc
 50
89.6206467663
 51
109.7175463738
  0
ARC
  5
40F
100
AcDbEntity
  8
0
100
AcDbCircle
 62
7
  6
CONTINUOUS
 10
16.9835423197
 20
92.0431980653
 40
3.3809129916
100
AcDbArc
 50
270.0
 51
360.0
  0
ARC
  5
410
100
AcDbEntity
  8
0
100
AcDbCircle
 62
7
  6
CONTINUOUS
 10
20.8654888093
 20
95.9762964297
 40
0.5010444802
100
AcDbArc
 50
115.1814830146
 51
180.0
  0
ARC
  5
411
100
AcDbEntity
  8
0
100
AcDbCircle
 62
7
  6
CONTINUOUS
 10
12.742242264
 20
96.2844980514
 40
0.4999730765
100
AcDbArc
 50
113.9924063226
 51
180.0
  0
ARC
  5
412
100
AcDbEntity
  8
0
100
AcDbCircle
 62
7
  6
CONTINUOUS
 10
25.3085423197
 20
87.0681979956
 40
0.3
100
AcDbArc
 50
0.0
 51
90.0
  0
ARC
  5
413
100
AcDbEntity
  8
0
100
AcDbCircle
 62
7
  6
CONTINUOUS
 10
26.6585423197
 20
87.0681979956
 40
0.3
100
AcDbArc
 50
90.0000000001
 51
180.0
  0
CIRCLE
  5
414
100
AcDbEntity
  8
0
100
AcDbCircle
 62
7
  6
CONTINUOUS
 10
25.9835423197
 20
87.7431979956
 40
2.75
  0
CIRCLE
  5
415
100
AcDbEntity
  8
0
100
AcDbCircle
 62
7
  6
CONTINUOUS
 10
25.9835423197
 20
87.7431979956
 40
2.1875010671
  0
CIRCLE
  5
416
100
AcDbEntity
  8
0
100
AcDbCircle
 62
7
  6
CONTINUOUS
 10
25.9835423197
 20
87.7431979956
 40
1.5
  0
ARC
  5
417
100
AcDbEntity
  8
0
100
AcDbCircle
 62
7
  6
CONTINUOUS
 10
26.6585423197
 20
88.4181979956
 40
0.3
100
AcDbArc
 50
179.9999999999
 51
270.0000000001
  0
ARC
  5
418
100
AcDbEntity
  8
0
100
AcDbCircle
 62
7
  6
CONTINUOUS
 10
25.3085423197
 20
88.4181979956
 40
0.3
100
AcDbArc
 50
269.9999999999
 51
360.0
  0
ARC
  5
419
100
AcDbEntity
  8
0
100
AcDbCircle
 62
7
  6
CONTINUOUS
 10
35.3085423197
 20
87.0681979956
 40
0.3
100
AcDbArc
 50
0.0
 51
90.0
  0
ARC
  5
41A
100
AcDbEntity
  8
0
100
AcDbCircle
 62
7
  6
CONTINUOUS
 10
36.6585423197
 20
87.0681979956
 40
0.3
100
AcDbArc
 50
90.0000000001
 51
180.0
  0
CIRCLE
  5
41B
100
AcDbEntity
  8
0
100
AcDbCircle
 62
7
  6
CONTINUOUS
 10
35.9835423197
 20
87.7431979956
 40
2.75
  0
CIRCLE
  5
41C
100
AcDbEntity
  8
0
100
AcDbCircle
 62
7
  6
CONTINUOUS
 10
35.9835423197
 20
87.7431979956
 40
2.1875010671
  0
CIRCLE
  5
41D
100
AcDbEntity
  8
0
100
AcDbCircle
 62
7
  6
CONTINUOUS
 10
35.9835423197
 20
87.7431979956
 40
1.5
  0
ARC
  5
41E
100
AcDbEntity
  8
0
100
AcDbCircle
 62
7
  6
CONTINUOUS
 10
36.6585423197
 20
88.4181979956
 40
0.3
100
AcDbArc
 50
180.0
 51
270.0000000001
  0
ARC
  5
41F
100
AcDbEntity
  8
0
100
AcDbCircle
 62
7
  6
CONTINUOUS
 10
35.3085423197
 20
88.4181979956
 40
0.3
100
AcDbArc
 50
269.9999999999
 51
360.0
  0
ARC
  5
420
100
AcDbEntity
  8
0
100
AcDbCircle
 62
7
  6
CONTINUOUS
 10
45.3085423197
 20
37.6681979956
 40
0.3
100
AcDbArc
 50
0.0
 51
90.0
  0
ARC
  5
421
100
AcDbEntity
  8
0
100
AcDbCircle
 62
7
  6
CONTINUOUS
 10
46.6585423197
 20
37.6681979956
 40
0.3
100
AcDbArc
 50
90.0000000001
 51
180.0
  0
CIRCLE
  5
422
100
AcDbEntity
  8
0
100
AcDbCircle
 62
7
  6
CONTINUOUS
 10
45.9835423197
 20
38.3431979956
 40
2.75
  0
CIRCLE
  5
423
100
AcDbEntity
  8
0
100
AcDbCircle
 62
7
  6
CONTINUOUS
 10
45.9835423197
 20
38.3431979956
 40
2.1875010671
  0
CIRCLE
  5
424
100
AcDbEntity
  8
0
100
AcDbCircle
 62
7
  6
CONTINUOUS
 10
45.9835423197
 20
38.3431979956
 40
1.5
  0
ARC
  5
425
100
AcDbEntity
  8
0
100
AcDbCircle
 62
7
  6
CONTINUOUS
 10
46.6585423197
 20
39.0181979956
 40
0.3
100
AcDbArc
 50
180.0
 51
270.0000000001
  0
ARC
  5
426
100
AcDbEntity
  8
0
100
AcDbCircle
 62
7
  6
CONTINUOUS
 10
45.3085423197
 20
39.0181979956
 40
0.3
100
AcDbArc
 50
269.9999999999
 51
360.0
  0
ARC
  5
427
100
AcDbEntity
  8
0
100
AcDbCircle
 62
7
  6
CONTINUOUS
 10
55.3085423197
 20
37.6681979956
 40
0.3
100
AcDbArc
 50
0.0
 51
90.0
  0
ARC
  5
428
100
AcDbEntity
  8
0
100
AcDbCircle
 62
7
  6
CONTINUOUS
 10
56.6585423197
 20
37.6681979956
 40
0.3
100
AcDbArc
 50
90.0000000001
 51
180.0
  0
CIRCLE
  5
429
100
AcDbEntity
  8
0
100
AcDbCircle
 62
7
  6
CONTINUOUS
 10
55.9835423197
 20
38.3431979956
 40
2.75
  0
CIRCLE
  5
42A
100
AcDbEntity
  8
0
100
AcDbCircle
 62
7
  6
CONTINUOUS
 10
55.9835423197
 20
38.3431979956
 40
2.1875010671
  0
CIRCLE
  5
42B
100
AcDbEntity
  8
0
100
AcDbCircle
 62
7
  6
CONTINUOUS
 10
55.9835423197
 20
38.3431979956
 40
1.5
  0
ARC
  5
42C
100
AcDbEntity
  8
0
100
AcDbCircle
 62
7
  6
CONTINUOUS
 10
56.6585423197
 20
39.0181979956
 40
0.3
100
AcDbArc
 50
179.9999999999
 51
270.0000000001
  0
ARC
  5
42D
100
AcDbEntity
  8
0
100
AcDbCircle
 62
7
  6
CONTINUOUS
 10
55.3085423197
 20
39.0181979956
 40
0.3
100
AcDbArc
 50
269.9999999999
 51
360.0
  0
ARC
  5
42E
100
AcDbEntity
  8
0
100
AcDbCircle
 62
7
  6
CONTINUOUS
 10
82.9853807605
 20
8.0349501491
 40
23.1709179227
100
AcDbArc
 50
96.2714537605
 51
100.5680168709
  0
ARC
  5
42F
100
AcDbEntity
  8
0
100
AcDbCircle
 62
7
  6
CONTINUOUS
 10
81.8317614581
 20
14.1946284882
 40
16.9041431719
100
AcDbArc
 50
94.6743205259
 51
100.5532276987
  0
ARC
  5
430
100
AcDbEntity
  8
0
100
AcDbCircle
 62
7
  6
CONTINUOUS
 10
81.5822901792
 20
15.4815467022
 40
15.5932652333
100
AcDbArc
 50
100.5181230977
 51
104.392737245
  0
ARC
  5
431
100
AcDbEntity
  8
0
100
AcDbCircle
 62
7
  6
CONTINUOUS
 10
79.3158500178
 20
20.76772265
 40
9.09992036
100
AcDbArc
 50
81.1705964231
 51
81.5650364271
  0
ARC
  5
432
100
AcDbEntity
  8
0
100
AcDbCircle
 62
7
  6
CONTINUOUS
 10
81.3343316872
 20
28.0115152059
 40
0.5016424418
100
AcDbArc
 50
268.1346987596
 51
2.4875837137
  0
ARC
  5
433
100
AcDbEntity
  8
0
100
AcDbCircle
 62
7
  6
CONTINUOUS
 10
81.3113438577
 20
28.0563657574
 40
0.4902416481
100
AcDbArc
 50
272.6876632383
 51
287.7022704666
  0
ARC
  5
434
100
AcDbEntity
  8
0
100
AcDbCircle
 62
7
  6
CONTINUOUS
 10
80.6494836415
 20
28.5564869452
 40
0.195327899
100
AcDbArc
 50
90.0
 51
181.3628153706
  0
ARC
  5
435
100
AcDbEntity
  8
0
100
AcDbCircle
 62
7
  6
CONTINUOUS
 10
82.9853807605
 20
50.591445842
 40
23.1709179227
100
AcDbArc
 50
259.4319837162
 51
263.7285462395
  0
ARC
  5
436
100
AcDbEntity
  8
0
100
AcDbCircle
 62
7
  6
CONTINUOUS
 10
81.8357030836
 20
44.4612723715
 40
16.9338884827
100
AcDbArc
 50
259.4519441152
 51
265.3205226487
  0
ARC
  5
437
100
AcDbEntity
  8
0
100
AcDbCircle
 62
7
  6
CONTINUOUS
 10
81.6292854118
 20
43.3576474495
 40
15.8111227226
100
AcDbArc
 50
255.6339857397
 51
259.4552048646
  0
ARC
  5
438
100
AcDbEntity
  8
0
100
AcDbCircle
 62
7
  6
CONTINUOUS
 10
79.4067320774
 20
37.2599703488
 40
8.4943609386
100
AcDbArc
 50
278.4209525409
 51
278.843511826
  0
ARC
  5
439
100
AcDbEntity
  8
0
100
AcDbCircle
 62
7
  6
CONTINUOUS
 10
74.9835423197
 20
34.0431979258
 40
3.3809129916
100
AcDbArc
 50
90.0
 51
180.0
  0
ARC
  5
43A
100
AcDbEntity
  8
0
100
AcDbCircle
 62
7
  6
CONTINUOUS
 10
81.3343316872
 20
30.6148807852
 40
0.5016424418
100
AcDbArc
 50
357.5124162863
 51
91.8653012404
  0
ARC
  5
43B
100
AcDbEntity
  8
0
100
AcDbCircle
 62
7
  6
CONTINUOUS
 10
79.2238645817
 20
37.9251444154
 40
0.5010444802
100
AcDbArc
 50
269.6206467664
 51
292.2107023456
  0
ARC
  5
43C
100
AcDbEntity
  8
0
100
AcDbCircle
 62
7
  6
CONTINUOUS
 10
71.1015958301
 20
30.1100995614
 40
0.5010444802
100
AcDbArc
 50
271.1075594182
 51
360.0
  0
ARC
  5
43D
100
AcDbEntity
  8
0
100
AcDbCircle
 62
7
  6
CONTINUOUS
 10
81.3117065175
 20
30.5720443571
 40
0.488204893
100
AcDbArc
 50
72.2664008403
 51
87.3437675655
  0
ARC
  5
43E
100
AcDbEntity
  8
0
100
AcDbCircle
 62
7
  6
CONTINUOUS
 10
80.6494836415
 20
30.069909046
 40
0.195327899
100
AcDbArc
 50
178.6371846294
 51
270.0
  0
CIRCLE
  5
43F
100
AcDbEntity
  8
0
100
AcDbCircle
 62
7
  6
CONTINUOUS
 10
73.9835423197
 20
63.0431979956
 40
7.5
  0
CIRCLE
  5
440
100
AcDbEntity
  8
0
100
AcDbCircle
 62
7
  6
CONTINUOUS
 10
73.9835423197
 20
63.0431979956
 40
6.999460789
  0
ARC
  5
441
100
AcDbEntity
  8
0
100
AcDbCircle
 62
7
  6
CONTINUOUS
 10
76.5835423197
 20
65.0431979956
 40
5.0
100
AcDbArc
 50
0.0
 51
82.4630159685
  0
ARC
  5
442
100
AcDbEntity
  8
0
100
AcDbCircle
 62
7
  6
CONTINUOUS
 10
76.5835423197
 20
61.0431979956
 40
5.0
100
AcDbArc
 50
270.0
 51
360.0
  0
CIRCLE
  5
443
100
AcDbEntity
  8
0
100
AcDbCircle
 62
7
  6
CONTINUOUS
 10
73.9835423197
 20
63.0431979956
 40
4.5
  0
CIRCLE
  5
444
100
AcDbEntity
  8
0
100
AcDbCircle
 62
7
  6
CONTINUOUS
 10
73.9835423197
 20
63.0431979956
 40
4.0
  0
ARC
  5
445
100
AcDbEntity
  8
0
100
AcDbCircle
 62
7
  6
CONTINUOUS
 10
76.5835423197
 20
61.0431979956
 40
3.6050073838
100
AcDbArc
 50
270.0
 51
346.1370924103
  0
ARC
  5
446
100
AcDbEntity
  8
0
100
AcDbCircle
 62
7
  6
CONTINUOUS
 10
76.5835423197
 20
65.0431979956
 40
3.6050073838
100
AcDbArc
 50
13.8629075897
 51
81.1212675132
  0
CIRCLE
  5
447
100
AcDbEntity
  8
0
100
AcDbCircle
 62
7
  6
CONTINUOUS
 10
73.9835423197
 20
63.0431979956
 40
3.0
  0
CIRCLE
  5
448
100
AcDbEntity
  8
0
100
AcDbCircle
 62
7
  6
CONTINUOUS
 10
73.9835423197
 20
63.0431979956
 40
2.0
  0
ARC
  5
449
100
AcDbEntity
  8
0
100
AcDbCircle
 62
7
  6
CONTINUOUS
 10
45.3085423197
 20
87.0681979956
 40
0.3
100
AcDbArc
 50
0.0
 51
90.0
  0
ARC
  5
44A
100
AcDbEntity
  8
0
100
AcDbCircle
 62
7
  6
CONTINUOUS
 10
46.6585423197
 20
87.0681979956
 40
0.3
100
AcDbArc
 50
90.0000000001
 51
180.0
  0
CIRCLE
  5
44B
100
AcDbEntity
  8
0
100
AcDbCircle
 62
7
  6
CONTINUOUS
 10
45.9835423197
 20
87.7431979956
 40
2.75
  0
CIRCLE
  5
44C
100
AcDbEntity
  8
0
100
AcDbCircle
 62
7
  6
CONTINUOUS
 10
45.9835423197
 20
87.7431979956
 40
2.1875010671
  0
CIRCLE
  5
44D
100
AcDbEntity
  8
0
100
AcDbCircle
 62
7
  6
CONTINUOUS
 10
45.9835423197
 20
87.7431979956
 40
1.5
  0
ARC
  5
44E
100
AcDbEntity
  8
0
100
AcDbCircle
 62
7
  6
CONTINUOUS
 10
46.6585423197
 20
88.4181979956
 40
0.3
100
AcDbArc
 50
180.0
 51
270.0000000001
  0
ARC
  5
44F
100
AcDbEntity
  8
0
100
AcDbCircle
 62
7
  6
CONTINUOUS
 10
45.3085423197
 20
88.4181979956
 40
0.3
100
AcDbArc
 50
269.9999999999
 51
360.0
  0
ARC
  5
450
100
AcDbEntity
  8
0
100
AcDbCircle
 62
7
  6
CONTINUOUS
 10
55.3085423197
 20
87.0681979956
 40
0.3
100
AcDbArc
 50
0.0
 51
90.0
  0
ARC
  5
451
100
AcDbEntity
  8
0
100
AcDbCircle
 62
7
  6
CONTINUOUS
 10
56.6585423197
 20
87.0681979956
 40
0.3
100
AcDbArc
 50
90.0000000001
 51
180.0
  0
CIRCLE
  5
452
100
AcDbEntity
  8
0
100
AcDbCircle
 62
7
  6
CONTINUOUS
 10
55.9835423197
 20
87.7431979956
 40
2.75
  0
CIRCLE
  5
453
100
AcDbEntity
  8
0
100
AcDbCircle
 62
7
  6
CONTINUOUS
 10
55.9835423197
 20
87.7431979956
 40
2.1875010671
  0
CIRCLE
  5
454
100
AcDbEntity
  8
0
100
AcDbCircle
 62
7
  6
CONTINUOUS
 10
55.9835423197
 20
87.7431979956
 40
1.5
  0
ARC
  5
455
100
AcDbEntity
  8
0
100
AcDbCircle
 62
7
  6
CONTINUOUS
 10
56.6585423197
 20
88.4181979956
 40
0.3
100
AcDbArc
 50
179.9999999999
 51
270.0000000001
  0
ARC
  5
456
100
AcDbEntity
  8
0
100
AcDbCircle
 62
7
  6
CONTINUOUS
 10
55.3085423197
 20
88.4181979956
 40
0.3
100
AcDbArc
 50
269.9999999999
 51
360.0
  0
CIRCLE
  5
457
100
AcDbEntity
  8
0
100
AcDbCircle
 62
7
  6
CONTINUOUS
 10
65.9835423197
 20
87.7431979956
 40
2.75
  0
CIRCLE
  5
458
100
AcDbEntity
  8
0
100
AcDbCircle
 62
7
  6
CONTINUOUS
 10
65.9835423197
 20
87.7431979956
 40
2.1875010671
  0
CIRCLE
  5
459
100
AcDbEntity
  8
0
100
AcDbCircle
 62
7
  6
CONTINUOUS
 10
65.9835423197
 20
87.7431979956
 40
1.5
  0
ARC
  5
45A
100
AcDbEntity
  8
0
100
AcDbCircle
 62
7
  6
CONTINUOUS
 10
79.2238645817
 20
88.1612515757
 40
0.5010444802
100
AcDbArc
 50
67.7892976544
 51
90.3793532337
  0
ARC
  5
45B
100
AcDbEntity
  8
0
100
AcDbCircle
 62
7
  6
CONTINUOUS
 10
66.6585423197
 20
88.4181979956
 40
0.3
100
AcDbArc
 50
179.9999999999
 51
270.0000000001
  0
ARC
  5
45C
100
AcDbEntity
  8
0
100
AcDbCircle
 62
7
  6
CONTINUOUS
 10
65.3085423197
 20
88.4181979956
 40
0.3
100
AcDbArc
 50
269.9999999999
 51
360.0
  0
ARC
  5
45D
100
AcDbEntity
  8
0
100
AcDbCircle
 62
7
  6
CONTINUOUS
 10
65.3085423197
 20
87.0681979956
 40
0.3
100
AcDbArc
 50
0.0
 51
90.0
  0
ARC
  5
45E
100
AcDbEntity
  8
0
100
AcDbCircle
 62
7
  6
CONTINUOUS
 10
66.6585423197
 20
87.0681979956
 40
0.3
100
AcDbArc
 50
90.0000000001
 51
180.0
  0
ARC
  5
45F
100
AcDbEntity
  8
0
100
AcDbCircle
 62
7
  6
CONTINUOUS
 10
74.9835423197
 20
92.0431980653
 40
3.3809129916
100
AcDbArc
 50
180.0
 51
270.0
  0
ARC
  5
460
100
AcDbEntity
  8
0
100
AcDbCircle
 62
7
  6
CONTINUOUS
 10
71.1015958301
 20
95.9762964297
 40
0.5010444802
100
AcDbArc
 50
0.0
 51
64.8185169854
  0
ARC
  5
461
100
AcDbEntity
  8
0
100
AcDbCircle
 62
7
  6
CONTINUOUS
 10
79.2248423737
 20
96.2844980514
 40
0.4999730765
100
AcDbArc
 50
0.0
 51
66.0075936774
  0
ARC
  5
462
100
AcDbEntity
  8
0
100
AcDbCircle
 62
7
  6
CONTINUOUS
 10
136.5768067914
 20
77.979077914
 40
122.1100502176
100
AcDbArc
 50
183.74656628
 51
184.4027806505
  0
LINE
  5
463
100
AcDbEntity
  8
0
100
AcDbLine
 62
7
  6
CONTINUOUS
 10
10.6456012209
 20
31.0590142573
 11
10.6327529454
 21
31.0586014153
  0
SPLINE
  5
464
100
AcDbEntity
  8
0
100
AcDbSpline
 62
7
  6
CONTINUOUS
 70
0
 71
3
 72
16
 73
12
 74
0
 42
0.0000001
 43
0.0000001
 44
0.0000000001
 40
0.0
 40
0.0
 40
0.0
 40
0.0
 40
0.1035680999
 40
0.2251597946
 40
0.3552605235
 40
0.4861716125
 40
0.6104550765
 40
0.721765286
 40
0.8215871929
 40
0.913781687
 40
1.0
 40
1.0
 40
1.0
 40
1.0
 10
10.4562158788
 20
31.0166240853
 30
0.0
 10
10.4313914648
 20
31.0049824104
 30
0.0
 10
10.3798412205
 20
30.9742055364
 30
0.0
 10
10.3098243779
 20
30.9104602969
 30
0.0
 10
10.2492220513
 20
30.8285684203
 30
0.0
 10
10.2029519332
 20
30.7372272413
 30
0.0
 10
10.1709284298
 20
30.6454028236
 30
0.0
 10
10.1502782046
 20
30.5589252158
 30
0.0
 10
10.1378005764
 20
30.4795259306
 30
0.0
 10
10.1314169712
 20
30.4060957531
 30
0.0
 10
10.1307022768
 20
30.3587985761
 30
0.0
 10
10.1315462594
 20
30.3359887567
 30
0.0
  0
SPLINE
  5
465
100
AcDbEntity
  8
0
100
AcDbSpline
 62
7
  6
CONTINUOUS
 70
0
 71
3
 72
10
 73
6
 74
0
 42
0.0000001
 43
0.0000001
 44
0.0000000001
 40
0.0
 40
0.0
 40
0.0
 40
0.0
 40
0.3298612619
 40
0.6627015564
 40
1.0
 40
1.0
 40
1.0
 40
1.0
 10
10.6327529454
 20
31.0586014153
 30
0.0
 10
10.6127213921
 20
31.0576599795
 30
0.0
 10
10.5725505569
 20
31.0532477175
 30
0.0
 10
10.5132653898
 20
31.0391721436
 30
0.0
 10
10.4749659734
 20
31.0249260037
 30
0.0
 10
10.4562158788
 20
31.0166240853
 30
0.0
  0
SPLINE
  5
466
100
AcDbEntity
  8
0
100
AcDbSpline
 62
7
  6
CONTINUOUS
 70
0
 71
3
 72
11
 73
7
 74
0
 42
0.0000001
 43
0.0000001
 44
0.0000000001
 40
0.0
 40
0.0
 40
0.0
 40
0.0
 40
0.2611891298
 40
0.516036116
 40
0.7671318367
 40
1.0
 40
1.0
 40
1.0
 40
1.0
 10
10.1315462594
 20
30.3359887567
 30
0.0
 10
10.1303345174
 20
30.2469460028
 30
0.0
 10
10.1280535293
 20
30.0710210108
 30
0.0
 10
10.1252871537
 20
29.8094858732
 30
0.0
 10
10.123501905
 20
29.5575980929
 30
0.0
 10
10.1230496653
 20
29.3925931162
 30
0.0
 10
10.1230496653
 20
29.3131979956
 30
0.0
  0
SPLINE
  5
467
100
AcDbEntity
  8
0
100
AcDbSpline
 62
7
  6
CONTINUOUS
 70
0
 71
3
 72
11
 73
7
 74
0
 42
0.0000001
 43
0.0000001
 44
0.0000000001
 40
0.0
 40
0.0
 40
0.0
 40
0.0
 40
0.233598504
 40
0.4853202061
 40
0.7406290723
 40
1.0
 40
1.0
 40
1.0
 40
1.0
 10
10.1230496653
 20
29.3131979956
 30
0.0
 10
10.1230496653
 20
29.2337248435
 30
0.0
 10
10.1235040812
 20
29.0686126649
 30
0.0
 10
10.1252847739
 20
28.8166469913
 30
0.0
 10
10.1280646757
 20
28.555922034
 30
0.0
 10
10.1302806218
 20
28.3808354171
 30
0.0
 10
10.1314813181
 20
28.2926023313
 30
0.0
  0
SPLINE
  5
468
100
AcDbEntity
  8
0
100
AcDbSpline
 62
7
  6
CONTINUOUS
 70
0
 71
3
 72
10
 73
6
 74
0
 42
0.0000001
 43
0.0000001
 44
0.0000000001
 40
0.0
 40
0.0
 40
0.0
 40
0.0
 40
0.337300994
 40
0.6701412877
 40
1.0
 40
1.0
 40
1.0
 40
1.0
 10
10.4562158788
 20
27.6097719059
 30
0.0
 10
10.4749661152
 20
27.6014699246
 30
0.0
 10
10.5132656858
 20
27.5872237474
 30
0.0
 10
10.5725508663
 20
27.5731482298
 30
0.0
 10
10.6127215469
 20
27.5687360043
 30
0.0
 10
10.6327529454
 20
27.5677945759
 30
0.0
  0
SPLINE
  5
469
100
AcDbEntity
  8
0
100
AcDbSpline
 62
7
  6
CONTINUOUS
 70
0
 71
3
 72
16
 73
12
 74
0
 42
0.0000001
 43
0.0000001
 44
0.0000000001
 40
0.0
 40
0.0
 40
0.0
 40
0.0
 40
0.0832582782
 40
0.1760662235
 40
0.276648396
 40
0.3880825872
 40
0.5113289158
 40
0.6412053091
 40
0.7714491659
 40
0.894236645
 40
1.0
 40
1.0
 40
1.0
 40
1.0
 10
10.1316796332
 20
28.2926057566
 30
0.0
 10
10.1308622975
 20
28.2705183043
 30
0.0
 10
10.1311895122
 20
28.2237183758
 30
0.0
 10
10.1373654791
 20
28.1504776486
 30
0.0
 10
10.1496782018
 20
28.0704293168
 30
0.0
 10
10.1701515334
 20
27.9836972261
 30
0.0
 10
10.2017892545
 20
27.8920096847
 30
0.0
 10
10.2475116535
 20
27.8006629949
 30
0.0
 10
10.3078251353
 20
27.7181131255
 30
0.0
 10
10.3783817498
 20
27.653157186
 30
0.0
 10
10.4307953753
 20
27.6216931233
 30
0.0
 10
10.4562158788
 20
27.6097719059
 30
0.0
  0
LINE
  5
46A
100
AcDbEntity
  8
0
100
AcDbLine
 62
7
  6
CONTINUOUS
 10
10.6327529454
 20
27.5677945759
 11
10.6456012217
 21
27.5673817338
  0
SPLINE
  5
46B
100
AcDbEntity
  8
0
100
AcDbSpline
 62
7
  6
CONTINUOUS
 70
0
 71
3
 72
10
 73
6
 74
0
 42
0.0000001
 43
0.0000001
 44
0.0000000001
 40
0.0
 40
0.0
 40
0.0
 40
0.0
 40
0.3360726687
 40
0.6673031776
 40
1.0
 40
1.0
 40
1.0
 40
1.0
 10
10.6454110482
 20
27.5673733647
 30
0.0
 10
10.7112423385
 20
27.5676541414
 30
0.0
 10
10.8419397851
 20
27.5705775748
 30
0.0
 10
11.0378451398
 20
27.5680663254
 30
0.0
 10
11.1678648014
 20
27.5718721218
 30
0.0
 10
11.2330280969
 20
27.57284841
 30
0.0
  0
SPLINE
  5
46C
100
AcDbEntity
  8
0
100
AcDbSpline
 62
7
  6
CONTINUOUS
 70
0
 71
3
 72
10
 73
6
 74
0
 42
0.0000001
 43
0.0000001
 44
0.0000000001
 40
0.0
 40
0.0
 40
0.0
 40
0.0
 40
0.3326968202
 40
0.6639273303
 40
1.0
 40
1.0
 40
1.0
 40
1.0
 10
11.2330280947
 20
31.0535475812
 30
0.0
 10
11.1678647998
 20
31.0545238694
 30
0.0
 10
11.0378451388
 20
31.0583296657
 30
0.0
 10
10.8419397848
 20
31.0558184163
 30
0.0
 10
10.7112423382
 20
31.0587418498
 30
0.0
 10
10.6454110479
 20
31.0590226265
 30
0.0
  0
SPLINE
  5
46D
100
AcDbEntity
  8
0
100
AcDbSpline
 62
7
  6
CONTINUOUS
 70
0
 71
3
 72
17
 73
13
 74
0
 42
0.0000001
 43
0.0000001
 44
0.0000000001
 40
0.0
 40
0.0
 40
0.0
 40
0.0
 40
0.0889042235
 40
0.1932257638
 40
0.3062345931
 40
0.4238759249
 40
0.5413229957
 40
0.650794791
 40
0.7492500333
 40
0.8387433646
 40
0.9222756354
 40
1.0
 40
1.0
 40
1.0
 40
1.0
 10
81.4604115712
 20
27.5893387783
 30
0.0
 10
81.4844115537
 20
27.596943752
 30
0.0
 10
81.5351117203
 20
27.6184699205
 30
0.0
 10
81.607319103
 20
27.6675338749
 30
0.0
 10
81.6741100622
 20
27.7357371274
 30
0.0
 10
81.7294166104
 20
27.8179086542
 30
0.0
 10
81.770941883
 20
27.9065520133
 30
0.0
 10
81.7996695017
 20
27.9942798741
 30
0.0
 10
81.8183623595
 20
28.0764967731
 30
0.0
 10
81.8298409074
 20
28.1525760971
 30
0.0
 10
81.8357385582
 20
28.223382294
 30
0.0
 10
81.8363514391
 20
28.2691062607
 30
0.0
 10
81.8355377613
 20
28.2911013562
 30
0.0
  0
LINE
  5
46E
100
AcDbEntity
  8
0
100
AcDbLine
 62
7
  6
CONTINUOUS
 10
81.3213873939
 20
27.5662450231
 11
81.3343316657
 21
27.566669667
  0
SPLINE
  5
46F
100
AcDbEntity
  8
0
100
AcDbSpline
 62
7
  6
CONTINUOUS
 70
0
 71
3
 72
11
 73
7
 74
0
 42
0.0000001
 43
0.0000001
 44
0.0000000001
 40
0.0
 40
0.0
 40
0.0
 40
0.0
 40
0.218930469
 40
0.4548480547
 40
0.7155279338
 40
1.0
 40
1.0
 40
1.0
 40
1.0
 10
75.4369374275
 20
29.3131979956
 30
0.0
 10
75.4369374275
 20
29.3076362617
 30
0.0
 10
75.4431125728
 20
29.2967798183
 30
0.0
 10
75.454977927
 20
29.283414928
 30
0.0
 10
75.4686448105
 20
29.2688925482
 30
0.0
 10
75.4784159699
 20
29.2591099765
 30
0.0
 10
75.4835423197
 20
29.2540161965
 30
0.0
  0
SPLINE
  5
470
100
AcDbEntity
  8
0
100
AcDbSpline
 62
7
  6
CONTINUOUS
 70
0
 71
3
 72
11
 73
7
 74
0
 42
0.0000001
 43
0.0000001
 44
0.0000000001
 40
0.0
 40
0.0
 40
0.0
 40
0.0
 40
0.2948513326
 40
0.5532750022
 40
0.782064609
 40
1.0
 40
1.0
 40
1.0
 40
1.0
 10
75.4835423197
 20
29.3723904584
 30
0.0
 10
75.4782262366
 20
29.3671094488
 30
0.0
 10
75.4683080516
 20
29.3571725608
 30
0.0
 10
75.4546635408
 20
29.3425943365
 30
0.0
 10
75.4428809869
 20
29.3294627542
 30
0.0
 10
75.4369374275
 20
29.31873658
 30
0.0
 10
75.4369374275
 20
29.3131979956
 30
0.0
  0
SPLINE
  5
471
100
AcDbEntity
  8
0
100
AcDbSpline
 62
7
  6
CONTINUOUS
 70
0
 71
3
 72
11
 73
7
 74
0
 42
0.0000001
 43
0.0000001
 44
0.0000000001
 40
0.0
 40
0.0
 40
0.0
 40
0.0
 40
0.2835401394
 40
0.5439927023
 40
0.7791945743
 40
1.0
 40
1.0
 40
1.0
 40
1.0
 10
16.4835423197
 20
29.2540161854
 30
0.0
 10
16.4886500814
 20
29.2590915051
 30
0.0
 10
16.4983849517
 20
29.2688579679
 30
0.0
 10
16.5120638603
 20
29.283307202
 30
0.0
 10
16.5237916646
 20
29.2967825344
 30
0.0
 10
16.530147212
 20
29.3075905946
 30
0.0
 10
16.530147212
 20
29.3131979956
 30
0.0
  0
SPLINE
  5
472
100
AcDbEntity
  8
0
100
AcDbSpline
 62
7
  6
CONTINUOUS
 70
0
 71
3
 72
11
 73
7
 74
0
 42
0.0000001
 43
0.0000001
 44
0.0000000001
 40
0.0
 40
0.0
 40
0.0
 40
0.0
 40
0.2183257134
 40
0.4472392191
 40
0.7055600316
 40
1.0
 40
1.0
 40
1.0
 40
1.0
 10
16.530147212
 20
29.3131979956
 30
0.0
 10
16.530147212
 20
29.31874644
 30
0.0
 10
16.5241881872
 20
29.329482125
 30
0.0
 10
16.5123984123
 20
29.3426191863
 30
0.0
 10
16.4987597707
 20
29.3571894203
 30
0.0
 10
16.4888509289
 20
29.3671168708
 30
0.0
 10
16.4835423197
 20
29.372390456
 30
0.0
  0
SPLINE
  5
473
100
AcDbEntity
  8
0
100
AcDbSpline
 62
7
  6
CONTINUOUS
 70
0
 71
3
 72
17
 73
13
 74
0
 42
0.0000001
 43
0.0000001
 44
0.0000000001
 40
0.0
 40
0.0
 40
0.0
 40
0.0
 40
0.0780165546
 40
0.1615755527
 40
0.2508504974
 40
0.3488699503
 40
0.457690268
 40
0.5749628828
 40
0.6928793783
 40
0.806372864
 40
0.9110375082
 40
1.0
 40
1.0
 40
1.0
 40
1.0
 10
81.8355387019
 20
30.3352943946
 30
0.0
 10
81.8363554354
 20
30.3573721321
 30
0.0
 10
81.8357321313
 20
30.4031867432
 30
0.0
 10
81.8298156017
 20
30.4740196471
 30
0.0
 10
81.8183513707
 20
30.5499208951
 30
0.0
 10
81.7997478963
 20
30.6317775875
 30
0.0
 10
81.7711863079
 20
30.7191802259
 30
0.0
 10
81.7298403774
 20
30.807731964
 30
0.0
 10
81.6745643488
 20
30.8901250238
 30
0.0
 10
81.6076283424
 20
30.958631857
 30
0.0
 10
81.5352315896
 20
31.0078732183
 30
0.0
 10
81.484427235
 20
31.0294472701
 30
0.0
 10
81.4604115712
 20
31.0370572128
 30
0.0
  0
LINE
  5
474
100
AcDbEntity
  8
0
100
AcDbLine
 62
7
  6
CONTINUOUS
 10
81.3343316657
 20
31.0597263242
 11
81.3213873939
 21
31.060150968
  0
SPLINE
  5
475
100
AcDbEntity
  8
0
100
AcDbSpline
 62
7
  6
CONTINUOUS
 70
0
 71
3
 72
11
 73
7
 74
0
 42
0.0000001
 43
0.0000001
 44
0.0000000001
 40
0.0
 40
0.0
 40
0.0
 40
0.0
 40
0.2331824693
 40
0.4843948128
 40
0.7391199279
 40
1.0
 40
1.0
 40
1.0
 40
1.0
 10
81.8440174763
 20
29.3131979956
 30
0.0
 10
81.8440174763
 20
29.3926462943
 30
0.0
 10
81.843564471
 20
29.5576860511
 30
0.0
 10
81.8417821427
 20
29.8095081101
 30
0.0
 10
81.8390204916
 20
30.0707585975
 30
0.0
 10
81.8367471546
 20
30.2464173777
 30
0.0
 10
81.8355387019
 20
30.3352943946
 30
0.0
  0
SPLINE
  5
476
100
AcDbEntity
  8
0
100
AcDbSpline
 62
7
  6
CONTINUOUS
 70
0
 71
3
 72
11
 73
7
 74
0
 42
0.0000001
 43
0.0000001
 44
0.0000000001
 40
0.0
 40
0.0
 40
0.0
 40
0.0
 40
0.261106994
 40
0.5159176726
 40
0.7670449181
 40
1.0
 40
1.0
 40
1.0
 40
1.0
 10
81.8355377613
 20
28.2911013562
 30
0.0
 10
81.8367472659
 20
28.3800557032
 30
0.0
 10
81.8390233354
 20
28.5558209692
 30
0.0
 10
81.8417839789
 20
28.817149011
 30
0.0
 10
81.8435655279
 20
29.0688938199
 30
0.0
 10
81.8440174763
 20
29.233827151
 30
0.0
 10
81.8440174763
 20
29.3131979956
 30
0.0
  0
SPLINE
  5
477
100
AcDbEntity
  8
0
100
AcDbSpline
 62
7
  6
CONTINUOUS
 70
0
 71
3
 72
10
 73
6
 74
0
 42
0.0000001
 43
0.0000001
 44
0.0000000001
 40
0.0
 40
0.0
 40
0.0
 40
0.0
 40
0.3328385216
 40
0.6642269129
 40
1.0
 40
1.0
 40
1.0
 40
1.0
 10
80.7340564085
 20
27.5721408905
 30
0.0
 10
80.7992157916
 20
27.5711253538
 30
0.0
 10
80.9292275119
 20
27.5670646117
 30
0.0
 10
81.1250426144
 20
27.5697733868
 30
0.0
 10
81.2556463727
 20
27.5665775771
 30
0.0
 10
81.3213873939
 20
27.5662450231
 30
0.0
  0
SPLINE
  5
478
100
AcDbEntity
  8
0
100
AcDbSpline
 62
7
  6
CONTINUOUS
 70
0
 71
3
 72
10
 73
6
 74
0
 42
0.0000001
 43
0.0000001
 44
0.0000000001
 40
0.0
 40
0.0
 40
0.0
 40
0.0
 40
0.3357730864
 40
0.6671614766
 40
1.0
 40
1.0
 40
1.0
 40
1.0
 10
81.3213873939
 20
31.060150968
 30
0.0
 10
81.2556463726
 20
31.059818414
 30
0.0
 10
81.1250426142
 20
31.0566226043
 30
0.0
 10
80.929227511
 20
31.0593313795
 30
0.0
 10
80.7992157901
 20
31.0552706373
 30
0.0
 10
80.7340564065
 20
31.0542551006
 30
0.0
  0
SPLINE
  5
479
100
AcDbEntity
  8
0
100
AcDbSpline
 62
7
  6
CONTINUOUS
 70
0
 71
3
 72
10
 73
6
 74
0
 42
0.0000001
 43
0.0000001
 44
0.0000000001
 40
0.0
 40
0.0
 40
0.0
 40
0.0
 40
0.369667739
 40
0.7069245247
 40
1.0
 40
1.0
 40
1.0
 40
1.0
 10
80.7340564065
 20
31.0542551006
 30
0.0
 10
80.731322687
 20
30.8947396297
 30
0.0
 10
80.7183438817
 20
30.5898119155
 30
0.0
 10
80.728982702
 20
30.1580872967
 30
0.0
 10
80.7143864288
 20
29.8862766647
 30
0.0
 10
80.7126235625
 20
29.7598052671
 30
0.0
  0
SPLINE
  5
47A
100
AcDbEntity
  8
0
100
AcDbSpline
 62
7
  6
CONTINUOUS
 70
0
 71
3
 72
10
 73
6
 74
0
 42
0.0000001
 43
0.0000001
 44
0.0000000001
 40
0.0
 40
0.0
 40
0.0
 40
0.0
 40
0.2932916692
 40
0.6305514853
 40
1.0
 40
1.0
 40
1.0
 40
1.0
 10
80.7126235615
 20
28.8665907239
 30
0.0
 10
80.7143877282
 20
28.7400260381
 30
0.0
 10
80.7289741522
 20
28.4681204255
 30
0.0
 10
80.7183390483
 20
28.0363959606
 30
0.0
 10
80.7313243104
 20
27.7315617559
 30
0.0
 10
80.7340564085
 20
27.5721408905
 30
0.0
  0
SPLINE
  5
47B
100
AcDbEntity
  8
0
100
AcDbSpline
 62
7
  6
CONTINUOUS
 70
0
 71
3
 72
10
 73
6
 74
0
 42
0.0000001
 43
0.0000001
 44
0.0000000001
 40
0.0
 40
0.0
 40
0.0
 40
0.0
 40
0.3476764758
 40
0.6934154017
 40
1.0
 40
1.0
 40
1.0
 40
1.0
 10
80.4542109938
 20
28.610463485
 30
0.0
 10
80.4533455512
 20
28.6498132731
 30
0.0
 10
80.4726416985
 20
28.729525523
 30
0.0
 10
80.5454559093
 20
28.8205076983
 30
0.0
 10
80.6162531048
 20
28.852839441
 30
0.0
 10
80.6506871555
 20
28.8571870551
 30
0.0
  0
SPLINE
  5
47C
100
AcDbEntity
  8
0
100
AcDbSpline
 62
7
  6
CONTINUOUS
 70
0
 71
3
 72
35
 73
31
 74
0
 42
0.0000001
 43
0.0000001
 44
0.0000000001
 40
0.0
 40
0.0
 40
0.0
 40
0.0
 40
0.0646458815
 40
0.1226229006
 40
0.1747596699
 40
0.2217720799
 40
0.2642263842
 40
0.3026313774
 40
0.3373769257
 40
0.3687373577
 40
0.3969497622
 40
0.4221905999
 40
0.4444736811
 40
0.4642671153
 40
0.4822875003
 40
0.4995414491
 40
0.5166707993
 40
0.534746445
 40
0.554592448
 40
0.576931105
 40
0.6020901946
 40
0.630306311
 40
0.6617055618
 40
0.6964843711
 40
0.7349619031
 40
0.777548805
 40
0.8247083127
 40
0.8770079132
 40
0.9351677896
 40
1.0
 40
1.0
 40
1.0
 40
1.0
 10
77.7063144915
 20
30.5854233208
 30
0.0
 10
77.611114765
 20
30.5602620236
 30
0.0
 10
77.4321052295
 20
30.506324049
 30
0.0
 10
77.1827431919
 20
30.4126831294
 30
0.0
 10
76.9641875934
 20
30.3147823139
 30
0.0
 10
76.7727514973
 20
30.2151539991
 30
0.0
 10
76.6052891258
 20
30.1154841447
 30
0.0
 10
76.4592757424
 20
30.0168835538
 30
0.0
 10
76.3327860623
 20
29.9200640881
 30
0.0
 10
76.2244867085
 20
29.8254959819
 30
0.0
 10
76.1335845847
 20
29.7335096122
 30
0.0
 10
76.0598747079
 20
29.6445345762
 30
0.0
 10
76.0031807889
 20
29.5588063438
 30
0.0
 10
75.9630867073
 20
29.4761531001
 30
0.0
 10
75.9389152076
 20
29.3953928428
 30
0.0
 10
75.9305454069
 20
29.3155029429
 30
0.0
 10
75.938032577
 20
29.2354446411
 30
0.0
 10
75.9614080464
 20
29.154461751
 30
0.0
 10
76.0010304431
 20
29.0712921908
 30
0.0
 10
76.0573383085
 20
28.9852521767
 30
0.0
 10
76.1307130084
 20
28.8960416114
 30
0.0
 10
76.2213271615
 20
28.803851197
 30
0.0
 10
76.3295226201
 20
28.7089862396
 30
0.0
 10
76.456034403
 20
28.6118314609
 30
0.0
 10
76.6022241622
 20
28.5128413525
 30
0.0
 10
76.7700497944
 20
28.4127303824
 30
0.0
 10
76.9620112767
 20
28.3126487448
 30
0.0
 10
77.1812025822
 20
28.2143273905
 30
0.0
 10
77.4312962223
 20
28.1203248577
 30
0.0
 10
77.6108403708
 20
28.0662064899
 30
0.0
 10
77.7063144915
 20
28.0409726703
 30
0.0
  0
SPLINE
  5
47D
100
AcDbEntity
  8
0
100
AcDbSpline
 62
7
  6
CONTINUOUS
 70
0
 71
3
 72
10
 73
6
 74
0
 42
0.0000001
 43
0.0000001
 44
0.0000000001
 40
0.0
 40
0.0
 40
0.0
 40
0.0
 40
0.3063041036
 40
0.6522268738
 40
1.0
 40
1.0
 40
1.0
 40
1.0
 10
80.6506871238
 20
29.7692089407
 30
0.0
 10
80.6162847125
 20
29.7735525602
 30
0.0
 10
80.5454969368
 20
29.805859126
 30
0.0
 10
80.4726545807
 20
29.8968265661
 30
0.0
 10
80.453345314
 20
29.9765709383
 30
0.0
 10
80.4542109938
 20
30.0159315101
 30
0.0
  0
SPLINE
  5
47E
100
AcDbEntity
  8
0
100
AcDbSpline
 62
7
  6
CONTINUOUS
 70
0
 71
3
 72
11
 73
7
 74
0
 42
0.0000001
 43
0.0000001
 44
0.0000000001
 40
0.0
 40
0.0
 40
0.0
 40
0.0
 40
0.2520177362
 40
0.4999999998
 40
0.7479822634
 40
1.0
 40
1.0
 40
1.0
 40
1.0
 10
79.224842374
 20
29.3019248671
 30
0.0
 10
79.2903807158
 20
29.3032234241
 30
0.0
 10
79.4219547454
 20
29.3275874214
 30
0.0
 10
79.5872081817
 20
29.4395378503
 30
0.0
 10
79.6991560045
 20
29.6047930523
 30
0.0
 10
79.7235179266
 20
29.7363674662
 30
0.0
 10
79.7248154501
 20
29.8019058286
 30
0.0
  0
LINE
  5
47F
100
AcDbEntity
  8
0
100
AcDbLine
 62
7
  6
CONTINUOUS
 10
15.3835423197
 20
57.3949926171
 11
15.3835423197
 21
57.4381906117
  0
SPLINE
  5
480
100
AcDbEntity
  8
0
100
AcDbSpline
 62
7
  6
CONTINUOUS
 70
0
 71
3
 72
70
 73
66
 74
0
 42
0.0000001
 43
0.0000001
 44
0.0000000001
 40
0.0
 40
0.0
 40
0.0
 40
0.0
 40
0.0742832135
 40
0.1430712547
 40
0.2067698213
 40
0.2657598793
 40
0.3203903864
 40
0.370988074
 40
0.4178408291
 40
0.4612188102
 40
0.5013962893
 40
0.5386163149
 40
0.5730969121
 40
0.6050404351
 40
0.6346341839
 40
0.6620514461
 40
0.6874526112
 40
0.710986164
 40
0.7327893454
 40
0.7529872989
 40
0.7716900009
 40
0.7890195857
 40
0.8050778448
 40
0.8199585857
 40
0.8337484992
 40
0.8465278805
 40
0.8583710643
 40
0.8693468798
 40
0.879519059
 40
0.8889466184
 40
0.8976842139
 40
0.9057824637
 40
0.9132882338
 40
0.9202449435
 40
0.9266927979
 40
0.932669041
 40
0.9382081679
 40
0.9433421405
 40
0.9480995457
 40
0.9525077916
 40
0.9565940338
 40
0.9603818142
 40
0.9638929843
 40
0.9671477701
 40
0.9701649125
 40
0.9729617721
 40
0.9755544371
 40
0.9779578133
 40
0.9801857083
 40
0.9822509198
 40
0.9841653014
 40
0.9859398387
 40
0.987584708
 40
0.9891093373
 40
0.9905224603
 40
0.9918321371
 40
0.9930457595
 40
0.9941700649
 40
0.9952105292
 40
0.996174439
 40
0.9970669606
 40
0.9978928557
 40
0.9986563468
 40
0.9993602279
 40
1.0
 40
1.0
 40
1.0
 40
1.0
 10
78.2037833617
 20
45.7806490188
 30
0.0
 10
76.6081361952
 20
45.7837033512
 30
0.0
 10
73.5348815872
 20
45.7896852318
 30
0.0
 10
69.0933450758
 20
45.7986978621
 30
0.0
 10
64.9803151789
 20
45.8073845377
 30
0.0
 10
61.1713980419
 20
45.8157587351
 30
0.0
 10
57.6438960443
 20
45.8238310542
 30
0.0
 10
54.3771109687
 20
45.8316115699
 30
0.0
 10
51.3520372454
 20
45.839109517
 30
0.0
 10
48.5507961728
 20
45.846334733
 30
0.0
 10
45.9564722068
 20
45.8532976246
 30
0.0
 10
43.5532696637
 20
45.8600088301
 30
0.0
 10
41.3269376989
 20
45.866477797
 30
0.0
 10
39.2644229777
 20
45.8727132756
 30
0.0
 10
37.3536331568
 20
45.8787237679
 30
0.0
 10
35.5833773193
 20
45.8845174981
 30
0.0
 10
33.943298328
 20
45.8901024162
 30
0.0
 10
32.4238133471
 20
45.8954862015
 30
0.0
 10
31.0160966491
 20
45.9006761224
 30
0.0
 10
29.7121496891
 20
45.9056784475
 30
0.0
 10
28.5042984224
 20
45.9105002982
 30
0.0
 10
27.3853704255
 20
45.9151487606
 30
0.0
 10
26.3485405866
 20
45.9196316092
 30
0.0
 10
25.3877451498
 20
45.9239553083
 30
0.0
 10
24.4973821065
 20
45.9281260562
 30
0.0
 10
23.6722677427
 20
45.9321498339
 30
0.0
 10
22.9076020174
 20
45.9360324239
 30
0.0
 10
22.1989406807
 20
45.9397794207
 30
0.0
 10
21.5421685258
 20
45.9433962337
 30
0.0
 10
20.9334747984
 20
45.9468880975
 30
0.0
 10
20.369330439
 20
45.9502600766
 30
0.0
 10
19.8464673858
 20
45.9535170655
 30
0.0
 10
19.3618589524
 20
45.9566638322
 30
0.0
 10
18.9127021265
 20
45.9597049668
 30
0.0
 10
18.4964005886
 20
45.9626449481
 30
0.0
 10
18.1105497118
 20
45.9654881108
 30
0.0
 10
17.7529219439
 20
45.9682386759
 30
0.0
 10
17.4214756916
 20
45.9709005778
 30
0.0
 10
17.1143215966
 20
45.9734776112
 30
0.0
 10
16.8296735431
 20
45.9759737682
 30
0.0
 10
16.5658537869
 20
45.9783931858
 30
0.0
 10
16.3213039481
 20
45.9807400302
 30
0.0
 10
16.0946145001
 20
45.9830180904
 30
0.0
 10
15.8844790477
 20
45.985231112
 30
0.0
 10
15.6896876643
 20
45.9873828484
 30
0.0
 10
15.5091193092
 20
45.9894770618
 30
0.0
 10
15.3417353308
 20
45.9915175331
 30
0.0
 10
15.1865733998
 20
45.9935081241
 30
0.0
 10
15.0427418793
 20
45.9954528277
 30
0.0
 10
14.9094146998
 20
45.99735574
 30
0.0
 10
14.7858264269
 20
45.9992212535
 30
0.0
 10
14.6712679484
 20
46.001054027
 30
0.0
 10
14.5650822737
 20
46.0028591492
 30
0.0
 10
14.4666608126
 20
46.0046423272
 30
0.0
 10
14.3754404673
 20
46.0064100644
 30
0.0
 10
14.2909019219
 20
46.0081698367
 30
0.0
 10
14.212568853
 20
46.0099311502
 30
0.0
 10
14.1400204267
 20
46.0117037782
 30
0.0
 10
14.0728386722
 20
46.0135068499
 30
0.0
 10
14.0106382913
 20
46.0153493178
 30
0.0
 10
13.9530544898
 20
46.0173037203
 30
0.0
 10
13.8997741429
 20
46.019285131
 30
0.0
 10
13.8505892798
 20
46.02185114
 30
0.0
 10
13.8053256306
 20
46.0235986004
 30
0.0
 10
13.7767374827
 20
46.0281427742
 30
0.0
 10
13.7633012797
 20
46.0310290228
 30
0.0
  0
SPLINE
  5
481
100
AcDbEntity
  8
0
100
AcDbSpline
 62
7
  6
CONTINUOUS
 70
0
 71
3
 72
70
 73
66
 74
0
 42
0.0000001
 43
0.0000001
 44
0.0000000001
 40
0.0
 40
0.0
 40
0.0
 40
0.0
 40
0.0742793852
 40
0.1430641774
 40
0.2067600106
 40
0.2657477907
 40
0.3203764244
 40
0.3709725895
 40
0.4178241582
 40
0.4612012407
 40
0.5013780218
 40
0.5385975658
 40
0.5730778628
 40
0.6050212431
 40
0.6346149857
 40
0.6620323585
 40
0.6874337342
 40
0.7109675823
 40
0.7327711303
 40
0.7529695164
 40
0.7716727078
 40
0.7890028016
 40
0.8050616031
 40
0.8199429086
 40
0.8337334035
 40
0.8465133771
 40
0.8583571595
 40
0.8693335757
 40
0.8795063542
 40
0.8889345085
 40
0.8976726918
 40
0.9057715201
 40
0.9132778578
 40
0.9202351224
 40
0.926683518
 40
0.9326602876
 40
0.9381999256
 40
0.9433343932
 40
0.948092274
 40
0.9525009823
 40
0.9565876694
 40
0.9603758783
 40
0.9638874602
 40
0.9671426411
 40
0.9701601624
 40
0.9729573849
 40
0.975550397
 40
0.9779541047
 40
0.9801823164
 40
0.9822478299
 40
0.9841624994
 40
0.9859373108
 40
0.987582441
 40
0.9891073183
 40
0.9905206769
 40
0.9918305777
 40
0.9930444128
 40
0.9941689203
 40
0.9952095765
 40
0.9961736678
 40
0.9970663613
 40
0.9978924192
 40
0.9986560643
 40
0.999360091
 40
1.0
 40
1.0
 40
1.0
 40
1.0
 10
78.2037833617
 20
80.2194429407
 30
0.0
 10
76.6082184416
 20
80.2163893088
 30
0.0
 10
73.5351158788
 20
80.2104087907
 30
0.0
 10
69.0937901362
 20
80.2013982103
 30
0.0
 10
64.9809377038
 20
80.1927134868
 30
0.0
 10
61.1721684802
 20
80.184341148
 30
0.0
 10
57.6447883854
 20
80.1762706002
 30
0.0
 10
54.3781017623
 20
80.1684917702
 30
0.0
 10
51.353105551
 20
80.160995425
 30
0.0
 10
48.5519242771
 20
80.1537717348
 30
0.0
 10
45.9576449674
 20
80.1468102958
 30
0.0
 10
43.5544742277
 20
80.1401004749
 30
0.0
 10
41.3281621334
 20
80.1336328264
 30
0.0
 10
39.2656570717
 20
80.1273986029
 30
0.0
 10
37.3548680828
 20
80.1213893047
 30
0.0
 10
35.5846054914
 20
80.1155967103
 30
0.0
 10
33.944513266
 20
80.1100128728
 30
0.0
 10
32.4250095517
 20
80.1046301175
 30
0.0
 10
31.0172693502
 20
80.0994411726
 30
0.0
 10
29.7132947167
 20
80.0944397764
 30
0.0
 10
28.5054127172
 20
80.0896188086
 30
0.0
 10
27.3864516266
 20
80.0849711862
 30
0.0
 10
26.349587079
 20
80.0804891365
 30
0.0
 10
25.3887553788
 20
80.0761661987
 30
0.0
 10
24.4983549991
 20
80.0719961729
 30
0.0
 10
23.6732025673
 20
80.067973084
 30
0.0
 10
22.9084983574
 20
80.0640911466
 30
0.0
 10
22.1997983862
 20
80.0603447712
 30
0.0
 10
21.5429876776
 20
80.0567285492
 30
0.0
 10
20.9342556739
 20
80.0532372471
 30
0.0
 10
20.3700734835
 20
80.0498658014
 30
0.0
 10
19.8471731859
 20
80.0466093212
 30
0.0
 10
19.3625282129
 20
80.0434630365
 30
0.0
 10
18.9133356495
 20
80.0404223608
 30
0.0
 10
18.4969992553
 20
80.0374828149
 30
0.0
 10
18.1111144654
 20
80.0346400666
 30
0.0
 10
17.7534537772
 20
80.0318898951
 30
0.0
 10
17.4219756956
 20
80.0292283679
 30
0.0
 10
17.1147908165
 20
80.0266516903
 30
0.0
 10
16.8301130539
 20
80.0241558729
 30
0.0
 10
16.5662646022
 20
80.021736776
 30
0.0
 10
16.321687154
 20
80.0193902369
 30
0.0
 10
16.0949711652
 20
80.0171124681
 30
0.0
 10
15.8848102372
 20
80.0148997216
 30
0.0
 10
15.6899944295
 20
80.012748249
 30
0.0
 10
15.5094026838
 20
80.0106542864
 30
0.0
 10
15.3419963296
 20
80.0086140526
 30
0.0
 10
15.1868130145
 20
80.0066236892
 30
0.0
 10
15.0429610768
 20
80.0046792033
 30
0.0
 10
14.909614421
 20
80.0027764972
 30
0.0
 10
14.7860075849
 20
80.0009111812
 30
0.0
 10
14.6714314276
 20
79.9990785985
 30
0.0
 10
14.5652289295
 20
79.9972736562
 30
0.0
 10
14.4667914704
 20
79.9954906539
 30
0.0
 10
14.3755559197
 20
79.9937230849
 30
0.0
 10
14.2910029272
 20
79.9919634738
 30
0.0
 10
14.2126561319
 20
79.9902023195
 30
0.0
 10
14.1400946652
 20
79.9884298423
 30
0.0
 10
14.0729005414
 20
79.9866269213
 30
0.0
 10
14.0106884373
 20
79.9847846024
 30
0.0
 10
13.9530935357
 20
79.9828303476
 30
0.0
 10
13.8998026779
 20
79.9808490871
 30
0.0
 10
13.8506078564
 20
79.9782832651
 30
0.0
 10
13.8053348318
 20
79.9765359211
 30
0.0
 10
13.7767405265
 20
79.9719920199
 30
0.0
 10
13.7633012797
 20
79.9691059384
 30
0.0
  0
SPLINE
  5
482
100
AcDbEntity
  8
0
100
AcDbSpline
 62
7
  6
CONTINUOUS
 70
0
 71
3
 72
16
 73
12
 74
0
 42
0.0000001
 43
0.0000001
 44
0.0000000001
 40
0.0
 40
0.0
 40
0.0
 40
0.0
 40
0.0786479205
 40
0.193558687
 40
0.3227465306
 40
0.4526033753
 40
0.5761091502
 40
0.6965516794
 40
0.8062716528
 40
0.9046266125
 40
1.0
 40
1.0
 40
1.0
 40
1.0
 10
79.1900983881
 20
80.9519440787
 30
0.0
 10
79.1676670759
 20
80.9277300908
 30
0.0
 10
79.1102544896
 20
80.8702216981
 30
0.0
 10
79.0138778283
 20
80.7750620856
 30
0.0
 10
78.9009915443
 20
80.6660234797
 30
0.0
 10
78.7844008582
 20
80.5556271996
 30
0.0
 10
78.6677702736
 20
80.4507054692
 30
0.0
 10
78.5542204659
 20
80.3549423153
 30
0.0
 10
78.4427247086
 20
80.2738233499
 30
0.0
 10
78.3279701473
 20
80.2149384109
 30
0.0
 10
78.2429051636
 20
80.2109823304
 30
0.0
 10
78.2037749168
 20
80.2194061374
 30
0.0
  0
SPLINE
  5
483
100
AcDbEntity
  8
0
100
AcDbSpline
 62
7
  6
CONTINUOUS
 70
0
 71
3
 72
29
 73
25
 74
0
 42
0.0000001
 43
0.0000001
 44
0.0000000001
 40
0.0
 40
0.0
 40
0.0
 40
0.0
 40
0.0256790852
 40
0.0521577042
 40
0.08003198
 40
0.1113173522
 40
0.1455752152
 40
0.1783196116
 40
0.2090558375
 40
0.241974566
 40
0.2776817745
 40
0.3167995645
 40
0.3599381302
 40
0.4076346953
 40
0.4602844939
 40
0.5180663157
 40
0.5808869306
 40
0.648586432
 40
0.7207168756
 40
0.7899723493
 40
0.8591542531
 40
0.9236630301
 40
0.974799802
 40
1.0
 40
1.0
 40
1.0
 40
1.0
 10
13.715950594
 20
46.0310290228
 30
0.0
 10
13.7123808991
 20
46.0199548134
 30
0.0
 10
13.7023992188
 20
45.9979975152
 30
0.0
 10
13.6770528314
 20
45.9717000149
 30
0.0
 10
13.65113841
 20
45.9429133513
 30
0.0
 10
13.6219446627
 20
45.9122285353
 30
0.0
 10
13.5911951647
 20
45.8800241654
 30
0.0
 10
13.5605037395
 20
45.8480953114
 30
0.0
 10
13.5302151048
 20
45.8166244815
 30
0.0
 10
13.4989673158
 20
45.7842126641
 30
0.0
 10
13.4650672552
 20
45.7490829032
 30
0.0
 10
13.4279403818
 20
45.7106317751
 30
0.0
 10
13.3870336224
 20
45.6682788969
 30
0.0
 10
13.341871648
 20
45.6215114951
 30
0.0
 10
13.2921300264
 20
45.5699431707
 30
0.0
 10
13.2376893038
 20
45.5133854723
 30
0.0
 10
13.1786150665
 20
45.4518266847
 30
0.0
 10
13.1150993768
 20
45.3855043963
 30
0.0
 10
13.0497174417
 20
45.3169924244
 30
0.0
 10
12.9838358263
 20
45.2478075766
 30
0.0
 10
12.9218154174
 20
45.1805166026
 30
0.0
 10
12.8628061438
 20
45.1190531033
 30
0.0
 10
12.8269621289
 20
45.0701927937
 30
0.0
 10
12.7968405218
 20
45.0441035272
 30
0.0
 10
12.7968405218
 20
45.0326851864
 30
0.0
  0
LINE
  5
484
100
AcDbEntity
  8
0
100
AcDbLine
 62
7
  6
CONTINUOUS
 10
13.7633012797
 20
53.0000000009
 11
13.715950594
 21
53.0000000009
  0
LINE
  5
485
100
AcDbEntity
  8
0
100
AcDbLine
 62
7
  6
CONTINUOUS
 10
13.715950594
 20
73.0000000009
 11
13.7633012797
 21
73.0000000009
  0
SPLINE
  5
486
100
AcDbEntity
  8
0
100
AcDbSpline
 62
7
  6
CONTINUOUS
 70
0
 71
3
 72
30
 73
26
 74
0
 42
0.0000001
 43
0.0000001
 44
0.0000000001
 40
0.0
 40
0.0
 40
0.0
 40
0.0
 40
0.0404303606
 40
0.0979287659
 40
0.1692574339
 40
0.2430419336
 40
0.3144674479
 40
0.3812668755
 40
0.4428678629
 40
0.4991794782
 40
0.550245464
 40
0.5962730926
 40
0.6376965214
 40
0.6750914495
 40
0.709116458
 40
0.740464928
 40
0.7698226904
 40
0.7978477744
 40
0.8251532196
 40
0.8569715025
 40
0.8901198595
 40
0.9210038961
 40
0.9488646489
 40
0.9750834005
 40
1.0
 40
1.0
 40
1.0
 40
1.0
 10
12.8052165659
 20
80.9519473194
 30
0.0
 10
12.8158042526
 20
80.9372868442
 30
0.0
 10
12.8444583109
 20
80.9040481526
 30
0.0
 10
12.8950081455
 20
80.8477433838
 30
0.0
 10
12.9566499602
 20
80.7812860868
 30
0.0
 10
13.0231349334
 20
80.7108603725
 30
0.0
 10
13.0885900194
 20
80.6422425207
 30
0.0
 10
13.1503818981
 20
80.5776640901
 30
0.0
 10
13.2075594538
 20
80.5180263623
 30
0.0
 10
13.2599359057
 20
80.4635349936
 30
0.0
 10
13.3075462453
 20
80.4141243235
 30
0.0
 10
13.3505712838
 20
80.3695431298
 30
0.0
 10
13.3893665571
 20
80.3293779713
 30
0.0
 10
13.4244344974
 20
80.2930766065
 30
0.0
 10
13.4563673878
 20
80.2600123794
 30
0.0
 10
13.4857967638
 20
80.2295280337
 30
0.0
 10
13.513351904
 20
80.2009645836
 30
0.0
 10
13.5396383958
 20
80.173689775
 30
0.0
 10
13.5666645044
 20
80.145600101
 30
0.0
 10
13.5952652269
 20
80.1158420984
 30
0.0
 10
13.6248535374
 20
80.0848265322
 30
0.0
 10
13.6531851178
 20
80.0550134125
 30
0.0
 10
13.6785333472
 20
80.0267932804
 30
0.0
 10
13.7031480162
 20
80.0010896595
 30
0.0
 10
13.712698407
 20
79.9797664974
 30
0.0
 10
13.715950594
 20
79.9691067196
 30
0.0
  0
SPLINE
  5
487
100
AcDbEntity
  8
0
100
AcDbSpline
 62
7
  6
CONTINUOUS
 70
0
 71
3
 72
10
 73
6
 74
0
 42
0.0000001
 43
0.0000001
 44
0.0000000001
 40
0.0
 40
0.0
 40
0.0
 40
0.0
 40
0.2172490408
 40
0.537872305
 40
1.0
 40
1.0
 40
1.0
 40
1.0
 10
12.7968405218
 20
80.9586432616
 30
0.0
 10
12.7968405218
 20
80.957834755
 30
0.0
 10
12.7978644131
 20
80.9559016454
 30
0.0
 10
12.800972638
 20
80.9538018773
 30
0.0
 10
12.8036267193
 20
80.9525799512
 30
0.0
 10
12.8052246903
 20
80.9519440787
 30
0.0
  0
SPLINE
  5
488
100
AcDbEntity
  8
0
100
AcDbSpline
 62
7
  6
CONTINUOUS
 70
0
 71
3
 72
11
 73
7
 74
0
 42
0.0000001
 43
0.0000001
 44
0.0000000001
 40
0.0
 40
0.0
 40
0.0
 40
0.0
 40
0.3375374298
 40
0.6254486862
 40
0.8502473335
 40
1.0
 40
1.0
 40
1.0
 40
1.0
 10
21.3211350237
 20
95.3048916604
 30
0.0
 10
21.3862244922
 20
95.3969421605
 30
0.0
 10
21.5067656377
 20
95.5673295426
 30
0.0
 10
21.6648661791
 20
95.8041618199
 30
0.0
 10
21.7737753209
 20
95.9951708669
 30
0.0
 10
21.8195811489
 20
96.115820521
 30
0.0
 10
21.8210578997
 20
96.165816479
 30
0.0
  0
SPLINE
  5
489
100
AcDbEntity
  8
0
100
AcDbSpline
 62
7
  6
CONTINUOUS
 70
0
 71
3
 72
28
 73
24
 74
0
 42
0.0000001
 43
0.0000001
 44
0.0000000001
 40
0.0
 40
0.0
 40
0.0
 40
0.0
 40
0.0662066927
 40
0.1392957967
 40
0.2164415237
 40
0.2912682957
 40
0.3617149259
 40
0.4267176239
 40
0.4860702339
 40
0.5399849882
 40
0.5888976484
 40
0.6333863745
 40
0.6741176741
 40
0.7118071217
 40
0.7471381719
 40
0.7807572131
 40
0.81331038
 40
0.8477483602
 40
0.8830784266
 40
0.9160338315
 40
0.9483804942
 40
0.9761808578
 40
1.0
 40
1.0
 40
1.0
 40
1.0
 10
70.1460267435
 20
96.1658058065
 30
0.0
 10
70.147164104
 20
96.1437151752
 30
0.0
 10
70.1572970669
 20
96.0977378061
 30
0.0
 10
70.1836412406
 20
96.0303451049
 30
0.0
 10
70.216783961
 20
95.9627664825
 30
0.0
 10
70.2527789783
 20
95.8977417349
 30
0.0
 10
70.2887922146
 20
95.8374091484
 30
0.0
 10
70.3233314243
 20
95.7822427806
 30
0.0
 10
70.3556775259
 20
95.7322288425
 30
0.0
 10
70.3855876671
 20
95.6870462471
 30
0.0
 10
70.4130806792
 20
95.6462214176
 30
0.0
 10
70.4383337472
 20
95.6091996264
 30
0.0
 10
70.4616253778
 20
95.5753795074
 30
0.0
 10
70.483284453
 20
95.5441503656
 30
0.0
 10
70.503664936
 20
95.5149264285
 30
0.0
 10
70.5231251545
 20
95.4871529327
 30
0.0
 10
70.5424602155
 20
95.459656258
 30
0.0
 10
70.5621693465
 20
95.4317233753
 30
0.0
 10
70.5819575124
 20
95.4036835858
 30
0.0
 10
70.601431905
 20
95.3762712194
 30
0.0
 10
70.6190262559
 20
95.350632954
 30
0.0
 10
70.635848217
 20
95.3281177804
 30
0.0
 10
70.6433173406
 20
95.3124014348
 30
0.0
 10
70.645950591
 20
95.3048916604
 30
0.0
  0
SPLINE
  5
48A
100
AcDbEntity
  8
0
100
AcDbSpline
 62
7
  6
CONTINUOUS
 70
0
 71
3
 72
10
 73
6
 74
0
 42
0.0000001
 43
0.0000001
 44
0.0000000001
 40
0.0
 40
0.0
 40
0.0
 40
0.0
 40
0.1221208483
 40
0.4586157754
 40
1.0
 40
1.0
 40
1.0
 40
1.0
 10
70.1379946609
 20
96.3048535835
 30
0.0
 10
70.1429804021
 20
96.3021450782
 30
0.0
 10
70.1375871052
 20
96.2744870096
 30
0.0
 10
70.1467695209
 20
96.2340846104
 30
0.0
 10
70.1453429919
 20
96.1909643606
 30
0.0
 10
70.1460267435
 20
96.1658200257
 30
0.0
  0
SPLINE
  5
48B
100
AcDbEntity
  8
0
100
AcDbSpline
 62
7
  6
CONTINUOUS
 70
0
 71
3
 72
10
 73
6
 74
0
 42
0.0000001
 43
0.0000001
 44
0.0000000001
 40
0.0
 40
0.0
 40
0.0
 40
0.0
 40
0.54196831
 40
0.8777326286
 40
1.0
 40
1.0
 40
1.0
 40
1.0
 10
61.8212022274
 20
96.1707028333
 30
0.0
 10
61.8219360348
 20
96.1950018515
 30
0.0
 10
61.8207699461
 20
96.2367271404
 30
0.0
 10
61.8296730298
 20
96.2754580584
 30
0.0
 10
61.8248800204
 20
96.3024010673
 30
0.0
 10
61.8297854264
 20
96.3048535835
 30
0.0
  0
SPLINE
  5
48C
100
AcDbEntity
  8
0
100
AcDbSpline
 62
7
  6
CONTINUOUS
 70
0
 71
3
 72
11
 73
7
 74
0
 42
0.0000001
 43
0.0000001
 44
0.0000000001
 40
0.0
 40
0.0
 40
0.0
 40
0.0
 40
0.1497982741
 40
0.3734503405
 40
0.6629344328
 40
1.0
 40
1.0
 40
1.0
 40
1.0
 10
50.1460267435
 20
96.1658163128
 30
0.0
 10
50.1475041159
 20
96.1158052745
 30
0.0
 10
50.1932166316
 20
95.995519756
 30
0.0
 10
50.3020822396
 20
95.8043122942
 30
0.0
 10
50.4601958578
 20
95.567494864
 30
0.0
 10
50.5809522551
 20
95.3968131887
 30
0.0
 10
50.645950591
 20
95.3048916604
 30
0.0
  0
SPLINE
  5
48D
100
AcDbEntity
  8
0
100
AcDbSpline
 62
7
  6
CONTINUOUS
 70
0
 71
3
 72
10
 73
6
 74
0
 42
0.0000001
 43
0.0000001
 44
0.0000000001
 40
0.0
 40
0.0
 40
0.0
 40
0.0
 40
0.5411005019
 40
0.8763133003
 40
1.0
 40
1.0
 40
1.0
 40
1.0
 10
41.8224657571
 20
96.20863719
 30
0.0
 10
41.8231049284
 20
96.2260542228
 30
0.0
 10
41.8226559977
 20
96.2559079568
 30
0.0
 10
41.8289225812
 20
96.2838356368
 30
0.0
 10
41.8262209562
 20
96.3030717917
 30
0.0
 10
41.8297842272
 20
96.3048535835
 30
0.0
  0
SPLINE
  5
48E
100
AcDbEntity
  8
0
100
AcDbSpline
 62
7
  6
CONTINUOUS
 70
0
 71
3
 72
11
 73
7
 74
0
 42
0.0000001
 43
0.0000001
 44
0.0000000001
 40
0.0
 40
0.0
 40
0.0
 40
0.0
 40
0.1497982741
 40
0.3734503405
 40
0.6629344328
 40
1.0
 40
1.0
 40
1.0
 40
1.0
 10
30.1460267435
 20
96.1658163128
 30
0.0
 10
30.1475041159
 20
96.1158052745
 30
0.0
 10
30.1932166316
 20
95.995519756
 30
0.0
 10
30.3020822396
 20
95.8043122942
 30
0.0
 10
30.4601958578
 20
95.567494864
 30
0.0
 10
30.5809522551
 20
95.3968131887
 30
0.0
 10
30.645950591
 20
95.3048916604
 30
0.0
  0
SPLINE
  5
48F
100
AcDbEntity
  8
0
100
AcDbSpline
 62
7
  6
CONTINUOUS
 70
0
 71
3
 72
11
 73
7
 74
0
 42
0.0000001
 43
0.0000001
 44
0.0000000001
 40
0.0
 40
0.0
 40
0.0
 40
0.0
 40
0.3375373547
 40
0.6254486117
 40
0.8502472565
 40
1.0
 40
1.0
 40
1.0
 40
1.0
 10
31.3211340522
 20
95.3048916604
 30
0.0
 10
31.386223577
 20
95.3969421492
 30
0.0
 10
31.5067648384
 20
95.5673295303
 30
0.0
 10
31.6648655699
 20
95.8041617892
 30
0.0
 10
31.7737749289
 20
95.9951708632
 30
0.0
 10
31.8195809832
 20
96.115820478
 30
0.0
 10
31.8210578997
 20
96.1658164783
 30
0.0
  0
SPLINE
  5
490
100
AcDbEntity
  8
0
100
AcDbSpline
 62
7
  6
CONTINUOUS
 70
0
 71
3
 72
11
 73
7
 74
0
 42
0.0000001
 43
0.0000001
 44
0.0000000001
 40
0.0
 40
0.0
 40
0.0
 40
0.0
 40
0.1497982741
 40
0.3734503405
 40
0.6629344328
 40
1.0
 40
1.0
 40
1.0
 40
1.0
 10
40.1460267435
 20
96.1658163128
 30
0.0
 10
40.1475041159
 20
96.1158052745
 30
0.0
 10
40.1932166316
 20
95.9955197559
 30
0.0
 10
40.3020822397
 20
95.8043122942
 30
0.0
 10
40.4601958577
 20
95.567494864
 30
0.0
 10
40.5809522551
 20
95.3968131886
 30
0.0
 10
40.645950591
 20
95.3048916604
 30
0.0
  0
SPLINE
  5
491
100
AcDbEntity
  8
0
100
AcDbSpline
 62
7
  6
CONTINUOUS
 70
0
 71
3
 72
20
 73
16
 74
0
 42
0.0000001
 43
0.0000001
 44
0.0000000001
 40
0.0
 40
0.0
 40
0.0
 40
0.0
 40
0.084838325
 40
0.1787124783
 40
0.2750490001
 40
0.3694619252
 40
0.4597530766
 40
0.5449701352
 40
0.6247750666
 40
0.6993251127
 40
0.7688888285
 40
0.8336621148
 40
0.8936436028
 40
0.9491023308
 40
1.0
 40
1.0
 40
1.0
 40
1.0
 10
41.8261506001
 20
96.1770014013
 30
0.0
 10
41.8261506001
 20
96.1482898683
 30
0.0
 10
41.8115496486
 20
96.0882991055
 30
0.0
 10
41.7745749811
 20
96.0030110866
 30
0.0
 10
41.7290940061
 20
95.9179409437
 30
0.0
 10
41.6803535363
 20
95.8362703505
 30
0.0
 10
41.6313402013
 20
95.7591693735
 30
0.0
 10
41.5836628184
 20
95.6871070733
 30
0.0
 10
41.5380479925
 20
95.6200761396
 30
0.0
 10
41.4948837776
 20
95.5577902219
 30
0.0
 10
41.4543277307
 20
95.4998878551
 30
0.0
 10
41.4162904524
 20
95.446239978
 30
0.0
 10
41.3812593889
 20
95.3963210935
 30
0.0
 10
41.3477782016
 20
95.351030423
 30
0.0
 10
41.3293141191
 20
95.320050525
 30
0.0
 10
41.3211340522
 20
95.3048916604
 30
0.0
  0
SPLINE
  5
492
100
AcDbEntity
  8
0
100
AcDbSpline
 62
7
  6
CONTINUOUS
 70
0
 71
3
 72
10
 73
6
 74
0
 42
0.0000001
 43
0.0000001
 44
0.0000000001
 40
0.0
 40
0.0
 40
0.0
 40
0.0
 40
0.4127008615
 40
0.7596944587
 40
1.0
 40
1.0
 40
1.0
 40
1.0
 10
41.8261506001
 20
96.1770573204
 30
0.0
 10
41.8261506001
 20
96.1814159084
 30
0.0
 10
41.8258145913
 20
96.1894442052
 30
0.0
 10
41.824440419
 20
96.1999312412
 30
0.0
 10
41.823090478
 20
96.2059908656
 30
0.0
 10
41.8224657571
 20
96.2084506729
 30
0.0
  0
SPLINE
  5
493
100
AcDbEntity
  8
0
100
AcDbSpline
 62
7
  6
CONTINUOUS
 70
0
 71
3
 72
11
 73
7
 74
0
 42
0.0000001
 43
0.0000001
 44
0.0000000001
 40
0.0
 40
0.0
 40
0.0
 40
0.0
 40
0.3375373547
 40
0.6254486117
 40
0.8502472565
 40
1.0
 40
1.0
 40
1.0
 40
1.0
 10
51.3211340522
 20
95.3048916604
 30
0.0
 10
51.386223577
 20
95.3969421492
 30
0.0
 10
51.5067648384
 20
95.5673295303
 30
0.0
 10
51.6648655699
 20
95.8041617892
 30
0.0
 10
51.7737749289
 20
95.9951708632
 30
0.0
 10
51.8195809832
 20
96.115820478
 30
0.0
 10
51.8210578997
 20
96.1658164783
 30
0.0
  0
SPLINE
  5
494
100
AcDbEntity
  8
0
100
AcDbSpline
 62
7
  6
CONTINUOUS
 70
0
 71
3
 72
11
 73
7
 74
0
 42
0.0000001
 43
0.0000001
 44
0.0000000001
 40
0.0
 40
0.0
 40
0.0
 40
0.0
 40
0.1497982741
 40
0.3734503405
 40
0.6629344328
 40
1.0
 40
1.0
 40
1.0
 40
1.0
 10
60.1460267435
 20
96.1658163128
 30
0.0
 10
60.1475041159
 20
96.1158052745
 30
0.0
 10
60.1932166316
 20
95.995519756
 30
0.0
 10
60.3020822396
 20
95.8043122942
 30
0.0
 10
60.4601958578
 20
95.567494864
 30
0.0
 10
60.5809522551
 20
95.3968131886
 30
0.0
 10
60.645950591
 20
95.3048916604
 30
0.0
  0
SPLINE
  5
495
100
AcDbEntity
  8
0
100
AcDbSpline
 62
7
  6
CONTINUOUS
 70
0
 71
3
 72
28
 73
24
 74
0
 42
0.0000001
 43
0.0000001
 44
0.0000000001
 40
0.0
 40
0.0
 40
0.0
 40
0.0
 40
0.0239693732
 40
0.051952451
 40
0.0844569493
 40
0.1175564341
 40
0.1529976571
 40
0.1874509035
 40
0.2200453223
 40
0.2536787493
 40
0.2890049025
 40
0.3266787638
 40
0.3673980797
 40
0.4118875025
 40
0.4608205031
 40
0.5147800637
 40
0.5742030637
 40
0.6392965352
 40
0.7098231416
 40
0.7846602714
 40
0.861663602
 40
0.9344861409
 40
1.0
 40
1.0
 40
1.0
 40
1.0
 10
61.3211340522
 20
95.3048916604
 30
0.0
 10
61.3238217834
 20
95.3124761437
 30
0.0
 10
61.3314098626
 20
95.3283495421
 30
0.0
 10
61.348414245
 20
95.3511011057
 30
0.0
 10
61.3661893659
 20
95.3769937828
 30
0.0
 10
61.3858383398
 20
95.4046497607
 30
0.0
 10
61.4057726802
 20
95.4328988887
 30
0.0
 10
61.4256064307
 20
95.4610132332
 30
0.0
 10
61.4450447787
 20
95.4886633163
 30
0.0
 10
61.464603959
 20
95.516586721
 30
0.0
 10
61.4850756604
 20
95.5459527189
 30
0.0
 10
61.5068258126
 20
95.5773270864
 30
0.0
 10
61.5302146928
 20
95.6113082359
 30
0.0
 10
61.5555775308
 20
95.6485188131
 30
0.0
 10
61.5831962858
 20
95.6895700054
 30
0.0
 10
61.613248416
 20
95.7350246174
 30
0.0
 10
61.6457477342
 20
95.7853618261
 30
0.0
 10
61.6804349412
 20
95.8408991105
 30
0.0
 10
61.7165513605
 20
95.9016338679
 30
0.0
 10
61.7525391801
 20
95.9670493139
 30
0.0
 10
61.785507085
 20
96.034974053
 30
0.0
 10
61.8112979353
 20
96.1025562279
 30
0.0
 10
61.8206721391
 20
96.1486610283
 30
0.0
 10
61.8212022274
 20
96.1706479516
 30
0.0
  0
SPLINE
  5
496
100
AcDbEntity
  8
0
100
AcDbSpline
 62
7
  6
CONTINUOUS
 70
0
 71
3
 72
75
 73
71
 74
0
 42
0.0000001
 43
0.0000001
 44
0.0000000001
 40
0.0
 40
0.0
 40
0.0
 40
0.0
 40
0.0187110869
 40
0.0275100972
 40
0.0348744658
 40
0.0427887479
 40
0.0511692474
 40
0.0599322729
 40
0.0674558438
 40
0.0737095362
 40
0.0803943605
 40
0.0876343215
 40
0.0955537372
 40
0.1042786797
 40
0.1089826638
 40
0.113935862
 40
0.1191541432
 40
0.1246536338
 40
0.1304509286
 40
0.1365620766
 40
0.1430038334
 40
0.1497927897
 40
0.1569455368
 40
0.1644792631
 40
0.172410648
 40
0.1807571959
 40
0.1895359141
 40
0.1987643827
 40
0.2055078583
 40
0.2148969613
 40
0.2200878161
 40
0.2256847102
 40
0.2317441113
 40
0.2383234601
 40
0.2454797074
 40
0.2532708894
 40
0.2617548294
 40
0.2709903943
 40
0.2810361902
 40
0.2919520519
 40
0.3037979139
 40
0.3166340628
 40
0.3305215968
 40
0.3455220353
 40
0.3616973037
 40
0.3791096584
 40
0.3962279058
 40
0.4084181533
 40
0.4215768542
 40
0.4358369109
 40
0.451331822
 40
0.4681957273
 40
0.4865632953
 40
0.5065694978
 40
0.5283492926
 40
0.5520372553
 40
0.577767821
 40
0.6010364093
 40
0.6231838181
 40
0.6473469949
 40
0.6737715475
 40
0.7026997298
 40
0.734370667
 40
0.7690176972
 40
0.8025801905
 40
0.8358736665
 40
0.8721067196
 40
0.9114422283
 40
0.9540289819
 40
1.0
 40
1.0
 40
1.0
 40
1.0
 10
79.724815452
 20
29.8018979435
 30
0.0
 10
79.7248002406
 20
29.7992582609
 30
0.0
 10
79.7247878894
 20
29.7953770396
 30
0.0
 10
79.7246879674
 20
29.7904579344
 30
0.0
 10
79.7245988173
 20
29.7870622619
 30
0.0
 10
79.7244890127
 20
29.7837262488
 30
0.0
 10
79.7243484702
 20
29.7801939055
 30
0.0
 10
79.7241849123
 20
29.7767177286
 30
0.0
 10
79.7240135448
 20
29.7735423848
 30
0.0
 10
79.7238412093
 20
29.7706607659
 30
0.0
 10
79.7236556142
 20
29.7678200639
 30
0.0
 10
79.7234366878
 20
29.76474609
 30
0.0
 10
79.7231756161
 20
29.7613866379
 30
0.0
 10
79.722921237
 20
29.7583855838
 30
0.0
 10
79.7226874123
 20
29.7558028239
 30
0.0
 10
79.7224897324
 20
29.753713545
 30
0.0
 10
79.7222719808
 20
29.7515134552
 30
0.0
 10
79.7220319262
 20
29.7491959306
 30
0.0
 10
79.7217673192
 20
29.7467543374
 30
0.0
 10
79.7214753288
 20
29.744182032
 30
0.0
 10
79.7211532012
 20
29.7414723841
 30
0.0
 10
79.72079776
 20
29.7386187576
 30
0.0
 10
79.7204054698
 20
29.7356145285
 30
0.0
 10
79.7199727519
 20
29.7324530967
 30
0.0
 10
79.7194953071
 20
29.729127867
 30
0.0
 10
79.7189689015
 20
29.7256323046
 30
0.0
 10
79.7183885453
 20
29.7219599082
 30
0.0
 10
79.7178172364
 20
29.7185151453
 30
0.0
 10
79.7172080126
 20
29.7149894874
 30
0.0
 10
79.7166755147
 20
29.7120286828
 30
0.0
 10
79.7161543987
 20
29.7092302689
 30
0.0
 10
79.7157086449
 20
29.7068956677
 30
0.0
 10
79.7152136041
 20
29.7043710828
 30
0.0
 10
79.7146616867
 20
29.7016335072
 30
0.0
 10
79.7140440924
 20
29.698659989
 30
0.0
 10
79.7133514616
 20
29.6954276867
 30
0.0
 10
79.7125730707
 20
29.6919138365
 30
0.0
 10
79.7116973171
 20
29.6880958694
 30
0.0
 10
79.7107109115
 20
29.6839514168
 30
0.0
 10
79.7095993928
 20
29.6794583712
 30
0.0
 10
79.7083464019
 20
29.67459502
 30
0.0
 10
79.7069338192
 20
29.6693401406
 30
0.0
 10
79.7053415164
 20
29.6636730914
 30
0.0
 10
79.7035470661
 20
29.6575739789
 30
0.0
 10
79.701525621
 20
29.6510238774
 30
0.0
 10
79.6993191231
 20
29.6442189141
 30
0.0
 10
79.6971946309
 20
29.637979133
 30
0.0
 10
79.6951933481
 20
29.6323319689
 30
0.0
 10
79.6932703498
 20
29.6270851826
 30
0.0
 10
79.6911211011
 20
29.6214251799
 30
0.0
 10
79.6887090479
 20
29.6153063416
 30
0.0
 10
79.6859934811
 20
29.6086849332
 30
0.0
 10
79.6829291657
 20
29.6015195241
 30
0.0
 10
79.6794658922
 20
29.5937715662
 30
0.0
 10
79.6755477308
 20
29.5854062256
 30
0.0
 10
79.6711125588
 20
29.576393165
 30
0.0
 10
79.6663932445
 20
29.5672881509
 30
0.0
 10
79.6615901967
 20
29.558473981
 30
0.0
 10
79.6567280703
 20
29.5499459826
 30
0.0
 10
79.6514716633
 20
29.5411323552
 30
0.0
 10
79.6455202519
 20
29.5316221325
 30
0.0
 10
79.6387645305
 20
29.5213693946
 30
0.0
 10
79.6310852162
 20
29.5103408761
 30
0.0
 10
79.622710504
 20
29.4990060963
 30
0.0
 10
79.6138708037
 20
29.4877378695
 30
0.0
 10
79.6045730444
 20
29.4765519947
 30
0.0
 10
79.5944106351
 20
29.4650337661
 30
0.0
 10
79.5829866112
 20
29.4528906849
 30
0.0
 10
79.5701721453
 20
29.4401832564
 30
0.0
 10
79.5609752034
 20
29.4317224988
 30
0.0
 10
79.5561173229
 20
29.4274250005
 30
0.0
  0
SPLINE
  5
497
100
AcDbEntity
  8
0
100
AcDbSpline
 62
7
  6
CONTINUOUS
 70
0
 71
3
 72
10
 73
6
 74
0
 42
0.0000001
 43
0.0000001
 44
0.0000000001
 40
0.0
 40
0.0
 40
0.0
 40
0.0
 40
0.4685290744
 40
0.8016718449
 40
1.0
 40
1.0
 40
1.0
 40
1.0
 10
79.1900001077
 20
80.9519440787
 30
0.0
 10
79.192519635
 20
80.9527256793
 30
0.0
 10
79.1968040614
 20
80.9542418888
 30
0.0
 10
79.2018115455
 20
80.9567054433
 30
0.0
 10
79.2038413736
 20
80.9594112112
 30
0.0
 10
79.2038413736
 20
80.9605278653
 30
0.0
  0
SPLINE
  5
498
100
AcDbEntity
  8
0
100
AcDbSpline
 62
7
  6
CONTINUOUS
 70
0
 71
3
 72
22
 73
18
 74
0
 42
0.0000001
 43
0.0000001
 44
0.0000000001
 40
0.0
 40
0.0
 40
0.0
 40
0.0
 40
0.0154149601
 40
0.05157163
 40
0.1097322958
 40
0.18966094
 40
0.2848131497
 40
0.38135288
 40
0.4731811671
 40
0.5587823762
 40
0.638266452
 40
0.7117718844
 40
0.7793485378
 40
0.8409358486
 40
0.897164027
 40
0.949603037
 40
1.0
 40
1.0
 40
1.0
 40
1.0
 10
79.2033625726
 20
45.0324020737
 30
0.0
 10
79.19994831
 20
45.0380280854
 30
0.0
 10
79.1840904047
 20
45.0536868595
 30
0.0
 10
79.1523568558
 20
45.0878623658
 30
0.0
 10
79.0994098921
 20
45.1403001402
 30
0.0
 10
79.028724323
 20
45.2103576963
 30
0.0
 10
78.9454741462
 20
45.2911115946
 30
0.0
 10
78.8579240981
 20
45.3746873727
 30
0.0
 10
78.7724023505
 20
45.4544842511
 30
0.0
 10
78.6910854873
 20
45.5280968539
 30
0.0
 10
78.6141032667
 20
45.5948159289
 30
0.0
 10
78.5409705763
 20
45.6541698333
 30
0.0
 10
78.4710754835
 20
45.7052692426
 30
0.0
 10
78.4034559401
 20
45.7466505478
 30
0.0
 10
78.3365612459
 20
45.7760174366
 30
0.0
 10
78.2691780308
 20
45.7891539574
 30
0.0
 10
78.2248169943
 20
45.785251018
 30
0.0
 10
78.2037833617
 20
45.7807228522
 30
0.0
  0
SPLINE
  5
499
100
AcDbEntity
  8
0
100
AcDbSpline
 62
7
  6
CONTINUOUS
 70
0
 71
3
 72
101
 73
97
 74
0
 42
0.0000001
 43
0.0000001
 44
0.0000000001
 40
0.0
 40
0.0
 40
0.0
 40
0.0
 40
0.0382670361
 40
0.0753479257
 40
0.1112085986
 40
0.1458233405
 40
0.1791732494
 40
0.2092203966
 40
0.2179826429
 40
0.2267601547
 40
0.2355531482
 40
0.2443610756
 40
0.2531841839
 40
0.2620219431
 40
0.2708745631
 40
0.2797415998
 40
0.2886231597
 40
0.2975189505
 40
0.3064289135
 40
0.315352964
 40
0.3242908516
 40
0.3332426765
 40
0.3422080495
 40
0.3511871935
 40
0.3601796481
 40
0.3691856925
 40
0.3782048616
 40
0.3872374258
 40
0.39628298
 40
0.4053417228
 40
0.4144133717
 40
0.4234979926
 40
0.4325954861
 40
0.4417057431
 40
0.4508288562
 40
0.4599645645
 40
0.4691131034
 40
0.4782741284
 40
0.4874479603
 40
0.4966340072
 40
0.5058325451
 40
0.5150427996
 40
0.5242649657
 40
0.5334984027
 40
0.5427431365
 40
0.5519987464
 40
0.5612650073
 40
0.5705417796
 40
0.5798285701
 40
0.589125472
 40
0.5984318091
 40
0.6077478178
 40
0.6170727322
 40
0.6264068402
 40
0.6357493784
 40
0.645100595
 40
0.654459821
 40
0.6638271749
 40
0.6732021722
 40
0.6825847149
 40
0.6919745869
 40
0.7013714242
 40
0.7107752668
 40
0.7201855412
 40
0.7296024646
 40
0.7390253449
 40
0.7484544861
 40
0.7578891496
 40
0.7673296297
 40
0.7748320932
 40
0.7820471049
 40
0.7892648108
 40
0.7964854932
 40
0.8037088992
 40
0.8109347821
 40
0.8181634197
 40
0.8253942436
 40
0.8326276089
 40
0.8398631434
 40
0.8471007412
 40
0.854340567
 40
0.8615820938
 40
0.8688257105
 40
0.8760709472
 40
0.8833178573
 40
0.8905664556
 40
0.8978162957
 40
0.9050677624
 40
0.9123203202
 40
0.919574166
 40
0.9315909948
 40
0.9446949032
 40
0.9554580183
 40
0.9648790355
 40
0.9739572017
 40
1.0
 40
1.0
 40
1.0
 40
1.0
 10
78.8936319228
 20
29.4273679521
 30
0.0
 10
78.8970912461
 20
29.4243088392
 30
0.0
 10
78.9039884848
 20
29.4183826395
 30
0.0
 10
78.9144069212
 20
29.4099216645
 30
0.0
 10
78.9246967257
 20
29.402008984
 30
0.0
 10
78.934820616
 20
29.3946260181
 30
0.0
 10
78.9445447417
 20
29.3878917742
 30
0.0
 10
78.9518145446
 20
29.383097596
 30
0.0
 10
78.9566516959
 20
29.380002929
 30
0.0
 10
78.959339122
 20
29.3783073342
 30
0.0
 10
78.9620417557
 20
29.3766256334
 30
0.0
 10
78.9647596622
 20
29.3749581818
 30
0.0
 10
78.9674925754
 20
29.3733049807
 30
0.0
 10
78.9702405576
 20
29.3716663945
 30
0.0
 10
78.9730033605
 20
29.3700424369
 30
0.0
 10
78.9757810138
 20
29.3684334412
 30
0.0
 10
78.9785733167
 20
29.3668394708
 30
0.0
 10
78.9813802373
 20
29.3652607902
 30
0.0
 10
78.984201649
 20
29.3636975493
 30
0.0
 10
78.987037438
 20
29.3621499108
 30
0.0
 10
78.9898875605
 20
29.3606181307
 30
0.0
 10
78.9927518264
 20
29.3591022727
 30
0.0
 10
78.9956302563
 20
29.3576026802
 30
0.0
 10
78.9985226092
 20
29.3561193453
 30
0.0
 10
79.0014289419
 20
29.3546526658
 30
0.0
 10
79.0043489919
 20
29.3532025975
 30
0.0
 10
79.007282823
 20
29.3517695555
 30
0.0
 10
79.0102301801
 20
29.3503534985
 30
0.0
 10
79.0131911053
 20
29.3489548174
 30
0.0
 10
79.0161653795
 20
29.3475735171
 30
0.0
 10
79.0191529946
 20
29.3462099197
 30
0.0
 10
79.0221537953
 20
29.3448641217
 30
0.0
 10
79.0251676997
 20
29.3435363318
 30
0.0
 10
79.0281946314
 20
29.3422267724
 30
0.0
 10
79.0312344312
 20
29.3409355247
 30
0.0
 10
79.0342870923
 20
29.3396629296
 30
0.0
 10
79.0373523992
 20
29.3384089695
 30
0.0
 10
79.040430387
 20
29.3371740576
 30
0.0
 10
79.043520803
 20
29.3359581678
 30
0.0
 10
79.0466236104
 20
29.334761617
 30
0.0
 10
79.0497385115
 20
29.3335844216
 30
0.0
 10
79.0528653784
 20
29.332426774
 30
0.0
 10
79.0560039164
 20
29.3312887383
 30
0.0
 10
79.0591539745
 20
29.3301704907
 30
0.0
 10
79.0623152893
 20
29.3290721155
 30
0.0
 10
79.0654876731
 20
29.3279937607
 30
0.0
 10
79.0686709064
 20
29.3269355472
 30
0.0
 10
79.0718647552
 20
29.3258975785
 30
0.0
 10
79.0750690456
 20
29.3248800228
 30
0.0
 10
79.0782835009
 20
29.3238829394
 30
0.0
 10
79.0815079823
 20
29.3229065364
 30
0.0
 10
79.0847421862
 20
29.321950839
 30
0.0
 10
79.0879859921
 20
29.3210160822
 30
0.0
 10
79.0912390867
 20
29.320102273
 30
0.0
 10
79.0945013504
 20
29.319209655
 30
0.0
 10
79.0977724779
 20
29.3183382371
 30
0.0
 10
79.1010523329
 20
29.3174882491
 30
0.0
 10
79.1043406354
 20
29.316659727
 30
0.0
 10
79.1076372152
 20
29.3158528594
 30
0.0
 10
79.1109418346
 20
29.3150677374
 30
0.0
 10
79.1142542774
 20
29.3143044812
 30
0.0
 10
79.1175743534
 20
29.3135632569
 30
0.0
 10
79.1209018006
 20
29.312844111
 30
0.0
 10
79.124236468
 20
29.3121472767
 30
0.0
 10
79.1275780629
 20
29.3114727491
 30
0.0
 10
79.1309264536
 20
29.3108207894
 30
0.0
 10
79.1342813384
 20
29.3101914008
 30
0.0
 10
79.137642559
 20
29.3095847052
 30
0.0
 10
79.1407787841
 20
29.3090407942
 30
0.0
 10
79.143654098
 20
29.3085603273
 30
0.0
 10
79.1462671421
 20
29.3081379908
 30
0.0
 10
79.1488487635
 20
29.3077345731
 30
0.0
 10
79.1514334575
 20
29.3073444886
 30
0.0
 10
79.1540211294
 20
29.3069677616
 30
0.0
 10
79.1566116842
 20
29.3066044212
 30
0.0
 10
79.1592049849
 20
29.3062544706
 30
0.0
 10
79.1618009736
 20
29.3059179542
 30
0.0
 10
79.1643995067
 20
29.3055948693
 30
0.0
 10
79.1670005021
 20
29.3052852515
 30
0.0
 10
79.1696038525
 20
29.3049891245
 30
0.0
 10
79.1722094296
 20
29.3047064893
 30
0.0
 10
79.1748171706
 20
29.3044374005
 30
0.0
 10
79.1774269283
 20
29.3041818402
 30
0.0
 10
79.1800386326
 20
29.3039398604
 30
0.0
 10
79.1826521637
 20
29.3037114704
 30
0.0
 10
79.185267405
 20
29.3034966783
 30
0.0
 10
79.1878842834
 20
29.3032955427
 30
0.0
 10
79.1905026524
 20
29.3031080326
 30
0.0
 10
79.1931224512
 20
29.3029342191
 30
0.0
 10
79.1963170954
 20
29.3027390496
 30
0.0
 10
79.2002181171
 20
29.3025279622
 30
0.0
 10
79.2045439496
 20
29.3023333609
 30
0.0
 10
79.2085582416
 20
29.3021872246
 30
0.0
 10
79.2120879042
 20
29.3020855858
 30
0.0
 10
79.217461497
 20
29.301961399
 30
0.0
 10
79.2216998503
 20
29.3019494425
 30
0.0
 10
79.2248423671
 20
29.3019248671
 30
0.0
  0
SPLINE
  5
49A
100
AcDbEntity
  8
0
100
AcDbSpline
 62
7
  6
CONTINUOUS
 70
0
 71
3
 72
19
 73
15
 74
0
 42
0.0000001
 43
0.0000001
 44
0.0000000001
 40
0.0
 40
0.0
 40
0.0
 40
0.0
 40
0.0572952557
 40
0.1198987272
 40
0.1882091786
 40
0.2627273727
 40
0.3439203789
 40
0.4321951242
 40
0.5278115072
 40
0.6306961256
 40
0.7399427309
 40
0.8496786822
 40
0.9367017325
 40
1.0
 40
1.0
 40
1.0
 40
1.0
 10
62.5482022168
 20
30.6951042135
 30
0.0
 10
62.537059452
 20
30.6793755143
 30
0.0
 10
62.5145039343
 20
30.6459270815
 30
0.0
 10
62.4776136499
 20
30.5944607608
 30
0.0
 10
62.437918246
 20
30.5378845413
 30
0.0
 10
62.3946971986
 20
30.4761417337
 30
0.0
 10
62.348032447
 20
30.4086122723
 30
0.0
 10
62.2979348843
 20
30.3348294902
 30
0.0
 10
62.2447725441
 20
30.2543146545
 30
0.0
 10
62.1894708265
 20
30.1667701102
 30
0.0
 10
62.1346930377
 20
30.073340849
 30
0.0
 10
62.0878232632
 20
29.9815175589
 30
0.0
 10
62.0563687786
 20
29.8997149857
 30
0.0
 10
62.0470904647
 20
29.849310069
 30
0.0
 10
62.0470904647
 20
29.8280147742
 30
0.0
  0
SPLINE
  5
49B
100
AcDbEntity
  8
0
100
AcDbSpline
 62
7
  6
CONTINUOUS
 70
0
 71
3
 72
10
 73
6
 74
0
 42
0.0000001
 43
0.0000001
 44
0.0000000001
 40
0.0
 40
0.0
 40
0.0
 40
0.0
 40
0.34077625
 40
0.6739577889
 40
1.0
 40
1.0
 40
1.0
 40
1.0
 10
62.0470904647
 20
29.8280147353
 30
0.0
 10
62.0470904647
 20
29.8264865178
 30
0.0
 10
62.0471322593
 20
29.8234639375
 30
0.0
 10
62.0473249768
 20
29.8189829689
 30
0.0
 10
62.0475414019
 20
29.8160340308
 30
0.0
 10
62.0476717285
 20
29.8145777081
 30
0.0
  0
SPLINE
  5
49C
100
AcDbEntity
  8
0
100
AcDbSpline
 62
7
  6
CONTINUOUS
 70
0
 71
3
 72
11
 73
7
 74
0
 42
0.0000001
 43
0.0000001
 44
0.0000000001
 40
0.0
 40
0.0
 40
0.0
 40
0.0
 40
0.1494313332
 40
0.3740402247
 40
0.6620180645
 40
1.0
 40
1.0
 40
1.0
 40
1.0
 10
29.9188062736
 20
29.8341835252
 30
0.0
 10
29.9173325226
 20
29.8840723609
 30
0.0
 10
29.8716517961
 20
30.0045713731
 30
0.0
 10
29.7628409622
 20
30.1954768683
 30
0.0
 10
29.6046991775
 20
30.4324092984
 30
0.0
 10
29.4840578658
 20
30.6029363524
 30
0.0
 10
29.418882426
 20
30.6951083433
 30
0.0
  0
SPLINE
  5
49D
100
AcDbEntity
  8
0
100
AcDbSpline
 62
7
  6
CONTINUOUS
 70
0
 71
3
 72
11
 73
7
 74
0
 42
0.0000001
 43
0.0000001
 44
0.0000000001
 40
0.0
 40
0.0
 40
0.0
 40
0.0
 40
0.3761508822
 40
0.6972796893
 40
0.9159276177
 40
1.0
 40
1.0
 40
1.0
 40
1.0
 10
40.6336619393
 20
29.6950702649
 30
0.0
 10
40.5703264126
 20
29.6950644586
 30
0.0
 10
40.453083411
 20
29.6940508079
 30
0.0
 10
40.2982809696
 20
29.6962203991
 30
0.0
 10
40.1944259321
 20
29.6890735091
 30
0.0
 10
40.1420849327
 20
29.6949999665
 30
0.0
 10
40.1285716932
 20
29.6907829834
 30
0.0
  0
SPLINE
  5
49E
100
AcDbEntity
  8
0
100
AcDbSpline
 62
7
  6
CONTINUOUS
 70
0
 71
3
 72
11
 73
7
 74
0
 42
0.0000001
 43
0.0000001
 44
0.0000000001
 40
0.0
 40
0.0
 40
0.0
 40
0.0
 40
0.3761508822
 40
0.6972796893
 40
0.9159276177
 40
1.0
 40
1.0
 40
1.0
 40
1.0
 10
50.6336619372
 20
29.6950702649
 30
0.0
 10
50.5703264105
 20
29.6950644586
 30
0.0
 10
50.453083409
 20
29.6940508079
 30
0.0
 10
50.2982809676
 20
29.6962203991
 30
0.0
 10
50.19442593
 20
29.6890735091
 30
0.0
 10
50.1420849306
 20
29.6949999665
 30
0.0
 10
50.1285716912
 20
29.6907829834
 30
0.0
  0
SPLINE
  5
49F
100
AcDbEntity
  8
0
100
AcDbSpline
 62
7
  6
CONTINUOUS
 70
0
 71
3
 72
11
 73
7
 74
0
 42
0.0000001
 43
0.0000001
 44
0.0000000001
 40
0.0
 40
0.0
 40
0.0
 40
0.0
 40
0.0840713319
 40
0.302720393
 40
0.6238516987
 40
1.0
 40
1.0
 40
1.0
 40
1.0
 10
51.8385129483
 20
29.6907829834
 30
0.0
 10
51.8249998778
 20
29.6949999138
 30
0.0
 10
51.7726588687
 20
29.6890734944
 30
0.0
 10
51.6688034058
 20
29.6962204245
 30
0.0
 10
51.5140007832
 20
29.6940508126
 30
0.0
 10
51.3967577953
 20
29.6950644587
 30
0.0
 10
51.3334227033
 20
29.6950702649
 30
0.0
  0
SPLINE
  5
4A0
100
AcDbEntity
  8
0
100
AcDbSpline
 62
7
  6
CONTINUOUS
 70
0
 71
3
 72
10
 73
6
 74
0
 42
0.0000001
 43
0.0000001
 44
0.0000000001
 40
0.0
 40
0.0
 40
0.0
 40
0.0
 40
0.541284331
 40
0.8771689976
 40
1.0
 40
1.0
 40
1.0
 40
1.0
 10
62.0476717285
 20
29.8145683092
 30
0.0
 10
62.0469684051
 20
29.792957364
 30
0.0
 10
62.0478390807
 20
29.755843286
 30
0.0
 10
62.0399617677
 20
29.7213171962
 30
0.0
 10
62.0439134322
 20
29.6973342994
 30
0.0
 10
62.0395215624
 20
29.6951464202
 30
0.0
  0
SPLINE
  5
4A1
100
AcDbEntity
  8
0
100
AcDbSpline
 62
7
  6
CONTINUOUS
 70
0
 71
3
 72
35
 73
31
 74
0
 42
0.0000001
 43
0.0000001
 44
0.0000000001
 40
0.0
 40
0.0
 40
0.0
 40
0.0
 40
0.0531924248
 40
0.1007898941
 40
0.1453078727
 40
0.1888655272
 40
0.2343597655
 40
0.2844755222
 40
0.3396937206
 40
0.3992418788
 40
0.4630098318
 40
0.5309347786
 40
0.6003915706
 40
0.6625931471
 40
0.7127480107
 40
0.7523672482
 40
0.7844032358
 40
0.8104391626
 40
0.8319459479
 40
0.8501482771
 40
0.8660756905
 40
0.8805988129
 40
0.8943874238
 40
0.9079657306
 40
0.921748847
 40
0.9360439603
 40
0.9511475124
 40
0.9670291467
 40
0.983823571
 40
1.0
 40
1.0
 40
1.0
 40
1.0
 10
80.0835423207
 20
65.9071498883
 30
0.0
 10
80.0947833909
 20
65.8750605269
 30
0.0
 10
80.1184312893
 20
65.8149681108
 30
0.0
 10
80.1656738841
 20
65.7343241522
 30
0.0
 10
80.225994226
 20
65.6707746409
 30
0.0
 10
80.2985220189
 20
65.6244748831
 30
0.0
 10
80.3811241814
 20
65.5906768267
 30
0.0
 10
80.4740639137
 20
65.5645800175
 30
0.0
 10
80.5773027511
 20
65.5431520607
 30
0.0
 10
80.6898685951
 20
65.5242949945
 30
0.0
 10
80.8107854562
 20
65.5063224913
 30
0.0
 10
80.938024945
 20
65.4878244407
 30
0.0
 10
81.0640681975
 20
65.4680622179
 30
0.0
 10
81.1783848827
 20
65.4470019999
 30
0.0
 10
81.2731373382
 20
65.4254002767
 30
0.0
 10
81.3480054547
 20
65.4038274427
 30
0.0
 10
81.4066693662
 20
65.3822290973
 30
0.0
 10
81.4526808686
 20
65.3603367813
 30
0.0
 10
81.488453919
 20
65.338082721
 30
0.0
 10
81.5159796578
 20
65.3153759925
 30
0.0
 10
81.5368436198
 20
65.2921497867
 30
0.0
 10
81.5523360725
 20
65.2683629227
 30
0.0
 10
81.5635512478
 20
65.2439550233
 30
0.0
 10
81.571424747
 20
65.2187968932
 30
0.0
 10
81.5767341319
 20
65.1926680455
 30
0.0
 10
81.5801162496
 20
65.1652540893
 30
0.0
 10
81.5820794738
 20
65.1363676894
 30
0.0
 10
81.5830768583
 20
65.1058392049
 30
0.0
 10
81.583475707
 20
65.0746136635
 30
0.0
 10
81.5835423207
 20
65.0535381839
 30
0.0
 10
81.5835423207
 20
65.0431979953
 30
0.0
  0
SPLINE
  5
4A2
100
AcDbEntity
  8
0
100
AcDbSpline
 62
7
  6
CONTINUOUS
 70
0
 71
3
 72
23
 73
19
 74
0
 42
0.0000001
 43
0.0000001
 44
0.0000000001
 40
0.0
 40
0.0
 40
0.0
 40
0.0
 40
0.1509016489
 40
0.2882280704
 40
0.3985976676
 40
0.5117938421
 40
0.6116946515
 40
0.684904891
 40
0.7412082981
 40
0.7838026998
 40
0.8161514243
 40
0.8412495427
 40
0.865311951
 40
0.8889168341
 40
0.9109403513
 40
0.9332455096
 40
0.9635098981
 40
1.0
 40
1.0
 40
1.0
 40
1.0
 10
80.0835423207
 20
60.1788463652
 30
0.0
 10
80.1153517881
 20
60.269600498
 30
0.0
 10
80.2102637871
 20
60.4464177933
 30
0.0
 10
80.4660621239
 20
60.5237819435
 30
0.0
 10
80.6902692316
 20
60.5630463221
 30
0.0
 10
80.8949917212
 20
60.5919262765
 30
0.0
 10
81.0751912889
 20
60.6197810849
 30
0.0
 10
81.2188158993
 20
60.6475182996
 30
0.0
 10
81.3251543453
 20
60.6747825443
 30
0.0
 10
81.4041506898
 20
60.7026908443
 30
0.0
 10
81.4615852004
 20
60.7307853502
 30
0.0
 10
81.5046183506
 20
60.7602351688
 30
0.0
 10
81.5376189332
 20
60.7933586106
 30
0.0
 10
81.5604955429
 20
60.8319998097
 30
0.0
 10
81.5735171259
 20
60.8735571394
 30
0.0
 10
81.5807376593
 20
60.9206493919
 30
0.0
 10
81.5833327616
 20
60.9774072529
 30
0.0
 10
81.5835423207
 20
61.0199434083
 30
0.0
 10
81.5835423207
 20
61.0431979957
 30
0.0
  0
SPLINE
  5
4A3
100
AcDbEntity
  8
0
100
AcDbSpline
 62
7
  6
CONTINUOUS
 70
0
 71
3
 72
10
 73
6
 74
0
 42
0.0000001
 43
0.0000001
 44
0.0000000001
 40
0.0
 40
0.0
 40
0.0
 40
0.0
 40
0.3699933939
 40
0.7072644948
 40
1.0
 40
1.0
 40
1.0
 40
1.0
 10
11.2330280969
 20
27.57284841
 30
0.0
 10
11.2357674238
 20
27.7327550241
 30
0.0
 10
11.2487523546
 20
28.03830877
 30
0.0
 10
11.2381108608
 20
28.470710559
 30
0.0
 10
11.2527011713
 20
28.7428079646
 30
0.0
 10
11.2544539845
 20
28.869331087
 30
0.0
  0
SPLINE
  5
4A4
100
AcDbEntity
  8
0
100
AcDbSpline
 62
7
  6
CONTINUOUS
 70
0
 71
3
 72
10
 73
6
 74
0
 42
0.0000001
 43
0.0000001
 44
0.0000000001
 40
0.0
 40
0.0
 40
0.0
 40
0.0
 40
0.2929524765
 40
0.6302266103
 40
1.0
 40
1.0
 40
1.0
 40
1.0
 10
11.2544539856
 20
29.7570649043
 30
0.0
 10
11.2526998733
 20
29.8836817974
 30
0.0
 10
11.2381198201
 20
30.1558746801
 30
0.0
 10
11.248757514
 20
30.5882763118
 30
0.0
 10
11.2357657926
 20
30.8937360584
 30
0.0
 10
11.2330280947
 20
31.0535475812
 30
0.0
  0
SPLINE
  5
4A5
100
AcDbEntity
  8
0
100
AcDbSpline
 62
7
  6
CONTINUOUS
 70
0
 71
3
 72
10
 73
6
 74
0
 42
0.0000001
 43
0.0000001
 44
0.0000000001
 40
0.0
 40
0.0
 40
0.0
 40
0.0
 40
0.3485980363
 40
0.6944084413
 40
1.0
 40
1.0
 40
1.0
 40
1.0
 10
11.5128736457
 20
30.0145559115
 30
0.0
 10
11.5137417575
 20
29.975008423
 30
0.0
 10
11.4943484147
 20
29.8950038067
 30
0.0
 10
11.4215328137
 20
29.8037304847
 30
0.0
 10
11.3507977039
 20
29.7711127673
 30
0.0
 10
11.3164067216
 20
29.7666691329
 30
0.0
  0
SPLINE
  5
4A6
100
AcDbEntity
  8
0
100
AcDbSpline
 62
7
  6
CONTINUOUS
 70
0
 71
3
 72
35
 73
31
 74
0
 42
0.0000001
 43
0.0000001
 44
0.0000000001
 40
0.0
 40
0.0
 40
0.0
 40
0.0
 40
0.0646450939
 40
0.1226214255
 40
0.1747576442
 40
0.2217696664
 40
0.264223725
 40
0.3026285788
 40
0.3373741124
 40
0.3687347079
 40
0.3969474442
 40
0.4221887378
 40
0.4444722949
 40
0.4642662196
 40
0.4822870754
 40
0.499541586
 40
0.5166715261
 40
0.5347476735
 40
0.5545942224
 40
0.5769333939
 40
0.6020929538
 40
0.6303094252
 40
0.661708862
 40
0.6964876491
 40
0.7349649688
 40
0.7775515391
 40
0.8247105699
 40
0.8770095345
 40
0.9351686409
 40
1.0
 40
1.0
 40
1.0
 40
1.0
 10
14.260770148
 20
28.0408609917
 30
0.0
 10
14.3559766983
 20
28.0660192808
 30
0.0
 10
14.5349987395
 20
28.1199546937
 30
0.0
 10
14.7843767369
 20
28.2135986818
 30
0.0
 10
15.002945212
 20
28.3115066605
 30
0.0
 10
15.1943917844
 20
28.4111443832
 30
0.0
 10
15.3618627473
 20
28.5108247407
 30
0.0
 10
15.5078832359
 20
28.6094362153
 30
0.0
 10
15.6343789261
 20
28.7062665685
 30
0.0
 10
15.7426835094
 20
28.8008454034
 30
0.0
 10
15.8335902213
 20
28.8928422499
 30
0.0
 10
15.9073039364
 20
28.9818273065
 30
0.0
 10
15.9640008313
 20
29.0675649497
 30
0.0
 10
16.0040969575
 20
29.150226903
 30
0.0
 10
16.0282696665
 20
29.2309954734
 30
0.0
 10
16.0366398177
 20
29.3108935588
 30
0.0
 10
16.0291520543
 20
29.3909600727
 30
0.0
 10
16.0057751014
 20
29.4719513623
 30
0.0
 10
15.9661503746
 20
29.5551297101
 30
0.0
 10
15.9098392763
 20
29.6411791495
 30
0.0
 10
15.8364605385
 20
29.7303997007
 30
0.0
 10
15.7458416384
 20
29.8226005416
 30
0.0
 10
15.6376408262
 20
29.9174761717
 30
0.0
 10
15.5111230347
 20
30.0146417064
 30
0.0
 10
15.3649263223
 20
30.1136425043
 30
0.0
 10
15.1970923707
 20
30.2137637612
 30
0.0
 10
15.0051207123
 20
30.3138546226
 30
0.0
 10
14.7859168345
 20
30.4121829914
 30
0.0
 10
14.5358075067
 20
30.5061884814
 30
0.0
 10
14.3562510218
 20
30.5603042205
 30
0.0
 10
14.260770148
 20
30.5855349995
 30
0.0
  0
SPLINE
  5
4A7
100
AcDbEntity
  8
0
100
AcDbSpline
 62
7
  6
CONTINUOUS
 70
0
 71
3
 72
10
 73
6
 74
0
 42
0.0000001
 43
0.0000001
 44
0.0000000001
 40
0.0
 40
0.0
 40
0.0
 40
0.0
 40
0.3052974283
 40
0.6512993549
 40
1.0
 40
1.0
 40
1.0
 40
1.0
 10
11.316406764
 20
28.8597268518
 30
0.0
 10
11.3507645206
 20
28.8552875104
 30
0.0
 10
11.4214897592
 20
28.8226962979
 30
0.0
 10
11.4943348865
 20
28.7314383443
 30
0.0
 10
11.5137420099
 20
28.6513999173
 30
0.0
 10
11.5128736457
 20
28.6118409316
 30
0.0
  0
ELLIPSE
  5
4A8
100
AcDbEntity
  8
0
100
AcDbEllipse
 62
7
  6
CONTINUOUS
 10
10.5867444122
 20
27.1111190833
 30
0.0
 11
0.4942481956
 21
-0.0
 31
0.0
 40
0.0178135477
 41
1.838061933
 42
3.1283082578
  0
ELLIPSE
  5
4A9
100
AcDbEntity
  8
0
100
AcDbEllipse
 62
7
  6
CONTINUOUS
 10
44.9113879066
 20
23.7452849497
 30
0.0
 11
192.5327881558
 21
0.0
 31
0.0
 40
0.0178135477
 41
1.7189901261
 42
1.7507229942
  0
ELLIPSE
  5
4AA
100
AcDbEntity
  8
0
100
AcDbEllipse
 62
7
  6
CONTINUOUS
 10
45.9835423197
 20
23.613633966
 30
0.0
 11
200.0005897496
 21
0.0
 31
0.0
 40
0.0178135477
 41
1.4252837864
 42
1.7163088672
  0
ELLIPSE
  5
4AB
100
AcDbEntity
  8
0
100
AcDbEllipse
 62
7
  6
CONTINUOUS
 10
45.9852341083
 20
23.6138366793
 30
0.0
 11
199.9890847378
 21
0.0
 31
0.0
 40
0.0178135477
 41
1.3924670759
 42
1.422756594
  0
ELLIPSE
  5
4AC
100
AcDbEntity
  8
0
100
AcDbEllipse
 62
7
  6
CONTINUOUS
 10
81.3746075437
 20
27.1110805049
 30
0.0
 11
0.5000135074
 21
-0.0
 31
0.0
 40
0.0178135477
 41
0.0174629625
 42
1.3983393254
  0
ELLIPSE
  5
4AD
100
AcDbEntity
  8
0
100
AcDbEllipse
 62
7
  6
CONTINUOUS
 10
81.3746075437
 20
98.8984048905
 30
0.0
 11
0.5000135074
 21
0.0
 31
0.0
 40
0.0162924118
 41
-1.3983393254
 42
-0.0174629625
  0
ELLIPSE
  5
4AE
100
AcDbEntity
  8
0
100
AcDbEllipse
 62
7
  6
CONTINUOUS
 10
45.9852341083
 20
102.0970117908
 30
0.0
 11
199.9890847378
 21
0.0
 31
0.0
 40
0.0162924118
 41
-1.422756594
 42
-1.3924670759
  0
ELLIPSE
  5
4AF
100
AcDbEntity
  8
0
100
AcDbEllipse
 62
7
  6
CONTINUOUS
 10
45.9835423197
 20
102.0971971939
 30
0.0
 11
200.0005897496
 21
0.0
 31
0.0
 40
0.0162924118
 41
-1.7163088672
 42
-1.4252837864
  0
ELLIPSE
  5
4B0
100
AcDbEntity
  8
0
100
AcDbEllipse
 62
7
  6
CONTINUOUS
 10
44.9113879066
 20
101.9767881617
 30
0.0
 11
192.5327881558
 21
0.0
 31
0.0
 40
0.0162924118
 41
-1.7507229942
 42
-1.7189901261
  0
ELLIPSE
  5
4B1
100
AcDbEntity
  8
0
100
AcDbEllipse
 62
7
  6
CONTINUOUS
 10
10.5867444122
 20
98.8983696064
 30
0.0
 11
0.4942481956
 21
-0.0
 31
0.0
 40
0.0162924118
 41
-3.1283082578
 42
-1.838061933
  0
ELLIPSE
  5
4B2
100
AcDbEntity
  8
0
100
AcDbEllipse
 62
7
  6
CONTINUOUS
 10
13.7396259368
 20
80.9586432616
 30
0.0
 11
0.9427854151
 21
0.0
 31
0.0
 40
0.0533996126
 41
3.1038849185
 42
3.1415926536
  0
ELLIPSE
  5
4B3
100
AcDbEntity
  8
0
100
AcDbEllipse
 62
7
  6
CONTINUOUS
 10
21.8299363118
 20
95.3048916604
 30
0.0
 11
-0.0
 21
1.0
 31
0.0
 40
0.0174522406
 41
0.0087266463
 42
0.5337045805
  0
ELLIPSE
  5
4B4
100
AcDbEntity
  8
0
100
AcDbEllipse
 62
7
  6
CONTINUOUS
 10
60.1371483313
 20
95.3048916604
 30
0.0
 11
-0.0
 21
1.0
 31
0.0
 40
0.0174522406
 41
-0.5337045805
 42
-0.0087266463
  0
ELLIPSE
  5
4B5
100
AcDbEntity
  8
0
100
AcDbEllipse
 62
7
  6
CONTINUOUS
 10
51.8299377486
 20
95.3048916604
 30
0.0
 11
0.0
 21
1.0
 31
0.0
 40
0.0174550649
 41
0.0087266463
 42
0.5337045805
  0
ELLIPSE
  5
4B6
100
AcDbEntity
  8
0
100
AcDbEllipse
 62
7
  6
CONTINUOUS
 10
50.1371468946
 20
95.3048916604
 30
0.0
 11
0.0
 21
1.0
 31
0.0
 40
0.0174550649
 41
-0.5337045805
 42
-0.0087266463
  0
ELLIPSE
  5
4B7
100
AcDbEntity
  8
0
100
AcDbEllipse
 62
7
  6
CONTINUOUS
 10
40.1371468946
 20
95.3048916604
 30
0.0
 11
0.0
 21
1.0
 31
0.0
 40
0.0174550649
 41
-0.5337045805
 42
-0.0087266463
  0
ELLIPSE
  5
4B8
100
AcDbEntity
  8
0
100
AcDbEllipse
 62
7
  6
CONTINUOUS
 10
31.8299377486
 20
95.3048916604
 30
0.0
 11
0.0
 21
1.0
 31
0.0
 40
0.0174550649
 41
0.0087266463
 42
0.5337045805
  0
ELLIPSE
  5
4B9
100
AcDbEntity
  8
0
100
AcDbEllipse
 62
7
  6
CONTINUOUS
 10
30.1371468946
 20
95.3048916604
 30
0.0
 11
0.0
 21
1.0
 31
0.0
 40
0.0174550649
 41
-0.5337045805
 42
-0.0087266463
  0
ELLIPSE
  5
4BA
100
AcDbEntity
  8
0
100
AcDbEllipse
 62
7
  6
CONTINUOUS
 10
78.2564482412
 20
45.0308211484
 30
0.0
 11
0.9473931324
 21
0.0
 31
0.0
 40
0.0524077793
 41
-0.0142426217
 42
0.0
  0
ELLIPSE
  5
4BB
100
AcDbEntity
  8
0
100
AcDbEllipse
 62
7
  6
CONTINUOUS
 10
78.2564482412
 20
80.9605278653
 30
0.0
 11
0.9473931324
 21
-0.0
 31
0.0
 40
0.0533996126
 41
0.0
 42
0.0142426218
  0
ELLIPSE
  5
4BC
100
AcDbEntity
  8
0
100
AcDbEllipse
 62
7
  6
CONTINUOUS
 10
29.9277174541
 20
30.6951083433
 30
0.0
 11
-0.0
 21
1.0
 31
0.0
 40
0.0175166532
 41
-3.6752972344
 42
-3.1503192998
  0
ELLIPSE
  5
4BD
100
AcDbEntity
  8
0
100
AcDbEllipse
 62
7
  6
CONTINUOUS
 10
31.3580552796
 20
29.6809744828
 30
0.0
 11
0.5
 21
-0.0
 31
0.0
 40
0.0087268678
 41
0.0174532925
 42
1.5707963268
  0
ELLIPSE
  5
4BE
100
AcDbEntity
  8
0
100
AcDbEllipse
 62
7
  6
CONTINUOUS
 10
41.3385890987
 20
29.690706831
 30
0.0
 11
0.5
 21
-0.0
 31
0.0
 40
0.0087268678
 41
0.0174532925
 42
1.5707963268
  0
ELLIPSE
  5
4BF
100
AcDbEntity
  8
0
100
AcDbEllipse
 62
7
  6
CONTINUOUS
 10
60.609029362
 20
29.6809744828
 30
0.0
 11
0.5
 21
-0.0
 31
0.0
 40
0.0087268678
 41
1.5707963268
 42
3.1241393611
  0
ENDSEC
  0
SECTION
  2
OBJECTS
  0
DICTIONARY
  5
C
100
AcDbDictionary
280
0
281
1
  3
ACAD_GROUP
350
D
  3
ACAD_MLINESTYLE
350
17
  3
ACAD_LAYOUT
350
1A
  3
ACAD_PLOTSETTINGS
350
19
  3
ACAD_PLOTSTYLENAME
350
E
  0
DICTIONARY
  5
D
102
{ACAD_REACTORS
330
C
102
}
100
AcDbDictionary
280
0
281
1
  0
ACDBDICTIONARYWDFLT
  5
E
102
{ACAD_REACTORS
330
C
102
}
100
AcDbDictionary
281
1
  3
Normal
350
F
100
AcDbDictionaryWithDefault
340
F
  0
DICTIONARY
  5
17
102
{ACAD_REACTORS
330
C
102
}
100
AcDbDictionary
280
0
281
1
  3
Standard
350
18
  0
DICTIONARY
  5
19
102
{ACAD_REACTORS
330
C
102
}
100
AcDbDictionary
281
1
  0
DICTIONARY
  5
1A
102
{ACAD_REACTORS
330
C
102
}
100
AcDbDictionary
281
1
  3
Model
350
4C0
  3
Layout1
350
4C1
  0
ACDBPLACEHOLDER
  5
F
102
{ACAD_REACTORS
330
E
102
}
  0
MLINESTYLE
  5
18
102
{ACAD_REACTORS
330
17
102
}
100
AcDbMlineStyle
  2
STANDARD
 70
0
  3

 62
256
 51
90.0
 52
90.0
 71
2
 49
0.5
 62
256
  6
BYLAYER
 49
-0.5
 62
256
  6
BYLAYER
  0
LAYOUT
  5
4C0
102
{ACAD_REACTORS
330
1A
102
}
100
AcDbPlotSettings
  1

  2
none_device
  4

  6

 40
0.0
 41
0.0
 42
0.0
 43
0.0
 44
210.0
 45
297.0
 46
0.0
 47
0.0
 48
0.0
 49
0.0
140
0.0
141
0.0
142
1.0
143
1.0
 70
1024
 72
1
 73
0
 74
0
  7

 75
0
147
1.0
148
0.0
149
0.0
100
AcDbLayout
  1
Model
 70
0
 71
0
 10
0.0
 20
0.0
 11
210.0
 21
297.0
 12
0.0
 22
0.0
 32
0.0
 14
0.0
 24
0.0
 34
0.0
 15
0.0
 25
0.0
 35
0.0
146
0.0
 13
0.0
 23
0.0
 33
0.0
 16
1.0
 26
0.0
 36
0.0
 17
0.0
 27
1.0
 37
0.0
 76
0
330
210
345
0
346
0
  0
LAYOUT
  5
4C1
102
{ACAD_REACTORS
330
1A
102
}
100
AcDbPlotSettings
  1

  2
none_device
  4

  6

 40
0.0
 41
0.0
 42
0.0
 43
0.0
 44
210.0
 45
297.0
 46
0.0
 47
0.0
 48
0.0
 49
0.0
140
0.0
141
0.0
142
1.0
143
1.0
 70
0
 72
1
 73
0
 74
0
  7

 75
0
147
1.0
148
0.0
149
0.0
100
AcDbLayout
  1
Layout1
 70
0
 71
1
 10
0.0
 20
0.0
 11
210.0
 21
297.0
 12
0.0
 22
0.0
 32
0.0
 14
0.0
 24
0.0
 34
0.0
 15
0.0
 25
0.0
 35
0.0
146
0.0
 13
0.0
 23
0.0
 33
0.0
 16
1.0
 26
0.0
 36
0.0
 17
0.0
 27
1.0
 37
0.0
 76
0
330
211
345
0
346
0
  0
ENDSEC
  0
EOF
