999
DXF file: C:\Users\sesa63760\Dev\_Creo\CAD\MCADPP0003215_3D-CAD\drw0001_6.dxf
999
Pro/ENGINEER 2019471 by Parametric Technology Corporation
  0
SECTION
  2
HEADER
  9
$ACADVER
  1
AC1024
  9
$DWGCODEPAGE
  3
ANSI_1252
  9
$EXTMAX
 10
698.325447972
 20
987.6317049889
 30
0.0
  9
$EXTMIN
 10
0.0
 20
0.0
 30
0.0
  9
$LIMMIN
 10
0.0
 20
0.0
  9
$LIMMAX
 10
698.325447972
 20
987.6317049889
  9
$VIEWCTR
 10
349.162723986
 20
493.8158524945
  9
$VIEWSIZE
 40
987.6317049889
  9
$CLAYER
  8
0
  9
$LTSCALE
 40
64.3789555845
  9
$CELTYPE
  6
BYLAYER
  9
$DIMSCALE
 40
1.0
  9
$DIMASZ
 40
8.3133981901
  9
$DIMEXO
 40
1.0
  9
$DIMDLI
 40
44.4800056765
  9
$DIMEXE
 40
1.0
  9
$DIMCEN
 40
10.5347381865
  9
$DIMLFAC
 40
1.0
  9
$DIMBLK
  1
_FILLED
  9
$DIMALT
 70
0
  9
$DIMALTF
 40
0.0393700787
  9
$DIMTXT
 40
11.6387574662
  9
$DIMTOL
 70
1
  9
$DIMLIM
 70
0
  9
$DIMTFAC
 40
1.0
  9
$DIMTP
 40
0.01
  9
$DIMTM
 40
0.01
  9
$DIMGAP
 40
0.625
  9
$DIMDSEP
 70
46
  9
$AUNITS
 70
0
  9
$PDMODE
 70
3
  9
$PDSIZE
 40
0.3125
  9
$HANDSEED
  5
77B
  9
$TILEMODE
 70
1
  9
$MEASUREMENT
 70
1
  9
$INSUNITS
 70
4
  0
ENDSEC
  0
SECTION
  2
CLASSES
  0
CLASS
  1
ACDBDICTIONARYWDFLT
  2
AcDbDictionaryWithDefault
  3
AutoCAD 2000
 90
0
 91
1
280
0
281
0
  0
CLASS
  1
ACDBPLACEHOLDER
  2
AcDbPlaceHolder
  3
AutoCAD 2000
 90
0
 91
1
280
0
281
0
  0
CLASS
  1
LAYOUT
  2
AcDbLayout
  3
AutoCAD 2000
 90
0
 91
0
280
0
281
0
  0
ENDSEC
  0
SECTION
  2
TABLES
  0
TABLE
  2
VPORT
  5
8
100
AcDbSymbolTable
 70
2
  0
VPORT
  5
1F4
100
AcDbSymbolTableRecord
100
AcDbViewportTableRecord
  2
*ACTIVE
 70
0
 10
0.0
 20
0.0
 11
1.0
 21
1.0
 12
349.162723986
 22
493.8158524945
 13
0.0
 23
0.0
 14
1.0
 24
1.0
 15
0.0
 25
0.0
 16
0.0
 26
0.0
 36
1.0
 17
0.0
 27
0.0
 37
0.0
 40
987.6317049889
 41
0.7070707071
 42
50.0
 43
0.0
 44
0.0
 50
0.0
 51
0.0
 71
0
 72
100
 73
1
 74
1
 75
0
 76
0
 77
0
 78
0
  0
ENDTAB
  0
TABLE
  2
LTYPE
  5
5
100
AcDbSymbolTable
 70
6
  0
LTYPE
  5
14
100
AcDbSymbolTableRecord
100
AcDbLinetypeTableRecord
  2
BYBLOCK
 70
0
  3

 72
65
 73
0
 40
0.0
  0
LTYPE
  5
15
100
AcDbSymbolTableRecord
100
AcDbLinetypeTableRecord
  2
BYLAYER
 70
0
  3

 72
65
 73
0
 40
0.0
  0
LTYPE
  5
16
100
AcDbSymbolTableRecord
100
AcDbLinetypeTableRecord
  2
CONTINUOUS
 70
64
  3
Solid line
 72
65
 73
0
 40
0.0
  0
LTYPE
  5
1F5
100
AcDbSymbolTableRecord
100
AcDbLinetypeTableRecord
  2
CENTER
 70
64
  3
____ _ ____ _ ____ _ ____ _ ____ _ ____ _ ____
 72
65
 73
4
 40
0.6
 49
0.375
 74
0
 49
-0.075
 74
0
 49
0.075
 74
0
 49
-0.075
 74
0
  0
LTYPE
  5
1F6
100
AcDbSymbolTableRecord
100
AcDbLinetypeTableRecord
  2
HIDDEN
 70
64
  3
- - - - - - - - - - - - - - - - - - - -
 72
65
 73
2
 40
0.2
 49
0.1
 74
0
 49
-0.1
 74
0
  0
LTYPE
  5
1F7
100
AcDbSymbolTableRecord
100
AcDbLinetypeTableRecord
  2
PHANTOM
 70
64
  3
_____ _ _ _____ _ _ _____ _ _ _____
 72
65
 73
6
 40
0.8
 49
0.45
 74
0
 49
-0.05
 74
0
 49
0.1
 74
0
 49
-0.05
 74
0
 49
0.1
 74
0
 49
-0.05
 74
0
  0
LTYPE
  5
1F8
100
AcDbSymbolTableRecord
100
AcDbLinetypeTableRecord
  2
DOT
 70
64
  3
. . . . . . . . . . . . . . . . . . . .
 72
65
 73
2
 40
0.2
 49
0.1
 74
0
 49
-0.1
 74
0
  0
LTYPE
  5
1F9
100
AcDbSymbolTableRecord
100
AcDbLinetypeTableRecord
  2
DASHED
 70
64
  3
- - - - - - - - - - - - - - - - - - - -
 72
65
 73
2
 40
0.2
 49
0.1
 74
0
 49
-0.1
 74
0
  0
ENDTAB
  0
TABLE
  2
LAYER
  5
2
100
AcDbSymbolTable
 70
36
  0
LAYER
  5
10
100
AcDbSymbolTableRecord
100
AcDbLayerTableRecord
  2
0
 70
0
 62
7
  6
CONTINUOUS
370
-3
390
F
  0
LAYER
  5
1FA
100
AcDbSymbolTableRecord
100
AcDbLayerTableRecord
  2
DEFAULT_1
 70
0
 62
7
  6
CENTER
370
-3
390
F
  0
LAYER
  5
1FB
100
AcDbSymbolTableRecord
100
AcDbLayerTableRecord
  2
DEFAULT_2
 70
0
 62
8
  6
HIDDEN
370
-3
390
F
  0
LAYER
  5
1FC
100
AcDbSymbolTableRecord
100
AcDbLayerTableRecord
  2
DEFAULT_3
 70
0
 62
7
  6
PHANTOM
370
-3
390
F
  0
LAYER
  5
1FD
100
AcDbSymbolTableRecord
100
AcDbLayerTableRecord
  2
00_COMPONENTS
 70
0
 62
7
  6
CONTINUOUS
370
-3
390
F
  0
LAYER
  5
1FE
100
AcDbSymbolTableRecord
100
AcDbLayerTableRecord
  2
01_1_DEFAULT_DATUMS
 70
0
 62
7
  6
CONTINUOUS
370
-3
390
F
  0
LAYER
  5
1FF
100
AcDbSymbolTableRecord
100
AcDbLayerTableRecord
  2
01_PLANES
 70
0
 62
7
  6
CONTINUOUS
370
-3
390
F
  0
LAYER
  5
200
100
AcDbSymbolTableRecord
100
AcDbLayerTableRecord
  2
02_COORD_SYS
 70
0
 62
7
  6
CONTINUOUS
370
-3
390
F
  0
LAYER
  5
201
100
AcDbSymbolTableRecord
100
AcDbLayerTableRecord
  2
03_AXES
 70
0
 62
7
  6
CONTINUOUS
370
-3
390
F
  0
LAYER
  5
202
100
AcDbSymbolTableRecord
100
AcDbLayerTableRecord
  2
04_POINTS
 70
0
 62
7
  6
CONTINUOUS
370
-3
390
F
  0
LAYER
  5
203
100
AcDbSymbolTableRecord
100
AcDbLayerTableRecord
  2
05_CURVES
 70
0
 62
7
  6
CONTINUOUS
370
-3
390
F
  0
LAYER
  5
204
100
AcDbSymbolTableRecord
100
AcDbLayerTableRecord
  2
06_SURFS
 70
0
 62
7
  6
CONTINUOUS
370
-3
390
F
  0
LAYER
  5
205
100
AcDbSymbolTableRecord
100
AcDbLayerTableRecord
  2
07_COSMETICS
 70
0
 62
7
  6
CONTINUOUS
370
-3
390
F
  0
LAYER
  5
206
100
AcDbSymbolTableRecord
100
AcDbLayerTableRecord
  2
10_NOTES
 70
0
 62
7
  6
CONTINUOUS
370
-3
390
F
  0
LAYER
  5
207
100
AcDbSymbolTableRecord
100
AcDbLayerTableRecord
  2
11_NOTES_PUB
 70
0
 62
7
  6
CONTINUOUS
370
-3
390
F
  0
LAYER
  5
208
100
AcDbSymbolTableRecord
100
AcDbLayerTableRecord
  2
13_REF_GTOL
 70
0
 62
7
  6
CONTINUOUS
370
-3
390
F
  0
LAYER
  5
209
100
AcDbSymbolTableRecord
100
AcDbLayerTableRecord
  2
16_MISC
 70
0
 62
7
  6
CONTINUOUS
370
-3
390
F
  0
LAYER
  5
20A
100
AcDbSymbolTableRecord
100
AcDbLayerTableRecord
  2
17_NO_PRINT
 70
0
 62
7
  6
CONTINUOUS
370
-3
390
F
  0
LAYER
  5
20B
100
AcDbSymbolTableRecord
100
AcDbLayerTableRecord
  2
18_DATUM_CAMS_JOINTS
 70
0
 62
7
  6
CONTINUOUS
370
-3
390
F
  0
LAYER
  5
20C
100
AcDbSymbolTableRecord
100
AcDbLayerTableRecord
  2
19_DATUM_FUNCTIONAL
 70
0
 62
7
  6
CONTINUOUS
370
-3
390
F
  0
LAYER
  5
20D
100
AcDbSymbolTableRecord
100
AcDbLayerTableRecord
  2
20_DATUM_KINEMATIC_SCHEME
 70
0
 62
7
  6
CONTINUOUS
370
-3
390
F
  0
ENDTAB
  0
TABLE
  2
STYLE
  5
3
100
AcDbSymbolTable
 70
1
  0
STYLE
  5
11
100
AcDbSymbolTableRecord
100
AcDbTextStyleTableRecord
  2
STANDARD
 70
0
 40
0.0
 41
0.8
 50
0.0
 71
0
 42
0.2
  3
txt
  4

  0
STYLE
  5
20E
100
AcDbSymbolTableRecord
100
AcDbTextStyleTableRecord
  2
TEXTSTYLE_1
 70
0
 40
0.0
 41
0.8
 50
0.0
 71
0
 42
0.2
  3
gdt
  4

  0
ENDTAB
  0
TABLE
  2
VIEW
  5
6
100
AcDbSymbolTable
 70
0
  0
ENDTAB
  0
TABLE
  2
UCS
  5
7
100
AcDbSymbolTable
 70
0
  0
ENDTAB
  0
TABLE
  2
APPID
  5
9
100
AcDbSymbolTable
 70
1
  0
APPID
  5
20F
100
AcDbSymbolTableRecord
100
AcDbRegAppTableRecord
  2
ACAD
 70
0
  0
ENDTAB
  0
TABLE
  2
BLOCK_RECORD
  5
1
100
AcDbSymbolTable
 70
0
  0
BLOCK_RECORD
  5
210
100
AcDbSymbolTableRecord
100
AcDbBlockTableRecord
  2
*Model_Space
  0
BLOCK_RECORD
  5
211
100
AcDbSymbolTableRecord
100
AcDbBlockTableRecord
  2
*Paper_Space
  0
BLOCK_RECORD
  5
212
100
AcDbSymbolTableRecord
100
AcDbBlockTableRecord
  2
_FILLED
  0
ENDTAB
  0
TABLE
  2
DIMSTYLE
  5
A
100
AcDbSymbolTable
 70
1
100
AcDbDimStyleTable
 71
0
  0
DIMSTYLE
105
213
100
AcDbSymbolTableRecord
100
AcDbDimStyleTableRecord
  2
STANDARD
 70
0
  3

  4

 40
1.0
 41
8.3133981901
 42
1.0
 43
0.38
 44
1.0
 45
0.0
 46
0.0
 47
0.01
 48
0.01
140
11.6387574662
141
0.09
142
0.0
143
25.4
144
1.0
145
0.0
146
1.0
147
0.625
 71
1
 72
0
 73
0
 74
0
 75
0
 76
0
 77
1
 78
8
 79
2
170
0
171
1
172
0
173
0
174
0
175
0
176
0
177
0
178
0
270
2
179
2
271
2
272
2
273
2
274
2
275
0
280
0
281
0
282
0
283
1
284
8
285
0
286
0
287
3
288
0
340
11
278
46
341
212
342
212
343
212
344
212
  0
ENDTAB
  0
ENDSEC
  0
SECTION
  2
BLOCKS
  0
BLOCK
  5
20
100
AcDbEntity
  8
0
100
AcDbBlockBegin
  2
*Model_Space
 70
0
 10
0.0
 20
0.0
 30
0.0
  3
*Model_Space
  1

  0
ENDBLK
  5
21
100
AcDbEntity
  8
0
100
AcDbBlockEnd
  0
BLOCK
  5
1C
100
AcDbEntity
  8
0
100
AcDbBlockBegin
  2
*Paper_Space
 70
0
 10
0.0
 20
0.0
 30
0.0
  3
*Paper_Space
  1

  0
ENDBLK
  5
1D
100
AcDbEntity
  8
0
100
AcDbBlockEnd
  0
BLOCK
  5
214
100
AcDbEntity
  8
0
100
AcDbBlockBegin
  2
_FILLED
 70
64
 10
0.0
 20
0.0
  3
_FILLED
  1

  0
SOLID
  5
215
100
AcDbEntity
  8
0
  6
BYBLOCK
 62
0
100
AcDbTrace
 10
0.0
 20
0.0
 11
-1.0
 21
0.25
 12
-1.0
 22
-0.25
 13
-1.0
 23
-0.25
  0
ENDBLK
  5
216
100
AcDbEntity
  8
0
  6
BYBLOCK
 62
0
100
AcDbBlockEnd
  0
ENDSEC
  0
SECTION
  2
ENTITIES
  0
LINE
  5
217
100
AcDbEntity
  8
0
100
AcDbLine
 62
7
  6
CONTINUOUS
 10
78.8549816665
 20
398.3245524945
 11
78.8549816665
 21
400.7121524945
  0
LINE
  5
218
100
AcDbEntity
  8
0
100
AcDbLine
 62
7
  6
CONTINUOUS
 10
97.9049816665
 20
400.7121524945
 11
97.9049816665
 21
398.3245524945
  0
LINE
  5
219
100
AcDbEntity
  8
0
100
AcDbLine
 62
7
  6
CONTINUOUS
 10
107.5014816665
 20
522.3617524945
 11
107.5014816665
 21
504.8357524945
  0
LINE
  5
21A
100
AcDbEntity
  8
0
100
AcDbLine
 62
7
  6
CONTINUOUS
 10
107.5188816665
 20
447.6577024945
 11
107.5188816665
 21
439.8218024945
  0
LINE
  5
21B
100
AcDbEntity
  8
0
100
AcDbLine
 62
7
  6
CONTINUOUS
 10
108.8730816665
 20
504.8357524945
 11
108.8730816665
 21
522.3617524945
  0
LINE
  5
21C
100
AcDbEntity
  8
0
100
AcDbLine
 62
7
  6
CONTINUOUS
 10
110.3763816665
 20
448.8051363585
 11
110.3763816665
 21
438.6743686305
  0
LINE
  5
21D
100
AcDbEntity
  8
0
100
AcDbLine
 62
7
  6
CONTINUOUS
 10
111.0113816665
 20
438.6743686305
 11
111.0113816665
 21
448.8051363585
  0
LINE
  5
21E
100
AcDbEntity
  8
0
100
AcDbLine
 62
7
  6
CONTINUOUS
 10
111.7733816665
 20
440.1964524945
 11
111.7733816665
 21
447.2830524945
  0
LINE
  5
21F
100
AcDbEntity
  8
0
100
AcDbLine
 62
7
  6
CONTINUOUS
 10
112.5295212115
 20
398.3245524945
 11
112.5295212115
 21
400.7121524945
  0
LINE
  5
220
100
AcDbEntity
  8
0
100
AcDbLine
 62
7
  6
CONTINUOUS
 10
112.5353816665
 20
407.2653524945
 11
112.5353816665
 21
504.8357524945
  0
LINE
  5
221
100
AcDbEntity
  8
0
100
AcDbLine
 62
7
  6
CONTINUOUS
 10
113.9069816665
 20
402.9981524945
 11
113.9069816665
 21
504.8357524945
  0
LINE
  5
222
100
AcDbEntity
  8
0
100
AcDbLine
 62
7
  6
CONTINUOUS
 10
127.1654508182
 20
503.75812176
 11
127.1654508182
 21
502.7882540989
  0
LINE
  5
223
100
AcDbEntity
  8
0
100
AcDbLine
 62
7
  6
CONTINUOUS
 10
128.2265708071
 20
505.8196231388
 11
128.2265708071
 21
504.8497554777
  0
LINE
  5
224
100
AcDbEntity
  8
0
100
AcDbLine
 62
7
  6
CONTINUOUS
 10
132.4366687335
 20
398.3245524945
 11
132.4366687335
 21
400.7121524945
  0
LINE
  5
225
100
AcDbEntity
  8
0
100
AcDbLine
 62
7
  6
CONTINUOUS
 10
136.8667666105
 20
402.9981524945
 11
136.8667666105
 21
400.6105524945
  0
LINE
  5
226
100
AcDbEntity
  8
0
100
AcDbLine
 62
7
  6
CONTINUOUS
 10
144.2404421215
 20
402.9981524945
 11
144.2404421215
 21
400.6105524945
  0
LINE
  5
227
100
AcDbEntity
  8
0
100
AcDbLine
 62
7
  6
CONTINUOUS
 10
162.6749816665
 20
402.9981524945
 11
162.6749816665
 21
400.6105524945
  0
LINE
  5
228
100
AcDbEntity
  8
0
100
AcDbLine
 62
7
  6
CONTINUOUS
 10
128.2265708071
 20
505.8196231388
 11
127.1654508182
 21
503.75812176
  0
LINE
  5
229
100
AcDbEntity
  8
0
100
AcDbLine
 62
7
  6
CONTINUOUS
 10
127.1654508182
 20
502.7882540989
 11
128.2265708071
 21
504.8497554777
  0
LINE
  5
22A
100
AcDbEntity
  8
0
100
AcDbLine
 62
7
  6
CONTINUOUS
 10
135.6246830936
 20
399.969617915
 11
133.6787522504
 21
401.3530870739
  0
LINE
  5
22B
100
AcDbEntity
  8
0
100
AcDbLine
 62
7
  6
CONTINUOUS
 10
165.2276816665
 20
457.5319453305
 11
165.2276816665
 21
452.8075596585
  0
LINE
  5
22C
100
AcDbEntity
  8
0
100
AcDbLine
 62
7
  6
CONTINUOUS
 10
169.6472816665
 20
431.8017524945
 11
169.6472816665
 21
496.4193524945
  0
LINE
  5
22D
100
AcDbEntity
  8
0
100
AcDbLine
 62
7
  6
CONTINUOUS
 10
171.6284816665
 20
480.5697524945
 11
171.6284816665
 21
450.0897524945
  0
LINE
  5
22E
100
AcDbEntity
  8
0
100
AcDbLine
 62
7
  6
CONTINUOUS
 10
171.6284816665
 20
440.3869524945
 11
171.6284816665
 21
450.0897524945
  0
LINE
  5
22F
100
AcDbEntity
  8
0
100
AcDbLine
 62
7
  6
CONTINUOUS
 10
171.6284816665
 20
480.5697524945
 11
171.6284816665
 21
496.4193524945
  0
LINE
  5
230
100
AcDbEntity
  8
0
100
AcDbLine
 62
7
  6
CONTINUOUS
 10
173.2032816665
 20
506.7317524945
 11
173.2032816665
 21
499.9245524945
  0
LINE
  5
231
100
AcDbEntity
  8
0
100
AcDbLine
 62
7
  6
CONTINUOUS
 10
173.4318816665
 20
450.0897524945
 11
173.4318816665
 21
480.5697524945
  0
LINE
  5
232
100
AcDbEntity
  8
0
100
AcDbLine
 62
7
  6
CONTINUOUS
 10
174.1938816665
 20
492.5669096181
 11
174.1938816665
 21
457.5319524945
  0
LWPOLYLINE
  5
233
100
AcDbEntity
  8
0
100
AcDbPolyline
 62
7
  6
CONTINUOUS
 90
3
 70
0
 10
189.1038690574
 20
477.726426559
 10
189.1192015082
 20
477.5847978198
 10
189.5296617307
 20
477.0836042825
  0
LWPOLYLINE
  5
234
100
AcDbEntity
  8
0
100
AcDbPolyline
 62
7
  6
CONTINUOUS
 90
5
 70
0
 10
189.1037036257
 20
487.8864185998
 10
189.1187483495
 20
487.7460996656
 10
189.5631041814
 20
487.2283677136
 10
190.0208686123
 20
487.1033752414
 10
190.7081839234
 20
487.0060585347
  0
LWPOLYLINE
  5
235
100
AcDbEntity
  8
0
100
AcDbPolyline
 62
7
  6
CONTINUOUS
 90
3
 70
0
 10
189.1039670557
 20
465.534035433
 10
189.118573972
 20
465.3958238938
 10
189.5338912955
 20
464.8896956198
  0
LWPOLYLINE
  5
236
100
AcDbEntity
  8
0
100
AcDbPolyline
 62
7
  6
CONTINUOUS
 90
3
 70
0
 10
189.1038690768
 20
473.6624733287
 10
189.1183658208
 20
473.5247486053
 10
189.5362776565
 20
473.0164699017
  0
LWPOLYLINE
  5
237
100
AcDbEntity
  8
0
100
AcDbPolyline
 62
7
  6
CONTINUOUS
 90
3
 70
0
 10
189.1038158672
 20
479.7585388041
 10
189.1176420638
 20
479.6240494224
 10
189.536760936
 20
479.1122811561
  0
LINE
  5
238
100
AcDbEntity
  8
0
100
AcDbLine
 62
7
  6
CONTINUOUS
 10
189.1048615076
 20
467.5661329488
 11
189.1182555999
 21
467.4337293512
  0
LINE
  5
239
100
AcDbEntity
  8
0
100
AcDbLine
 62
7
  6
CONTINUOUS
 10
189.1038159197
 20
471.630367681
 11
189.1166347208
 21
471.5008542033
  0
LWPOLYLINE
  5
23A
100
AcDbEntity
  8
0
100
AcDbPolyline
 62
7
  6
CONTINUOUS
 90
3
 70
0
 10
189.1037797595
 20
475.6934157011
 10
189.1153304224
 20
475.5716297408
 10
189.5113912982
 20
475.0606829768
  0
LWPOLYLINE
  5
23B
100
AcDbEntity
  8
0
100
AcDbPolyline
 62
7
  6
CONTINUOUS
 90
6
 70
0
 10
189.1038472337
 20
483.8225154392
 10
189.114735956
 20
483.7031632335
 10
189.5120636763
 20
483.1883088952
 10
189.9334342107
 20
483.0563139576
 10
190.4919798826
 20
482.9683425176
 10
191.3121200114
 20
482.8789033079
  0
LWPOLYLINE
  5
23C
100
AcDbEntity
  8
0
100
AcDbPolyline
 62
7
  6
CONTINUOUS
 90
4
 70
0
 10
189.1037249954
 20
485.8545469063
 10
189.1144113236
 20
485.7363221725
 10
189.5183970966
 20
485.2171805679
 10
189.9471765455
 20
485.0855151058
  0
LWPOLYLINE
  5
23D
100
AcDbEntity
  8
0
100
AcDbPolyline
 62
7
  6
CONTINUOUS
 90
3
 70
0
 10
189.1038616499
 20
463.5028027182
 10
189.1129684537
 20
463.3936976982
 10
189.145689276
 20
463.2697524945
  0
LINE
  5
23E
100
AcDbEntity
  8
0
100
AcDbLine
 62
7
  6
CONTINUOUS
 10
187.6304816665
 20
464.5271124945
 11
188.3924816665
 21
450.4707524945
  0
LINE
  5
23F
100
AcDbEntity
  8
0
100
AcDbLine
 62
7
  6
CONTINUOUS
 10
199.1098928963
 20
466.5509174125
 11
199.1099143439
 21
466.5499620866
  0
LINE
  5
240
100
AcDbEntity
  8
0
100
AcDbLine
 62
7
  6
CONTINUOUS
 10
189.1048797317
 20
467.5668810306
 11
189.1048931987
 21
467.566129526
  0
LINE
  5
241
100
AcDbEntity
  8
0
100
AcDbLine
 62
7
  6
CONTINUOUS
 10
197.7894752566
 20
466.5500136999
 11
197.7894622993
 21
466.5508584979
  0
LINE
  5
242
100
AcDbEntity
  8
0
100
AcDbLine
 62
7
  6
CONTINUOUS
 10
190.4253742287
 20
467.5660859317
 11
190.4253634921
 21
467.5668785054
  0
LINE
  5
243
100
AcDbEntity
  8
0
100
AcDbLine
 62
7
  6
CONTINUOUS
 10
199.1112204954
 20
468.5825211519
 11
199.1112239248
 21
468.5821381038
  0
LINE
  5
244
100
AcDbEntity
  8
0
100
AcDbLine
 62
7
  6
CONTINUOUS
 10
189.1036828531
 20
465.5344793636
 11
189.1036866474
 21
465.5340340581
  0
LINE
  5
245
100
AcDbEntity
  8
0
100
AcDbLine
 62
7
  6
CONTINUOUS
 10
190.4244859729
 20
465.5339872743
 11
190.4244825092
 21
465.5344526508
  0
LINE
  5
246
100
AcDbEntity
  8
0
100
AcDbLine
 62
7
  6
CONTINUOUS
 10
197.7904391256
 20
468.582188737
 11
197.7904374461
 21
468.582449792
  0
LINE
  5
247
100
AcDbEntity
  8
0
100
AcDbLine
 62
7
  6
CONTINUOUS
 10
186.9700816665
 20
450.4707524945
 11
186.9700816665
 21
445.6955524945
  0
LINE
  5
248
100
AcDbEntity
  8
0
100
AcDbLine
 62
7
  6
CONTINUOUS
 10
187.0589816665
 20
478.0297524945
 11
187.0589816665
 21
486.7162665152
  0
LINE
  5
249
100
AcDbEntity
  8
0
100
AcDbLine
 62
7
  6
CONTINUOUS
 10
187.6304816665
 20
465.6965188242
 11
187.6304816665
 21
459.6551185619
  0
LINE
  5
24A
100
AcDbEntity
  8
0
100
AcDbLine
 62
7
  6
CONTINUOUS
 10
188.3924816665
 20
488.9517524945
 11
188.3924816665
 21
482.6017524945
  0
LINE
  5
24B
100
AcDbEntity
  8
0
100
AcDbLine
 62
7
  6
CONTINUOUS
 10
190.3609816665
 20
485.0216604717
 11
190.3609816665
 21
484.6545245108
  0
LINE
  5
24C
100
AcDbEntity
  8
0
100
AcDbLine
 62
7
  6
CONTINUOUS
 10
191.0594816665
 20
459.6551185619
 11
191.0594816665
 21
468.0660244508
  0
LINE
  5
24D
100
AcDbEntity
  8
0
100
AcDbLine
 62
7
  6
CONTINUOUS
 10
194.1074816665
 20
490.0705542856
 11
194.1074816665
 21
489.054898616
  0
LINE
  5
24E
100
AcDbEntity
  8
0
100
AcDbLine
 62
7
  6
CONTINUOUS
 10
194.3969789989
 20
481.4807256166
 11
194.3969789989
 21
481.4326489019
  0
LINE
  5
24F
100
AcDbEntity
  8
0
100
AcDbLine
 62
7
  6
CONTINUOUS
 10
197.1554816665
 20
468.0660244508
 11
197.1554816665
 21
459.6551185619
  0
LINE
  5
250
100
AcDbEntity
  8
0
100
AcDbLine
 62
7
  6
CONTINUOUS
 10
199.1111720246
 20
484.8384341882
 11
199.1111720236
 21
484.8385528049
  0
LINE
  5
251
100
AcDbEntity
  8
0
100
AcDbLine
 62
7
  6
CONTINUOUS
 10
199.7589816665
 20
486.7162665152
 11
199.7589816665
 21
478.0297524945
  0
LINE
  5
252
100
AcDbEntity
  8
0
100
AcDbLine
 62
7
  6
CONTINUOUS
 10
199.8224816665
 20
488.9517524945
 11
199.8224816665
 21
482.6017524945
  0
LINE
  5
253
100
AcDbEntity
  8
0
100
AcDbLine
 62
7
  6
CONTINUOUS
 10
200.5844816665
 20
459.6551185619
 11
200.5844816665
 21
465.6965188242
  0
LINE
  5
254
100
AcDbEntity
  8
0
100
AcDbLine
 62
7
  6
CONTINUOUS
 10
201.2448816665
 20
450.4707524945
 11
201.2448816665
 21
445.6955524945
  0
LINE
  5
255
100
AcDbEntity
  8
0
100
AcDbLine
 62
7
  6
CONTINUOUS
 10
189.1037916778
 20
475.6983609206
 11
189.1037790486
 21
475.6943871962
  0
LINE
  5
256
100
AcDbEntity
  8
0
100
AcDbLine
 62
7
  6
CONTINUOUS
 10
197.7894364228
 20
464.51843597
 11
197.7894384925
 21
464.518797586
  0
LINE
  5
257
100
AcDbEntity
  8
0
100
AcDbLine
 62
7
  6
CONTINUOUS
 10
199.1098643944
 20
464.5187786407
 11
199.1098624215
 21
464.5184940183
  0
LINE
  5
258
100
AcDbEntity
  8
0
100
AcDbLine
 62
7
  6
CONTINUOUS
 10
190.4244611955
 20
475.6836468961
 11
190.4245533437
 21
475.6943871961
  0
LINE
  5
259
100
AcDbEntity
  8
0
100
AcDbLine
 62
7
  6
CONTINUOUS
 10
190.4253222904
 20
463.50188528
 11
190.4253375334
 21
463.5028030116
  0
LINE
  5
25A
100
AcDbEntity
  8
0
100
AcDbLine
 62
7
  6
CONTINUOUS
 10
189.1048449907
 20
463.5027968916
 11
189.104823751
 21
463.5018528742
  0
LINE
  5
25B
100
AcDbEntity
  8
0
100
AcDbLine
 62
7
  6
CONTINUOUS
 10
199.1112801862
 20
486.8704265103
 11
199.0856344706
 21
486.6874941566
  0
LINE
  5
25C
100
AcDbEntity
  8
0
100
AcDbLine
 62
7
  6
CONTINUOUS
 10
189.3316040711
 20
472.1415349248
 11
189.1328397343
 21
471.4357512599
  0
LWPOLYLINE
  5
25D
100
AcDbEntity
  8
0
100
AcDbPolyline
 62
7
  6
CONTINUOUS
 90
3
 70
0
 10
189.1036938321
 20
469.5982786058
 10
189.3024413281
 20
469.1153153169
 10
189.765841839
 20
468.8713171124
  0
LWPOLYLINE
  5
25E
100
AcDbEntity
  8
0
100
AcDbPolyline
 62
7
  6
CONTINUOUS
 90
5
 70
0
 10
199.1112239248
 20
468.5821381038
 10
198.9216186456
 20
469.0555242986
 10
198.4835688853
 20
469.2994881974
 10
198.267791769
 20
469.3510274002
 10
197.6803315395
 20
469.4418377851
  0
LWPOLYLINE
  5
25F
100
AcDbEntity
  8
0
100
AcDbPolyline
 62
7
  6
CONTINUOUS
 90
3
 70
0
 10
199.1111262162
 20
476.7103459767
 10
199.0707180834
 20
476.9394374913
 10
198.6556623305
 20
477.3667778177
  0
LWPOLYLINE
  5
260
100
AcDbEntity
  8
0
100
AcDbPolyline
 62
7
  6
CONTINUOUS
 90
3
 70
0
 10
199.1111262184
 20
474.6784330294
 10
199.0782371248
 20
474.8854459605
 10
198.6222773876
 20
475.3488438256
  0
LWPOLYLINE
  5
261
100
AcDbEntity
  8
0
100
AcDbPolyline
 62
7
  6
CONTINUOUS
 90
5
 70
0
 10
199.1111720246
 20
484.8384341882
 10
199.0791048084
 20
485.042887156
 10
198.6186774094
 20
485.5102647703
 10
198.1606564162
 20
485.6274317176
 10
197.4493250897
 20
485.7252890306
  0
LWPOLYLINE
  5
262
100
AcDbEntity
  8
0
100
AcDbPolyline
 62
7
  6
CONTINUOUS
 90
6
 70
0
 10
199.1111983873
 20
488.9022761841
 10
199.0806065973
 20
489.101959529
 10
198.6637462128
 20
489.5551397715
 10
198.2487441511
 20
489.6750273023
 10
197.6767869942
 20
489.7622849348
 10
196.8639584107
 20
489.8495799427
  0
LWPOLYLINE
  5
263
100
AcDbEntity
  8
0
100
AcDbPolyline
 62
7
  6
CONTINUOUS
 90
3
 70
0
 10
199.1111023309
 20
472.6463816378
 10
199.0805733812
 20
472.8458350571
 10
198.6435956924
 20
473.3080275376
  0
LWPOLYLINE
  5
264
100
AcDbEntity
  8
0
100
AcDbPolyline
 62
7
  6
CONTINUOUS
 90
3
 70
0
 10
199.1099143439
 20
466.5499620866
 10
199.0795922694
 20
466.7488420254
 10
198.6611002693
 20
467.2037595755
  0
LWPOLYLINE
  5
265
100
AcDbEntity
  8
0
100
AcDbPolyline
 62
7
  6
CONTINUOUS
 90
3
 70
0
 10
199.1098643944
 20
464.5187786407
 10
199.0806858275
 20
464.7138786673
 10
198.6677417674
 20
465.1692982822
  0
LINE
  5
266
100
AcDbEntity
  8
0
100
AcDbLine
 62
7
  6
CONTINUOUS
 10
189.1328397343
 20
471.4357512599
 11
189.1038158049
 21
471.6302720754
  0
LWPOLYLINE
  5
267
100
AcDbEntity
  8
0
100
AcDbPolyline
 62
7
  6
CONTINUOUS
 90
3
 70
0
 10
199.1112132589
 20
470.6142688339
 10
199.084729096
 20
470.8001712276
 10
198.6843884516
 20
471.2575374412
  0
LWPOLYLINE
  5
268
100
AcDbEntity
  8
0
100
AcDbPolyline
 62
7
  6
CONTINUOUS
 90
3
 70
0
 10
199.1111023621
 20
478.7424235966
 10
199.0850748726
 20
478.926739007
 10
198.674791999
 20
479.3901416264
  0
LINE
  5
269
100
AcDbEntity
  8
0
100
AcDbLine
 62
7
  6
CONTINUOUS
 10
189.1304288757
 20
467.3842257504
 11
189.1048797317
 21
467.5668810306
  0
LWPOLYLINE
  5
26A
100
AcDbEntity
  8
0
100
AcDbPolyline
 62
7
  6
CONTINUOUS
 90
4
 70
0
 10
199.1110921842
 20
482.8063837324
 10
199.0864515046
 20
482.9857526829
 10
198.6783744616
 20
483.4524617285
 10
198.2654264916
 20
483.5757178035
  0
LWPOLYLINE
  5
26B
100
AcDbEntity
  8
0
100
AcDbPolyline
 62
7
  6
CONTINUOUS
 90
3
 70
0
 10
199.1112132615
 20
480.7744867482
 10
199.0880322303
 20
480.9484655558
 10
198.6744195718
 20
481.4222706651
  0
LWPOLYLINE
  5
26C
100
AcDbEntity
  8
0
100
AcDbPolyline
 62
7
  6
CONTINUOUS
 90
3
 70
0
 10
189.1036938226
 20
481.7904948683
 10
189.1254039053
 20
481.6220778447
 10
189.5357031215
 20
481.1448103224
  0
LINE
  5
26D
100
AcDbEntity
  8
0
100
AcDbLine
 62
7
  6
CONTINUOUS
 10
212.6240816665
 20
457.5319524945
 11
212.6240816665
 21
492.5669096181
  0
LINE
  5
26E
100
AcDbEntity
  8
0
100
AcDbLine
 62
7
  6
CONTINUOUS
 10
213.3860816665
 20
480.5697524945
 11
213.3860816665
 21
450.0897524945
  0
LINE
  5
26F
100
AcDbEntity
  8
0
100
AcDbLine
 62
7
  6
CONTINUOUS
 10
215.0116816665
 20
506.7317524945
 11
215.0116816665
 21
500.6867339184
  0
LINE
  5
270
100
AcDbEntity
  8
0
100
AcDbLine
 62
7
  6
CONTINUOUS
 10
215.0116816665
 20
499.9250499192
 11
215.0116816665
 21
499.9223128355
  0
LINE
  5
271
100
AcDbEntity
  8
0
100
AcDbLine
 62
7
  6
CONTINUOUS
 10
215.1894816665
 20
450.0897524945
 11
215.1894816665
 21
480.5697524945
  0
LINE
  5
272
100
AcDbEntity
  8
0
100
AcDbLine
 62
7
  6
CONTINUOUS
 10
216.5864816665
 20
496.4193524945
 11
216.5864816665
 21
440.3869524945
  0
LINE
  5
273
100
AcDbEntity
  8
0
100
AcDbLine
 62
7
  6
CONTINUOUS
 10
218.5676816665
 20
496.4193524945
 11
218.5676816665
 21
459.9957431173
  0
LINE
  5
274
100
AcDbEntity
  8
0
100
AcDbLine
 62
7
  6
CONTINUOUS
 10
218.5676816665
 20
459.9957431173
 11
218.5676816665
 21
450.3437618717
  0
LINE
  5
275
100
AcDbEntity
  8
0
100
AcDbLine
 62
7
  6
CONTINUOUS
 10
218.5676816665
 20
450.3437618717
 11
218.5676816665
 21
431.8017524945
  0
LINE
  5
276
100
AcDbEntity
  8
0
100
AcDbLine
 62
7
  6
CONTINUOUS
 10
220.0916816665
 20
450.3437618717
 11
220.0916816665
 21
459.9957431173
  0
LINE
  5
277
100
AcDbEntity
  8
0
100
AcDbLine
 62
7
  6
CONTINUOUS
 10
200.5844816665
 20
464.5271124945
 11
199.8224816665
 21
450.4707524945
  0
LINE
  5
278
100
AcDbEntity
  8
0
100
AcDbLine
 62
7
  6
CONTINUOUS
 10
189.325942033
 20
468.0719378157
 11
189.1304288757
 21
467.3842257504
  0
LWPOLYLINE
  5
279
100
AcDbEntity
  8
0
100
AcDbPolyline
 62
7
  6
CONTINUOUS
 90
3
 70
0
 10
189.3400034352
 20
470.1171393357
 10
189.1285110644
 20
469.4183695111
 10
189.1036938
 20
469.5983605041
  0
LWPOLYLINE
  5
27A
100
AcDbEntity
  8
0
100
AcDbPolyline
 62
7
  6
CONTINUOUS
 90
3
 70
0
 10
189.1166347208
 20
471.5008542033
 10
189.5410374726
 20
470.9822498836
 10
189.9827839333
 20
470.8545299857
  0
LINE
  5
27B
100
AcDbEntity
  8
0
100
AcDbLine
 62
7
  6
CONTINUOUS
 10
189.1182555999
 20
467.4337293512
 11
189.5317021945
 21
466.9227137996
  0
LINE
  5
27C
100
AcDbEntity
  8
0
100
AcDbLine
 62
7
  6
CONTINUOUS
 10
199.0856344706
 20
486.6874941566
 11
198.8849443794
 21
487.380186742
  0
LWPOLYLINE
  5
27D
100
AcDbEntity
  8
0
100
AcDbPolyline
 62
7
  6
CONTINUOUS
 90
3
 70
0
 10
198.7054464086
 20
478.109588809
 10
199.100338789
 20
478.6238287031
 10
199.1111022961
 20
478.7424870858
  0
LWPOLYLINE
  5
27E
100
AcDbEntity
  8
0
100
AcDbPolyline
 62
7
  6
CONTINUOUS
 90
3
 70
0
 10
198.6988472227
 20
484.2023005961
 10
199.1000717739
 20
484.7180514889
 10
199.1111720236
 20
484.8385528049
  0
LWPOLYLINE
  5
27F
100
AcDbEntity
  8
0
100
AcDbPolyline
 62
7
  6
CONTINUOUS
 90
3
 70
0
 10
198.6729620972
 20
486.2218650479
 10
199.0974638697
 20
486.7360522179
 10
199.1112800909
 20
486.8704767814
  0
LWPOLYLINE
  5
280
100
AcDbEntity
  8
0
100
AcDbPolyline
 62
7
  6
CONTINUOUS
 90
3
 70
0
 10
198.6651535367
 20
488.2502509682
 10
199.0980758664
 20
488.7713222158
 10
199.1111982894
 20
488.9023449511
  0
LWPOLYLINE
  5
281
100
AcDbEntity
  8
0
100
AcDbPolyline
 62
7
  6
CONTINUOUS
 90
3
 70
0
 10
189.5564505262
 20
486.5094888594
 10
189.1346595549
 20
486.0552553756
 10
189.1037249052
 20
485.854484243
  0
LINE
  5
282
100
AcDbEntity
  8
0
100
AcDbLine
 62
7
  6
CONTINUOUS
 10
127.1654508182
 20
503.75812176
 11
126.3173286849
 21
503.3117524945
  0
LINE
  5
283
100
AcDbEntity
  8
0
100
AcDbLine
 62
7
  6
CONTINUOUS
 10
242.9353925258
 20
504.8497554777
 11
242.9353925258
 21
505.8196231388
  0
LINE
  5
284
100
AcDbEntity
  8
0
100
AcDbLine
 62
7
  6
CONTINUOUS
 10
243.9965125147
 20
502.7882540989
 11
243.9965125147
 21
503.75812176
  0
LINE
  5
285
100
AcDbEntity
  8
0
100
AcDbLine
 62
7
  6
CONTINUOUS
 10
250.9170816665
 20
504.8357524945
 11
250.9170816665
 21
525.6129524945
  0
LINE
  5
286
100
AcDbEntity
  8
0
100
AcDbLine
 62
7
  6
CONTINUOUS
 10
257.2670816665
 20
525.6129524945
 11
257.2670816665
 21
523.8857524945
  0
LWPOLYLINE
  5
287
100
AcDbEntity
  8
0
100
AcDbPolyline
 62
7
  6
CONTINUOUS
 90
3
 70
0
 10
198.7003245145
 20
465.9156049376
 10
199.0971893832
 20
466.418884105
 10
199.1105115474
 20
466.5509120817
  0
LWPOLYLINE
  5
288
100
AcDbEntity
  8
0
100
AcDbPolyline
 62
7
  6
CONTINUOUS
 90
3
 70
0
 10
198.6824264164
 20
467.9385978478
 10
199.1002008342
 20
468.4622072416
 10
199.1112758951
 20
468.5825186664
  0
LWPOLYLINE
  5
289
100
AcDbEntity
  8
0
100
AcDbPolyline
 62
7
  6
CONTINUOUS
 90
3
 70
0
 10
198.6820133784
 20
480.1301066625
 10
199.0999516081
 20
480.6531852811
 10
199.1112131943
 20
480.7745489598
  0
LWPOLYLINE
  5
28A
100
AcDbEntity
  8
0
100
AcDbPolyline
 62
7
  6
CONTINUOUS
 90
3
 70
0
 10
198.681267595
 20
474.0337184046
 10
199.0962077156
 20
474.5388222762
 10
199.1111261468
 20
474.6785312884
  0
LWPOLYLINE
  5
28B
100
AcDbEntity
  8
0
100
AcDbPolyline
 62
7
  6
CONTINUOUS
 90
3
 70
0
 10
198.6741950733
 20
471.9983584329
 10
199.0968040733
 20
472.5096309792
 10
199.111102265
 20
472.6464087494
  0
LWPOLYLINE
  5
28C
100
AcDbEntity
  8
0
100
AcDbPolyline
 62
7
  6
CONTINUOUS
 90
3
 70
0
 10
198.6643430253
 20
469.9618905226
 10
199.0971442921
 20
470.4786843876
 10
199.1112131613
 20
470.614347561
  0
LWPOLYLINE
  5
28D
100
AcDbEntity
  8
0
100
AcDbPolyline
 62
7
  6
CONTINUOUS
 90
3
 70
0
 10
198.6705285916
 20
476.0606721539
 10
199.0933527346
 20
476.5579029132
 10
199.111126054
 20
476.7104004469
  0
LWPOLYLINE
  5
28E
100
AcDbEntity
  8
0
100
AcDbPolyline
 62
7
  6
CONTINUOUS
 90
3
 70
0
 10
189.5460253035
 20
476.3447816286
 10
189.130943742
 20
475.8825330413
 10
189.1037916776
 20
475.6983640968
  0
LWPOLYLINE
  5
28F
100
AcDbEntity
  8
0
100
AcDbPolyline
 62
7
  6
CONTINUOUS
 90
3
 70
0
 10
189.5570309643
 20
464.1571329091
 10
189.1389059145
 20
463.7125831498
 10
189.104823751
 20
463.5018528742
  0
LWPOLYLINE
  5
290
100
AcDbEntity
  8
0
100
AcDbPolyline
 62
7
  6
CONTINUOUS
 90
3
 70
0
 10
189.5741849695
 20
474.3252336425
 10
189.1326778665
 20
473.8562453445
 10
189.103868979
 20
473.6624021531
  0
LWPOLYLINE
  5
291
100
AcDbEntity
  8
0
100
AcDbPolyline
 62
7
  6
CONTINUOUS
 90
3
 70
0
 10
189.5741460096
 20
478.3892143554
 10
189.1337531702
 20
477.9237608257
 10
189.1038689787
 20
477.7263630614
  0
LWPOLYLINE
  5
292
100
AcDbEntity
  8
0
100
AcDbPolyline
 62
7
  6
CONTINUOUS
 90
3
 70
0
 10
189.573887628
 20
484.4850977548
 10
189.1402670361
 20
484.0401370888
 10
189.1038471673
 20
483.8224281635
  0
LWPOLYLINE
  5
293
100
AcDbEntity
  8
0
100
AcDbPolyline
 62
7
  6
CONTINUOUS
 90
3
 70
0
 10
189.5703877733
 20
480.4195959075
 10
189.1435588934
 20
479.9857368352
 10
189.1038158284
 20
479.7585215841
  0
LWPOLYLINE
  5
294
100
AcDbEntity
  8
0
100
AcDbPolyline
 62
7
  6
CONTINUOUS
 90
3
 70
0
 10
189.5796912225
 20
482.4554775229
 10
189.1410706109
 20
482.0108928642
 10
189.103693777
 20
481.7904609395
  0
LWPOLYLINE
  5
295
100
AcDbEntity
  8
0
100
AcDbPolyline
 62
7
  6
CONTINUOUS
 90
3
 70
0
 10
189.5838338289
 20
466.2008649053
 10
189.1454063506
 20
465.7670710012
 10
189.1036828531
 20
465.5344793636
  0
LINE
  5
296
100
AcDbEntity
  8
0
100
AcDbLine
 62
7
  6
CONTINUOUS
 10
78.8562662177
 20
398.3245524945
 11
132.4366687335
 21
398.3245524945
  0
LINE
  5
297
100
AcDbEntity
  8
0
100
AcDbLine
 62
7
  6
CONTINUOUS
 10
577.9772945995
 20
398.3245524945
 11
631.5576971152
 21
398.3245524945
  0
LINE
  5
298
100
AcDbEntity
  8
0
100
AcDbLine
 62
7
  6
CONTINUOUS
 10
266.1545816665
 20
505.4617524945
 11
266.1545816665
 21
514.3517524945
  0
LINE
  5
299
100
AcDbEntity
  8
0
100
AcDbLine
 62
7
  6
CONTINUOUS
 10
269.4590816665
 20
520.8377524945
 11
269.4590816665
 21
523.8857524945
  0
LINE
  5
29A
100
AcDbEntity
  8
0
100
AcDbLine
 62
7
  6
CONTINUOUS
 10
269.8883816665
 20
511.8117524945
 11
269.8883816665
 21
505.4617524945
  0
LINE
  5
29B
100
AcDbEntity
  8
0
100
AcDbLine
 62
7
  6
CONTINUOUS
 10
274.8374816665
 20
525.6129524945
 11
274.8374816665
 21
525.7653524945
  0
LINE
  5
29C
100
AcDbEntity
  8
0
100
AcDbLine
 62
7
  6
CONTINUOUS
 10
279.6190816665
 20
523.8857524945
 11
279.6190816665
 21
525.6129524945
  0
LINE
  5
29D
100
AcDbEntity
  8
0
100
AcDbLine
 62
7
  6
CONTINUOUS
 10
136.8667666105
 20
400.6105524945
 11
162.6749816665
 21
400.6105524945
  0
LINE
  5
29E
100
AcDbEntity
  8
0
100
AcDbLine
 62
7
  6
CONTINUOUS
 10
547.7389816665
 20
400.6105524945
 11
573.5471967224
 21
400.6105524945
  0
LINE
  5
29F
100
AcDbEntity
  8
0
100
AcDbLine
 62
7
  6
CONTINUOUS
 10
631.5576971152
 20
400.7121524945
 11
577.9772945995
 21
400.7121524945
  0
LINE
  5
2A0
100
AcDbEntity
  8
0
100
AcDbLine
 62
7
  6
CONTINUOUS
 10
132.4366687335
 20
400.7121524945
 11
78.8562662177
 21
400.7121524945
  0
LINE
  5
2A1
100
AcDbEntity
  8
0
100
AcDbLine
 62
7
  6
CONTINUOUS
 10
582.1305816665
 20
401.6265524945
 11
594.9829816665
 21
401.6265524945
  0
LINE
  5
2A2
100
AcDbEntity
  8
0
100
AcDbLine
 62
7
  6
CONTINUOUS
 10
594.9829816665
 20
402.9981524945
 11
113.9069816665
 21
402.9981524945
  0
LINE
  5
2A3
100
AcDbEntity
  8
0
100
AcDbLine
 62
7
  6
CONTINUOUS
 10
113.9069816665
 20
405.8937524945
 11
582.1305816665
 21
405.8937524945
  0
LWPOLYLINE
  5
2A4
100
AcDbEntity
  8
0
100
AcDbPolyline
 62
7
  6
CONTINUOUS
 90
3
 70
0
 10
198.8849443794
 20
487.380186742
 10
198.4884703312
 20
487.58647501
 10
198.0401215937
 20
487.6795554044
  0
LINE
  5
2A5
100
AcDbEntity
  8
0
100
AcDbLine
 62
7
  6
CONTINUOUS
 10
306.4774932064
 20
432.6245292252
 11
264.017563799
 21
478.8526368926
  0
LINE
  5
2A6
100
AcDbEntity
  8
0
100
AcDbLine
 62
7
  6
CONTINUOUS
 10
242.9353925259
 20
504.8497554777
 11
243.9965125147
 21
502.7882540989
  0
LINE
  5
2A7
100
AcDbEntity
  8
0
100
AcDbLine
 62
7
  6
CONTINUOUS
 10
243.9965125147
 20
503.75812176
 11
242.9353925258
 21
505.8196231388
  0
LINE
  5
2A8
100
AcDbEntity
  8
0
100
AcDbLine
 62
7
  6
CONTINUOUS
 10
280.2007816665
 20
505.4617524945
 11
280.2007816665
 21
511.8117524945
  0
LINE
  5
2A9
100
AcDbEntity
  8
0
100
AcDbLine
 62
7
  6
CONTINUOUS
 10
280.6350816665
 20
520.8377524945
 11
280.6350816665
 21
523.8857524945
  0
LINE
  5
2AA
100
AcDbEntity
  8
0
100
AcDbLine
 62
7
  6
CONTINUOUS
 10
281.1874816665
 20
525.7653524945
 11
281.1874816665
 21
525.6129524945
  0
LINE
  5
2AB
100
AcDbEntity
  8
0
100
AcDbLine
 62
7
  6
CONTINUOUS
 10
285.9690816665
 20
520.7017524945
 11
285.9690816665
 21
525.6129524945
  0
LINE
  5
2AC
100
AcDbEntity
  8
0
100
AcDbLine
 62
7
  6
CONTINUOUS
 10
288.762253443
 20
457.3414524945
 11
288.762253443
 21
456.5540524945
  0
LINE
  5
2AD
100
AcDbEntity
  8
0
100
AcDbLine
 62
7
  6
CONTINUOUS
 10
289.3856633533
 20
458.421230133
 11
289.3856633533
 21
457.701378374
  0
LINE
  5
2AE
100
AcDbEntity
  8
0
100
AcDbLine
 62
7
  6
CONTINUOUS
 10
289.3856633533
 20
456.194126615
 11
289.3856633533
 21
455.474274856
  0
LINE
  5
2AF
100
AcDbEntity
  8
0
100
AcDbLine
 62
7
  6
CONTINUOUS
 10
291.9962999797
 20
455.4742748559
 11
291.9962999797
 21
458.421230133
  0
LINE
  5
2B0
100
AcDbEntity
  8
0
100
AcDbLine
 62
7
  6
CONTINUOUS
 10
292.61970989
 20
456.5540524945
 11
292.61970989
 21
457.3414524945
  0
LINE
  5
2B1
100
AcDbEntity
  8
0
100
AcDbLine
 62
7
  6
CONTINUOUS
 10
337.2548536057
 20
573.9852805547
 11
350.7168536062
 21
587.4472805552
  0
LINE
  5
2B2
100
AcDbEntity
  8
0
100
AcDbLine
 62
7
  6
CONTINUOUS
 10
512.2903443937
 20
476.7998677552
 11
512.7360893561
 21
476.9259623258
  0
LINE
  5
2B3
100
AcDbEntity
  8
0
100
AcDbLine
 62
7
  6
CONTINUOUS
 10
512.286202267
 20
468.6710589012
 11
512.735342989
 21
468.7976541895
  0
LINE
  5
2B4
100
AcDbEntity
  8
0
100
AcDbLine
 62
7
  6
CONTINUOUS
 10
504.0862632191
 20
473.2801152742
 11
503.6451850736
 21
473.1609973697
  0
LINE
  5
2B5
100
AcDbEntity
  8
0
100
AcDbLine
 62
7
  6
CONTINUOUS
 10
504.1021446713
 20
465.1548472882
 11
503.6548337566
 21
465.0366285588
  0
LWPOLYLINE
  5
2B6
100
AcDbEntity
  8
0
100
AcDbPolyline
 62
7
  6
CONTINUOUS
 90
4
 70
0
 10
512.2045526642
 20
472.033682038
 10
512.2042868805
 20
472.0336126716
 10
511.9844912462
 20
471.9865201752
 10
511.4794273856
 20
471.9162577206
  0
LWPOLYLINE
  5
2B7
100
AcDbEntity
  8
0
100
AcDbPolyline
 62
7
  6
CONTINUOUS
 90
3
 70
0
 10
512.2039230959
 20
474.0654581441
 10
512.1153625761
 20
474.0434125258
 10
511.6921536715
 20
473.9748512033
  0
LWPOLYLINE
  5
2B8
100
AcDbEntity
  8
0
100
AcDbPolyline
 62
7
  6
CONTINUOUS
 90
3
 70
0
 10
512.2036037564
 20
465.9373765744
 10
512.1083840181
 20
465.9140712787
 10
511.6665846999
 20
465.8436031764
  0
LWPOLYLINE
  5
2B9
100
AcDbEntity
  8
0
100
AcDbPolyline
 62
7
  6
CONTINUOUS
 90
3
 70
0
 10
512.2001981525
 20
463.904488393
 10
512.0937486989
 20
463.8788667347
 10
511.6160744068
 20
463.8051099553
  0
LWPOLYLINE
  5
2BA
100
AcDbEntity
  8
0
100
AcDbPolyline
 62
7
  6
CONTINUOUS
 90
3
 70
0
 10
504.1585712311
 20
465.8524455489
 10
504.2649774559
 20
465.8777927682
 10
504.7028671279
 20
465.9463309131
  0
LWPOLYLINE
  5
2BB
100
AcDbEntity
  8
0
100
AcDbPolyline
 62
7
  6
CONTINUOUS
 90
3
 70
0
 10
504.1581039277
 20
463.8201037505
 10
504.2720222249
 20
463.8471392484
 10
504.7528284196
 20
463.9207792792
  0
LINE
  5
2BC
100
AcDbEntity
  8
0
100
AcDbLine
 62
7
  6
CONTINUOUS
 10
504.1596017994
 20
467.8848586768
 11
504.2870309384
 21
467.9141751125
  0
LWPOLYLINE
  5
2BD
100
AcDbEntity
  8
0
100
AcDbPolyline
 62
7
  6
CONTINUOUS
 90
3
 70
0
 10
504.160166699
 20
469.9170388272
 10
504.2954620606
 20
469.9477936532
 10
504.8253906948
 20
470.0258073788
  0
LWPOLYLINE
  5
2BE
100
AcDbEntity
  8
0
100
AcDbPolyline
 62
7
  6
CONTINUOUS
 90
3
 70
0
 10
504.2368790666
 20
467.2097031002
 10
503.7969864322
 20
467.1180667203
 10
503.3969420159
 20
466.9077014829
  0
LINE
  5
2BF
100
AcDbEntity
  8
0
100
AcDbLine
 62
7
  6
CONTINUOUS
 10
532.6386816665
 20
431.8017524945
 11
483.7182816665
 21
431.8017524945
  0
LINE
  5
2C0
100
AcDbEntity
  8
0
100
AcDbLine
 62
7
  6
CONTINUOUS
 10
218.5676816665
 20
431.8017524945
 11
169.6472816665
 21
431.8017524945
  0
LINE
  5
2C1
100
AcDbEntity
  8
0
100
AcDbLine
 62
7
  6
CONTINUOUS
 10
422.8746986918
 20
434.7227524945
 11
435.3672646412
 21
434.7227524945
  0
LINE
  5
2C2
100
AcDbEntity
  8
0
100
AcDbLine
 62
7
  6
CONTINUOUS
 10
532.6386816665
 20
435.3577524945
 11
483.7182816665
 21
435.3577524945
  0
LINE
  5
2C3
100
AcDbEntity
  8
0
100
AcDbLine
 62
7
  6
CONTINUOUS
 10
218.5676816665
 20
435.3577524945
 11
169.6472816665
 21
435.3577524945
  0
LINE
  5
2C4
100
AcDbEntity
  8
0
100
AcDbLine
 62
7
  6
CONTINUOUS
 10
532.6386816665
 20
436.8817524945
 11
483.7182816665
 21
436.8817524945
  0
LINE
  5
2C5
100
AcDbEntity
  8
0
100
AcDbLine
 62
7
  6
CONTINUOUS
 10
218.5676816665
 20
436.8817524945
 11
169.6472816665
 21
436.8817524945
  0
LINE
  5
2C6
100
AcDbEntity
  8
0
100
AcDbLine
 62
7
  6
CONTINUOUS
 10
435.3672646412
 20
437.0087524945
 11
422.8746986918
 21
437.0087524945
  0
LINE
  5
2C7
100
AcDbEntity
  8
0
100
AcDbLine
 62
7
  6
CONTINUOUS
 10
198.6222773876
 20
475.3488438256
 11
198.1641255566
 21
475.466810811
  0
LINE
  5
2C8
100
AcDbEntity
  8
0
100
AcDbLine
 62
7
  6
CONTINUOUS
 10
198.6435956924
 20
473.3080275376
 11
198.2034857993
 21
473.4276437943
  0
LWPOLYLINE
  5
2C9
100
AcDbEntity
  8
0
100
AcDbPolyline
 62
7
  6
CONTINUOUS
 90
3
 70
0
 10
198.6556623305
 20
477.3667778177
 10
198.2486087056
 20
477.4830455765
 10
197.674789292
 20
477.5705305114
  0
LWPOLYLINE
  5
2CA
100
AcDbEntity
  8
0
100
AcDbPolyline
 62
7
  6
CONTINUOUS
 90
3
 70
0
 10
198.6611002693
 20
467.2037595755
 10
198.2388441978
 20
467.3249750279
 10
197.6514535592
 20
467.4133003907
  0
LWPOLYLINE
  5
2CB
100
AcDbEntity
  8
0
100
AcDbPolyline
 62
7
  6
CONTINUOUS
 90
3
 70
0
 10
198.6677417674
 20
465.1692982822
 10
198.2540365229
 20
465.2898470701
 10
197.6814335337
 20
465.37758148
  0
LWPOLYLINE
  5
2CC
100
AcDbEntity
  8
0
100
AcDbPolyline
 62
7
  6
CONTINUOUS
 90
3
 70
0
 10
189.536760936
 20
479.1122811561
 10
189.9752807351
 20
478.9839927449
 10
190.5910876436
 20
478.8919643559
  0
LWPOLYLINE
  5
2CD
100
AcDbEntity
  8
0
100
AcDbPolyline
 62
7
  6
CONTINUOUS
 90
3
 70
0
 10
189.5362776565
 20
473.0164699017
 10
189.9743033431
 20
472.88818355
 10
190.5825049205
 20
472.7970200928
  0
LWPOLYLINE
  5
2CE
100
AcDbEntity
  8
0
100
AcDbPolyline
 62
7
  6
CONTINUOUS
 90
4
 70
0
 10
198.6744195718
 20
481.4222706651
 10
198.2520310825
 20
481.5463999279
 10
197.6563333736
 20
481.6368155941
 10
196.7921454937
 20
481.7283419059
  0
LWPOLYLINE
  5
2CF
100
AcDbEntity
  8
0
100
AcDbPolyline
 62
7
  6
CONTINUOUS
 90
3
 70
0
 10
189.5338912955
 20
464.8896956198
 10
189.9711330719
 20
464.7609918375
 10
190.6063997042
 20
464.6660986703
  0
LWPOLYLINE
  5
2D0
100
AcDbEntity
  8
0
100
AcDbPolyline
 62
7
  6
CONTINUOUS
 90
3
 70
0
 10
189.5357031215
 20
481.1448103224
 10
189.9655554743
 20
481.01786737
 10
190.5744818469
 20
480.925994126
  0
LWPOLYLINE
  5
2D1
100
AcDbEntity
  8
0
100
AcDbPolyline
 62
7
  6
CONTINUOUS
 90
3
 70
0
 10
189.5317021945
 20
466.9227137996
 10
189.9702982311
 20
466.7930847793
 10
190.5817881361
 20
466.7011650583
  0
LWPOLYLINE
  5
2D2
100
AcDbEntity
  8
0
100
AcDbPolyline
 62
7
  6
CONTINUOUS
 90
3
 70
0
 10
198.674791999
 20
479.3901416264
 10
198.2617684327
 20
479.5124517674
 10
197.6972032895
 20
479.5997038119
  0
LWPOLYLINE
  5
2D3
100
AcDbEntity
  8
0
100
AcDbPolyline
 62
7
  6
CONTINUOUS
 90
3
 70
0
 10
189.5296617307
 20
477.0836042825
 10
189.951907944
 20
476.9565850736
 10
190.5319980942
 20
476.8672796054
  0
LWPOLYLINE
  5
2D4
100
AcDbEntity
  8
0
100
AcDbPolyline
 62
7
  6
CONTINUOUS
 90
3
 70
0
 10
198.6843884516
 20
471.2575374412
 10
198.3083615814
 20
471.3748999621
 10
197.780499662
 20
471.460950957
  0
LWPOLYLINE
  5
2D5
100
AcDbEntity
  8
0
100
AcDbPolyline
 62
7
  6
CONTINUOUS
 90
3
 70
0
 10
189.5113912982
 20
475.0606829768
 10
189.9275152119
 20
474.929516596
 10
190.4784480311
 20
474.8420791714
  0
LINE
  5
2D6
100
AcDbEntity
  8
0
100
AcDbLine
 62
7
  6
CONTINUOUS
 10
289.3856633533
 20
455.474274856
 11
290.0675717562
 21
455.0805748559
  0
LINE
  5
2D7
100
AcDbEntity
  8
0
100
AcDbLine
 62
7
  6
CONTINUOUS
 10
288.762253443
 20
456.5540524945
 11
291.3143915768
 21
455.0805748559
  0
LINE
  5
2D8
100
AcDbEntity
  8
0
100
AcDbLine
 62
7
  6
CONTINUOUS
 10
292.61970989
 20
457.3414524945
 11
291.9962999797
 21
457.701378374
  0
LINE
  5
2D9
100
AcDbEntity
  8
0
100
AcDbLine
 62
7
  6
CONTINUOUS
 10
290.6909816665
 20
458.4550042535
 11
290.0675717562
 21
458.814930133
  0
LINE
  5
2DA
100
AcDbEntity
  8
0
100
AcDbLine
 62
7
  6
CONTINUOUS
 10
291.9962999797
 20
458.421230133
 11
291.3143915768
 21
458.814930133
  0
LINE
  5
2DB
100
AcDbEntity
  8
0
100
AcDbLine
 62
7
  6
CONTINUOUS
 10
276.9613816538
 20
490.7413690967
 11
268.6844765996
 21
499.2503787705
  0
LINE
  5
2DC
100
AcDbEntity
  8
0
100
AcDbLine
 62
7
  6
CONTINUOUS
 10
315.8308638542
 20
441.215481299
 11
273.3709344466
 21
487.443588966
  0
LINE
  5
2DD
100
AcDbEntity
  8
0
100
AcDbLine
 62
7
  6
CONTINUOUS
 10
316.9532683316
 20
442.2463955477
 11
274.4933389242
 21
488.4745032148
  0
LINE
  5
2DE
100
AcDbEntity
  8
0
100
AcDbLine
 62
7
  6
CONTINUOUS
 10
319.4038514414
 20
444.4972249909
 11
276.9613816538
 21
490.7413690967
  0
LINE
  5
2DF
100
AcDbEntity
  8
0
100
AcDbLine
 62
7
  6
CONTINUOUS
 10
264.017563799
 20
478.8526368926
 11
276.9613816536
 21
490.7413690969
  0
LINE
  5
2E0
100
AcDbEntity
  8
0
100
AcDbLine
 62
7
  6
CONTINUOUS
 10
189.7392199343
 20
470.3181405287
 11
189.3400034352
 21
470.1171393357
  0
LINE
  5
2E1
100
AcDbEntity
  8
0
100
AcDbLine
 62
7
  6
CONTINUOUS
 10
512.2730836865
 20
486.9566109753
 11
512.7316632657
 21
487.0839951745
  0
LINE
  5
2E2
100
AcDbEntity
  8
0
100
AcDbLine
 62
7
  6
CONTINUOUS
 10
504.1165994693
 20
485.4776455207
 11
503.6352877384
 21
485.3486964724
  0
LINE
  5
2E3
100
AcDbEntity
  8
0
100
AcDbLine
 62
7
  6
CONTINUOUS
 10
512.2049854666
 20
484.9124668222
 11
512.7172112581
 21
485.045696132
  0
LWPOLYLINE
  5
2E4
100
AcDbEntity
  8
0
100
AcDbPolyline
 62
7
  6
CONTINUOUS
 90
3
 70
0
 10
512.2032115533
 20
486.2572024476
 10
512.1341697496
 20
486.2395027826
 10
511.7185233467
 20
486.1703952747
  0
LWPOLYLINE
  5
2E5
100
AcDbEntity
  8
0
100
AcDbPolyline
 62
7
  6
CONTINUOUS
 90
3
 70
0
 10
512.2036071241
 20
484.2253250146
 10
512.1204130081
 20
484.2044927463
 10
511.6578383464
 20
484.130338932
  0
LWPOLYLINE
  5
2E6
100
AcDbEntity
  8
0
100
AcDbPolyline
 62
7
  6
CONTINUOUS
 90
3
 70
0
 10
512.2036244504
 20
488.2894075458
 10
512.1116784706
 20
488.2666064567
 10
511.6505236282
 20
488.1934057404
  0
LWPOLYLINE
  5
2E7
100
AcDbEntity
  8
0
100
AcDbPolyline
 62
7
  6
CONTINUOUS
 90
3
 70
0
 10
512.2036221654
 20
480.1613666821
 10
512.1125488881
 20
480.1388001722
 10
511.6776928122
 20
480.0689375528
  0
LWPOLYLINE
  5
2E8
100
AcDbEntity
  8
0
100
AcDbPolyline
 62
7
  6
CONTINUOUS
 90
3
 70
0
 10
504.1535184184
 20
480.0749619564
 10
504.2512911296
 20
480.0989725343
 10
504.6924808799
 20
480.1690881619
  0
LWPOLYLINE
  5
2E9
100
AcDbEntity
  8
0
100
AcDbPolyline
 62
7
  6
CONTINUOUS
 90
3
 70
0
 10
512.2026418172
 20
478.1290585103
 10
512.1078229824
 20
478.1058150593
 10
511.6795576648
 20
478.0371879958
  0
LWPOLYLINE
  5
2EA
100
AcDbEntity
  8
0
100
AcDbPolyline
 62
7
  6
CONTINUOUS
 90
3
 70
0
 10
512.1976887035
 20
482.1909232089
 10
512.1342273737
 20
482.175548696
 10
511.7255552567
 20
482.1073433266
  0
LWPOLYLINE
  5
2EB
100
AcDbEntity
  8
0
100
AcDbPolyline
 62
7
  6
CONTINUOUS
 90
3
 70
0
 10
504.1566148937
 20
484.1399277705
 10
504.275062181
 20
484.1678278086
 10
504.7899287229
 20
484.2454634723
  0
LWPOLYLINE
  5
2EC
100
AcDbEntity
  8
0
100
AcDbPolyline
 62
7
  6
CONTINUOUS
 90
3
 70
0
 10
504.1597162584
 20
478.0448629926
 10
504.270701594
 20
478.0709438144
 10
504.6970441011
 20
478.1376784082
  0
LWPOLYLINE
  5
2ED
100
AcDbEntity
  8
0
100
AcDbPolyline
 62
7
  6
CONTINUOUS
 90
3
 70
0
 10
504.1591991974
 20
476.0127328308
 10
504.2763318164
 20
476.0400533199
 10
504.7268170947
 20
476.1095281823
  0
LWPOLYLINE
  5
2EE
100
AcDbEntity
  8
0
100
AcDbPolyline
 62
7
  6
CONTINUOUS
 90
3
 70
0
 10
504.1594745302
 20
473.9808358156
 10
504.2901412907
 20
474.0107682864
 10
504.8061143426
 20
474.0874610862
  0
LWPOLYLINE
  5
2EF
100
AcDbEntity
  8
0
100
AcDbPolyline
 62
7
  6
CONTINUOUS
 90
3
 70
0
 10
504.1615530149
 20
471.9494174677
 10
504.3053386543
 20
471.9816875868
 10
504.8634172024
 20
472.0623707586
  0
LWPOLYLINE
  5
2F0
100
AcDbEntity
  8
0
100
AcDbPolyline
 62
7
  6
CONTINUOUS
 90
3
 70
0
 10
504.1638407625
 20
482.1113273669
 10
504.1911498254
 20
482.1173123952
 10
504.6231224504
 20
482.1918264362
  0
LWPOLYLINE
  5
2F1
100
AcDbEntity
  8
0
100
AcDbPolyline
 62
7
  6
CONTINUOUS
 90
3
 70
0
 10
504.2290715441
 20
471.2726469735
 10
503.7925744635
 20
471.1808371052
 10
503.4026041634
 20
470.9772986924
  0
LINE
  5
2F2
100
AcDbEntity
  8
0
100
AcDbLine
 62
7
  6
CONTINUOUS
 10
504.2651984155
 20
475.3423558764
 11
503.8035624514
 21
475.2480249818
  0
LINE
  5
2F3
100
AcDbEntity
  8
0
100
AcDbLine
 62
7
  6
CONTINUOUS
 10
504.2746675785
 20
469.2478217657
 11
503.8102199027
 21
469.153904203
  0
LWPOLYLINE
  5
2F4
100
AcDbEntity
  8
0
100
AcDbPolyline
 62
7
  6
CONTINUOUS
 90
3
 70
0
 10
511.805030476
 20
464.5336109263
 10
512.3612880355
 20
464.6218923526
 10
512.7713246088
 20
464.7513686683
  0
LWPOLYLINE
  5
2F5
100
AcDbEntity
  8
0
100
AcDbPolyline
 62
7
  6
CONTINUOUS
 90
3
 70
0
 10
511.7751523223
 20
478.7537033402
 10
512.3442965518
 20
478.8423916364
 10
512.767540578
 20
478.972927393
  0
LWPOLYLINE
  5
2F6
100
AcDbEntity
  8
0
100
AcDbPolyline
 62
7
  6
CONTINUOUS
 90
3
 70
0
 10
504.6098747635
 20
463.1980234994
 10
504.0362206362
 20
463.1105935599
 10
503.6280309354
 20
462.9928965795
  0
LWPOLYLINE
  5
2F7
100
AcDbEntity
  8
0
100
AcDbPolyline
 62
7
  6
CONTINUOUS
 90
3
 70
0
 10
511.721493428
 20
472.6509943455
 10
512.3180800356
 20
472.7411967851
 10
512.7522677598
 20
472.869482166
  0
LINE
  5
2F8
100
AcDbEntity
  8
0
100
AcDbLine
 62
7
  6
CONTINUOUS
 10
504.2870309384
 20
467.9141751125
 11
504.7933911568
 21
467.9898999609
  0
LWPOLYLINE
  5
2F9
100
AcDbEntity
  8
0
100
AcDbPolyline
 62
7
  6
CONTINUOUS
 90
3
 70
0
 10
504.6606744665
 20
477.4283970032
 10
504.0580663937
 20
477.3388137524
 10
503.6288136694
 20
477.2179076808
  0
LWPOLYLINE
  5
2FA
100
AcDbEntity
  8
0
100
AcDbPolyline
 62
7
  6
CONTINUOUS
 90
3
 70
0
 10
511.6799373355
 20
470.6139247919
 10
512.3033612533
 20
470.7063391009
 10
512.7451950112
 20
470.8341220873
  0
LWPOLYLINE
  5
2FB
100
AcDbEntity
  8
0
100
AcDbPolyline
 62
7
  6
CONTINUOUS
 90
3
 70
0
 10
511.6678467773
 20
474.6764654364
 10
512.3078127969
 20
474.7711900731
 10
512.7484062006
 20
474.8996280969
  0
LWPOLYLINE
  5
2FC
100
AcDbEntity
  8
0
100
AcDbPolyline
 62
7
  6
CONTINUOUS
 90
5
 70
0
 10
511.6315646625
 20
462.4802160268
 10
512.2846912488
 20
462.5748412669
 10
512.7346402645
 20
462.7016015194
 10
513.1645301463
 20
463.2078515695
 10
513.1809063217
 20
463.3542582583
  0
LINE
  5
2FD
100
AcDbEntity
  8
0
100
AcDbLine
 62
7
  6
CONTINUOUS
 10
511.6223696594
 20
468.5750394754
 11
512.286202267
 21
468.6710589012
  0
LINE
  5
2FE
100
AcDbEntity
  8
0
100
AcDbLine
 62
7
  6
CONTINUOUS
 10
504.7587244514
 20
473.3760915903
 11
504.0862632191
 21
473.2801152742
  0
LINE
  5
2FF
100
AcDbEntity
  8
0
100
AcDbLine
 62
7
  6
CONTINUOUS
 10
504.7819139403
 20
465.2507781474
 11
504.1021446713
 21
465.1548472882
  0
LINE
  5
300
100
AcDbEntity
  8
0
100
AcDbLine
 62
7
  6
CONTINUOUS
 10
504.8746707714
 20
471.3573194523
 11
504.2290715441
 21
471.2726469735
  0
LINE
  5
301
100
AcDbEntity
  8
0
100
AcDbLine
 62
7
  6
CONTINUOUS
 10
504.8875571447
 20
467.2947478855
 11
504.2368790666
 21
467.2097031002
  0
LINE
  5
302
100
AcDbEntity
  8
0
100
AcDbLine
 62
7
  6
CONTINUOUS
 10
504.9292110453
 20
475.427341257
 11
504.2651984155
 21
475.3423558764
  0
LINE
  5
303
100
AcDbEntity
  8
0
100
AcDbLine
 62
7
  6
CONTINUOUS
 10
504.9466603714
 20
469.3332484055
 11
504.2746675785
 21
469.2478217657
  0
LINE
  5
304
100
AcDbEntity
  8
0
100
AcDbLine
 62
7
  6
CONTINUOUS
 10
511.6921536715
 20
473.9748512033
 11
510.9944899159
 21
473.8959835684
  0
LINE
  5
305
100
AcDbEntity
  8
0
100
AcDbLine
 62
7
  6
CONTINUOUS
 10
504.7028671279
 20
465.9463309131
 11
505.4039626891
 21
466.0244134038
  0
LINE
  5
306
100
AcDbEntity
  8
0
100
AcDbLine
 62
7
  6
CONTINUOUS
 10
511.6665846999
 20
465.8436031764
 11
510.9194144996
 21
465.7605981949
  0
LINE
  5
307
100
AcDbEntity
  8
0
100
AcDbLine
 62
7
  6
CONTINUOUS
 10
511.0033638769
 20
464.4455480442
 11
511.805030476
 21
464.5336109263
  0
LINE
  5
308
100
AcDbEntity
  8
0
100
AcDbLine
 62
7
  6
CONTINUOUS
 10
511.6160744068
 20
463.8051099553
 11
510.8295666359
 21
463.7199548467
  0
LINE
  5
309
100
AcDbEntity
  8
0
100
AcDbLine
 62
7
  6
CONTINUOUS
 10
504.7528284196
 20
463.9207792792
 11
505.5432356821
 21
464.005827666
  0
LINE
  5
30A
100
AcDbEntity
  8
0
100
AcDbLine
 62
7
  6
CONTINUOUS
 10
505.4186859395
 20
463.2849811086
 11
504.6098747635
 21
463.1980234994
  0
LWPOLYLINE
  5
30B
100
AcDbEntity
  8
0
100
AcDbPolyline
 62
7
  6
CONTINUOUS
 90
3
 70
0
 10
504.7933911568
 20
467.9898999609
 10
505.6093482661
 20
468.0761014632
 10
506.713327249
 20
468.1702470622
  0
LINE
  5
30C
100
AcDbEntity
  8
0
100
AcDbLine
 62
7
  6
CONTINUOUS
 10
511.5206960495
 20
469.8891827155
 11
510.8127620865
 21
469.8143440284
  0
LINE
  5
30D
100
AcDbEntity
  8
0
100
AcDbLine
 62
7
  6
CONTINUOUS
 10
510.8491421308
 20
472.5588834846
 11
511.721493428
 21
472.6509943455
  0
LINE
  5
30E
100
AcDbEntity
  8
0
100
AcDbLine
 62
7
  6
CONTINUOUS
 10
504.8253906948
 20
470.0258073788
 11
505.6838770221
 21
470.1150201841
  0
LINE
  5
30F
100
AcDbEntity
  8
0
100
AcDbLine
 62
7
  6
CONTINUOUS
 10
511.4794273856
 20
471.9162577206
 11
510.7376428956
 21
471.8392712608
  0
LINE
  5
310
100
AcDbEntity
  8
0
100
AcDbLine
 62
7
  6
CONTINUOUS
 10
510.7606986982
 20
470.5187230708
 11
511.6799373355
 21
470.6139247919
  0
LWPOLYLINE
  5
311
100
AcDbEntity
  8
0
100
AcDbPolyline
 62
7
  6
CONTINUOUS
 90
3
 70
0
 10
510.6908237727
 20
466.448421111
 10
511.6497954504
 20
466.5463186824
 10
512.3124559236
 20
466.6442376131
  0
LINE
  5
312
100
AcDbEntity
  8
0
100
AcDbLine
 62
7
  6
CONTINUOUS
 10
511.4331894416
 20
467.8468504125
 11
510.6895904251
 21
467.7708893901
  0
LWPOLYLINE
  5
313
100
AcDbEntity
  8
0
100
AcDbPolyline
 62
7
  6
CONTINUOUS
 90
4
 70
0
 10
504.8634172024
 20
472.0623707586
 10
505.7686348974
 20
472.1547460084
 10
506.9692133058
 20
472.2543586713
 10
509.689131904
 20
472.4603988011
  0
LINE
  5
314
100
AcDbEntity
  8
0
100
AcDbLine
 62
7
  6
CONTINUOUS
 10
510.6445604552
 20
462.3802239347
 11
511.6315646625
 21
462.4802160268
  0
LINE
  5
315
100
AcDbEntity
  8
0
100
AcDbLine
 62
7
  6
CONTINUOUS
 10
510.6493475996
 20
468.4766471213
 11
511.6223696594
 21
468.5750394754
  0
LINE
  5
316
100
AcDbEntity
  8
0
100
AcDbLine
 62
7
  6
CONTINUOUS
 10
505.7232937508
 20
471.4410675379
 11
504.8746707714
 21
471.3573194523
  0
LWPOLYLINE
  5
317
100
AcDbEntity
  8
0
100
AcDbPolyline
 62
7
  6
CONTINUOUS
 90
4
 70
0
 10
505.4039626891
 20
466.0244134038
 10
506.3390754686
 20
466.1079162247
 10
507.4939762105
 20
466.1985152686
 10
509.4753360951
 20
466.3476451366
  0
LWPOLYLINE
  5
318
100
AcDbEntity
  8
0
100
AcDbPolyline
 62
7
  6
CONTINUOUS
 90
6
 70
0
 10
510.9194144996
 20
465.7605981949
 10
509.8805463576
 20
465.6691485592
 10
508.5730644208
 20
465.5679731969
 10
507.1208823845
 20
465.459118219
 10
505.7982930779
 20
465.3516528671
 10
504.7819139403
 20
465.2507781474
  0
LINE
  5
319
100
AcDbEntity
  8
0
100
AcDbLine
 62
7
  6
CONTINUOUS
 10
509.918366313
 20
464.3507313786
 11
511.0033638769
 21
464.4455480442
  0
LINE
  5
31A
100
AcDbEntity
  8
0
100
AcDbLine
 62
7
  6
CONTINUOUS
 10
510.8127620865
 20
469.8143440284
 11
509.8923066043
 21
469.7340531464
  0
LINE
  5
31B
100
AcDbEntity
  8
0
100
AcDbLine
 62
7
  6
CONTINUOUS
 10
510.8295666359
 20
463.7199548467
 11
509.7650373875
 21
463.6277811899
  0
LINE
  5
31C
100
AcDbEntity
  8
0
100
AcDbLine
 62
7
  6
CONTINUOUS
 10
506.5039547578
 20
463.3788413928
 11
505.4186859395
 21
463.2849811086
  0
LINE
  5
31D
100
AcDbEntity
  8
0
100
AcDbLine
 62
7
  6
CONTINUOUS
 10
505.5432356821
 20
464.005827666
 11
506.6289635804
 21
464.0995147926
  0
LINE
  5
31E
100
AcDbEntity
  8
0
100
AcDbLine
 62
7
  6
CONTINUOUS
 10
510.6895904251
 20
467.7708893901
 11
509.7426519971
 21
467.6899563875
  0
LINE
  5
31F
100
AcDbEntity
  8
0
100
AcDbLine
 62
7
  6
CONTINUOUS
 10
509.4753360951
 20
466.3476451366
 11
510.6908237727
 21
466.448421111
  0
LWPOLYLINE
  5
320
100
AcDbEntity
  8
0
100
AcDbPolyline
 62
7
  6
CONTINUOUS
 90
3
 70
0
 10
506.8239861049
 20
467.4681457872
 10
505.7560979773
 20
467.3799397806
 10
504.8875571447
 20
467.2947478855
  0
LINE
  5
321
100
AcDbEntity
  8
0
100
AcDbLine
 62
7
  6
CONTINUOUS
 10
509.3920595002
 20
462.2772130434
 11
510.6445604552
 21
462.3802239347
  0
LWPOLYLINE
  5
322
100
AcDbEntity
  8
0
100
AcDbPolyline
 62
7
  6
CONTINUOUS
 90
3
 70
0
 10
506.713327249
 20
468.1702470622
 10
509.4061364549
 20
468.3742789855
 10
510.6493475996
 20
468.4766471213
  0
LINE
  5
323
100
AcDbEntity
  8
0
100
AcDbLine
 62
7
  6
CONTINUOUS
 10
507.1133414043
 20
462.1055161777
 11
509.3920595002
 21
462.2772130434
  0
LINE
  5
324
100
AcDbEntity
  8
0
100
AcDbLine
 62
7
  6
CONTINUOUS
 10
509.7650373875
 20
463.6277811899
 11
506.5039547578
 21
463.3788413928
  0
LINE
  5
325
100
AcDbEntity
  8
0
100
AcDbLine
 62
7
  6
CONTINUOUS
 10
506.6289635804
 20
464.0995147926
 11
509.918366313
 21
464.3507313786
  0
LINE
  5
326
100
AcDbEntity
  8
0
100
AcDbLine
 62
7
  6
CONTINUOUS
 10
509.7426519971
 20
467.6899563875
 11
506.8239861049
 21
467.4681457872
  0
LINE
  5
327
100
AcDbEntity
  8
0
100
AcDbLine
 62
7
  6
CONTINUOUS
 10
111.0113816665
 20
438.6724524945
 11
110.3763816665
 21
438.6724524945
  0
LINE
  5
328
100
AcDbEntity
  8
0
100
AcDbLine
 62
7
  6
CONTINUOUS
 10
532.6386816665
 20
438.8629524945
 11
483.7182816665
 21
438.8629524945
  0
LINE
  5
329
100
AcDbEntity
  8
0
100
AcDbLine
 62
7
  6
CONTINUOUS
 10
218.5676816665
 20
438.8629524945
 11
169.6472816665
 21
438.8629524945
  0
LINE
  5
32A
100
AcDbEntity
  8
0
100
AcDbLine
 62
7
  6
CONTINUOUS
 10
107.5188816665
 20
439.8218024945
 11
110.3763816665
 21
439.8218024945
  0
LINE
  5
32B
100
AcDbEntity
  8
0
100
AcDbLine
 62
7
  6
CONTINUOUS
 10
111.7733816665
 20
440.1964524945
 11
111.0113816665
 21
440.1964524945
  0
LINE
  5
32C
100
AcDbEntity
  8
0
100
AcDbLine
 62
7
  6
CONTINUOUS
 10
532.6386816665
 20
440.3869524945
 11
483.7182816665
 21
440.3869524945
  0
LINE
  5
32D
100
AcDbEntity
  8
0
100
AcDbLine
 62
7
  6
CONTINUOUS
 10
218.5676816665
 20
440.3869524945
 11
169.6472816665
 21
440.3869524945
  0
LINE
  5
32E
100
AcDbEntity
  8
0
100
AcDbLine
 62
7
  6
CONTINUOUS
 10
110.3763816665
 20
443.7397524815
 11
107.7388457291
 21
443.7397523481
  0
LINE
  5
32F
100
AcDbEntity
  8
0
100
AcDbLine
 62
7
  6
CONTINUOUS
 10
515.3158816665
 20
445.6955524945
 11
501.0410816665
 21
445.6955524945
  0
LINE
  5
330
100
AcDbEntity
  8
0
100
AcDbLine
 62
7
  6
CONTINUOUS
 10
201.2448816665
 20
445.6955524945
 11
186.9700816665
 21
445.6955524945
  0
LINE
  5
331
100
AcDbEntity
  8
0
100
AcDbLine
 62
7
  6
CONTINUOUS
 10
111.7733816665
 20
447.2830524945
 11
111.0113816665
 21
447.2830524945
  0
LINE
  5
332
100
AcDbEntity
  8
0
100
AcDbLine
 62
7
  6
CONTINUOUS
 10
387.9632243308
 20
447.2957524945
 11
322.4507390022
 21
447.2957524945
  0
LINE
  5
333
100
AcDbEntity
  8
0
100
AcDbLine
 62
7
  6
CONTINUOUS
 10
107.5188816665
 20
447.6577024945
 11
110.3763816665
 21
447.6577025174
  0
LINE
  5
334
100
AcDbEntity
  8
0
100
AcDbLine
 62
7
  6
CONTINUOUS
 10
111.0113816665
 20
448.8070524945
 11
110.3763816665
 21
448.8070524945
  0
LINE
  5
335
100
AcDbEntity
  8
0
100
AcDbLine
 62
7
  6
CONTINUOUS
 10
530.6574816665
 20
450.0897524945
 11
528.8540816665
 21
450.0897524945
  0
LINE
  5
336
100
AcDbEntity
  8
0
100
AcDbLine
 62
7
  6
CONTINUOUS
 10
488.8998816665
 20
450.0897524945
 11
487.0964816665
 21
450.0897524945
  0
LINE
  5
337
100
AcDbEntity
  8
0
100
AcDbLine
 62
7
  6
CONTINUOUS
 10
215.1894816665
 20
450.0897524945
 11
213.3860816665
 21
450.0897524945
  0
LINE
  5
338
100
AcDbEntity
  8
0
100
AcDbLine
 62
7
  6
CONTINUOUS
 10
173.4318816665
 20
450.0897524945
 11
171.6284816665
 21
450.0897524945
  0
LINE
  5
339
100
AcDbEntity
  8
0
100
AcDbLine
 62
7
  6
CONTINUOUS
 10
220.0916816665
 20
450.3437524945
 11
218.5676816665
 21
450.3437524945
  0
LINE
  5
33A
100
AcDbEntity
  8
0
100
AcDbLine
 62
7
  6
CONTINUOUS
 10
482.1942816665
 20
450.3437524945
 11
483.7182816665
 21
450.3437524945
  0
LINE
  5
33B
100
AcDbEntity
  8
0
100
AcDbLine
 62
7
  6
CONTINUOUS
 10
515.3158816665
 20
450.4707524945
 11
513.8934816665
 21
450.4707524945
  0
LINE
  5
33C
100
AcDbEntity
  8
0
100
AcDbLine
 62
7
  6
CONTINUOUS
 10
502.4634816665
 20
450.4707524945
 11
501.0410816665
 21
450.4707524945
  0
LINE
  5
33D
100
AcDbEntity
  8
0
100
AcDbLine
 62
7
  6
CONTINUOUS
 10
201.2448816665
 20
450.4707524945
 11
199.8224816665
 21
450.4707524945
  0
LINE
  5
33E
100
AcDbEntity
  8
0
100
AcDbLine
 62
7
  6
CONTINUOUS
 10
188.3924816665
 20
450.4707524945
 11
186.9700816665
 21
450.4707524945
  0
LINE
  5
33F
100
AcDbEntity
  8
0
100
AcDbLine
 62
7
  6
CONTINUOUS
 10
532.6386816665
 20
452.5916524945
 11
530.6574816665
 21
452.5916524945
  0
LINE
  5
340
100
AcDbEntity
  8
0
100
AcDbLine
 62
7
  6
CONTINUOUS
 10
485.6994816665
 20
452.5916524945
 11
483.7182816665
 21
452.5916524945
  0
LINE
  5
341
100
AcDbEntity
  8
0
100
AcDbLine
 62
7
  6
CONTINUOUS
 10
218.5676816665
 20
452.5916524945
 11
216.5864816665
 21
452.5916524945
  0
LINE
  5
342
100
AcDbEntity
  8
0
100
AcDbLine
 62
7
  6
CONTINUOUS
 10
171.6284816665
 20
452.5916524945
 11
169.6472816665
 21
452.5916524945
  0
LINE
  5
343
100
AcDbEntity
  8
0
100
AcDbLine
 62
7
  6
CONTINUOUS
 10
218.5676816665
 20
452.8075524945
 11
215.1894816665
 21
452.8075524945
  0
LINE
  5
344
100
AcDbEntity
  8
0
100
AcDbLine
 62
7
  6
CONTINUOUS
 10
213.3860816665
 20
452.8075524945
 11
173.4318816665
 21
452.8075524945
  0
LINE
  5
345
100
AcDbEntity
  8
0
100
AcDbLine
 62
7
  6
CONTINUOUS
 10
171.6284816665
 20
452.8075524945
 11
165.2276816665
 21
452.8075524945
  0
LINE
  5
346
100
AcDbEntity
  8
0
100
AcDbLine
 62
7
  6
CONTINUOUS
 10
483.7182816665
 20
452.8075524945
 11
487.0964816665
 21
452.8075524945
  0
LINE
  5
347
100
AcDbEntity
  8
0
100
AcDbLine
 62
7
  6
CONTINUOUS
 10
488.8998816665
 20
452.8075524945
 11
528.8540816665
 21
452.8075524945
  0
LINE
  5
348
100
AcDbEntity
  8
0
100
AcDbLine
 62
7
  6
CONTINUOUS
 10
530.6574816665
 20
452.8075524945
 11
537.0582816665
 21
452.8075524945
  0
LINE
  5
349
100
AcDbEntity
  8
0
100
AcDbLine
 62
7
  6
CONTINUOUS
 10
171.6284816665
 20
453.6457524945
 11
173.4318816665
 21
453.6457524945
  0
LINE
  5
34A
100
AcDbEntity
  8
0
100
AcDbLine
 62
7
  6
CONTINUOUS
 10
213.3860816665
 20
453.6457524945
 11
215.1894816665
 21
453.6457524945
  0
LINE
  5
34B
100
AcDbEntity
  8
0
100
AcDbLine
 62
7
  6
CONTINUOUS
 10
487.0964816665
 20
453.6457524945
 11
488.8998816665
 21
453.6457524945
  0
LINE
  5
34C
100
AcDbEntity
  8
0
100
AcDbLine
 62
7
  6
CONTINUOUS
 10
528.8540816665
 20
453.6457524945
 11
530.6574816665
 21
453.6457524945
  0
LINE
  5
34D
100
AcDbEntity
  8
0
100
AcDbLine
 62
7
  6
CONTINUOUS
 10
532.6386816665
 20
455.1697524945
 11
530.6574816665
 21
455.1697524945
  0
LINE
  5
34E
100
AcDbEntity
  8
0
100
AcDbLine
 62
7
  6
CONTINUOUS
 10
218.5676816665
 20
455.1697524945
 11
216.5864816665
 21
455.1697524945
  0
LINE
  5
34F
100
AcDbEntity
  8
0
100
AcDbLine
 62
7
  6
CONTINUOUS
 10
169.6472816665
 20
455.1697524945
 11
171.6284816665
 21
455.1697524945
  0
LINE
  5
350
100
AcDbEntity
  8
0
100
AcDbLine
 62
7
  6
CONTINUOUS
 10
483.7182816665
 20
455.1697524945
 11
485.6994816665
 21
455.1697524945
  0
LINE
  5
351
100
AcDbEntity
  8
0
100
AcDbLine
 62
7
  6
CONTINUOUS
 10
191.6147739491
 20
468.6268420222
 11
192.1502201038
 21
468.5825945087
  0
LINE
  5
352
100
AcDbEntity
  8
0
100
AcDbLine
 62
7
  6
CONTINUOUS
 10
191.5709221113
 20
464.5668623971
 11
192.1515407135
 21
464.5187394055
  0
LINE
  5
353
100
AcDbEntity
  8
0
100
AcDbLine
 62
7
  6
CONTINUOUS
 10
191.562270933
 20
470.6635887949
 11
192.1498226797
 21
470.6147213829
  0
LINE
  5
354
100
AcDbEntity
  8
0
100
AcDbLine
 62
7
  6
CONTINUOUS
 10
191.478465394
 20
466.6072875169
 11
192.1526638143
 21
466.5504521552
  0
LINE
  5
355
100
AcDbEntity
  8
0
100
AcDbLine
 62
7
  6
CONTINUOUS
 10
196.7946698489
 20
467.504090676
 11
196.0626333565
 21
467.5664608198
  0
LINE
  5
356
100
AcDbEntity
  8
0
100
AcDbLine
 62
7
  6
CONTINUOUS
 10
196.8369798265
 20
465.4681294818
 11
196.0668746851
 21
465.534150276
  0
LWPOLYLINE
  5
357
100
AcDbEntity
  8
0
100
AcDbPolyline
 62
7
  6
CONTINUOUS
 90
3
 70
0
 10
197.0604726186
 20
471.5424596047
 10
196.1208723314
 20
471.6273744446
 10
196.0717141417
 20
471.6312520326
  0
LINE
  5
358
100
AcDbEntity
  8
0
100
AcDbLine
 62
7
  6
CONTINUOUS
 10
197.2967682739
 20
469.4860752634
 11
196.0634276642
 21
469.5984840486
  0
LINE
  5
359
100
AcDbEntity
  8
0
100
AcDbLine
 62
7
  6
CONTINUOUS
 10
190.6063997042
 20
464.6660986703
 11
191.5709221113
 21
464.5668623971
  0
LINE
  5
35A
100
AcDbEntity
  8
0
100
AcDbLine
 62
7
  6
CONTINUOUS
 10
190.6158748146
 20
470.7609712472
 11
191.562270933
 21
470.6635887949
  0
LINE
  5
35B
100
AcDbEntity
  8
0
100
AcDbLine
 62
7
  6
CONTINUOUS
 10
190.5817881361
 20
466.7011650583
 11
191.478465394
 21
466.6072875169
  0
LINE
  5
35C
100
AcDbEntity
  8
0
100
AcDbLine
 62
7
  6
CONTINUOUS
 10
190.5825049205
 20
472.7970200928
 11
191.4763010662
 21
472.7034576013
  0
LINE
  5
35D
100
AcDbEntity
  8
0
100
AcDbLine
 62
7
  6
CONTINUOUS
 10
197.2106384375
 20
469.4951083954
 11
197.2967682739
 21
469.4860752634
  0
LINE
  5
35E
100
AcDbEntity
  8
0
100
AcDbLine
 62
7
  6
CONTINUOUS
 10
197.6514535592
 20
467.4133003907
 11
196.7946698489
 21
467.504090676
  0
LINE
  5
35F
100
AcDbEntity
  8
0
100
AcDbLine
 62
7
  6
CONTINUOUS
 10
197.6814335337
 20
465.37758148
 11
196.8369798265
 21
465.4681294818
  0
LINE
  5
360
100
AcDbEntity
  8
0
100
AcDbLine
 62
7
  6
CONTINUOUS
 10
190.4784480311
 20
474.8420791714
 11
191.2785830659
 21
474.754135888
  0
LINE
  5
361
100
AcDbEntity
  8
0
100
AcDbLine
 62
7
  6
CONTINUOUS
 10
197.780499662
 20
471.460950957
 11
197.0604726186
 21
471.5424596047
  0
LINE
  5
362
100
AcDbEntity
  8
0
100
AcDbLine
 62
7
  6
CONTINUOUS
 10
197.6803315395
 20
469.4418377851
 11
197.2106384375
 21
469.4951083954
  0
LWPOLYLINE
  5
363
100
AcDbEntity
  8
0
100
AcDbPolyline
 62
7
  6
CONTINUOUS
 90
3
 70
0
 10
190.2967615446
 20
468.7708332093
 10
191.1055378962
 20
468.6752291875
 10
191.6147739491
 20
468.6268420222
  0
LINE
  5
364
100
AcDbEntity
  8
0
100
AcDbLine
 62
7
  6
CONTINUOUS
 10
198.1641255566
 20
475.466810811
 11
197.4684116506
 21
475.56311701
  0
LINE
  5
365
100
AcDbEntity
  8
0
100
AcDbLine
 62
7
  6
CONTINUOUS
 10
198.2034857993
 20
473.4276437943
 11
197.5128975887
 21
473.5259992522
  0
LINE
  5
366
100
AcDbEntity
  8
0
100
AcDbLine
 62
7
  6
CONTINUOUS
 10
189.9827839333
 20
470.8545299857
 11
190.6158748146
 21
470.7609712472
  0
LINE
  5
367
100
AcDbEntity
  8
0
100
AcDbLine
 62
7
  6
CONTINUOUS
 10
189.765841839
 20
468.8713171124
 11
190.2967615446
 21
468.7708332093
  0
LINE
  5
368
100
AcDbEntity
  8
0
100
AcDbLine
 62
7
  6
CONTINUOUS
 10
244.8446346527
 20
503.3117524945
 11
243.9965125147
 21
503.75812176
  0
LINE
  5
369
100
AcDbEntity
  8
0
100
AcDbLine
 62
7
  6
CONTINUOUS
 10
374.8055620955
 20
571.1275987074
 11
375.0189762585
 21
571.4774556468
  0
LINE
  5
36A
100
AcDbEntity
  8
0
100
AcDbLine
 62
7
  6
CONTINUOUS
 10
319.1529862794
 20
511.5211043208
 11
334.1109770536
 21
520.1571043208
  0
LWPOLYLINE
  5
36B
100
AcDbEntity
  8
0
100
AcDbPolyline
 62
7
  6
CONTINUOUS
 90
4
 70
0
 10
198.1330556755
 20
471.1657590401
 10
198.1337897577
 20
471.1660355003
 10
197.9321666854
 20
471.1220049087
 10
197.4496958862
 20
471.0534190125
  0
LWPOLYLINE
  5
36C
100
AcDbEntity
  8
0
100
AcDbPolyline
 62
7
  6
CONTINUOUS
 90
4
 70
0
 10
198.1326887277
 20
469.1339779226
 10
198.1295320357
 20
469.1329858512
 10
197.88082981
 20
469.0813741687
 10
197.3621893458
 20
469.0110867182
  0
LINE
  5
36D
100
AcDbEntity
  8
0
100
AcDbLine
 62
7
  6
CONTINUOUS
 10
198.2414557265
 20
467.8084738915
 11
198.6824264164
 21
467.9385978478
  0
LINE
  5
36E
100
AcDbEntity
  8
0
100
AcDbLine
 62
7
  6
CONTINUOUS
 10
504.1770977565
 20
486.1814331514
 11
504.3189111158
 21
486.2082245983
  0
LINE
  5
36F
100
AcDbEntity
  8
0
100
AcDbLine
 62
7
  6
CONTINUOUS
 10
504.5168201831
 20
483.5062011135
 11
503.8624789356
 21
483.3919218185
  0
LWPOLYLINE
  5
370
100
AcDbEntity
  8
0
100
AcDbPolyline
 62
7
  6
CONTINUOUS
 90
3
 70
0
 10
504.5579645698
 20
481.479544797
 10
504.0091542627
 20
481.3932184922
 10
503.6180756331
 20
481.2770187503
  0
LWPOLYLINE
  5
371
100
AcDbEntity
  8
0
100
AcDbPolyline
 62
7
  6
CONTINUOUS
 90
3
 70
0
 10
511.6421893519
 20
480.7693933408
 10
512.3371774002
 20
480.8729741492
 10
512.7832671826
 20
481.0128432557
  0
LWPOLYLINE
  5
372
100
AcDbEntity
  8
0
100
AcDbPolyline
 62
7
  6
CONTINUOUS
 90
3
 70
0
 10
511.6694105855
 20
482.8046412336
 10
512.3132084822
 20
482.9002435289
 10
512.7498876294
 20
483.0283777867
  0
LWPOLYLINE
  5
373
100
AcDbEntity
  8
0
100
AcDbPolyline
 62
7
  6
CONTINUOUS
 90
3
 70
0
 10
504.6912107992
 20
479.4640921895
 10
504.066095253
 20
479.3723577588
 10
503.6311765079
 20
479.2509351326
  0
LINE
  5
374
100
AcDbEntity
  8
0
100
AcDbLine
 62
7
  6
CONTINUOUS
 10
504.3189111158
 20
486.2082245983
 11
504.9291678991
 21
486.2940959949
  0
LINE
  5
375
100
AcDbEntity
  8
0
100
AcDbLine
 62
7
  6
CONTINUOUS
 10
511.5216662173
 20
486.8514020003
 11
512.2730836865
 21
486.9566109753
  0
LWPOLYLINE
  5
376
100
AcDbEntity
  8
0
100
AcDbPolyline
 62
7
  6
CONTINUOUS
 90
5
 70
0
 10
504.8373217209
 20
487.6091347159
 10
504.0920658041
 20
487.5051876307
 10
503.6387573064
 20
487.3821832937
 10
503.2108541544
 20
486.9389311532
 10
503.1747033576
 20
486.7220575787
  0
LINE
  5
377
100
AcDbEntity
  8
0
100
AcDbLine
 62
7
  6
CONTINUOUS
 10
504.9376751899
 20
485.5882760668
 11
504.1165994693
 21
485.4776455207
  0
LINE
  5
378
100
AcDbEntity
  8
0
100
AcDbLine
 62
7
  6
CONTINUOUS
 10
511.3064713491
 20
484.7959727944
 11
512.2049854666
 21
484.9124668222
  0
LINE
  5
379
100
AcDbEntity
  8
0
100
AcDbLine
 62
7
  6
CONTINUOUS
 10
511.7255552567
 20
482.1073433266
 11
511.2161063671
 21
482.0467639488
  0
LINE
  5
37A
100
AcDbEntity
  8
0
100
AcDbLine
 62
7
  6
CONTINUOUS
 10
504.6970441011
 20
478.1376784082
 11
505.3695419876
 21
478.213025063
  0
LINE
  5
37B
100
AcDbEntity
  8
0
100
AcDbLine
 62
7
  6
CONTINUOUS
 10
511.6776928122
 20
480.0689375528
 11
510.9613402734
 21
479.9887067301
  0
LWPOLYLINE
  5
37C
100
AcDbEntity
  8
0
100
AcDbPolyline
 62
7
  6
CONTINUOUS
 90
3
 70
0
 10
511.7185233467
 20
486.1703952747
 10
510.9031246629
 20
486.079016183
 10
509.5608846611
 20
485.9635079791
  0
LINE
  5
37D
100
AcDbEntity
  8
0
100
AcDbLine
 62
7
  6
CONTINUOUS
 10
511.6795576648
 20
478.0371879958
 11
510.9507358848
 21
477.9556558125
  0
LINE
  5
37E
100
AcDbEntity
  8
0
100
AcDbLine
 62
7
  6
CONTINUOUS
 10
504.6924808799
 20
480.1690881619
 11
505.4174364464
 21
480.2497398149
  0
LWPOLYLINE
  5
37F
100
AcDbEntity
  8
0
100
AcDbPolyline
 62
7
  6
CONTINUOUS
 90
5
 70
0
 10
504.6231224504
 20
482.1918264362
 10
505.5202040164
 20
482.2916815977
 10
506.9748001888
 20
482.4147920016
 10
508.9788794658
 20
482.5656309287
 10
510.6063000796
 20
482.6967986687
  0
LINE
  5
380
100
AcDbEntity
  8
0
100
AcDbLine
 62
7
  6
CONTINUOUS
 10
511.2825282765
 20
480.7294701382
 11
511.6421893519
 21
480.7693933408
  0
LINE
  5
381
100
AcDbEntity
  8
0
100
AcDbLine
 62
7
  6
CONTINUOUS
 10
505.3188112895
 20
481.5634187242
 11
504.5579645698
 21
481.479544797
  0
LINE
  5
382
100
AcDbEntity
  8
0
100
AcDbLine
 62
7
  6
CONTINUOUS
 10
504.7268170947
 20
476.1095281823
 11
505.43652506
 21
476.1876150797
  0
LWPOLYLINE
  5
383
100
AcDbEntity
  8
0
100
AcDbPolyline
 62
7
  6
CONTINUOUS
 90
3
 70
0
 10
511.6578383464
 20
484.130338932
 10
510.7950373823
 20
484.0366575518
 10
509.4561069453
 20
483.9232769351
  0
LINE
  5
384
100
AcDbEntity
  8
0
100
AcDbLine
 62
7
  6
CONTINUOUS
 10
510.9541292348
 20
478.664787433
 11
511.7751523223
 21
478.7537033402
  0
LWPOLYLINE
  5
385
100
AcDbEntity
  8
0
100
AcDbPolyline
 62
7
  6
CONTINUOUS
 90
4
 70
0
 10
511.6505236282
 20
488.1934057404
 10
510.7620478681
 20
488.0975585568
 10
509.2996022183
 20
487.975113658
 10
506.16132613
 20
487.7348257468
  0
LINE
  5
386
100
AcDbEntity
  8
0
100
AcDbLine
 62
7
  6
CONTINUOUS
 10
505.6855334071
 20
483.6296766114
 11
504.5168201831
 21
483.5062011135
  0
LINE
  5
387
100
AcDbEntity
  8
0
100
AcDbLine
 62
7
  6
CONTINUOUS
 10
504.8061143426
 20
474.0874610862
 11
505.635134316
 21
474.1745110392
  0
LINE
  5
388
100
AcDbEntity
  8
0
100
AcDbLine
 62
7
  6
CONTINUOUS
 10
511.5016831403
 20
475.982904057
 11
510.7908416747
 21
475.9082655838
  0
LINE
  5
389
100
AcDbEntity
  8
0
100
AcDbLine
 62
7
  6
CONTINUOUS
 10
505.5390782214
 20
477.5203232995
 11
504.6606744665
 21
477.4283970032
  0
LINE
  5
38A
100
AcDbEntity
  8
0
100
AcDbLine
 62
7
  6
CONTINUOUS
 10
504.7899287229
 20
484.2454634723
 11
505.7636378007
 21
484.3462929163
  0
LINE
  5
38B
100
AcDbEntity
  8
0
100
AcDbLine
 62
7
  6
CONTINUOUS
 10
505.6406340473
 20
479.5616207929
 11
504.6912107992
 21
479.4640921895
  0
LINE
  5
38C
100
AcDbEntity
  8
0
100
AcDbLine
 62
7
  6
CONTINUOUS
 10
510.6944962825
 20
474.5767075241
 11
511.6678467773
 21
474.6764654364
  0
LWPOLYLINE
  5
38D
100
AcDbEntity
  8
0
100
AcDbPolyline
 62
7
  6
CONTINUOUS
 90
3
 70
0
 10
510.6812021894
 20
476.6075029469
 10
511.6438272552
 20
476.7055854106
 10
512.2903443937
 20
476.7998677552
  0
LINE
  5
38E
100
AcDbEntity
  8
0
100
AcDbLine
 62
7
  6
CONTINUOUS
 10
510.6063000796
 20
482.6967986687
 11
511.6694105855
 21
482.8046412336
  0
LINE
  5
38F
100
AcDbEntity
  8
0
100
AcDbLine
 62
7
  6
CONTINUOUS
 10
505.7340315743
 20
473.4740200147
 11
504.7587244514
 21
473.3760915903
  0
LINE
  5
390
100
AcDbEntity
  8
0
100
AcDbLine
 62
7
  6
CONTINUOUS
 10
511.2161874349
 20
482.046769328
 11
510.7467240002
 21
482.0001227474
  0
LINE
  5
391
100
AcDbEntity
  8
0
100
AcDbLine
 62
7
  6
CONTINUOUS
 10
504.9291678991
 20
486.2940959949
 11
506.0790199855
 21
486.406057492
  0
LINE
  5
392
100
AcDbEntity
  8
0
100
AcDbLine
 62
7
  6
CONTINUOUS
 10
506.16132613
 20
487.7348257468
 11
504.8373217209
 21
487.6091347159
  0
LWPOLYLINE
  5
393
100
AcDbEntity
  8
0
100
AcDbPolyline
 62
7
  6
CONTINUOUS
 90
7
 70
0
 10
505.4174364464
 20
480.2497398149
 10
505.8759956255
 20
480.2923626336
 10
506.9595908079
 20
480.3816069061
 10
508.2116422972
 20
480.4762214959
 10
509.5426961445
 20
480.5768945729
 10
510.8258701958
 20
480.684729191
 10
511.2824401454
 20
480.7294577357
  0
LINE
  5
394
100
AcDbEntity
  8
0
100
AcDbLine
 62
7
  6
CONTINUOUS
 10
506.429531946
 20
485.724856219
 11
504.9376751899
 21
485.5882760668
  0
LWPOLYLINE
  5
395
100
AcDbEntity
  8
0
100
AcDbPolyline
 62
7
  6
CONTINUOUS
 90
6
 70
0
 10
505.3695419876
 20
478.213025063
 10
506.2634251233
 20
478.2936563943
 10
507.3631576554
 20
478.3806159744
 10
508.6196837893
 20
478.47464328
 10
509.8756345714
 20
478.5712743421
 10
510.9541292348
 20
478.664787433
  0
LWPOLYLINE
  5
396
100
AcDbEntity
  8
0
100
AcDbPolyline
 62
7
  6
CONTINUOUS
 90
4
 70
0
 10
510.9944899159
 20
473.8959835684
 10
510.0487197339
 20
473.8109216082
 10
508.8937451465
 20
473.7201035118
 10
506.9568439386
 20
473.5744943308
  0
LINE
  5
397
100
AcDbEntity
  8
0
100
AcDbLine
 62
7
  6
CONTINUOUS
 10
510.9613402734
 20
479.9887067301
 11
509.9985324979
 21
479.9027671862
  0
LWPOLYLINE
  5
398
100
AcDbEntity
  8
0
100
AcDbPolyline
 62
7
  6
CONTINUOUS
 90
4
 70
0
 10
505.43652506
 20
476.1876150797
 10
506.3664895281
 20
476.2702037393
 10
507.4888019688
 20
476.3581343536
 10
509.4401750054
 20
476.5049110922
  0
LWPOLYLINE
  5
399
100
AcDbEntity
  8
0
100
AcDbPolyline
 62
7
  6
CONTINUOUS
 90
4
 70
0
 10
510.9507358848
 20
477.9556558125
 10
509.9232261385
 20
477.8645802457
 10
508.6698851643
 20
477.7672448474
 10
506.6860157105
 20
477.617344546
  0
LINE
  5
39A
100
AcDbEntity
  8
0
100
AcDbLine
 62
7
  6
CONTINUOUS
 10
510.7908416747
 20
475.9082655838
 11
509.8770090078
 21
475.8288067153
  0
LINE
  5
39B
100
AcDbEntity
  8
0
100
AcDbLine
 62
7
  6
CONTINUOUS
 10
510.7376428956
 20
471.8392712608
 11
509.7650197136
 21
471.755751834
  0
LINE
  5
39C
100
AcDbEntity
  8
0
100
AcDbLine
 62
7
  6
CONTINUOUS
 10
509.689131904
 20
472.4603988011
 11
510.8491421308
 21
472.5588834846
  0
LINE
  5
39D
100
AcDbEntity
  8
0
100
AcDbLine
 62
7
  6
CONTINUOUS
 10
505.635134316
 20
474.1745110392
 11
506.7448158864
 21
474.2687469118
  0
LINE
  5
39E
100
AcDbEntity
  8
0
100
AcDbLine
 62
7
  6
CONTINUOUS
 10
506.6860157105
 20
477.617344546
 11
505.5390782214
 21
477.5203232995
  0
LINE
  5
39F
100
AcDbEntity
  8
0
100
AcDbLine
 62
7
  6
CONTINUOUS
 10
510.7467240002
 20
482.0001227474
 11
509.4669388911
 21
481.8921278667
  0
LINE
  5
3A0
100
AcDbEntity
  8
0
100
AcDbLine
 62
7
  6
CONTINUOUS
 10
505.6838770221
 20
470.1150201841
 11
506.8405830395
 21
470.212304014
  0
LINE
  5
3A1
100
AcDbEntity
  8
0
100
AcDbLine
 62
7
  6
CONTINUOUS
 10
506.8760643447
 20
479.6642289028
 11
505.6406340473
 21
479.5616207929
  0
LINE
  5
3A2
100
AcDbEntity
  8
0
100
AcDbLine
 62
7
  6
CONTINUOUS
 10
506.7725994284
 20
471.5281532562
 11
505.7232937508
 21
471.4410675379
  0
LINE
  5
3A3
100
AcDbEntity
  8
0
100
AcDbLine
 62
7
  6
CONTINUOUS
 10
509.4401750054
 20
476.5049110922
 11
510.6812021894
 21
476.6075029469
  0
LINE
  5
3A4
100
AcDbEntity
  8
0
100
AcDbLine
 62
7
  6
CONTINUOUS
 10
195.3210595963
 20
463.4414493677
 11
196.5735605555
 21
463.5444602605
  0
LINE
  5
3A5
100
AcDbEntity
  8
0
100
AcDbLine
 62
7
  6
CONTINUOUS
 10
506.9568439386
 20
473.5744943308
 11
505.7340315743
 21
473.4740200147
  0
LWPOLYLINE
  5
3A6
100
AcDbEntity
  8
0
100
AcDbPolyline
 62
7
  6
CONTINUOUS
 90
4
 70
0
 10
505.7636378007
 20
484.3462929163
 10
507.3561116377
 20
484.4760819133
 10
509.6438530677
 20
484.6488289632
 10
511.3064713491
 20
484.7959727944
  0
LWPOLYLINE
  5
3A7
100
AcDbEntity
  8
0
100
AcDbPolyline
 62
7
  6
CONTINUOUS
 90
4
 70
0
 10
506.0790199855
 20
486.406057492
 10
507.9795260684
 20
486.5549290276
 10
510.1767640108
 20
486.7239035043
 10
511.5216662173
 20
486.8514020003
  0
LWPOLYLINE
  5
3A8
100
AcDbEntity
  8
0
100
AcDbPolyline
 62
7
  6
CONTINUOUS
 90
3
 70
0
 10
509.9985324979
 20
479.9027671862
 10
508.8360692532
 20
479.8117453924
 10
506.8760643447
 20
479.6642289028
  0
LINE
  5
3A9
100
AcDbEntity
  8
0
100
AcDbLine
 62
7
  6
CONTINUOUS
 10
509.5608846611
 20
485.9635079791
 11
506.429531946
 21
485.724856219
  0
LWPOLYLINE
  5
3AA
100
AcDbEntity
  8
0
100
AcDbPolyline
 62
7
  6
CONTINUOUS
 90
3
 70
0
 10
506.8405830395
 20
470.212304014
 10
509.5570306197
 20
470.418011019
 10
510.7606986982
 20
470.5187230708
  0
LWPOLYLINE
  5
3AB
100
AcDbEntity
  8
0
100
AcDbPolyline
 62
7
  6
CONTINUOUS
 90
4
 70
0
 10
509.4669388911
 20
481.8921278667
 10
506.8737209115
 20
481.6960448755
 10
505.7846007736
 20
481.6065095733
 10
505.3188112895
 20
481.5634187242
  0
LWPOLYLINE
  5
3AC
100
AcDbEntity
  8
0
100
AcDbPolyline
 62
7
  6
CONTINUOUS
 90
3
 70
0
 10
506.7448158864
 20
474.2687469118
 10
509.4350884556
 20
474.4725191989
 10
510.6944962825
 20
474.5767075241
  0
LWPOLYLINE
  5
3AD
100
AcDbEntity
  8
0
100
AcDbPolyline
 62
7
  6
CONTINUOUS
 90
3
 70
0
 10
509.4561069453
 20
483.9232769351
 10
507.5858851576
 20
483.7823213844
 10
505.6855334071
 20
483.6296766114
  0
LINE
  5
3AE
100
AcDbEntity
  8
0
100
AcDbLine
 62
7
  6
CONTINUOUS
 10
193.0423414043
 20
463.2697524945
 11
195.3210595963
 21
463.4414493677
  0
LWPOLYLINE
  5
3AF
100
AcDbEntity
  8
0
100
AcDbPolyline
 62
7
  6
CONTINUOUS
 90
5
 70
0
 10
509.8923066043
 20
469.7340531464
 10
508.1647549372
 20
469.6015295631
 10
506.9437332737
 20
469.5094781664
 10
505.8438857817
 20
469.4197251404
 10
504.9466603714
 20
469.3332484055
  0
LWPOLYLINE
  5
3B0
100
AcDbEntity
  8
0
100
AcDbPolyline
 62
7
  6
CONTINUOUS
 90
5
 70
0
 10
509.8770090078
 20
475.8288067153
 10
508.1704409392
 20
475.6979525036
 10
506.9459455101
 20
475.605651726
 10
505.8318912427
 20
475.514674202
 10
504.9292110453
 20
475.427341257
  0
LINE
  5
3B1
100
AcDbEntity
  8
0
100
AcDbLine
 62
7
  6
CONTINUOUS
 10
509.7650197136
 20
471.755751834
 11
506.7725994284
 21
471.5281532562
  0
LWPOLYLINE
  5
3B2
100
AcDbEntity
  8
0
100
AcDbPolyline
 62
7
  6
CONTINUOUS
 90
3
 70
0
 10
194.4211074512
 20
464.6941820796
 10
193.7427270112
 20
464.6435892558
 10
192.4329548527
 20
464.5430777172
  0
LINE
  5
3B3
100
AcDbEntity
  8
0
100
AcDbLine
 62
7
  6
CONTINUOUS
 10
218.5676816665
 20
457.5319524945
 11
215.1894816665
 21
457.5319524945
  0
LINE
  5
3B4
100
AcDbEntity
  8
0
100
AcDbLine
 62
7
  6
CONTINUOUS
 10
213.3860816665
 20
457.5319524945
 11
173.4318816665
 21
457.5319524945
  0
LINE
  5
3B5
100
AcDbEntity
  8
0
100
AcDbLine
 62
7
  6
CONTINUOUS
 10
171.6284816665
 20
457.5319524945
 11
165.2276816665
 21
457.5319524945
  0
LINE
  5
3B6
100
AcDbEntity
  8
0
100
AcDbLine
 62
7
  6
CONTINUOUS
 10
483.7182816665
 20
457.5319524945
 11
487.0964816665
 21
457.5319524945
  0
LINE
  5
3B7
100
AcDbEntity
  8
0
100
AcDbLine
 62
7
  6
CONTINUOUS
 10
488.8998816665
 20
457.5319524945
 11
528.8540816665
 21
457.5319524945
  0
LINE
  5
3B8
100
AcDbEntity
  8
0
100
AcDbLine
 62
7
  6
CONTINUOUS
 10
530.6574816665
 20
457.5319524945
 11
537.0582816665
 21
457.5319524945
  0
LINE
  5
3B9
100
AcDbEntity
  8
0
100
AcDbLine
 62
7
  6
CONTINUOUS
 10
532.6386816665
 20
457.7478524945
 11
530.6574816665
 21
457.7478524945
  0
LINE
  5
3BA
100
AcDbEntity
  8
0
100
AcDbLine
 62
7
  6
CONTINUOUS
 10
485.6994816665
 20
457.7478524945
 11
483.7182816665
 21
457.7478524945
  0
LINE
  5
3BB
100
AcDbEntity
  8
0
100
AcDbLine
 62
7
  6
CONTINUOUS
 10
218.5676816665
 20
457.7478524945
 11
216.5864816665
 21
457.7478524945
  0
LINE
  5
3BC
100
AcDbEntity
  8
0
100
AcDbLine
 62
7
  6
CONTINUOUS
 10
171.6284816665
 20
457.7478524945
 11
169.6472816665
 21
457.7478524945
  0
LINE
  5
3BD
100
AcDbEntity
  8
0
100
AcDbLine
 62
7
  6
CONTINUOUS
 10
514.6554816665
 20
459.6551185619
 11
511.2264816665
 21
459.6551185619
  0
LINE
  5
3BE
100
AcDbEntity
  8
0
100
AcDbLine
 62
7
  6
CONTINUOUS
 10
505.1304816665
 20
459.6551185619
 11
501.7014816665
 21
459.6551185619
  0
LINE
  5
3BF
100
AcDbEntity
  8
0
100
AcDbLine
 62
7
  6
CONTINUOUS
 10
200.5844816665
 20
459.6551185619
 11
197.1554816665
 21
459.6551185619
  0
LINE
  5
3C0
100
AcDbEntity
  8
0
100
AcDbLine
 62
7
  6
CONTINUOUS
 10
191.0594816665
 20
459.6551185619
 11
187.6304816665
 21
459.6551185619
  0
LINE
  5
3C1
100
AcDbEntity
  8
0
100
AcDbLine
 62
7
  6
CONTINUOUS
 10
220.0916816665
 20
459.9957524945
 11
218.5676816665
 21
459.9957524945
  0
LINE
  5
3C2
100
AcDbEntity
  8
0
100
AcDbLine
 62
7
  6
CONTINUOUS
 10
482.1942816665
 20
459.9957524945
 11
483.7182816665
 21
459.9957524945
  0
LINE
  5
3C3
100
AcDbEntity
  8
0
100
AcDbLine
 62
7
  6
CONTINUOUS
 10
511.2264816665
 20
461.0542766335
 11
505.1304816665
 21
461.0542766335
  0
LINE
  5
3C4
100
AcDbEntity
  8
0
100
AcDbLine
 62
7
  6
CONTINUOUS
 10
197.1554816665
 20
461.0542766335
 11
191.0594816665
 21
461.0542766335
  0
LINE
  5
3C5
100
AcDbEntity
  8
0
100
AcDbLine
 62
7
  6
CONTINUOUS
 10
191.0594816665
 20
461.1737134271
 11
197.1554816665
 21
461.1737134271
  0
LINE
  5
3C6
100
AcDbEntity
  8
0
100
AcDbLine
 62
7
  6
CONTINUOUS
 10
505.1304816665
 20
461.1737134271
 11
511.2264816665
 21
461.1737134271
  0
LINE
  5
3C7
100
AcDbEntity
  8
0
100
AcDbLine
 62
7
  6
CONTINUOUS
 10
187.6304816665
 20
461.568810809
 11
191.0594816665
 21
461.568810809
  0
LINE
  5
3C8
100
AcDbEntity
  8
0
100
AcDbLine
 62
7
  6
CONTINUOUS
 10
197.1554816665
 20
461.568810809
 11
200.5844816665
 21
461.568810809
  0
LINE
  5
3C9
100
AcDbEntity
  8
0
100
AcDbLine
 62
7
  6
CONTINUOUS
 10
501.7014816665
 20
461.568810809
 11
505.1304816665
 21
461.568810809
  0
LINE
  5
3CA
100
AcDbEntity
  8
0
100
AcDbLine
 62
7
  6
CONTINUOUS
 10
511.2264816665
 20
461.568810809
 11
514.6554816665
 21
461.568810809
  0
LINE
  5
3CB
100
AcDbEntity
  8
0
100
AcDbLine
 62
7
  6
CONTINUOUS
 10
503.2159568699
 20
462.1055161777
 11
508.1784904643
 21
462.1055161777
  0
LINE
  5
3CC
100
AcDbEntity
  8
0
100
AcDbLine
 62
7
  6
CONTINUOUS
 10
514.6554816665
 20
462.3107556178
 11
501.7014816665
 21
462.3107556178
  0
LINE
  5
3CD
100
AcDbEntity
  8
0
100
AcDbLine
 62
7
  6
CONTINUOUS
 10
200.5844816665
 20
462.3107556178
 11
187.6304816665
 21
462.3107556178
  0
LINE
  5
3CE
100
AcDbEntity
  8
0
100
AcDbLine
 62
7
  6
CONTINUOUS
 10
511.2264816665
 20
463.0354766335
 11
505.1304816665
 21
463.0354766335
  0
LINE
  5
3CF
100
AcDbEntity
  8
0
100
AcDbLine
 62
7
  6
CONTINUOUS
 10
197.1554816665
 20
463.0354766335
 11
191.0594816665
 21
463.0354766335
  0
LINE
  5
3D0
100
AcDbEntity
  8
0
100
AcDbLine
 62
7
  6
CONTINUOUS
 10
511.2264816665
 20
463.0874056742
 11
505.1304816665
 21
463.0874056742
  0
LINE
  5
3D1
100
AcDbEntity
  8
0
100
AcDbLine
 62
7
  6
CONTINUOUS
 10
197.1554816665
 20
463.0874056742
 11
191.0594816665
 21
463.0874056742
  0
LINE
  5
3D2
100
AcDbEntity
  8
0
100
AcDbLine
 62
7
  6
CONTINUOUS
 10
189.1449568699
 20
463.2697524945
 11
194.1074904642
 21
463.2697524945
  0
LINE
  5
3D3
100
AcDbEntity
  8
0
100
AcDbLine
 62
7
  6
CONTINUOUS
 10
511.2264816665
 20
463.6522641166
 11
505.1304816665
 21
463.6522641166
  0
LINE
  5
3D4
100
AcDbEntity
  8
0
100
AcDbLine
 62
7
  6
CONTINUOUS
 10
197.1554816665
 20
463.6522641166
 11
191.0594816665
 21
463.6522641166
  0
LINE
  5
3D5
100
AcDbEntity
  8
0
100
AcDbLine
 62
7
  6
CONTINUOUS
 10
191.0594816665
 20
464.1650364087
 11
197.1554816665
 21
464.1650364087
  0
LINE
  5
3D6
100
AcDbEntity
  8
0
100
AcDbLine
 62
7
  6
CONTINUOUS
 10
505.1304816665
 20
464.1650364087
 11
511.2264816665
 21
464.1650364087
  0
LINE
  5
3D7
100
AcDbEntity
  8
0
100
AcDbLine
 62
7
  6
CONTINUOUS
 10
187.6304816665
 20
464.2244478649
 11
200.5844816665
 21
464.2244478649
  0
LINE
  5
3D8
100
AcDbEntity
  8
0
100
AcDbLine
 62
7
  6
CONTINUOUS
 10
501.7014816665
 20
464.2244478649
 11
514.6554816665
 21
464.2244478649
  0
LINE
  5
3D9
100
AcDbEntity
  8
0
100
AcDbLine
 62
7
  6
CONTINUOUS
 10
514.6554816665
 20
465.6965188242
 11
501.7014816665
 21
465.6965188242
  0
LINE
  5
3DA
100
AcDbEntity
  8
0
100
AcDbLine
 62
7
  6
CONTINUOUS
 10
200.5844816665
 20
465.6965188242
 11
187.6304816665
 21
465.6965188242
  0
LINE
  5
3DB
100
AcDbEntity
  8
0
100
AcDbLine
 62
7
  6
CONTINUOUS
 10
191.0594816665
 20
467.5532521586
 11
197.1554816665
 21
467.5532521586
  0
LINE
  5
3DC
100
AcDbEntity
  8
0
100
AcDbLine
 62
7
  6
CONTINUOUS
 10
505.1304816665
 20
467.5532521586
 11
511.2264816665
 21
467.5532521586
  0
LINE
  5
3DD
100
AcDbEntity
  8
0
100
AcDbLine
 62
7
  6
CONTINUOUS
 10
180.4549816665
 20
467.6157524945
 11
184.0109816665
 21
467.6157524945
  0
LINE
  5
3DE
100
AcDbEntity
  8
0
100
AcDbLine
 62
7
  6
CONTINUOUS
 10
495.9229816665
 20
467.6157524945
 11
499.4789816665
 21
467.6157524945
  0
LINE
  5
3DF
100
AcDbEntity
  8
0
100
AcDbLine
 62
7
  6
CONTINUOUS
 10
488.8998816665
 20
467.7402094167
 11
487.0964816665
 21
467.7402094167
  0
LINE
  5
3E0
100
AcDbEntity
  8
0
100
AcDbLine
 62
7
  6
CONTINUOUS
 10
173.4318816665
 20
467.7402094167
 11
171.6284816665
 21
467.7402094167
  0
LINE
  5
3E1
100
AcDbEntity
  8
0
100
AcDbLine
 62
7
  6
CONTINUOUS
 10
213.3860816665
 20
467.7402094167
 11
215.1894816665
 21
467.7402094167
  0
LINE
  5
3E2
100
AcDbEntity
  8
0
100
AcDbLine
 62
7
  6
CONTINUOUS
 10
528.8540816665
 20
467.7402094167
 11
530.6574816665
 21
467.7402094167
  0
LINE
  5
3E3
100
AcDbEntity
  8
0
100
AcDbLine
 62
7
  6
CONTINUOUS
 10
191.0594816665
 20
468.0660244508
 11
197.1554816665
 21
468.0660244508
  0
LINE
  5
3E4
100
AcDbEntity
  8
0
100
AcDbLine
 62
7
  6
CONTINUOUS
 10
505.1304816665
 20
468.0660244508
 11
511.2264816665
 21
468.0660244508
  0
LINE
  5
3E5
100
AcDbEntity
  8
0
100
AcDbLine
 62
7
  6
CONTINUOUS
 10
499.4789816665
 20
471.1717524945
 11
495.9229816665
 21
471.1717524945
  0
LINE
  5
3E6
100
AcDbEntity
  8
0
100
AcDbLine
 62
7
  6
CONTINUOUS
 10
184.0109816665
 20
471.1717524945
 11
180.4549816665
 21
471.1717524945
  0
LINE
  5
3E7
100
AcDbEntity
  8
0
100
AcDbLine
 62
7
  6
CONTINUOUS
 10
513.7029816665
 20
476.5057524945
 11
510.7838221024
 21
476.5057524945
  0
LINE
  5
3E8
100
AcDbEntity
  8
0
100
AcDbLine
 62
7
  6
CONTINUOUS
 10
190.153501131
 20
476.5057524945
 11
188.5829816665
 21
476.5057524945
  0
LINE
  5
3E9
100
AcDbEntity
  8
0
100
AcDbLine
 62
7
  6
CONTINUOUS
 10
196.4099997019
 20
485.8267321398
 11
196.0643712678
 21
485.8546285078
  0
LINE
  5
3EA
100
AcDbEntity
  8
0
100
AcDbLine
 62
7
  6
CONTINUOUS
 10
191.7190607802
 20
486.9055501344
 11
192.1498767092
 21
486.8704697675
  0
LINE
  5
3EB
100
AcDbEntity
  8
0
100
AcDbLine
 62
7
  6
CONTINUOUS
 10
196.532294651
 20
473.6240061777
 11
196.0635096316
 21
473.6624476163
  0
LINE
  5
3EC
100
AcDbEntity
  8
0
100
AcDbLine
 62
7
  6
CONTINUOUS
 10
505.6419217623
 20
463.402626112
 11
506.2225407141
 21
463.3545030891
  0
LINE
  5
3ED
100
AcDbEntity
  8
0
100
AcDbLine
 62
7
  6
CONTINUOUS
 10
191.5066296897
 20
478.7966621802
 11
192.1525063586
 21
478.7424861652
  0
LINE
  5
3EE
100
AcDbEntity
  8
0
100
AcDbLine
 62
7
  6
CONTINUOUS
 10
191.5004296487
 20
480.8292377178
 11
192.1514232513
 21
480.7745963618
  0
LINE
  5
3EF
100
AcDbEntity
  8
0
100
AcDbLine
 62
7
  6
CONTINUOUS
 10
191.4763010662
 20
472.7034576013
 11
192.1502085793
 21
472.6466276283
  0
LINE
  5
3F0
100
AcDbEntity
  8
0
100
AcDbLine
 62
7
  6
CONTINUOUS
 10
196.7921454937
 20
481.7283419059
 11
196.0622074121
 21
481.7905372904
  0
LINE
  5
3F1
100
AcDbEntity
  8
0
100
AcDbLine
 62
7
  6
CONTINUOUS
 10
191.3626319254
 20
476.7780903733
 11
192.1495909094
 21
476.7102533316
  0
LINE
  5
3F2
100
AcDbEntity
  8
0
100
AcDbLine
 62
7
  6
CONTINUOUS
 10
191.3976900696
 20
484.9027880488
 11
192.1464632271
 21
484.8381736977
  0
LINE
  5
3F3
100
AcDbEntity
  8
0
100
AcDbLine
 62
7
  6
CONTINUOUS
 10
196.8703024539
 20
477.6569811316
 11
196.0689496228
 21
477.7263424835
  0
LINE
  5
3F4
100
AcDbEntity
  8
0
100
AcDbLine
 62
7
  6
CONTINUOUS
 10
196.8765457921
 20
479.6883866675
 11
196.0647886105
 21
479.7586373491
  0
LWPOLYLINE
  5
3F5
100
AcDbEntity
  8
0
100
AcDbPolyline
 62
7
  6
CONTINUOUS
 90
3
 70
0
 10
196.8639584107
 20
489.8495799427
 10
195.8074609963
 20
489.9410396417
 10
194.1074816665
 20
490.070787194
  0
LINE
  5
3F6
100
AcDbEntity
  8
0
100
AcDbLine
 62
7
  6
CONTINUOUS
 10
191.2785830659
 20
474.754135888
 11
192.1483380972
 21
474.6781323107
  0
LINE
  5
3F7
100
AcDbEntity
  8
0
100
AcDbLine
 62
7
  6
CONTINUOUS
 10
196.9050797171
 20
483.7496613703
 11
196.2005934367
 21
483.8126847272
  0
LINE
  5
3F8
100
AcDbEntity
  8
0
100
AcDbLine
 62
7
  6
CONTINUOUS
 10
191.3121200114
 20
482.8789033079
 11
191.7181818663
 21
482.841626175
  0
LINE
  5
3F9
100
AcDbEntity
  8
0
100
AcDbLine
 62
7
  6
CONTINUOUS
 10
197.4493250897
 20
485.7252890306
 11
196.4099997019
 21
485.8267321398
  0
LWPOLYLINE
  5
3FA
100
AcDbEntity
  8
0
100
AcDbPolyline
 62
7
  6
CONTINUOUS
 90
3
 70
0
 10
197.3858226657
 20
487.7643934485
 10
196.5152731672
 20
487.8495163615
 10
196.0653577533
 20
487.8866065335
  0
LWPOLYLINE
  5
3FB
100
AcDbEntity
  8
0
100
AcDbPolyline
 62
7
  6
CONTINUOUS
 90
3
 70
0
 10
197.4684116506
 20
475.56311701
 10
196.4562899831
 20
475.6627089236
 10
196.0656678959
 20
475.6943887245
  0
LINE
  5
3FC
100
AcDbEntity
  8
0
100
AcDbLine
 62
7
  6
CONTINUOUS
 10
190.7081839234
 20
487.0060585347
 11
191.7190607802
 21
486.9055501344
  0
LINE
  5
3FD
100
AcDbEntity
  8
0
100
AcDbLine
 62
7
  6
CONTINUOUS
 10
197.5128975887
 20
473.5259992522
 11
196.532294651
 21
473.6240061777
  0
LINE
  5
3FE
100
AcDbEntity
  8
0
100
AcDbLine
 62
7
  6
CONTINUOUS
 10
190.5910876436
 20
478.8919643559
 11
191.5066296897
 21
478.7966621802
  0
LINE
  5
3FF
100
AcDbEntity
  8
0
100
AcDbLine
 62
7
  6
CONTINUOUS
 10
190.5744818469
 20
480.925994126
 11
191.5004296487
 21
480.8292377178
  0
LINE
  5
400
100
AcDbEntity
  8
0
100
AcDbLine
 62
7
  6
CONTINUOUS
 10
190.5321071241
 20
484.995253951
 11
191.3976900696
 21
484.9027880488
  0
LINE
  5
401
100
AcDbEntity
  8
0
100
AcDbLine
 62
7
  6
CONTINUOUS
 10
190.5319980942
 20
476.8672796054
 11
191.3626319254
 21
476.7780903733
  0
LINE
  5
402
100
AcDbEntity
  8
0
100
AcDbLine
 62
7
  6
CONTINUOUS
 10
197.674789292
 20
477.5705305114
 11
196.8703024539
 21
477.6569811316
  0
LINE
  5
403
100
AcDbEntity
  8
0
100
AcDbLine
 62
7
  6
CONTINUOUS
 10
197.6972032895
 20
479.5997038119
 11
196.8765457921
 21
479.6883866675
  0
LINE
  5
404
100
AcDbEntity
  8
0
100
AcDbLine
 62
7
  6
CONTINUOUS
 10
198.0401215937
 20
487.6795554044
 11
197.3858226657
 21
487.7643934485
  0
LINE
  5
405
100
AcDbEntity
  8
0
100
AcDbLine
 62
7
  6
CONTINUOUS
 10
189.9471765455
 20
485.0855151058
 11
190.5321071241
 21
484.995253951
  0
LWPOLYLINE
  5
406
100
AcDbEntity
  8
0
100
AcDbPolyline
 62
7
  6
CONTINUOUS
 90
3
 70
0
 10
198.2654264916
 20
483.5757178035
 10
197.7075389172
 20
483.6623976774
 10
196.9050797171
 20
483.7496613703
  0
LINE
  5
407
100
AcDbEntity
  8
0
100
AcDbLine
 62
7
  6
CONTINUOUS
 10
313.852536585
 20
520.7017524945
 11
319.1529862794
 21
511.5211043208
  0
LINE
  5
408
100
AcDbEntity
  8
0
100
AcDbLine
 62
7
  6
CONTINUOUS
 10
348.6029816665
 20
539.8593734177
 11
348.6029816665
 21
543.8285498111
  0
LINE
  5
409
100
AcDbEntity
  8
0
100
AcDbLine
 62
7
  6
CONTINUOUS
 10
344.0927747161
 20
537.6785238431
 11
344.8871703865
 21
545.5198880517
  0
LINE
  5
40A
100
AcDbEntity
  8
0
100
AcDbLine
 62
7
  6
CONTINUOUS
 10
374.8026106634
 20
567.8516515583
 11
369.4507597527
 21
547.8782720448
  0
LINE
  5
40B
100
AcDbEntity
  8
0
100
AcDbLine
 62
7
  6
CONTINUOUS
 10
290.0675717562
 20
458.814930133
 11
289.3856633533
 21
458.421230133
  0
LINE
  5
40C
100
AcDbEntity
  8
0
100
AcDbLine
 62
7
  6
CONTINUOUS
 10
291.3143915768
 20
458.814930133
 11
288.762253443
 21
457.3414524945
  0
LINE
  5
40D
100
AcDbEntity
  8
0
100
AcDbLine
 62
7
  6
CONTINUOUS
 10
290.0675717562
 20
455.0805748559
 11
290.6909816665
 21
455.4405007355
  0
LINE
  5
40E
100
AcDbEntity
  8
0
100
AcDbLine
 62
7
  6
CONTINUOUS
 10
291.9962999797
 20
456.194126615
 11
292.61970989
 21
456.5540524945
  0
LINE
  5
40F
100
AcDbEntity
  8
0
100
AcDbLine
 62
7
  6
CONTINUOUS
 10
291.3143915768
 20
455.0805748559
 11
291.9962999797
 21
455.4742748559
  0
LWPOLYLINE
  5
410
100
AcDbEntity
  8
0
100
AcDbPolyline
 62
7
  6
CONTINUOUS
 90
3
 70
0
 10
197.73403031
 20
465.6978472217
 10
198.2902879259
 20
465.7861286467
 10
198.7003245145
 20
465.9156049376
  0
LWPOLYLINE
  5
411
100
AcDbEntity
  8
0
100
AcDbPolyline
 62
7
  6
CONTINUOUS
 90
3
 70
0
 10
190.5388748119
 20
464.3622598222
 10
189.9652206708
 20
464.2748298834
 10
189.5570309643
 20
464.1571329091
  0
LINE
  5
412
100
AcDbEntity
  8
0
100
AcDbLine
 62
7
  6
CONTINUOUS
 10
190.2160309521
 20
469.078411432
 11
190.7223912018
 21
469.1541362833
  0
LWPOLYLINE
  5
413
100
AcDbEntity
  8
0
100
AcDbPolyline
 62
7
  6
CONTINUOUS
 90
3
 70
0
 10
197.6089374616
 20
471.778161124
 10
198.2323613319
 20
471.8705754327
 10
198.6741950733
 20
471.9983584329
  0
LWPOLYLINE
  5
414
100
AcDbEntity
  8
0
100
AcDbPolyline
 62
7
  6
CONTINUOUS
 90
5
 70
0
 10
197.5605647408
 20
463.6444523529
 10
198.2136913049
 20
463.7390775942
 10
198.663640321
 20
463.8658378618
 10
199.0935301699
 20
464.3720879915
 10
199.1099063217
 20
464.5184945752
  0
LINE
  5
415
100
AcDbEntity
  8
0
100
AcDbLine
 62
7
  6
CONTINUOUS
 10
197.5513697536
 20
469.7392758033
 11
198.2152023142
 21
469.8352952268
  0
LINE
  5
416
100
AcDbEntity
  8
0
100
AcDbLine
 62
7
  6
CONTINUOUS
 10
190.7109140288
 20
466.4150144744
 11
190.0311447442
 21
466.3190836183
  0
LINE
  5
417
100
AcDbEntity
  8
0
100
AcDbLine
 62
7
  6
CONTINUOUS
 10
190.8036706779
 20
472.5215557586
 11
190.1580714624
 21
472.4368832772
  0
LINE
  5
418
100
AcDbEntity
  8
0
100
AcDbLine
 62
7
  6
CONTINUOUS
 10
190.8165571306
 20
468.4589842007
 11
190.1658790632
 21
468.3739394165
  0
LINE
  5
419
100
AcDbEntity
  8
0
100
AcDbLine
 62
7
  6
CONTINUOUS
 10
190.8756603782
 20
470.497484723
 11
190.2036676054
 21
470.4120580866
  0
LINE
  5
41A
100
AcDbEntity
  8
0
100
AcDbLine
 62
7
  6
CONTINUOUS
 10
190.4984216691
 20
475.2205928428
 11
191.140963625
 21
475.2972541173
  0
LINE
  5
41B
100
AcDbEntity
  8
0
100
AcDbLine
 62
7
  6
CONTINUOUS
 10
197.6631375466
 20
477.1767565696
 11
197.0218184179
 21
477.1021302748
  0
LINE
  5
41C
100
AcDbEntity
  8
0
100
AcDbLine
 62
7
  6
CONTINUOUS
 10
197.6211536324
 20
475.1390875149
 11
196.9234898424
 21
475.0602198779
  0
LINE
  5
41D
100
AcDbEntity
  8
0
100
AcDbLine
 62
7
  6
CONTINUOUS
 10
190.6318669933
 20
467.1105672124
 11
191.3329624795
 21
467.1886497
  0
LINE
  5
41E
100
AcDbEntity
  8
0
100
AcDbLine
 62
7
  6
CONTINUOUS
 10
197.5955846454
 20
467.007839486
 11
196.8484144462
 21
466.9248345064
  0
LINE
  5
41F
100
AcDbEntity
  8
0
100
AcDbLine
 62
7
  6
CONTINUOUS
 10
196.9323636357
 20
465.6097843376
 11
197.73403031
 21
465.6978472217
  0
LINE
  5
420
100
AcDbEntity
  8
0
100
AcDbLine
 62
7
  6
CONTINUOUS
 10
196.9152025088
 20
477.8000886919
 11
197.7273972219
 21
477.8889104864
  0
LINE
  5
421
100
AcDbEntity
  8
0
100
AcDbLine
 62
7
  6
CONTINUOUS
 10
190.6471305179
 20
477.2726506227
 11
191.4413015089
 21
477.3591668192
  0
LINE
  5
422
100
AcDbEntity
  8
0
100
AcDbLine
 62
7
  6
CONTINUOUS
 10
197.5450744633
 20
464.9693462792
 11
196.7585667168
 21
464.8841911712
  0
LINE
  5
423
100
AcDbEntity
  8
0
100
AcDbLine
 62
7
  6
CONTINUOUS
 10
190.6818282738
 20
465.0850155776
 11
191.4722354538
 21
465.1700639611
  0
LINE
  5
424
100
AcDbEntity
  8
0
100
AcDbLine
 62
7
  6
CONTINUOUS
 10
191.3476860092
 20
464.4492174321
 11
190.5388748119
 21
464.3622598222
  0
LINE
  5
425
100
AcDbEntity
  8
0
100
AcDbLine
 62
7
  6
CONTINUOUS
 10
191.3992098655
 20
476.6461352907
 11
190.5432147374
 21
476.5549140217
  0
LINE
  5
426
100
AcDbEntity
  8
0
100
AcDbLine
 62
7
  6
CONTINUOUS
 10
196.7979734988
 20
475.7569769794
 11
197.6485687847
 21
475.8470044339
  0
LWPOLYLINE
  5
427
100
AcDbEntity
  8
0
100
AcDbPolyline
 62
7
  6
CONTINUOUS
 90
3
 70
0
 10
190.7223912018
 20
469.1541362833
 10
191.5383483561
 20
469.2403377885
 10
192.6423274037
 20
469.3344833912
  0
LINE
  5
428
100
AcDbEntity
  8
0
100
AcDbLine
 62
7
  6
CONTINUOUS
 10
197.4496958862
 20
471.0534190125
 11
196.7417618996
 21
470.9785803274
  0
LINE
  5
429
100
AcDbEntity
  8
0
100
AcDbLine
 62
7
  6
CONTINUOUS
 10
196.7781418435
 20
473.7231197746
 11
197.6504932032
 21
473.8152306346
  0
LINE
  5
42A
100
AcDbEntity
  8
0
100
AcDbLine
 62
7
  6
CONTINUOUS
 10
190.7543908768
 20
471.1900437177
 11
191.6128772616
 21
471.2792565229
  0
LINE
  5
42B
100
AcDbEntity
  8
0
100
AcDbLine
 62
7
  6
CONTINUOUS
 10
197.4084274079
 20
473.0804940401
 11
196.6666429052
 21
473.0035075785
  0
LINE
  5
42C
100
AcDbEntity
  8
0
100
AcDbLine
 62
7
  6
CONTINUOUS
 10
196.6896988753
 20
471.6829594038
 11
197.6089374616
 21
471.778161124
  0
LINE
  5
42D
100
AcDbEntity
  8
0
100
AcDbLine
 62
7
  6
CONTINUOUS
 10
196.6631310187
 20
479.8085307391
 11
197.6049455504
 21
479.9056633343
  0
LWPOLYLINE
  5
42E
100
AcDbEntity
  8
0
100
AcDbPolyline
 62
7
  6
CONTINUOUS
 90
3
 70
0
 10
196.6198233924
 20
467.6126573934
 10
197.5787951566
 20
467.7105549642
 10
198.2414557265
 20
467.8084738915
  0
LINE
  5
42F
100
AcDbEntity
  8
0
100
AcDbLine
 62
7
  6
CONTINUOUS
 10
197.3621893458
 20
469.0110867182
 11
196.6185903153
 21
468.9351256967
  0
LWPOLYLINE
  5
430
100
AcDbEntity
  8
0
100
AcDbPolyline
 62
7
  6
CONTINUOUS
 90
4
 70
0
 10
190.7924172558
 20
473.2266070818
 10
191.697634861
 20
473.3189823218
 10
192.8982131138
 20
473.4185949732
 10
195.618131566
 20
473.6246350911
  0
LINE
  5
431
100
AcDbEntity
  8
0
100
AcDbLine
 62
7
  6
CONTINUOUS
 10
196.5735605555
 20
463.5444602605
 11
197.5605647408
 21
463.6444523529
  0
LINE
  5
432
100
AcDbEntity
  8
0
100
AcDbLine
 62
7
  6
CONTINUOUS
 10
196.5783477629
 20
469.6408834527
 11
197.5513697536
 21
469.7392758033
  0
LINE
  5
433
100
AcDbEntity
  8
0
100
AcDbLine
 62
7
  6
CONTINUOUS
 10
191.6630313748
 20
474.6382563137
 11
190.6877242881
 21
474.5403278881
  0
LINE
  5
434
100
AcDbEntity
  8
0
100
AcDbLine
 62
7
  6
CONTINUOUS
 10
191.6755877708
 20
478.7033757854
 11
190.6922208239
 21
478.604853324
  0
LINE
  5
435
100
AcDbEntity
  8
0
100
AcDbLine
 62
7
  6
CONTINUOUS
 10
191.6522936552
 20
472.6053038461
 11
190.8036706779
 21
472.5215557586
  0
LWPOLYLINE
  5
436
100
AcDbEntity
  8
0
100
AcDbPolyline
 62
7
  6
CONTINUOUS
 90
4
 70
0
 10
191.140963625
 20
475.2972541173
 10
192.0257736572
 20
475.3798107936
 10
193.1411263385
 20
475.4693378302
 10
195.6988811213
 20
475.663040413
  0
LWPOLYLINE
  5
437
100
AcDbEntity
  8
0
100
AcDbPolyline
 62
7
  6
CONTINUOUS
 90
4
 70
0
 10
197.0218184179
 20
477.1021302748
 10
196.1485513623
 20
477.0215029344
 10
195.0657157998
 20
476.9348216617
 10
192.5438047188
 20
476.7439378408
  0
LWPOLYLINE
  5
438
100
AcDbEntity
  8
0
100
AcDbPolyline
 62
7
  6
CONTINUOUS
 90
4
 70
0
 10
196.9234898424
 20
475.0602198779
 10
195.9777196175
 20
474.9751579153
 10
194.8227449864
 20
474.8843398165
 10
192.8858437332
 20
474.7387306317
  0
LWPOLYLINE
  5
439
100
AcDbEntity
  8
0
100
AcDbPolyline
 62
7
  6
CONTINUOUS
 90
4
 70
0
 10
196.9159103474
 20
479.1234644999
 10
195.9949768518
 20
479.0405920165
 10
194.8573876812
 20
478.9509622657
 10
192.9083803729
 20
478.8044726773
  0
LWPOLYLINE
  5
43A
100
AcDbEntity
  8
0
100
AcDbPolyline
 62
7
  6
CONTINUOUS
 90
4
 70
0
 10
191.3329624795
 20
467.1886497
 10
192.26807518
 20
467.2721525176
 10
193.4229758396
 20
467.3627515573
 10
195.4043356706
 20
467.5118814204
  0
LWPOLYLINE
  5
43B
100
AcDbEntity
  8
0
100
AcDbPolyline
 62
7
  6
CONTINUOUS
 90
4
 70
0
 10
191.3250454593
 20
479.3798811861
 10
192.3072139163
 20
479.467410031
 10
193.5004103936
 20
479.5606025422
 10
195.4617201944
 20
479.7083498761
  0
LWPOLYLINE
  5
43C
100
AcDbEntity
  8
0
100
AcDbPolyline
 62
7
  6
CONTINUOUS
 90
6
 70
0
 10
196.8484144462
 20
466.9248345064
 10
195.809546326
 20
466.8333848734
 10
194.5020644298
 20
466.7322095144
 10
193.0498824407
 20
466.6233545401
 10
191.7272931629
 20
466.5158891913
 10
190.7109140288
 20
466.4150144744
  0
LINE
  5
43D
100
AcDbEntity
  8
0
100
AcDbLine
 62
7
  6
CONTINUOUS
 10
196.8090128824
 20
481.1450123404
 11
195.7732649734
 21
481.0543899482
  0
LINE
  5
43E
100
AcDbEntity
  8
0
100
AcDbLine
 62
7
  6
CONTINUOUS
 10
195.8473659862
 20
465.514967669
 11
196.9323636357
 21
465.6097843376
  0
LINE
  5
43F
100
AcDbEntity
  8
0
100
AcDbLine
 62
7
  6
CONTINUOUS
 10
196.7417618996
 20
470.9785803274
 11
195.8213064131
 21
470.8982894476
  0
LINE
  5
440
100
AcDbEntity
  8
0
100
AcDbLine
 62
7
  6
CONTINUOUS
 10
195.8350858835
 20
477.7059625659
 11
196.9152025088
 21
477.8000886919
  0
LWPOLYLINE
  5
441
100
AcDbEntity
  8
0
100
AcDbPolyline
 62
7
  6
CONTINUOUS
 90
3
 70
0
 10
196.7585667168
 20
464.8841911712
 10
195.6940374869
 20
464.7920175146
 10
194.4211074512
 20
464.6941820796
  0
LINE
  5
442
100
AcDbEntity
  8
0
100
AcDbLine
 62
7
  6
CONTINUOUS
 10
192.4329548527
 20
464.5430777172
 11
191.3476860092
 21
464.4492174321
  0
LINE
  5
443
100
AcDbEntity
  8
0
100
AcDbLine
 62
7
  6
CONTINUOUS
 10
191.4413015089
 20
477.3591668192
 11
192.5547357209
 21
477.4555003366
  0
LINE
  5
444
100
AcDbEntity
  8
0
100
AcDbLine
 62
7
  6
CONTINUOUS
 10
191.4722354538
 20
465.1700639611
 11
192.5579632617
 21
465.2637510839
  0
LINE
  5
445
100
AcDbEntity
  8
0
100
AcDbLine
 62
7
  6
CONTINUOUS
 10
196.6666429052
 20
473.0035075785
 11
195.6940197015
 21
472.9199881498
  0
LINE
  5
446
100
AcDbEntity
  8
0
100
AcDbLine
 62
7
  6
CONTINUOUS
 10
192.4928151071
 20
480.8038819974
 11
191.3915101147
 21
480.709408693
  0
LINE
  5
447
100
AcDbEntity
  8
0
100
AcDbLine
 62
7
  6
CONTINUOUS
 10
196.6185903153
 20
468.9351256967
 11
195.671651886
 21
468.8541926954
  0
LINE
  5
448
100
AcDbEntity
  8
0
100
AcDbLine
 62
7
  6
CONTINUOUS
 10
195.6988811213
 20
475.663040413
 11
196.7979734988
 21
475.7569769794
  0
LINE
  5
449
100
AcDbEntity
  8
0
100
AcDbLine
 62
7
  6
CONTINUOUS
 10
192.5438047188
 20
476.7439378408
 11
191.3992098655
 21
476.6461352907
  0
LINE
  5
44A
100
AcDbEntity
  8
0
100
AcDbLine
 62
7
  6
CONTINUOUS
 10
195.5947946594
 20
481.7507946388
 11
196.8113043744
 21
481.8542306736
  0
LINE
  5
44B
100
AcDbEntity
  8
0
100
AcDbLine
 62
7
  6
CONTINUOUS
 10
195.618131566
 20
473.6246350911
 11
196.7781418435
 21
473.7231197746
  0
LINE
  5
44C
100
AcDbEntity
  8
0
100
AcDbLine
 62
7
  6
CONTINUOUS
 10
191.6128772616
 20
471.2792565229
 11
192.7695833055
 21
471.3765403517
  0
LINE
  5
44D
100
AcDbEntity
  8
0
100
AcDbLine
 62
7
  6
CONTINUOUS
 10
195.4617201944
 20
479.7083498761
 11
196.6631310187
 21
479.8085307391
  0
LINE
  5
44E
100
AcDbEntity
  8
0
100
AcDbLine
 62
7
  6
CONTINUOUS
 10
195.4043356706
 20
467.5118814204
 11
196.6198233924
 21
467.6126573934
  0
LINE
  5
44F
100
AcDbEntity
  8
0
100
AcDbLine
 62
7
  6
CONTINUOUS
 10
192.7015993441
 20
472.6923895664
 11
191.6522936552
 21
472.6053038461
  0
LWPOLYLINE
  5
450
100
AcDbEntity
  8
0
100
AcDbPolyline
 62
7
  6
CONTINUOUS
 90
3
 70
0
 10
192.7529860393
 20
468.6323820988
 10
191.6850979412
 20
468.5441760942
 10
190.8165571306
 20
468.4589842007
  0
LINE
  5
451
100
AcDbEntity
  8
0
100
AcDbLine
 62
7
  6
CONTINUOUS
 10
192.8858437332
 20
474.7387306317
 11
191.6630313748
 21
474.6382563137
  0
LINE
  5
452
100
AcDbEntity
  8
0
100
AcDbLine
 62
7
  6
CONTINUOUS
 10
192.9083803729
 20
478.8044726773
 11
191.6755877708
 21
478.7033757854
  0
LWPOLYLINE
  5
453
100
AcDbEntity
  8
0
100
AcDbPolyline
 62
7
  6
CONTINUOUS
 90
3
 70
0
 10
192.7695833055
 20
471.3765403517
 10
195.4860308425
 20
471.5822473532
 10
196.6896988753
 20
471.6829594038
  0
LWPOLYLINE
  5
454
100
AcDbEntity
  8
0
100
AcDbPolyline
 62
7
  6
CONTINUOUS
 90
3
 70
0
 10
192.6423274037
 20
469.3344833912
 10
195.3351366772
 20
469.5385153195
 10
196.5783477629
 20
469.6408834527
  0
LWPOLYLINE
  5
455
100
AcDbEntity
  8
0
100
AcDbPolyline
 62
7
  6
CONTINUOUS
 90
5
 70
0
 10
195.8213064131
 20
470.8982894476
 10
194.0937547853
 20
470.7657658686
 10
192.8727331791
 20
470.6737144759
 10
191.7728857463
 20
470.583961454
 10
190.8756603782
 20
470.497484723
  0
LINE
  5
456
100
AcDbEntity
  8
0
100
AcDbLine
 62
7
  6
CONTINUOUS
 10
192.5579632617
 20
465.2637510839
 11
195.8473659862
 21
465.514967669
  0
LINE
  5
457
100
AcDbEntity
  8
0
100
AcDbLine
 62
7
  6
CONTINUOUS
 10
195.671651886
 20
468.8541926954
 11
192.7529860393
 21
468.6323820988
  0
LINE
  5
458
100
AcDbEntity
  8
0
100
AcDbLine
 62
7
  6
CONTINUOUS
 10
195.6940197015
 20
472.9199881498
 11
192.7015993441
 21
472.6923895664
  0
LINE
  5
459
100
AcDbEntity
  8
0
100
AcDbLine
 62
7
  6
CONTINUOUS
 10
192.5547357209
 20
477.4555003366
 11
195.8350858835
 21
477.7059625659
  0
LINE
  5
45A
100
AcDbEntity
  8
0
100
AcDbLine
 62
7
  6
CONTINUOUS
 10
195.7732649734
 20
481.0543899482
 11
192.4928151071
 21
480.8038819974
  0
LINE
  5
45B
100
AcDbEntity
  8
0
100
AcDbLine
 62
7
  6
CONTINUOUS
 10
194.3969789989
 20
481.4807256167
 11
192.7191449175
 21
481.4478421442
  0
LINE
  5
45C
100
AcDbEntity
  8
0
100
AcDbLine
 62
7
  6
CONTINUOUS
 10
515.2267458704
 20
486.7161199111
 11
528.0920816665
 21
486.7355494408
  0
LINE
  5
45D
100
AcDbEntity
  8
0
100
AcDbLine
 62
7
  6
CONTINUOUS
 10
199.7587458704
 20
486.7161199111
 11
212.6240816665
 21
486.7355494408
  0
LINE
  5
45E
100
AcDbEntity
  8
0
100
AcDbLine
 62
7
  6
CONTINUOUS
 10
530.6574816665
 20
480.5697524945
 11
515.2269816665
 21
480.5697524945
  0
LINE
  5
45F
100
AcDbEntity
  8
0
100
AcDbLine
 62
7
  6
CONTINUOUS
 10
215.1894816665
 20
480.5697524945
 11
199.7589816665
 21
480.5697524945
  0
LINE
  5
460
100
AcDbEntity
  8
0
100
AcDbLine
 62
7
  6
CONTINUOUS
 10
171.6284816665
 20
480.5697524945
 11
187.0589816665
 21
480.5697524945
  0
LINE
  5
461
100
AcDbEntity
  8
0
100
AcDbLine
 62
7
  6
CONTINUOUS
 10
487.0964816665
 20
480.5697524945
 11
502.5269816665
 21
480.5697524945
  0
LINE
  5
462
100
AcDbEntity
  8
0
100
AcDbLine
 62
7
  6
CONTINUOUS
 10
174.1938816665
 20
481.8893965428
 11
187.0589816665
 21
481.8893965428
  0
LINE
  5
463
100
AcDbEntity
  8
0
100
AcDbLine
 62
7
  6
CONTINUOUS
 10
199.7589816665
 20
481.8893965428
 11
212.6240816665
 21
481.8893965428
  0
LINE
  5
464
100
AcDbEntity
  8
0
100
AcDbLine
 62
7
  6
CONTINUOUS
 10
489.6618816665
 20
481.8893965428
 11
502.5269816665
 21
481.8893965428
  0
LINE
  5
465
100
AcDbEntity
  8
0
100
AcDbLine
 62
7
  6
CONTINUOUS
 10
515.2269816665
 20
481.8893965428
 11
528.0920816665
 21
481.8893965428
  0
LINE
  5
466
100
AcDbEntity
  8
0
100
AcDbLine
 62
7
  6
CONTINUOUS
 10
513.8934816665
 20
482.6017524945
 11
502.4634816665
 21
482.6017524945
  0
LINE
  5
467
100
AcDbEntity
  8
0
100
AcDbLine
 62
7
  6
CONTINUOUS
 10
199.8224816665
 20
482.6017524945
 11
188.3924816665
 21
482.6017524945
  0
LINE
  5
468
100
AcDbEntity
  8
0
100
AcDbLine
 62
7
  6
CONTINUOUS
 10
528.0920816665
 20
483.2765296557
 11
515.2269816665
 21
483.2765296557
  0
LINE
  5
469
100
AcDbEntity
  8
0
100
AcDbLine
 62
7
  6
CONTINUOUS
 10
502.5269816665
 20
483.2765296557
 11
489.6618816665
 21
483.2765296557
  0
LINE
  5
46A
100
AcDbEntity
  8
0
100
AcDbLine
 62
7
  6
CONTINUOUS
 10
212.6240816665
 20
483.2765296557
 11
199.7589816665
 21
483.2765296557
  0
LINE
  5
46B
100
AcDbEntity
  8
0
100
AcDbLine
 62
7
  6
CONTINUOUS
 10
187.0589816665
 20
483.2765296557
 11
174.1938816665
 21
483.2765296557
  0
LINE
  5
46C
100
AcDbEntity
  8
0
100
AcDbLine
 62
7
  6
CONTINUOUS
 10
513.8934816665
 20
488.9517524945
 11
502.4634816665
 21
488.9517524945
  0
LINE
  5
46D
100
AcDbEntity
  8
0
100
AcDbLine
 62
7
  6
CONTINUOUS
 10
199.8224816665
 20
488.9517524945
 11
188.3924816665
 21
488.9517524945
  0
LINE
  5
46E
100
AcDbEntity
  8
0
100
AcDbLine
 62
7
  6
CONTINUOUS
 10
169.6472816665
 20
489.8310796611
 11
171.6284816665
 21
489.8310796611
  0
LINE
  5
46F
100
AcDbEntity
  8
0
100
AcDbLine
 62
7
  6
CONTINUOUS
 10
216.5864816665
 20
489.8310796611
 11
218.5676816665
 21
489.8310796611
  0
LINE
  5
470
100
AcDbEntity
  8
0
100
AcDbLine
 62
7
  6
CONTINUOUS
 10
483.7182816665
 20
489.8310796611
 11
485.6994816665
 21
489.8310796611
  0
LINE
  5
471
100
AcDbEntity
  8
0
100
AcDbLine
 62
7
  6
CONTINUOUS
 10
530.6574816665
 20
489.8310796611
 11
532.6386816665
 21
489.8310796611
  0
LINE
  5
472
100
AcDbEntity
  8
0
100
AcDbLine
 62
7
  6
CONTINUOUS
 10
174.1938816665
 20
492.5669096181
 11
212.6240816665
 21
492.5669096181
  0
LINE
  5
473
100
AcDbEntity
  8
0
100
AcDbLine
 62
7
  6
CONTINUOUS
 10
489.6618816665
 20
492.5669096181
 11
528.0920816665
 21
492.5669096181
  0
LINE
  5
474
100
AcDbEntity
  8
0
100
AcDbLine
 62
7
  6
CONTINUOUS
 10
169.6472816665
 20
496.4193524945
 11
171.6284816665
 21
496.4193524945
  0
LINE
  5
475
100
AcDbEntity
  8
0
100
AcDbLine
 62
7
  6
CONTINUOUS
 10
216.5864816665
 20
496.4193524945
 11
218.5676816665
 21
496.4193524945
  0
LINE
  5
476
100
AcDbEntity
  8
0
100
AcDbLine
 62
7
  6
CONTINUOUS
 10
483.7182816665
 20
496.4193524945
 11
485.6994816665
 21
496.4193524945
  0
LINE
  5
477
100
AcDbEntity
  8
0
100
AcDbLine
 62
7
  6
CONTINUOUS
 10
530.6574816665
 20
496.4193524945
 11
532.6386816665
 21
496.4193524945
  0
LINE
  5
478
100
AcDbEntity
  8
0
100
AcDbLine
 62
7
  6
CONTINUOUS
 10
174.1938816665
 20
486.7355494408
 11
187.0592174626
 21
486.7161199111
  0
LINE
  5
479
100
AcDbEntity
  8
0
100
AcDbLine
 62
7
  6
CONTINUOUS
 10
489.6618816665
 20
486.7355494408
 11
502.5272174626
 21
486.7161199111
  0
LINE
  5
47A
100
AcDbEntity
  8
0
100
AcDbLine
 62
7
  6
CONTINUOUS
 10
510.6032945583
 20
472.4597698692
 11
510.1345096346
 21
472.4982112995
  0
LINE
  5
47B
100
AcDbEntity
  8
0
100
AcDbLine
 62
7
  6
CONTINUOUS
 10
505.6857739295
 20
467.4626057072
 11
506.221220104
 21
467.418358192
  0
LINE
  5
47C
100
AcDbEntity
  8
0
100
AcDbLine
 62
7
  6
CONTINUOUS
 10
505.6332714081
 20
469.499352435
 11
506.2208226783
 21
469.450485066
  0
LINE
  5
47D
100
AcDbEntity
  8
0
100
AcDbLine
 62
7
  6
CONTINUOUS
 10
505.6243529355
 20
477.6281548433
 11
506.2237722364
 21
477.5782426434
  0
LINE
  5
47E
100
AcDbEntity
  8
0
100
AcDbLine
 62
7
  6
CONTINUOUS
 10
505.5494653926
 20
465.4430512002
 11
506.2236638157
 21
465.3862158382
  0
LINE
  5
47F
100
AcDbEntity
  8
0
100
AcDbLine
 62
7
  6
CONTINUOUS
 10
505.5473012185
 20
471.5392212705
 11
506.2212085798
 21
471.4823913117
  0
LINE
  5
480
100
AcDbEntity
  8
0
100
AcDbLine
 62
7
  6
CONTINUOUS
 10
510.8656699196
 20
466.3398543526
 11
510.1336333539
 21
466.4022245033
  0
LINE
  5
481
100
AcDbEntity
  8
0
100
AcDbLine
 62
7
  6
CONTINUOUS
 10
505.3251430115
 20
481.7202638099
 11
506.228654087
 21
481.6430146807
  0
LINE
  5
482
100
AcDbEntity
  8
0
100
AcDbLine
 62
7
  6
CONTINUOUS
 10
510.9079797361
 20
464.3038931736
 11
510.1378746911
 21
464.3699139585
  0
LINE
  5
483
100
AcDbEntity
  8
0
100
AcDbLine
 62
7
  6
CONTINUOUS
 10
510.9304462264
 20
480.557769038
 11
510.1333237183
 21
480.6265293818
  0
LINE
  5
484
100
AcDbEntity
  8
0
100
AcDbLine
 62
7
  6
CONTINUOUS
 10
505.3495834263
 20
473.5898995364
 11
506.2193381053
 21
473.513895995
  0
LINE
  5
485
100
AcDbEntity
  8
0
100
AcDbLine
 62
7
  6
CONTINUOUS
 10
505.3144638131
 20
475.625300044
 11
506.2143038419
 21
475.5459033372
  0
LINE
  5
486
100
AcDbEntity
  8
0
100
AcDbLine
 62
7
  6
CONTINUOUS
 10
511.0875712697
 20
478.5105873508
 11
510.1457070897
 21
478.5946915335
  0
LWPOLYLINE
  5
487
100
AcDbEntity
  8
0
100
AcDbPolyline
 62
7
  6
CONTINUOUS
 90
3
 70
0
 10
511.1004350788
 20
476.4773108892
 10
510.1601414512
 20
476.5617782427
 10
510.1437196985
 20
476.5630709422
  0
LWPOLYLINE
  5
488
100
AcDbEntity
  8
0
100
AcDbPolyline
 62
7
  6
CONTINUOUS
 90
3
 70
0
 10
511.131472679
 20
470.3782232819
 10
510.191872451
 20
470.4631381178
 10
510.1427141389
 20
470.4670157155
  0
LINE
  5
489
100
AcDbEntity
  8
0
100
AcDbLine
 62
7
  6
CONTINUOUS
 10
511.3677682548
 20
468.3218389486
 11
510.1344276623
 21
468.4342477314
  0
LWPOLYLINE
  5
48A
100
AcDbEntity
  8
0
100
AcDbPolyline
 62
7
  6
CONTINUOUS
 90
3
 70
0
 10
504.8505294772
 20
479.7376798035
 10
505.8877979476
 20
479.6367524857
 10
506.2213126988
 20
479.6098487982
  0
LWPOLYLINE
  5
48B
100
AcDbEntity
  8
0
100
AcDbPolyline
 62
7
  6
CONTINUOUS
 90
3
 70
0
 10
511.539411595
 20
474.3988806995
 10
510.5272898557
 20
474.498472618
 10
510.134183145
 20
474.5303539235
  0
LINE
  5
48C
100
AcDbEntity
  8
0
100
AcDbLine
 62
7
  6
CONTINUOUS
 10
511.5838975269
 20
472.3617629426
 11
510.6032945583
 21
472.4597698692
  0
LINE
  5
48D
100
AcDbEntity
  8
0
100
AcDbLine
 62
7
  6
CONTINUOUS
 10
504.6773994958
 20
463.5018623787
 11
505.6419217623
 21
463.402626112
  0
LINE
  5
48E
100
AcDbEntity
  8
0
100
AcDbLine
 62
7
  6
CONTINUOUS
 10
504.6868750993
 20
469.5967348961
 11
505.6332714081
 21
469.499352435
  0
LINE
  5
48F
100
AcDbEntity
  8
0
100
AcDbLine
 62
7
  6
CONTINUOUS
 10
504.6637452266
 20
477.7275261289
 11
505.6243529355
 21
477.6281548433
  0
LINE
  5
490
100
AcDbEntity
  8
0
100
AcDbLine
 62
7
  6
CONTINUOUS
 10
504.6527881512
 20
465.5369287397
 11
505.5494653926
 21
465.4430512002
  0
LINE
  5
491
100
AcDbEntity
  8
0
100
AcDbLine
 62
7
  6
CONTINUOUS
 10
504.6535050102
 20
471.632783765
 11
505.5473012185
 21
471.5392212705
  0
LINE
  5
492
100
AcDbEntity
  8
0
100
AcDbLine
 62
7
  6
CONTINUOUS
 10
511.2816384375
 20
468.3308720786
 11
511.3677682548
 21
468.3218389486
  0
LINE
  5
493
100
AcDbEntity
  8
0
100
AcDbLine
 62
7
  6
CONTINUOUS
 10
511.7224536162
 20
466.2490640669
 11
510.8656699196
 21
466.3398543526
  0
LINE
  5
494
100
AcDbEntity
  8
0
100
AcDbLine
 62
7
  6
CONTINUOUS
 10
511.7524334732
 20
464.2133451708
 11
510.9079797361
 21
464.3038931736
  0
LINE
  5
495
100
AcDbEntity
  8
0
100
AcDbLine
 62
7
  6
CONTINUOUS
 10
504.5494482782
 20
473.6778428227
 11
505.3495834263
 21
473.5898995364
  0
LINE
  5
496
100
AcDbEntity
  8
0
100
AcDbLine
 62
7
  6
CONTINUOUS
 10
504.535233026
 20
475.7116938131
 11
505.3144638131
 21
475.625300044
  0
LINE
  5
497
100
AcDbEntity
  8
0
100
AcDbLine
 62
7
  6
CONTINUOUS
 10
511.8302633549
 20
478.4274971153
 11
511.0875712697
 21
478.5105873508
  0
LINE
  5
498
100
AcDbEntity
  8
0
100
AcDbLine
 62
7
  6
CONTINUOUS
 10
511.8329083471
 20
476.3951626209
 11
511.1004350788
 21
476.4773108892
  0
LINE
  5
499
100
AcDbEntity
  8
0
100
AcDbLine
 62
7
  6
CONTINUOUS
 10
511.8514996841
 20
470.2967146373
 11
511.131472679
 21
470.3782232819
  0
LINE
  5
49A
100
AcDbEntity
  8
0
100
AcDbLine
 62
7
  6
CONTINUOUS
 10
511.7513315409
 20
468.2776014682
 11
511.2816384375
 21
468.3308720786
  0
LWPOLYLINE
  5
49B
100
AcDbEntity
  8
0
100
AcDbPolyline
 62
7
  6
CONTINUOUS
 90
3
 70
0
 10
504.3677615273
 20
467.606596895
 10
505.1765378771
 20
467.5109928726
 10
505.6857739295
 20
467.4626057072
  0
LINE
  5
49C
100
AcDbEntity
  8
0
100
AcDbLine
 62
7
  6
CONTINUOUS
 10
512.2351255419
 20
474.3025744968
 11
511.539411595
 21
474.3988806995
  0
LINE
  5
49D
100
AcDbEntity
  8
0
100
AcDbLine
 62
7
  6
CONTINUOUS
 10
512.2744857612
 20
472.2634074846
 11
511.5838975269
 21
472.3617629426
  0
LINE
  5
49E
100
AcDbEntity
  8
0
100
AcDbLine
 62
7
  6
CONTINUOUS
 10
504.0537840835
 20
469.69029364
 11
504.6868750993
 21
469.5967348961
  0
LINE
  5
49F
100
AcDbEntity
  8
0
100
AcDbLine
 62
7
  6
CONTINUOUS
 10
503.8368418259
 20
467.7070807992
 11
504.3677615273
 21
467.606596895
  0
LINE
  5
4A0
100
AcDbEntity
  8
0
100
AcDbLine
 62
7
  6
CONTINUOUS
 10
408.2576633533
 20
449.632274856
 11
408.9395717562
 21
449.2385748559
  0
LINE
  5
4A1
100
AcDbEntity
  8
0
100
AcDbLine
 62
7
  6
CONTINUOUS
 10
407.634253443
 20
450.7120524945
 11
410.1863915768
 21
449.2385748559
  0
LINE
  5
4A2
100
AcDbEntity
  8
0
100
AcDbLine
 62
7
  6
CONTINUOUS
 10
411.49170989
 20
451.4994524945
 11
410.8682999797
 21
451.859378374
  0
LINE
  5
4A3
100
AcDbEntity
  8
0
100
AcDbLine
 62
7
  6
CONTINUOUS
 10
409.5629816665
 20
452.6130042535
 11
408.9395717562
 21
452.972930133
  0
LINE
  5
4A4
100
AcDbEntity
  8
0
100
AcDbLine
 62
7
  6
CONTINUOUS
 10
410.8682999797
 20
452.579230133
 11
410.1863915768
 21
452.972930133
  0
LINE
  5
4A5
100
AcDbEntity
  8
0
100
AcDbLine
 62
7
  6
CONTINUOUS
 10
387.9632243308
 20
447.2957524945
 11
401.4115853211
 21
433.847391504
  0
LINE
  5
4A6
100
AcDbEntity
  8
0
100
AcDbLine
 62
7
  6
CONTINUOUS
 10
334.1109770536
 20
520.1571043208
 11
332.8409770535
 21
522.3568088464
  0
LINE
  5
4A7
100
AcDbEntity
  8
0
100
AcDbLine
 62
7
  6
CONTINUOUS
 10
340.9632035802
 20
547.8782720449
 11
335.6113526695
 21
567.8516515584
  0
LINE
  5
4A8
100
AcDbEntity
  8
0
100
AcDbLine
 62
7
  6
CONTINUOUS
 10
365.5532780977
 20
545.6191524945
 11
365.8350187568
 21
542.9385691822
  0
LINE
  5
4A9
100
AcDbEntity
  8
0
100
AcDbLine
 62
7
  6
CONTINUOUS
 10
359.2709816665
 20
539.9632452328
 11
359.2709816665
 21
543.8285498111
  0
LINE
  5
4AA
100
AcDbEntity
  8
0
100
AcDbLine
 62
7
  6
CONTINUOUS
 10
375.0189816665
 20
572.6701524945
 11
375.0189816665
 21
566.3201524945
  0
LINE
  5
4AB
100
AcDbEntity
  8
0
100
AcDbLine
 62
7
  6
CONTINUOUS
 10
375.5324652876
 20
566.3201524945
 11
375.5324652876
 21
572.6701524945
  0
LINE
  5
4AC
100
AcDbEntity
  8
0
100
AcDbLine
 62
7
  6
CONTINUOUS
 10
306.4774932064
 20
432.6245292252
 11
322.4507390022
 21
447.2957524945
  0
LINE
  5
4AD
100
AcDbEntity
  8
0
100
AcDbLine
 62
7
  6
CONTINUOUS
 10
198.2152023142
 20
469.8352952268
 11
198.6643430253
 21
469.9618905226
  0
LINE
  5
4AE
100
AcDbEntity
  8
0
100
AcDbLine
 62
7
  6
CONTINUOUS
 10
190.0311447442
 20
466.3190836183
 11
189.5838338289
 21
466.2008649053
  0
LWPOLYLINE
  5
4AF
100
AcDbEntity
  8
0
100
AcDbPolyline
 62
7
  6
CONTINUOUS
 90
4
 70
0
 10
198.133552664
 20
473.1979183547
 10
198.133286884
 20
473.1978489895
 10
197.913491272
 20
473.1507564964
 10
197.4084274079
 20
473.0804940401
  0
LWPOLYLINE
  5
4B0
100
AcDbEntity
  8
0
100
AcDbPolyline
 62
7
  6
CONTINUOUS
 90
3
 70
0
 10
198.1329230948
 20
475.2296944605
 10
198.0443625619
 20
475.2076488396
 10
197.6211536324
 20
475.1390875149
  0
LWPOLYLINE
  5
4B1
100
AcDbEntity
  8
0
100
AcDbPolyline
 62
7
  6
CONTINUOUS
 90
3
 70
0
 10
198.1326037516
 20
467.1016128897
 10
198.0373839826
 20
467.078307588
 10
197.5955846454
 20
467.007839486
  0
LWPOLYLINE
  5
4B2
100
AcDbEntity
  8
0
100
AcDbPolyline
 62
7
  6
CONTINUOUS
 90
3
 70
0
 10
198.1291981566
 20
465.0687247111
 10
198.022748727
 20
465.0431030572
 10
197.5450744633
 20
464.9693462792
  0
LWPOLYLINE
  5
4B3
100
AcDbEntity
  8
0
100
AcDbPolyline
 62
7
  6
CONTINUOUS
 90
3
 70
0
 10
190.0875712188
 20
467.0166818619
 10
190.1939773945
 20
467.0420290725
 10
190.6318669933
 20
467.1105672124
  0
LWPOLYLINE
  5
4B4
100
AcDbEntity
  8
0
100
AcDbPolyline
 62
7
  6
CONTINUOUS
 90
3
 70
0
 10
190.0871039142
 20
464.9843400631
 10
190.2010221574
 20
465.0113755515
 10
190.6818282738
 20
465.0850155776
  0
LINE
  5
4B5
100
AcDbEntity
  8
0
100
AcDbLine
 62
7
  6
CONTINUOUS
 10
190.0886018014
 20
469.0490949942
 11
190.2160309521
 21
469.078411432
  0
LWPOLYLINE
  5
4B6
100
AcDbEntity
  8
0
100
AcDbPolyline
 62
7
  6
CONTINUOUS
 90
3
 70
0
 10
190.0891667259
 20
471.0812751519
 10
190.224462162
 20
471.1120299895
 10
190.7543908768
 20
471.1900437177
  0
LWPOLYLINE
  5
4B7
100
AcDbEntity
  8
0
100
AcDbPolyline
 62
7
  6
CONTINUOUS
 90
3
 70
0
 10
190.0905530379
 20
473.1136537912
 10
190.2343387182
 20
473.1459239157
 10
190.7924172558
 20
473.2266070818
  0
LWPOLYLINE
  5
4B8
100
AcDbEntity
  8
0
100
AcDbPolyline
 62
7
  6
CONTINUOUS
 90
3
 70
0
 10
190.1580714624
 20
472.4368832772
 10
189.7215744003
 20
472.3450734034
 10
189.3316040711
 20
472.1415349248
  0
LWPOLYLINE
  5
4B9
100
AcDbEntity
  8
0
100
AcDbPolyline
 62
7
  6
CONTINUOUS
 90
3
 70
0
 10
190.1658790632
 20
468.3739394165
 10
189.7259864347
 20
468.2823030378
 10
189.325942033
 20
468.0719378157
  0
LINE
  5
4BA
100
AcDbEntity
  8
0
100
AcDbLine
 62
7
  6
CONTINUOUS
 10
190.2036676054
 20
470.4120580866
 11
189.7392199343
 21
470.3181405287
  0
LWPOLYLINE
  5
4BB
100
AcDbEntity
  8
0
100
AcDbPolyline
 62
7
  6
CONTINUOUS
 90
3
 70
0
 10
197.7273972219
 20
477.8889104864
 10
198.2856622854
 20
477.9771620812
 10
198.7054464086
 20
478.109588809
  0
LWPOLYLINE
  5
4BC
100
AcDbEntity
  8
0
100
AcDbPolyline
 62
7
  6
CONTINUOUS
 90
5
 70
0
 10
197.7047681423
 20
481.9500276409
 10
198.2794757336
 20
482.0398965803
 10
198.4961915346
 20
482.0925481457
 10
198.9331597221
 20
482.3455516085
 10
199.111092097
 20
482.8064559624
  0
LWPOLYLINE
  5
4BD
100
AcDbEntity
  8
0
100
AcDbPolyline
 62
7
  6
CONTINUOUS
 90
3
 70
0
 10
197.7033203474
 20
483.9818339152
 10
198.2737164328
 20
484.0707192452
 10
198.6988472227
 20
484.2023005961
  0
LWPOLYLINE
  5
4BE
100
AcDbEntity
  8
0
100
AcDbPolyline
 62
7
  6
CONTINUOUS
 90
3
 70
0
 10
190.5432147374
 20
476.5549140217
 10
189.9654067809
 20
476.4668667409
 10
189.5460253035
 20
476.3447816286
  0
LWPOLYLINE
  5
4BF
100
AcDbEntity
  8
0
100
AcDbPolyline
 62
7
  6
CONTINUOUS
 90
3
 70
0
 10
197.6485687847
 20
475.8470044339
 10
198.251461081
 20
475.9382803544
 10
198.6705285916
 20
476.0606721539
  0
LWPOLYLINE
  5
4C0
100
AcDbEntity
  8
0
100
AcDbPolyline
 62
7
  6
CONTINUOUS
 90
3
 70
0
 10
197.6504932032
 20
473.8152306346
 10
198.2470798705
 20
473.9054330696
 10
198.681267595
 20
474.0337184046
  0
LWPOLYLINE
  5
4C1
100
AcDbEntity
  8
0
100
AcDbPolyline
 62
7
  6
CONTINUOUS
 90
3
 70
0
 10
190.5561018126
 20
486.7165039626
 10
189.9775222844
 20
486.6292458236
 10
189.5564505262
 20
486.5094888594
  0
LWPOLYLINE
  5
4C2
100
AcDbEntity
  8
0
100
AcDbPolyline
 62
7
  6
CONTINUOUS
 90
3
 70
0
 10
190.5698749277
 20
480.6222021347
 10
189.9804615599
 20
480.5338011167
 10
189.5703877733
 20
480.4195959075
  0
LWPOLYLINE
  5
4C3
100
AcDbEntity
  8
0
100
AcDbPolyline
 62
7
  6
CONTINUOUS
 90
3
 70
0
 10
197.6049455504
 20
479.9056633343
 10
198.2466753266
 20
480.0013438309
 10
198.6820133784
 20
480.1301066625
  0
LWPOLYLINE
  5
4C4
100
AcDbEntity
  8
0
100
AcDbPolyline
 62
7
  6
CONTINUOUS
 90
3
 70
0
 10
190.5994917815
 20
484.6898238576
 10
189.9899741223
 20
484.5996156278
 10
189.573887628
 20
484.4850977548
  0
LWPOLYLINE
  5
4C5
100
AcDbEntity
  8
0
100
AcDbPolyline
 62
7
  6
CONTINUOUS
 90
3
 70
0
 10
197.5963482086
 20
486.000627585
 10
198.2296931467
 20
486.094049286
 10
198.6729620972
 20
486.2218650479
  0
LWPOLYLINE
  5
4C6
100
AcDbEntity
  8
0
100
AcDbPolyline
 62
7
  6
CONTINUOUS
 90
3
 70
0
 10
190.504803323
 20
482.6460624351
 10
190.0838941125
 20
482.5845832128
 10
189.5796912225
 20
482.4554775229
  0
LINE
  5
4C7
100
AcDbEntity
  8
0
100
AcDbLine
 62
7
  6
CONTINUOUS
 10
197.5428061206
 20
488.0262681264
 11
198.2186710174
 21
488.1239502467
  0
LINE
  5
4C8
100
AcDbEntity
  8
0
100
AcDbLine
 62
7
  6
CONTINUOUS
 10
190.6877242881
 20
474.5403278881
 11
190.0152631059
 21
474.4443515701
  0
LINE
  5
4C9
100
AcDbEntity
  8
0
100
AcDbLine
 62
7
  6
CONTINUOUS
 10
190.6922208239
 20
478.604853324
 11
190.0206950569
 21
478.5093478763
  0
LWPOLYLINE
  5
4CA
100
AcDbEntity
  8
0
100
AcDbPolyline
 62
7
  6
CONTINUOUS
 90
5
 70
0
 10
190.5415328774
 20
481.3226068791
 10
191.1850236845
 20
481.3978080138
 10
192.0542211464
 20
481.4782422227
 10
193.1182071457
 20
481.5635791317
 10
195.5947946594
 20
481.7507946388
  0
LWPOLYLINE
  5
4CB
100
AcDbEntity
  8
0
100
AcDbPolyline
 62
7
  6
CONTINUOUS
 90
4
 70
0
 10
197.6619914272
 20
489.3686038612
 10
197.0246194508
 20
489.2944198045
 10
196.1757358887
 20
489.2158152729
 10
195.1453388714
 20
489.1329301784
  0
LWPOLYLINE
  5
4CC
100
AcDbEntity
  8
0
100
AcDbPolyline
 62
7
  6
CONTINUOUS
 90
3
 70
0
 10
197.6583805359
 20
485.304093764
 10
197.0034065483
 20
485.228261787
 10
196.1132125239
 20
485.1465083027
  0
LINE
  5
4CD
100
AcDbEntity
  8
0
100
AcDbLine
 62
7
  6
CONTINUOUS
 10
197.5474420088
 20
483.2575226634
 11
197.1451052236
 21
483.2110001439
  0
LINE
  5
4CE
100
AcDbEntity
  8
0
100
AcDbLine
 62
7
  6
CONTINUOUS
 10
197.2115028901
 20
481.8937038105
 11
197.7047681423
 21
481.9500276409
  0
LWPOLYLINE
  5
4CF
100
AcDbEntity
  8
0
100
AcDbPolyline
 62
7
  6
CONTINUOUS
 90
5
 70
0
 10
190.5867609871
 20
483.3607382707
 10
191.2437606729
 20
483.4357862027
 10
192.11566899
 20
483.5154464401
 10
193.1790828208
 20
483.6002376395
 10
195.7169318923
 20
483.7924836147
  0
LINE
  5
4D0
100
AcDbEntity
  8
0
100
AcDbLine
 62
7
  6
CONTINUOUS
 10
197.6048139154
 20
479.200931601
 11
196.9159103474
 21
479.1234644999
  0
LINE
  5
4D1
100
AcDbEntity
  8
0
100
AcDbLine
 62
7
  6
CONTINUOUS
 10
190.6036781847
 20
479.2989818337
 11
191.3250454593
 21
479.3798811861
  0
LWPOLYLINE
  5
4D2
100
AcDbEntity
  8
0
100
AcDbPolyline
 62
7
  6
CONTINUOUS
 90
3
 70
0
 10
197.5847394431
 20
487.3263089434
 10
196.8139264612
 20
487.2414903624
 10
195.7466425665
 20
487.1482343407
  0
LINE
  5
4D3
100
AcDbEntity
  8
0
100
AcDbLine
 62
7
  6
CONTINUOUS
 10
197.5718228039
 20
481.2286306401
 11
196.8090128824
 21
481.1450123404
  0
LINE
  5
4D4
100
AcDbEntity
  8
0
100
AcDbLine
 62
7
  6
CONTINUOUS
 10
197.1441642134
 20
483.2108953904
 11
197.1450965708
 21
483.2109959873
  0
LINE
  5
4D5
100
AcDbEntity
  8
0
100
AcDbLine
 62
7
  6
CONTINUOUS
 10
196.8581200015
 20
483.890641864
 11
197.7033203474
 21
483.9818339152
  0
LINE
  5
4D6
100
AcDbEntity
  8
0
100
AcDbLine
 62
7
  6
CONTINUOUS
 10
191.387262452
 20
486.8050053584
 11
190.5561018126
 21
486.7165039626
  0
LINE
  5
4D7
100
AcDbEntity
  8
0
100
AcDbLine
 62
7
  6
CONTINUOUS
 10
191.3915101147
 20
480.709408693
 11
190.5698749277
 21
480.6222021347
  0
LINE
  5
4D8
100
AcDbEntity
  8
0
100
AcDbLine
 62
7
  6
CONTINUOUS
 10
190.7192472758
 20
487.4417484546
 11
191.5360742441
 21
487.5281257674
  0
LINE
  5
4D9
100
AcDbEntity
  8
0
100
AcDbLine
 62
7
  6
CONTINUOUS
 10
191.4530597225
 20
484.779163135
 11
190.5994917815
 21
484.6898238576
  0
LINE
  5
4DA
100
AcDbEntity
  8
0
100
AcDbLine
 62
7
  6
CONTINUOUS
 10
190.7485050572
 20
485.4133284319
 11
191.6026825877
 21
485.5023087798
  0
LWPOLYLINE
  5
4DB
100
AcDbEntity
  8
0
100
AcDbPolyline
 62
7
  6
CONTINUOUS
 90
6
 70
0
 10
191.5081066133
 20
488.8482462441
 10
190.6026101161
 20
488.7542181581
 10
189.9880862675
 20
488.6632595439
 10
189.5587898073
 20
488.5425073193
 10
189.1306558983
 20
488.0738143301
 10
189.1037033536
 20
487.8863022174
  0
LINE
  5
4DC
100
AcDbEntity
  8
0
100
AcDbLine
 62
7
  6
CONTINUOUS
 10
196.6633811184
 20
485.9045580729
 11
197.5963482086
 21
486.000627585
  0
LINE
  5
4DD
100
AcDbEntity
  8
0
100
AcDbLine
 62
7
  6
CONTINUOUS
 10
196.8113043744
 20
481.8542306736
 11
197.2114450978
 21
481.893694567
  0
LINE
  5
4DE
100
AcDbEntity
  8
0
100
AcDbLine
 62
7
  6
CONTINUOUS
 10
192.2721327955
 20
482.818070478
 11
190.504803323
 21
482.6460624351
  0
LWPOLYLINE
  5
4DF
100
AcDbEntity
  8
0
100
AcDbPolyline
 62
7
  6
CONTINUOUS
 90
3
 70
0
 10
197.1441642134
 20
483.2108953904
 10
195.3612268482
 20
483.053651233
 10
192.2721327955
 20
482.818070478
  0
LINE
  5
4E0
100
AcDbEntity
  8
0
100
AcDbLine
 62
7
  6
CONTINUOUS
 10
195.7169318923
 20
483.7924836147
 11
196.8581200015
 21
483.890641864
  0
LINE
  5
4E1
100
AcDbEntity
  8
0
100
AcDbLine
 62
7
  6
CONTINUOUS
 10
192.4880637451
 20
486.8995004527
 11
191.387262452
 21
486.8050053584
  0
LINE
  5
4E2
100
AcDbEntity
  8
0
100
AcDbLine
 62
7
  6
CONTINUOUS
 10
191.5360742441
 20
487.5281257674
 11
192.6401678676
 21
487.6223118935
  0
LINE
  5
4E3
100
AcDbEntity
  8
0
100
AcDbLine
 62
7
  6
CONTINUOUS
 10
192.5355857143
 20
484.8712891014
 11
191.4530597225
 21
484.779163135
  0
LINE
  5
4E4
100
AcDbEntity
  8
0
100
AcDbLine
 62
7
  6
CONTINUOUS
 10
191.6026825877
 20
485.5023087798
 11
192.7512144207
 21
485.5990926515
  0
LINE
  5
4E5
100
AcDbEntity
  8
0
100
AcDbLine
 62
7
  6
CONTINUOUS
 10
192.678409151
 20
488.9465672297
 11
191.5081066133
 21
488.8482462441
  0
LWPOLYLINE
  5
4E6
100
AcDbEntity
  8
0
100
AcDbPolyline
 62
7
  6
CONTINUOUS
 90
3
 70
0
 10
196.1132125239
 20
485.1465083027
 10
195.007004515
 20
485.0583321108
 10
192.5355857143
 20
484.8712891014
  0
LWPOLYLINE
  5
4E7
100
AcDbEntity
  8
0
100
AcDbPolyline
 62
7
  6
CONTINUOUS
 90
3
 70
0
 10
192.7512144207
 20
485.5990926515
 10
195.4534728948
 20
485.8037079928
 10
196.6633811184
 20
485.9045580729
  0
LWPOLYLINE
  5
4E8
100
AcDbEntity
  8
0
100
AcDbPolyline
 62
7
  6
CONTINUOUS
 90
4
 70
0
 10
192.6401678676
 20
487.6223118935
 10
195.3225029443
 20
487.8255382644
 10
196.5637975427
 20
487.9275820442
 10
197.5428061206
 20
488.0262681264
  0
LINE
  5
4E9
100
AcDbEntity
  8
0
100
AcDbLine
 62
7
  6
CONTINUOUS
 10
195.1453388714
 20
489.1329301784
 11
192.678409151
 21
488.9465672297
  0
LINE
  5
4EA
100
AcDbEntity
  8
0
100
AcDbLine
 62
7
  6
CONTINUOUS
 10
195.7466425665
 20
487.1482343407
 11
192.4880637451
 21
486.8995004527
  0
LINE
  5
4EB
100
AcDbEntity
  8
0
100
AcDbLine
 62
7
  6
CONTINUOUS
 10
529.0826816665
 20
500.6867339184
 11
487.2742816665
 21
500.6867339184
  0
LINE
  5
4EC
100
AcDbEntity
  8
0
100
AcDbLine
 62
7
  6
CONTINUOUS
 10
215.0116816665
 20
500.6867339184
 11
173.2032816665
 21
500.6867339184
  0
LINE
  5
4ED
100
AcDbEntity
  8
0
100
AcDbLine
 62
7
  6
CONTINUOUS
 10
126.3173277676
 20
501.9401524945
 11
244.8446355653
 21
501.9401524945
  0
LINE
  5
4EE
100
AcDbEntity
  8
0
100
AcDbLine
 62
7
  6
CONTINUOUS
 10
451.4371277677
 20
501.9401524945
 11
584.6966355653
 21
501.9401524945
  0
LINE
  5
4EF
100
AcDbEntity
  8
0
100
AcDbLine
 62
7
  6
CONTINUOUS
 10
173.2032816665
 20
502.0876538733
 11
215.0116816665
 21
502.0876538733
  0
LINE
  5
4F0
100
AcDbEntity
  8
0
100
AcDbLine
 62
7
  6
CONTINUOUS
 10
487.2742816665
 20
502.0876538733
 11
529.0826816665
 21
502.0876538733
  0
LINE
  5
4F1
100
AcDbEntity
  8
0
100
AcDbLine
 62
7
  6
CONTINUOUS
 10
127.1654508182
 20
502.7882540989
 11
243.9965125147
 21
502.7882540989
  0
LINE
  5
4F2
100
AcDbEntity
  8
0
100
AcDbLine
 62
7
  6
CONTINUOUS
 10
452.2852508183
 20
502.7882540989
 11
583.8485125147
 21
502.7882540989
  0
LINE
  5
4F3
100
AcDbEntity
  8
0
100
AcDbLine
 62
7
  6
CONTINUOUS
 10
529.0826816665
 20
503.2265524945
 11
487.2742816665
 21
503.2265524945
  0
LINE
  5
4F4
100
AcDbEntity
  8
0
100
AcDbLine
 62
7
  6
CONTINUOUS
 10
215.0116816665
 20
503.2265524945
 11
173.2032816665
 21
503.2265524945
  0
LINE
  5
4F5
100
AcDbEntity
  8
0
100
AcDbLine
 62
7
  6
CONTINUOUS
 10
529.0826816665
 20
504.304183229
 11
487.2742816665
 21
504.304183229
  0
LINE
  5
4F6
100
AcDbEntity
  8
0
100
AcDbLine
 62
7
  6
CONTINUOUS
 10
215.0116816665
 20
504.304183229
 11
173.2032816665
 21
504.304183229
  0
LINE
  5
4F7
100
AcDbEntity
  8
0
100
AcDbLine
 62
7
  6
CONTINUOUS
 10
529.0826816665
 20
504.7505524945
 11
487.2742816665
 21
504.7505524945
  0
LINE
  5
4F8
100
AcDbEntity
  8
0
100
AcDbLine
 62
7
  6
CONTINUOUS
 10
215.0116816665
 20
504.7505524945
 11
173.2032816665
 21
504.7505524945
  0
LINE
  5
4F9
100
AcDbEntity
  8
0
100
AcDbLine
 62
7
  6
CONTINUOUS
 10
280.2007816665
 20
504.8357524945
 11
269.8883816665
 21
504.8357524945
  0
LINE
  5
4FA
100
AcDbEntity
  8
0
100
AcDbLine
 62
7
  6
CONTINUOUS
 10
107.5014816665
 20
504.8357524945
 11
127.7201414552
 21
504.8357524945
  0
LINE
  5
4FB
100
AcDbEntity
  8
0
100
AcDbLine
 62
7
  6
CONTINUOUS
 10
243.4418218777
 20
504.8357524945
 11
266.1545816665
 21
504.8357524945
  0
LINE
  5
4FC
100
AcDbEntity
  8
0
100
AcDbLine
 62
7
  6
CONTINUOUS
 10
419.4511116914
 20
504.8357524945
 11
452.8399414552
 21
504.8357524945
  0
LINE
  5
4FD
100
AcDbEntity
  8
0
100
AcDbLine
 62
7
  6
CONTINUOUS
 10
583.2938218777
 20
504.8357524945
 11
603.5124816665
 21
504.8357524945
  0
LINE
  5
4FE
100
AcDbEntity
  8
0
100
AcDbLine
 62
7
  6
CONTINUOUS
 10
128.2265708071
 20
504.8497554777
 11
242.9353925259
 21
504.8497554777
  0
LINE
  5
4FF
100
AcDbEntity
  8
0
100
AcDbLine
 62
7
  6
CONTINUOUS
 10
453.3463708071
 20
504.8497554777
 11
582.7873925259
 21
504.8497554777
  0
LINE
  5
500
100
AcDbEntity
  8
0
100
AcDbLine
 62
7
  6
CONTINUOUS
 10
173.2032816665
 20
505.7051031839
 11
215.0116816665
 21
505.7051031839
  0
LINE
  5
501
100
AcDbEntity
  8
0
100
AcDbLine
 62
7
  6
CONTINUOUS
 10
487.2742816665
 20
505.7051031839
 11
529.0826816665
 21
505.7051031839
  0
LINE
  5
502
100
AcDbEntity
  8
0
100
AcDbLine
 62
7
  6
CONTINUOUS
 10
242.9353925258
 20
505.8196231388
 11
128.2265708071
 21
505.8196231388
  0
LINE
  5
503
100
AcDbEntity
  8
0
100
AcDbLine
 62
7
  6
CONTINUOUS
 10
453.3463708071
 20
505.8196231388
 11
582.7873925259
 21
505.8196231388
  0
LINE
  5
504
100
AcDbEntity
  8
0
100
AcDbLine
 62
7
  6
CONTINUOUS
 10
529.0826816665
 20
506.7317524945
 11
487.2742816665
 21
506.7317524945
  0
LINE
  5
505
100
AcDbEntity
  8
0
100
AcDbLine
 62
7
  6
CONTINUOUS
 10
215.0116816665
 20
506.7317524945
 11
173.2032816665
 21
506.7317524945
  0
LINE
  5
506
100
AcDbEntity
  8
0
100
AcDbLine
 62
7
  6
CONTINUOUS
 10
260.5690816665
 20
510.9317524945
 11
264.1250816665
 21
510.9317524945
  0
LINE
  5
507
100
AcDbEntity
  8
0
100
AcDbLine
 62
7
  6
CONTINUOUS
 10
264.1250816665
 20
514.4877524945
 11
260.5690816665
 21
514.4877524945
  0
LINE
  5
508
100
AcDbEntity
  8
0
100
AcDbLine
 62
7
  6
CONTINUOUS
 10
504.8983016391
 20
485.8283501878
 11
505.8289816665
 21
485.7378889669
  0
LINE
  5
509
100
AcDbEntity
  8
0
100
AcDbLine
 62
7
  6
CONTINUOUS
 10
504.7235419926
 20
483.8163378732
 11
505.8444084576
 21
483.7057061978
  0
LINE
  5
50A
100
AcDbEntity
  8
0
100
AcDbLine
 62
7
  6
CONTINUOUS
 10
511.7571899941
 20
480.4688538661
 11
510.9304462264
 21
480.557769038
  0
LINE
  5
50B
100
AcDbEntity
  8
0
100
AcDbLine
 62
7
  6
CONTINUOUS
 10
504.3921257987
 20
481.8270945398
 11
505.3251430115
 21
481.7202638099
  0
LINE
  5
50C
100
AcDbEntity
  8
0
100
AcDbLine
 62
7
  6
CONTINUOUS
 10
511.8631731218
 20
482.4871633937
 11
511.4779655356
 21
482.5337999701
  0
LINE
  5
50D
100
AcDbEntity
  8
0
100
AcDbLine
 62
7
  6
CONTINUOUS
 10
504.1217367508
 20
479.8377597457
 11
504.8505294772
 21
479.7376798035
  0
LINE
  5
50E
100
AcDbEntity
  8
0
100
AcDbLine
 62
7
  6
CONTINUOUS
 10
512.4536015496
 20
488.4820270265
 11
511.672925745
 21
488.6072417756
  0
LINE
  5
50F
100
AcDbEntity
  8
0
100
AcDbLine
 62
7
  6
CONTINUOUS
 10
512.4894791483
 20
482.3772022636
 11
511.8631731218
 21
482.4871633937
  0
LINE
  5
510
100
AcDbEntity
  8
0
100
AcDbLine
 62
7
  6
CONTINUOUS
 10
512.4968376797
 20
486.4393419816
 11
511.9249816665
 21
486.5427708468
  0
LINE
  5
511
100
AcDbEntity
  8
0
100
AcDbLine
 62
7
  6
CONTINUOUS
 10
512.5061571117
 20
484.4049064431
 11
512.000718763
 21
484.4969775089
  0
LINE
  5
512
100
AcDbEntity
  8
0
100
AcDbLine
 62
7
  6
CONTINUOUS
 10
512.6932773923
 20
474.1846075069
 11
512.2351255419
 21
474.3025744968
  0
LINE
  5
513
100
AcDbEntity
  8
0
100
AcDbLine
 62
7
  6
CONTINUOUS
 10
512.7145956617
 20
472.1437912339
 11
512.2744857612
 21
472.2634074846
  0
LWPOLYLINE
  5
514
100
AcDbEntity
  8
0
100
AcDbPolyline
 62
7
  6
CONTINUOUS
 90
3
 70
0
 10
512.7321003087
 20
466.0395232409
 10
512.3098442396
 20
466.160738703
 10
511.7224536162
 20
466.2490640669
  0
LWPOLYLINE
  5
515
100
AcDbEntity
  8
0
100
AcDbPolyline
 62
7
  6
CONTINUOUS
 90
3
 70
0
 10
512.7387417377
 20
464.005061979
 10
512.3250364851
 20
464.1256107608
 10
511.7524334732
 20
464.2133451708
  0
LWPOLYLINE
  5
516
100
AcDbEntity
  8
0
100
AcDbPolyline
 62
7
  6
CONTINUOUS
 90
3
 70
0
 10
503.6072777037
 20
471.8522335627
 10
504.0453033959
 20
471.723947223
 10
504.6535050102
 20
471.632783765
  0
LWPOLYLINE
  5
517
100
AcDbEntity
  8
0
100
AcDbPolyline
 62
7
  6
CONTINUOUS
 90
3
 70
0
 10
503.6048912101
 20
463.7254593434
 10
504.0421329613
 20
463.5967555422
 10
504.6773994958
 20
463.5018623787
  0
LWPOLYLINE
  5
518
100
AcDbEntity
  8
0
100
AcDbPolyline
 62
7
  6
CONTINUOUS
 90
3
 70
0
 10
503.6027022202
 20
465.7584774705
 10
504.0412982506
 20
465.6288484587
 10
504.6527881512
 20
465.5369287397
  0
LINE
  5
519
100
AcDbEntity
  8
0
100
AcDbLine
 62
7
  6
CONTINUOUS
 10
332.8409770535
 20
522.3568088464
 11
328.0542499843
 21
526.5593180777
  0
LINE
  5
51A
100
AcDbEntity
  8
0
100
AcDbLine
 62
7
  6
CONTINUOUS
 10
452.2852508183
 20
503.75812176
 11
451.4371286849
 21
503.3117524945
  0
LINE
  5
51B
100
AcDbEntity
  8
0
100
AcDbLine
 62
7
  6
CONTINUOUS
 10
198.2186710174
 20
488.1239502467
 11
198.6651535367
 21
488.2502509682
  0
LINE
  5
51C
100
AcDbEntity
  8
0
100
AcDbLine
 62
7
  6
CONTINUOUS
 10
190.0152631059
 20
474.4443515701
 11
189.5741849695
 21
474.3252336425
  0
LINE
  5
51D
100
AcDbEntity
  8
0
100
AcDbLine
 62
7
  6
CONTINUOUS
 10
190.0206950569
 20
478.5093478763
 11
189.5741460096
 21
478.3892143554
  0
LWPOLYLINE
  5
51E
100
AcDbEntity
  8
0
100
AcDbPolyline
 62
7
  6
CONTINUOUS
 90
3
 70
0
 10
190.08387066
 20
475.1438109962
 10
190.1316103144
 20
475.1563628916
 10
190.4984216691
 20
475.2205928428
  0
LWPOLYLINE
  5
51F
100
AcDbEntity
  8
0
100
AcDbPolyline
 62
7
  6
CONTINUOUS
 90
3
 70
0
 10
190.0817853703
 20
481.238965998
 10
190.1568530993
 20
481.2581653257
 10
190.5415328774
 20
481.3226068791
  0
LWPOLYLINE
  5
520
100
AcDbEntity
  8
0
100
AcDbPolyline
 62
7
  6
CONTINUOUS
 90
3
 70
0
 10
198.1331325681
 20
485.3897609917
 10
198.0552969228
 20
485.3700117286
 10
197.6583805359
 20
485.304093764
  0
LWPOLYLINE
  5
521
100
AcDbEntity
  8
0
100
AcDbPolyline
 62
7
  6
CONTINUOUS
 90
3
 70
0
 10
198.132750927
 20
477.2616796287
 10
198.0507726831
 20
477.2410259891
 10
197.6631375466
 20
477.1767565696
  0
LWPOLYLINE
  5
522
100
AcDbEntity
  8
0
100
AcDbPolyline
 62
7
  6
CONTINUOUS
 90
3
 70
0
 10
198.1326440993
 20
489.4536508638
 10
198.0500718158
 20
489.4328603456
 10
197.6619914272
 20
489.3686038612
  0
LWPOLYLINE
  5
523
100
AcDbEntity
  8
0
100
AcDbPolyline
 62
7
  6
CONTINUOUS
 90
3
 70
0
 10
190.0819010781
 20
479.2069971417
 10
190.1703401683
 20
479.2290840416
 10
190.6036781847
 20
479.2989818337
  0
LWPOLYLINE
  5
524
100
AcDbEntity
  8
0
100
AcDbPolyline
 62
7
  6
CONTINUOUS
 90
3
 70
0
 10
190.0837227339
 20
483.2715824467
 10
190.1789465314
 20
483.2949046371
 10
190.5867609871
 20
483.3607382707
  0
LWPOLYLINE
  5
525
100
AcDbEntity
  8
0
100
AcDbPolyline
 62
7
  6
CONTINUOUS
 90
3
 70
0
 10
198.1319140065
 20
481.3253760962
 10
198.0315549742
 20
481.3009371546
 10
197.5718228039
 20
481.2286306401
  0
LWPOLYLINE
  5
526
100
AcDbEntity
  8
0
100
AcDbPolyline
 62
7
  6
CONTINUOUS
 90
3
 70
0
 10
198.1330647478
 20
483.357707788
 10
198.0289275532
 20
483.3324026176
 10
197.5474420088
 20
483.2575226634
  0
LWPOLYLINE
  5
527
100
AcDbEntity
  8
0
100
AcDbPolyline
 62
7
  6
CONTINUOUS
 90
3
 70
0
 10
190.0834271401
 20
477.1755112599
 10
190.185056182
 20
477.2001710491
 10
190.6471305179
 20
477.2726506227
  0
LWPOLYLINE
  5
528
100
AcDbEntity
  8
0
100
AcDbPolyline
 62
7
  6
CONTINUOUS
 90
3
 70
0
 10
198.1304970591
 20
487.4209523963
 10
198.0313009744
 20
487.396869995
 10
197.5847394431
 20
487.3263089434
  0
LWPOLYLINE
  5
529
100
AcDbEntity
  8
0
100
AcDbPolyline
 62
7
  6
CONTINUOUS
 90
3
 70
0
 10
198.1301299767
 20
479.2928228808
 10
198.0291330832
 20
479.2684468041
 10
197.6048139154
 20
479.200931601
  0
LWPOLYLINE
  5
52A
100
AcDbEntity
  8
0
100
AcDbPolyline
 62
7
  6
CONTINUOUS
 90
3
 70
0
 10
190.0878603617
 20
487.3368765381
 10
190.2137059461
 20
487.3659549504
 10
190.7192472758
 20
487.4417484546
  0
LWPOLYLINE
  5
52B
100
AcDbEntity
  8
0
100
AcDbPolyline
 62
7
  6
CONTINUOUS
 90
3
 70
0
 10
190.0887484336
 20
485.3051134353
 10
190.2215081282
 20
485.3354883484
 10
190.7485050572
 20
485.4133284319
  0
LINE
  5
52C
100
AcDbEntity
  8
0
100
AcDbLine
 62
7
  6
CONTINUOUS
 10
272.5045816665
 20
520.7017524945
 11
313.852536585
 21
520.7017524945
  0
LINE
  5
52D
100
AcDbEntity
  8
0
100
AcDbLine
 62
7
  6
CONTINUOUS
 10
269.4590816665
 20
520.8377524945
 11
280.6350816665
 21
520.8377524945
  0
LINE
  5
52E
100
AcDbEntity
  8
0
100
AcDbLine
 62
7
  6
CONTINUOUS
 10
603.5124816665
 20
522.3617524945
 11
403.2237146836
 21
522.3617524945
  0
LINE
  5
52F
100
AcDbEntity
  8
0
100
AcDbLine
 62
7
  6
CONTINUOUS
 10
309.8656349145
 20
522.3617524945
 11
107.5014816665
 21
522.3617524945
  0
LINE
  5
530
100
AcDbEntity
  8
0
100
AcDbLine
 62
7
  6
CONTINUOUS
 10
250.9170816665
 20
523.8857524945
 11
285.9690816665
 21
523.8857524945
  0
LINE
  5
531
100
AcDbEntity
  8
0
100
AcDbLine
 62
7
  6
CONTINUOUS
 10
110.3970816665
 20
525.2573524945
 11
250.9170816665
 21
525.2573524945
  0
LINE
  5
532
100
AcDbEntity
  8
0
100
AcDbLine
 62
7
  6
CONTINUOUS
 10
285.9690816665
 20
525.2573524945
 11
313.6557111859
 21
525.2573524945
  0
LINE
  5
533
100
AcDbEntity
  8
0
100
AcDbLine
 62
7
  6
CONTINUOUS
 10
401.1097203463
 20
525.2573524945
 11
600.6168816665
 21
525.2573524945
  0
LINE
  5
534
100
AcDbEntity
  8
0
100
AcDbLine
 62
7
  6
CONTINUOUS
 10
285.9690816665
 20
525.6129524945
 11
250.9170816665
 21
525.6129524945
  0
LINE
  5
535
100
AcDbEntity
  8
0
100
AcDbLine
 62
7
  6
CONTINUOUS
 10
436.6874816665
 20
525.7653524945
 11
430.3374816665
 21
525.7653524945
  0
LINE
  5
536
100
AcDbEntity
  8
0
100
AcDbLine
 62
7
  6
CONTINUOUS
 10
281.1874816665
 20
525.7653524945
 11
274.8374816665
 21
525.7653524945
  0
LINE
  5
537
100
AcDbEntity
  8
0
100
AcDbLine
 62
7
  6
CONTINUOUS
 10
503.6505625523
 20
479.9611196094
 11
504.1217367508
 21
479.8377597457
  0
LWPOLYLINE
  5
538
100
AcDbEntity
  8
0
100
AcDbPolyline
 62
7
  6
CONTINUOUS
 90
3
 70
0
 10
512.7419004435
 20
480.2596616862
 10
512.3251725172
 20
480.3817418227
 10
511.7571899941
 20
480.4688538661
  0
LWPOLYLINE
  5
539
100
AcDbEntity
  8
0
100
AcDbPolyline
 62
7
  6
CONTINUOUS
 90
3
 70
0
 10
503.6004426391
 20
477.9515245874
 10
504.0356344602
 20
477.8218308063
 10
504.6637452266
 20
477.7275261289
  0
LWPOLYLINE
  5
53A
100
AcDbEntity
  8
0
100
AcDbPolyline
 62
7
  6
CONTINUOUS
 90
3
 70
0
 10
512.7452004425
 20
476.1941433685
 10
512.3696460057
 20
476.3086926424
 10
511.8329083471
 20
476.3951626209
  0
LWPOLYLINE
  5
53B
100
AcDbEntity
  8
0
100
AcDbPolyline
 62
7
  6
CONTINUOUS
 90
3
 70
0
 10
512.7553555297
 20
478.2213925776
 10
512.3622275139
 20
478.3422337655
 10
511.8302633549
 20
478.4274971153
  0
LWPOLYLINE
  5
53C
100
AcDbEntity
  8
0
100
AcDbPolyline
 62
7
  6
CONTINUOUS
 90
3
 70
0
 10
512.7553884362
 20
470.0933011318
 10
512.3793615814
 20
470.2106636454
 10
511.8514996841
 20
470.2967146373
  0
LWPOLYLINE
  5
53D
100
AcDbEntity
  8
0
100
AcDbPolyline
 62
7
  6
CONTINUOUS
 90
3
 70
0
 10
503.5823914408
 20
473.8964465878
 10
503.9985153733
 20
473.765280246
 10
504.5494482782
 20
473.6778428227
  0
LWPOLYLINE
  5
53E
100
AcDbEntity
  8
0
100
AcDbPolyline
 62
7
  6
CONTINUOUS
 90
3
 70
0
 10
503.5785114299
 20
475.9303498109
 10
503.9895923462
 20
475.7991417599
 10
504.535233026
 20
475.7116938131
  0
LINE
  5
53F
100
AcDbEntity
  8
0
100
AcDbLine
 62
7
  6
CONTINUOUS
 10
407.634253443
 20
451.4994524945
 11
407.634253443
 21
450.7120524945
  0
LINE
  5
540
100
AcDbEntity
  8
0
100
AcDbLine
 62
7
  6
CONTINUOUS
 10
408.2576633533
 20
452.579230133
 11
408.2576633533
 21
451.859378374
  0
LINE
  5
541
100
AcDbEntity
  8
0
100
AcDbLine
 62
7
  6
CONTINUOUS
 10
408.2576633533
 20
450.352126615
 11
408.2576633533
 21
449.632274856
  0
LINE
  5
542
100
AcDbEntity
  8
0
100
AcDbLine
 62
7
  6
CONTINUOUS
 10
410.8682999797
 20
449.6322748559
 11
410.8682999797
 21
452.579230133
  0
LINE
  5
543
100
AcDbEntity
  8
0
100
AcDbLine
 62
7
  6
CONTINUOUS
 10
411.49170989
 20
450.7120524945
 11
411.49170989
 21
451.4994524945
  0
LINE
  5
544
100
AcDbEntity
  8
0
100
AcDbLine
 62
7
  6
CONTINUOUS
 10
433.5148150422
 20
490.7720491437
 11
389.0008713619
 21
446.2581054634
  0
LINE
  5
545
100
AcDbEntity
  8
0
100
AcDbLine
 62
7
  6
CONTINUOUS
 10
435.8676421459
 20
488.41922204
 11
391.3536984656
 21
443.9052783597
  0
LINE
  5
546
100
AcDbEntity
  8
0
100
AcDbLine
 62
7
  6
CONTINUOUS
 10
359.3362974343
 20
539.7517524945
 11
348.5865996901
 21
539.7517524945
  0
LINE
  5
547
100
AcDbEntity
  8
0
100
AcDbLine
 62
7
  6
CONTINUOUS
 10
348.6029816665
 20
540.5137524945
 11
359.2709816665
 21
540.5137524945
  0
LINE
  5
548
100
AcDbEntity
  8
0
100
AcDbLine
 62
7
  6
CONTINUOUS
 10
359.2709816665
 20
543.8285498111
 11
348.6029816665
 21
543.8285498111
  0
LINE
  5
549
100
AcDbEntity
  8
0
100
AcDbLine
 62
7
  6
CONTINUOUS
 10
343.9073454987
 20
545.6191524945
 11
366.5066178343
 21
545.6191524945
  0
LWPOLYLINE
  5
54A
100
AcDbEntity
  8
0
100
AcDbPolyline
 62
7
  6
CONTINUOUS
 90
3
 70
0
 10
503.3880398877
 20
482.1606857044
 10
503.8412809107
 20
481.9298777473
 10
504.3921257987
 20
481.8270945398
  0
LINE
  5
54B
100
AcDbEntity
  8
0
100
AcDbLine
 62
7
  6
CONTINUOUS
 10
406.5740466789
 20
517.712817507
 11
445.9255290015
 21
478.3613351845
  0
LINE
  5
54C
100
AcDbEntity
  8
0
100
AcDbLine
 62
7
  6
CONTINUOUS
 10
374.805770356
 20
567.86259764
 11
375.0189752832
 21
567.5130284231
  0
LINE
  5
54D
100
AcDbEntity
  8
0
100
AcDbLine
 62
7
  6
CONTINUOUS
 10
430.3374816665
 20
525.2573524945
 11
430.3374816665
 21
525.7653524945
  0
LINE
  5
54E
100
AcDbEntity
  8
0
100
AcDbLine
 62
7
  6
CONTINUOUS
 10
436.9452728806
 20
487.3415913054
 11
392.4313292001
 21
442.8276476251
  0
LINE
  5
54F
100
AcDbEntity
  8
0
100
AcDbLine
 62
7
  6
CONTINUOUS
 10
445.9255290015
 20
478.3613351845
 11
401.4115853211
 21
433.847391504
  0
LINE
  5
550
100
AcDbEntity
  8
0
100
AcDbLine
 62
7
  6
CONTINUOUS
 10
408.9395717562
 20
452.972930133
 11
408.2576633533
 21
452.579230133
  0
LINE
  5
551
100
AcDbEntity
  8
0
100
AcDbLine
 62
7
  6
CONTINUOUS
 10
410.1863915768
 20
452.972930133
 11
407.634253443
 21
451.4994524945
  0
LINE
  5
552
100
AcDbEntity
  8
0
100
AcDbLine
 62
7
  6
CONTINUOUS
 10
408.9395717562
 20
449.2385748559
 11
409.5629816665
 21
449.5985007355
  0
LINE
  5
553
100
AcDbEntity
  8
0
100
AcDbLine
 62
7
  6
CONTINUOUS
 10
410.8682999797
 20
450.352126615
 11
411.49170989
 21
450.7120524945
  0
LINE
  5
554
100
AcDbEntity
  8
0
100
AcDbLine
 62
7
  6
CONTINUOUS
 10
410.1863915768
 20
449.2385748559
 11
410.8682999797
 21
449.6322748559
  0
LWPOLYLINE
  5
555
100
AcDbEntity
  8
0
100
AcDbPolyline
 62
7
  6
CONTINUOUS
 90
3
 70
0
 10
503.8624789356
 20
483.3919218185
 10
503.3733528178
 20
483.1411006012
 10
503.1748546612
 20
482.6576579634
  0
LWPOLYLINE
  5
556
100
AcDbEntity
  8
0
100
AcDbPolyline
 62
7
  6
CONTINUOUS
 90
4
 70
0
 10
512.2040556693
 20
470.001522721
 10
512.2047897659
 20
470.0017991863
 10
512.003166798
 20
469.9577686117
 10
511.5206960495
 20
469.8891827155
  0
LWPOLYLINE
  5
557
100
AcDbEntity
  8
0
100
AcDbPolyline
 62
7
  6
CONTINUOUS
 90
4
 70
0
 10
512.203688733
 20
467.9697416075
 10
512.2005320477
 20
467.9687495381
 10
511.9518298759
 20
467.9171378628
 10
511.4331894416
 20
467.8468504125
  0
LWPOLYLINE
  5
558
100
AcDbEntity
  8
0
100
AcDbPolyline
 62
7
  6
CONTINUOUS
 90
4
 70
0
 10
512.204588844
 20
476.0977089574
 10
512.2039264241
 20
476.0975043793
 10
511.9915060667
 20
476.0517284725
 10
511.5016831403
 20
475.982904057
  0
LINE
  5
559
100
AcDbEntity
  8
0
100
AcDbLine
 62
7
  6
CONTINUOUS
 10
512.3124559236
 20
466.6442376131
 11
512.7534265979
 21
466.7743616174
  0
LINE
  5
55A
100
AcDbEntity
  8
0
100
AcDbLine
 62
7
  6
CONTINUOUS
 10
375.5324652876
 20
566.3201524945
 11
375.0189816665
 21
566.3201524945
  0
LINE
  5
55B
100
AcDbEntity
  8
0
100
AcDbLine
 62
7
  6
CONTINUOUS
 10
375.0189816665
 20
572.6701524945
 11
375.5324652876
 21
572.6701524945
  0
LINE
  5
55C
100
AcDbEntity
  8
0
100
AcDbLine
 62
7
  6
CONTINUOUS
 10
359.6971097267
 20
587.4472805552
 11
373.1591097273
 21
573.9852805546
  0
LINE
  5
55D
100
AcDbEntity
  8
0
100
AcDbLine
 62
7
  6
CONTINUOUS
 10
436.6874816665
 20
525.7653524945
 11
436.6874816665
 21
525.2573524945
  0
LINE
  5
55E
100
AcDbEntity
  8
0
100
AcDbLine
 62
7
  6
CONTINUOUS
 10
452.2852508182
 20
503.75812176
 11
452.2852508182
 21
502.7882540989
  0
LINE
  5
55F
100
AcDbEntity
  8
0
100
AcDbLine
 62
7
  6
CONTINUOUS
 10
453.3463708071
 20
504.8497554777
 11
453.3463708071
 21
505.8196231388
  0
LINE
  5
560
100
AcDbEntity
  8
0
100
AcDbLine
 62
7
  6
CONTINUOUS
 10
453.3463708071
 20
505.8196231388
 11
452.2852508182
 21
503.75812176
  0
LINE
  5
561
100
AcDbEntity
  8
0
100
AcDbLine
 62
7
  6
CONTINUOUS
 10
452.2852508183
 20
502.7882540989
 11
453.3463708071
 21
504.8497554777
  0
LINE
  5
562
100
AcDbEntity
  8
0
100
AcDbLine
 62
7
  6
CONTINUOUS
 10
503.8035624514
 20
475.2480249818
 11
503.3862770743
 21
475.0259062483
  0
LINE
  5
563
100
AcDbEntity
  8
0
100
AcDbLine
 62
7
  6
CONTINUOUS
 10
503.8102199027
 20
469.153904203
 11
503.4110033727
 21
468.9529029636
  0
LWPOLYLINE
  5
564
100
AcDbEntity
  8
0
100
AcDbPolyline
 62
7
  6
CONTINUOUS
 90
3
 70
0
 10
503.1876347483
 20
470.3366177477
 10
503.6120375823
 20
469.8180135159
 10
504.0537840835
 20
469.69029364
  0
LINE
  5
565
100
AcDbEntity
  8
0
100
AcDbLine
 62
7
  6
CONTINUOUS
 10
503.1892556127
 20
466.2694929711
 11
503.6027022202
 21
465.7584774705
  0
LWPOLYLINE
  5
566
100
AcDbEntity
  8
0
100
AcDbPolyline
 62
7
  6
CONTINUOUS
 90
3
 70
0
 10
503.6352877384
 20
485.3486964724
 10
503.2027682121
 20
484.881483334
 10
503.1747249077
 20
484.6902595648
  0
LWPOLYLINE
  5
567
100
AcDbEntity
  8
0
100
AcDbPolyline
 62
7
  6
CONTINUOUS
 90
3
 70
0
 10
503.6180756331
 20
481.2770187503
 10
503.209813813
 20
480.8399808033
 10
503.1746938297
 20
480.6262616782
  0
LWPOLYLINE
  5
568
100
AcDbEntity
  8
0
100
AcDbPolyline
 62
7
  6
CONTINUOUS
 90
3
 70
0
 10
503.6311765079
 20
479.2509351326
 10
503.2075264776
 20
478.8006651515
 10
503.1748157976
 20
478.5942322486
  0
LINE
  5
569
100
AcDbEntity
  8
0
100
AcDbLine
 62
7
  6
CONTINUOUS
 10
584.6966346527
 20
503.3117524945
 11
583.8485125147
 21
503.75812176
  0
LINE
  5
56A
100
AcDbEntity
  8
0
100
AcDbLine
 62
7
  6
CONTINUOUS
 10
503.1863304716
 20
474.4073931624
 11
503.5823914408
 21
473.8964465878
  0
LINE
  5
56B
100
AcDbEntity
  8
0
100
AcDbLine
 62
7
  6
CONTINUOUS
 10
482.1942816665
 20
459.9957431173
 11
482.1942816665
 21
450.3437618717
  0
LINE
  5
56C
100
AcDbEntity
  8
0
100
AcDbLine
 62
7
  6
CONTINUOUS
 10
483.7182816665
 20
450.3437618717
 11
483.7182816665
 21
459.9957431173
  0
LINE
  5
56D
100
AcDbEntity
  8
0
100
AcDbLine
 62
7
  6
CONTINUOUS
 10
483.7182816665
 20
431.8017524945
 11
483.7182816665
 21
450.3437618717
  0
LINE
  5
56E
100
AcDbEntity
  8
0
100
AcDbLine
 62
7
  6
CONTINUOUS
 10
483.7182816665
 20
459.9957431173
 11
483.7182816665
 21
496.4193524945
  0
LINE
  5
56F
100
AcDbEntity
  8
0
100
AcDbLine
 62
7
  6
CONTINUOUS
 10
485.6994816665
 20
496.4193524945
 11
485.6994816665
 21
440.3869524945
  0
LINE
  5
570
100
AcDbEntity
  8
0
100
AcDbLine
 62
7
  6
CONTINUOUS
 10
487.0964816665
 20
480.5697524945
 11
487.0964816665
 21
450.0897524945
  0
LINE
  5
571
100
AcDbEntity
  8
0
100
AcDbLine
 62
7
  6
CONTINUOUS
 10
487.2742816665
 20
506.7317524945
 11
487.2742816665
 21
499.9245524945
  0
LINE
  5
572
100
AcDbEntity
  8
0
100
AcDbLine
 62
7
  6
CONTINUOUS
 10
488.8998816665
 20
450.0897524945
 11
488.8998816665
 21
480.5697524945
  0
LINE
  5
573
100
AcDbEntity
  8
0
100
AcDbLine
 62
7
  6
CONTINUOUS
 10
489.6618816665
 20
492.5669096181
 11
489.6618816665
 21
457.5319524945
  0
LWPOLYLINE
  5
574
100
AcDbEntity
  8
0
100
AcDbPolyline
 62
7
  6
CONTINUOUS
 90
3
 70
0
 10
512.7832671826
 20
481.0128432557
 10
513.1732110302
 20
481.5344402865
 10
513.1820920067
 20
481.6422452512
  0
LWPOLYLINE
  5
575
100
AcDbEntity
  8
0
100
AcDbPolyline
 62
7
  6
CONTINUOUS
 90
3
 70
0
 10
512.767540578
 20
478.972927393
 10
513.1697778837
 20
479.482777619
 10
513.1822131649
 20
479.6103230501
  0
LWPOLYLINE
  5
576
100
AcDbEntity
  8
0
100
AcDbPolyline
 62
7
  6
CONTINUOUS
 90
3
 70
0
 10
512.7522677598
 20
472.869482166
 10
513.1672077828
 20
473.3745862737
 10
513.1821261468
 20
473.5142949719
  0
LWPOLYLINE
  5
577
100
AcDbEntity
  8
0
100
AcDbPolyline
 62
7
  6
CONTINUOUS
 90
3
 70
0
 10
512.7484062006
 20
474.8996280969
 10
513.167188666
 20
475.4063418723
 10
513.1821261263
 20
475.5461452279
  0
LWPOLYLINE
  5
578
100
AcDbEntity
  8
0
100
AcDbPolyline
 62
7
  6
CONTINUOUS
 90
3
 70
0
 10
512.7451950112
 20
470.8341220873
 10
513.167804047
 20
471.3453945371
 10
513.1821022649
 20
471.4821724321
  0
LWPOLYLINE
  5
579
100
AcDbEntity
  8
0
100
AcDbPolyline
 62
7
  6
CONTINUOUS
 90
3
 70
0
 10
512.735342989
 20
468.7976541895
 10
513.168144286
 20
469.3144480416
 10
513.1822131613
 20
469.4501112445
  0
LWPOLYLINE
  5
57A
100
AcDbEntity
  8
0
100
AcDbPolyline
 62
7
  6
CONTINUOUS
 90
3
 70
0
 10
512.7360893561
 20
476.9259623258
 10
513.1675408328
 20
477.4402308585
 10
513.1821022616
 20
477.5782629005
  0
LWPOLYLINE
  5
57B
100
AcDbEntity
  8
0
100
AcDbPolyline
 62
7
  6
CONTINUOUS
 90
3
 70
0
 10
512.7498876294
 20
483.0283777867
 10
513.162800085
 20
483.5151617565
 10
513.1821719476
 20
483.6743389741
  0
LWPOLYLINE
  5
57C
100
AcDbEntity
  8
0
100
AcDbPolyline
 62
7
  6
CONTINUOUS
 90
3
 70
0
 10
512.7172112581
 20
485.045696132
 10
513.1648233182
 20
485.5551588849
 10
513.1822798981
 20
485.7062862195
  0
LWPOLYLINE
  5
57D
100
AcDbEntity
  8
0
100
AcDbPolyline
 62
7
  6
CONTINUOUS
 90
3
 70
0
 10
512.7316632657
 20
487.0839951745
 10
513.1602445118
 20
487.5687193875
 10
513.1821982356
 20
487.7381012979
  0
LWPOLYLINE
  5
57E
100
AcDbEntity
  8
0
100
AcDbPolyline
 62
7
  6
CONTINUOUS
 90
3
 70
0
 10
503.6288136694
 20
477.2179076808
 10
503.2029696371
 20
476.7535900509
 10
503.1748689792
 20
476.5621250207
  0
LWPOLYLINE
  5
57F
100
AcDbEntity
  8
0
100
AcDbPolyline
 62
7
  6
CONTINUOUS
 90
3
 70
0
 10
503.6280309354
 20
462.9928965795
 10
503.2099059002
 20
462.5483467895
 10
503.1758237509
 20
462.3376165575
  0
LWPOLYLINE
  5
580
100
AcDbEntity
  8
0
100
AcDbPolyline
 62
7
  6
CONTINUOUS
 90
3
 70
0
 10
503.6451850736
 20
473.1609973697
 10
503.203677922
 20
472.6920092129
 10
503.174868979
 20
472.498165836
  0
LWPOLYLINE
  5
581
100
AcDbEntity
  8
0
100
AcDbPolyline
 62
7
  6
CONTINUOUS
 90
3
 70
0
 10
503.6548337566
 20
465.0366285588
 10
503.2164062957
 20
464.6028345337
 10
503.1746828531
 20
464.370243047
  0
LINE
  5
582
100
AcDbEntity
  8
0
100
AcDbLine
 62
7
  6
CONTINUOUS
 10
503.1748474962
 20
482.6583402085
 11
503.3880398877
 21
482.1606857044
  0
LWPOLYLINE
  5
583
100
AcDbEntity
  8
0
100
AcDbPolyline
 62
7
  6
CONTINUOUS
 90
3
 70
0
 10
503.174693832
 20
468.434042289
 10
503.3734413119
 20
467.9510790167
 10
503.8368418259
 20
467.7070807992
  0
LWPOLYLINE
  5
584
100
AcDbEntity
  8
0
100
AcDbPolyline
 62
7
  6
CONTINUOUS
 90
5
 70
0
 10
513.1822239248
 20
467.4179017871
 10
512.9926186498
 20
467.8912879773
 10
512.5545688881
 20
468.1352518798
 10
512.3387917715
 20
468.1867910829
 10
511.7513315409
 20
468.2776014682
  0
LWPOLYLINE
  5
585
100
AcDbEntity
  8
0
100
AcDbPolyline
 62
7
  6
CONTINUOUS
 90
5
 70
0
 10
503.1747250253
 20
484.6903200425
 10
503.3530356811
 20
484.2290410974
 10
503.8065534562
 20
483.9714330703
 10
504.3288302924
 20
483.8682858194
 10
504.7235419926
 20
483.8163378732
  0
LWPOLYLINE
  5
586
100
AcDbEntity
  8
0
100
AcDbPolyline
 62
7
  6
CONTINUOUS
 90
3
 70
0
 10
503.1749670557
 20
464.3697991163
 10
503.1895739488
 20
464.2315876866
 10
503.6048912101
 20
463.7254593434
  0
LWPOLYLINE
  5
587
100
AcDbEntity
  8
0
100
AcDbPolyline
 62
7
  6
CONTINUOUS
 90
3
 70
0
 10
503.1748690769
 20
472.4982370118
 10
503.1893658312
 20
472.3605122391
 10
503.6072777037
 20
471.8522335627
  0
LINE
  5
588
100
AcDbEntity
  8
0
100
AcDbLine
 62
7
  6
CONTINUOUS
 10
503.1758615076
 20
466.401896632
 11
503.1892556127
 21
466.2694929711
  0
LINE
  5
589
100
AcDbEntity
  8
0
100
AcDbLine
 62
7
  6
CONTINUOUS
 10
503.1748159197
 20
470.4661313641
 11
503.1876347483
 21
470.3366177477
  0
LINE
  5
58A
100
AcDbEntity
  8
0
100
AcDbLine
 62
7
  6
CONTINUOUS
 10
503.1747797596
 20
474.5291793854
 11
503.1863304716
 21
474.4073931624
  0
LWPOLYLINE
  5
58B
100
AcDbEntity
  8
0
100
AcDbPolyline
 62
7
  6
CONTINUOUS
 90
5
 70
0
 10
503.1747036016
 20
486.7221774824
 10
503.1863045827
 20
486.5989581734
 10
503.6117947506
 20
486.0741738767
 10
504.0898598902
 20
485.9395079389
 10
504.8983016391
 20
485.8283501878
  0
LWPOLYLINE
  5
58C
100
AcDbEntity
  8
0
100
AcDbPolyline
 62
7
  6
CONTINUOUS
 90
3
 70
0
 10
503.1748690642
 20
476.5621926544
 10
503.1857550231
 20
476.4428534529
 10
503.5785114299
 20
475.9303498109
  0
LWPOLYLINE
  5
58D
100
AcDbEntity
  8
0
100
AcDbPolyline
 62
7
  6
CONTINUOUS
 90
3
 70
0
 10
503.1748616499
 20
462.3385664012
 10
503.1839684569
 20
462.2294613621
 10
503.2166892759
 20
462.1055161777
  0
LINE
  5
58E
100
AcDbEntity
  8
0
100
AcDbLine
 62
7
  6
CONTINUOUS
 10
501.7014816665
 20
464.5271124945
 11
502.4634816665
 21
450.4707524945
  0
LINE
  5
58F
100
AcDbEntity
  8
0
100
AcDbLine
 62
7
  6
CONTINUOUS
 10
513.1808928963
 20
465.386681096
 11
513.1809143439
 21
465.3857257698
  0
LINE
  5
590
100
AcDbEntity
  8
0
100
AcDbLine
 62
7
  6
CONTINUOUS
 10
503.1758797317
 20
466.4026447138
 11
503.1758931987
 21
466.4018932093
  0
LINE
  5
591
100
AcDbEntity
  8
0
100
AcDbLine
 62
7
  6
CONTINUOUS
 10
511.8604752566
 20
465.3857773827
 11
511.8604622994
 21
465.3866221808
  0
LINE
  5
592
100
AcDbEntity
  8
0
100
AcDbLine
 62
7
  6
CONTINUOUS
 10
504.4963742287
 20
466.4018496145
 11
504.4963634921
 21
466.4026421884
  0
LINE
  5
593
100
AcDbEntity
  8
0
100
AcDbLine
 62
7
  6
CONTINUOUS
 10
504.4956035344
 20
482.6582808873
 11
504.4956115811
 21
482.6575393205
  0
LINE
  5
594
100
AcDbEntity
  8
0
100
AcDbLine
 62
7
  6
CONTINUOUS
 10
503.1748546612
 20
482.6576579634
 11
503.1748474962
 21
482.6583402085
  0
LINE
  5
595
100
AcDbEntity
  8
0
100
AcDbLine
 62
7
  6
CONTINUOUS
 10
513.1822204954
 20
467.4182848353
 11
513.1822239248
 21
467.4179017871
  0
LINE
  5
596
100
AcDbEntity
  8
0
100
AcDbLine
 62
7
  6
CONTINUOUS
 10
503.1746828531
 20
464.370243047
 11
503.1746866473
 21
464.3697977414
  0
LINE
  5
597
100
AcDbEntity
  8
0
100
AcDbLine
 62
7
  6
CONTINUOUS
 10
504.4954859729
 20
464.3697509573
 11
504.4954825092
 21
464.370216334
  0
LINE
  5
598
100
AcDbEntity
  8
0
100
AcDbLine
 62
7
  6
CONTINUOUS
 10
511.8614391256
 20
467.4179524206
 11
511.8614374461
 21
467.4182134753
  0
LINE
  5
599
100
AcDbEntity
  8
0
100
AcDbLine
 62
7
  6
CONTINUOUS
 10
501.0410816665
 20
450.4707524945
 11
501.0410816665
 21
445.6955524945
  0
LINE
  5
59A
100
AcDbEntity
  8
0
100
AcDbLine
 62
7
  6
CONTINUOUS
 10
501.7014816665
 20
465.6965188242
 11
501.7014816665
 21
459.6551185619
  0
LINE
  5
59B
100
AcDbEntity
  8
0
100
AcDbLine
 62
7
  6
CONTINUOUS
 10
502.4634816665
 20
488.9517524945
 11
502.4634816665
 21
482.6017524945
  0
LINE
  5
59C
100
AcDbEntity
  8
0
100
AcDbLine
 62
7
  6
CONTINUOUS
 10
502.5269816665
 20
478.0297524945
 11
502.5269816665
 21
486.7162665152
  0
LINE
  5
59D
100
AcDbEntity
  8
0
100
AcDbLine
 62
7
  6
CONTINUOUS
 10
505.1304816665
 20
459.6551185619
 11
505.1304816665
 21
468.0660244508
  0
LINE
  5
59E
100
AcDbEntity
  8
0
100
AcDbLine
 62
7
  6
CONTINUOUS
 10
505.8289816665
 20
486.381711174
 11
505.8289816665
 21
485.7378889669
  0
LINE
  5
59F
100
AcDbEntity
  8
0
100
AcDbLine
 62
7
  6
CONTINUOUS
 10
511.2264816665
 20
468.0660244508
 11
511.2264816665
 21
459.6551185619
  0
LINE
  5
5A0
100
AcDbEntity
  8
0
100
AcDbLine
 62
7
  6
CONTINUOUS
 10
511.9249816665
 20
484.8761638083
 11
511.9249816665
 21
484.4787265092
  0
LINE
  5
5A1
100
AcDbEntity
  8
0
100
AcDbLine
 62
7
  6
CONTINUOUS
 10
511.9251388639
 20
486.7096434013
 11
511.9249816665
 21
486.5426296751
  0
LINE
  5
5A2
100
AcDbEntity
  8
0
100
AcDbLine
 62
7
  6
CONTINUOUS
 10
503.1747033576
 20
486.7220593639
 11
503.1747036016
 21
486.7221774824
  0
LINE
  5
5A3
100
AcDbEntity
  8
0
100
AcDbLine
 62
7
  6
CONTINUOUS
 10
503.1747917217
 20
474.5341314945
 11
503.1747790487
 21
474.5301508794
  0
LINE
  5
5A4
100
AcDbEntity
  8
0
100
AcDbLine
 62
7
  6
CONTINUOUS
 10
511.8604364228
 20
463.3541996529
 11
511.8604384925
 21
463.3545612694
  0
LINE
  5
5A5
100
AcDbEntity
  8
0
100
AcDbLine
 62
7
  6
CONTINUOUS
 10
511.861342176
 20
481.6421965852
 11
511.861335111
 21
481.6415219605
  0
LINE
  5
5A6
100
AcDbEntity
  8
0
100
AcDbLine
 62
7
  6
CONTINUOUS
 10
513.1821650841
 20
483.6737147191
 11
513.1821719476
 21
483.6743389741
  0
LINE
  5
5A7
100
AcDbEntity
  8
0
100
AcDbLine
 62
7
  6
CONTINUOUS
 10
511.8614009977
 20
483.6742978742
 11
511.8613931432
 21
483.6735873517
  0
LINE
  5
5A8
100
AcDbEntity
  8
0
100
AcDbLine
 62
7
  6
CONTINUOUS
 10
513.182081721
 20
481.6414950984
 11
513.1820920067
 21
481.6422452512
  0
LINE
  5
5A9
100
AcDbEntity
  8
0
100
AcDbLine
 62
7
  6
CONTINUOUS
 10
513.1808643944
 20
463.3545423239
 11
513.1808534955
 21
463.3538676849
  0
LINE
  5
5AA
100
AcDbEntity
  8
0
100
AcDbLine
 62
7
  6
CONTINUOUS
 10
504.4963222904
 20
462.3376489635
 11
504.4963375334
 21
462.3385666942
  0
LINE
  5
5AB
100
AcDbEntity
  8
0
100
AcDbLine
 62
7
  6
CONTINUOUS
 10
503.1758449906
 20
462.3385605745
 11
503.1758237509
 21
462.3376165575
  0
LINE
  5
5AC
100
AcDbEntity
  8
0
100
AcDbLine
 62
7
  6
CONTINUOUS
 10
503.3862770743
 20
475.0259062483
 11
503.2021437579
 21
474.3411082045
  0
LINE
  5
5AD
100
AcDbEntity
  8
0
100
AcDbLine
 62
7
  6
CONTINUOUS
 10
503.4026041634
 20
470.9772986924
 11
503.2038396854
 21
470.2715151029
  0
LINE
  5
5AE
100
AcDbEntity
  8
0
100
AcDbLine
 62
7
  6
CONTINUOUS
 10
503.3969420159
 20
466.9077014829
 11
503.2014288813
 21
466.2199894061
  0
LWPOLYLINE
  5
5AF
100
AcDbEntity
  8
0
100
AcDbPolyline
 62
7
  6
CONTINUOUS
 90
3
 70
0
 10
503.4110033727
 20
468.9529029636
 10
503.1995110986
 20
468.2541330814
 10
503.1746938
 20
468.4341241871
  0
LWPOLYLINE
  5
5B0
100
AcDbEntity
  8
0
100
AcDbPolyline
 62
7
  6
CONTINUOUS
 90
3
 70
0
 10
512.7713246088
 20
464.7513686683
 10
513.1681894182
 20
465.2546479618
 10
513.1815115474
 20
465.3866757652
  0
LWPOLYLINE
  5
5B1
100
AcDbEntity
  8
0
100
AcDbPolyline
 62
7
  6
CONTINUOUS
 90
3
 70
0
 10
512.7534265979
 20
466.7743616174
 10
513.1712008867
 20
467.2979712099
 10
513.1822758952
 20
467.4182823497
  0
LWPOLYLINE
  5
5B2
100
AcDbEntity
  8
0
100
AcDbPolyline
 62
7
  6
CONTINUOUS
 90
3
 70
0
 10
513.182081721
 20
481.6414950984
 10
512.9676902148
 20
482.1408579221
 10
512.4894791483
 20
482.3772022636
  0
LWPOLYLINE
  5
5B3
100
AcDbEntity
  8
0
100
AcDbPolyline
 62
7
  6
CONTINUOUS
 90
3
 70
0
 10
513.1821650841
 20
483.673714719
 10
512.9871743722
 20
484.1534727474
 10
512.5061571117
 20
484.4049064431
  0
LWPOLYLINE
  5
5B4
100
AcDbEntity
  8
0
100
AcDbPolyline
 62
7
  6
CONTINUOUS
 90
4
 70
0
 10
513.1821983496
 20
487.7380713678
 10
513.1364332131
 20
487.9816144781
 10
512.681728266
 20
488.4131586261
 10
512.4536015496
 20
488.4820270265
  0
LWPOLYLINE
  5
5B5
100
AcDbEntity
  8
0
100
AcDbPolyline
 62
7
  6
CONTINUOUS
 90
3
 70
0
 10
513.1821262185
 20
473.5141967129
 10
513.1492371362
 20
473.7212096084
 10
512.6932773923
 20
474.1846075069
  0
LWPOLYLINE
  5
5B6
100
AcDbEntity
  8
0
100
AcDbPolyline
 62
7
  6
CONTINUOUS
 90
4
 70
0
 10
513.1822799821
 20
485.706269103
 10
513.1504378664
 20
485.9098234491
 10
512.721611029
 20
486.3647092944
 10
512.4968376797
 20
486.4393419816
  0
LWPOLYLINE
  5
5B7
100
AcDbEntity
  8
0
100
AcDbPolyline
 62
7
  6
CONTINUOUS
 90
3
 70
0
 10
513.1821262412
 20
475.5460881821
 10
513.150845964
 20
475.7479796538
 10
512.7452004425
 20
476.1941433685
  0
LWPOLYLINE
  5
5B8
100
AcDbEntity
  8
0
100
AcDbPolyline
 62
7
  6
CONTINUOUS
 90
3
 70
0
 10
513.1821023309
 20
471.48214532
 10
513.1515733612
 20
471.681598805
 10
512.7145956617
 20
472.1437912339
  0
LWPOLYLINE
  5
5B9
100
AcDbEntity
  8
0
100
AcDbPolyline
 62
7
  6
CONTINUOUS
 90
3
 70
0
 10
513.1809143439
 20
465.3857257698
 10
513.1505922941
 20
465.5846056282
 10
512.7321003087
 20
466.0395232409
  0
LWPOLYLINE
  5
5BA
100
AcDbEntity
  8
0
100
AcDbPolyline
 62
7
  6
CONTINUOUS
 90
3
 70
0
 10
513.1808643944
 20
463.3545423239
 10
513.1516858101
 20
463.5496424083
 10
512.7387417377
 20
464.005061979
  0
LINE
  5
5BB
100
AcDbEntity
  8
0
100
AcDbLine
 62
7
  6
CONTINUOUS
 10
503.2038396854
 20
470.2715151029
 11
503.1748158049
 21
470.4660357585
  0
LWPOLYLINE
  5
5BC
100
AcDbEntity
  8
0
100
AcDbPolyline
 62
7
  6
CONTINUOUS
 90
3
 70
0
 10
513.1822132589
 20
469.4500325175
 10
513.1557290772
 20
469.6359349764
 10
512.7553884362
 20
470.0933011318
  0
LINE
  5
5BD
100
AcDbEntity
  8
0
100
AcDbLine
 62
7
  6
CONTINUOUS
 10
503.2021437579
 20
474.3411082045
 11
503.1747917215
 21
474.534134674
  0
LWPOLYLINE
  5
5BE
100
AcDbEntity
  8
0
100
AcDbPolyline
 62
7
  6
CONTINUOUS
 90
3
 70
0
 10
513.1822132617
 20
479.6102509213
 10
513.1564113971
 20
479.7937486702
 10
512.7419004435
 20
480.2596616862
  0
LINE
  5
5BF
100
AcDbEntity
  8
0
100
AcDbLine
 62
7
  6
CONTINUOUS
 10
503.2014288813
 20
466.2199894061
 11
503.1758797317
 21
466.4026447138
  0
LWPOLYLINE
  5
5C0
100
AcDbEntity
  8
0
100
AcDbPolyline
 62
7
  6
CONTINUOUS
 90
3
 70
0
 10
513.1821023614
 20
477.5781858999
 10
513.1570905623
 20
477.7588918045
 10
512.7553555297
 20
478.2213925776
  0
LWPOLYLINE
  5
5C1
100
AcDbEntity
  8
0
100
AcDbPolyline
 62
7
  6
CONTINUOUS
 90
3
 70
0
 10
503.1746941889
 20
480.6263449024
 10
503.1918479379
 20
480.4765038743
 10
503.6505625523
 20
479.9611196094
  0
LWPOLYLINE
  5
5C2
100
AcDbEntity
  8
0
100
AcDbPolyline
 62
7
  6
CONTINUOUS
 90
3
 70
0
 10
503.1748158307
 20
478.5942864899
 10
503.1910519677
 20
478.448571762
 10
503.6004426391
 20
477.9515245874
  0
LINE
  5
5C3
100
AcDbEntity
  8
0
100
AcDbLine
 62
7
  6
CONTINUOUS
 10
513.8934816665
 20
488.9517524945
 11
513.8934816665
 21
482.6017524945
  0
LINE
  5
5C4
100
AcDbEntity
  8
0
100
AcDbLine
 62
7
  6
CONTINUOUS
 10
514.6554816665
 20
459.6551185619
 11
514.6554816665
 21
465.6965188242
  0
LINE
  5
5C5
100
AcDbEntity
  8
0
100
AcDbLine
 62
7
  6
CONTINUOUS
 10
515.2269816665
 20
486.7162665152
 11
515.2269816665
 21
478.0297524945
  0
LINE
  5
5C6
100
AcDbEntity
  8
0
100
AcDbLine
 62
7
  6
CONTINUOUS
 10
515.3158816665
 20
450.4707524945
 11
515.3158816665
 21
445.6955524945
  0
LINE
  5
5C7
100
AcDbEntity
  8
0
100
AcDbLine
 62
7
  6
CONTINUOUS
 10
528.0920816665
 20
457.5319524945
 11
528.0920816665
 21
492.5669096181
  0
LINE
  5
5C8
100
AcDbEntity
  8
0
100
AcDbLine
 62
7
  6
CONTINUOUS
 10
528.8540816665
 20
480.5697524945
 11
528.8540816665
 21
450.0897524945
  0
LINE
  5
5C9
100
AcDbEntity
  8
0
100
AcDbLine
 62
7
  6
CONTINUOUS
 10
529.0826816665
 20
506.7317524945
 11
529.0826816665
 21
500.6867339184
  0
LINE
  5
5CA
100
AcDbEntity
  8
0
100
AcDbLine
 62
7
  6
CONTINUOUS
 10
529.0826816665
 20
499.9250499192
 11
529.0826816665
 21
499.9223128355
  0
LINE
  5
5CB
100
AcDbEntity
  8
0
100
AcDbLine
 62
7
  6
CONTINUOUS
 10
530.6574816665
 20
450.0897524945
 11
530.6574816665
 21
480.5697524945
  0
LINE
  5
5CC
100
AcDbEntity
  8
0
100
AcDbLine
 62
7
  6
CONTINUOUS
 10
530.6574816665
 20
480.5697524945
 11
530.6574816665
 21
496.4193524945
  0
LINE
  5
5CD
100
AcDbEntity
  8
0
100
AcDbLine
 62
7
  6
CONTINUOUS
 10
530.6574816665
 20
440.3869524945
 11
530.6574816665
 21
450.0897524945
  0
LINE
  5
5CE
100
AcDbEntity
  8
0
100
AcDbLine
 62
7
  6
CONTINUOUS
 10
532.6386816665
 20
496.4193524945
 11
532.6386816665
 21
431.8017524945
  0
LINE
  5
5CF
100
AcDbEntity
  8
0
100
AcDbLine
 62
7
  6
CONTINUOUS
 10
514.6554816665
 20
464.5271124945
 11
513.8934816665
 21
450.4707524945
  0
LINE
  5
5D0
100
AcDbEntity
  8
0
100
AcDbLine
 62
7
  6
CONTINUOUS
 10
537.0582816665
 20
452.8075596585
 11
537.0582816665
 21
457.5319453305
  0
LINE
  5
5D1
100
AcDbEntity
  8
0
100
AcDbLine
 62
7
  6
CONTINUOUS
 10
547.7389816665
 20
402.9981524945
 11
547.7389816665
 21
400.6105524945
  0
LINE
  5
5D2
100
AcDbEntity
  8
0
100
AcDbLine
 62
7
  6
CONTINUOUS
 10
566.1735212115
 20
400.6105524945
 11
566.1735212115
 21
402.9981524945
  0
LINE
  5
5D3
100
AcDbEntity
  8
0
100
AcDbLine
 62
7
  6
CONTINUOUS
 10
576.7352110825
 20
401.3530870739
 11
574.7892802393
 21
399.969617915
  0
LINE
  5
5D4
100
AcDbEntity
  8
0
100
AcDbLine
 62
7
  6
CONTINUOUS
 10
582.7873925259
 20
504.8497554777
 11
583.8485125147
 21
502.7882540989
  0
LINE
  5
5D5
100
AcDbEntity
  8
0
100
AcDbLine
 62
7
  6
CONTINUOUS
 10
583.8485125147
 20
503.75812176
 11
582.7873925258
 21
505.8196231388
  0
LINE
  5
5D6
100
AcDbEntity
  8
0
100
AcDbLine
 62
7
  6
CONTINUOUS
 10
573.5471967224
 20
400.6105524945
 11
573.5471967224
 21
402.9981524945
  0
LINE
  5
5D7
100
AcDbEntity
  8
0
100
AcDbLine
 62
7
  6
CONTINUOUS
 10
577.9772945995
 20
400.7121524945
 11
577.9772945995
 21
398.3245524945
  0
LINE
  5
5D8
100
AcDbEntity
  8
0
100
AcDbLine
 62
7
  6
CONTINUOUS
 10
582.1305816665
 20
501.9401524945
 11
582.1305816665
 21
401.6265524945
  0
LINE
  5
5D9
100
AcDbEntity
  8
0
100
AcDbLine
 62
7
  6
CONTINUOUS
 10
582.7873925258
 20
504.8497554777
 11
582.7873925258
 21
505.8196231388
  0
LINE
  5
5DA
100
AcDbEntity
  8
0
100
AcDbLine
 62
7
  6
CONTINUOUS
 10
583.8485125147
 20
502.7882540989
 11
583.8485125147
 21
503.75812176
  0
LINE
  5
5DB
100
AcDbEntity
  8
0
100
AcDbLine
 62
7
  6
CONTINUOUS
 10
594.9829816665
 20
401.6265524945
 11
594.9829816665
 21
504.8357524945
  0
LINE
  5
5DC
100
AcDbEntity
  8
0
100
AcDbLine
 62
7
  6
CONTINUOUS
 10
597.8785816665
 20
504.8357524945
 11
597.8785816665
 21
404.5221524945
  0
LINE
  5
5DD
100
AcDbEntity
  8
0
100
AcDbLine
 62
7
  6
CONTINUOUS
 10
597.8844421215
 20
400.7121524945
 11
597.8844421215
 21
398.3245524945
  0
LINE
  5
5DE
100
AcDbEntity
  8
0
100
AcDbLine
 62
7
  6
CONTINUOUS
 10
602.1408816665
 20
522.3617524945
 11
602.1408816665
 21
504.8357524945
  0
LINE
  5
5DF
100
AcDbEntity
  8
0
100
AcDbLine
 62
7
  6
CONTINUOUS
 10
603.5124816665
 20
504.8357524945
 11
603.5124816665
 21
522.3617524945
  0
LINE
  5
5E0
100
AcDbEntity
  8
0
100
AcDbLine
 62
7
  6
CONTINUOUS
 10
612.5089816665
 20
398.3245524945
 11
612.5089816665
 21
400.7121524945
  0
LINE
  5
5E1
100
AcDbEntity
  8
0
100
AcDbLine
 62
7
  6
CONTINUOUS
 10
631.5589816665
 20
398.3245524945
 11
631.5589816665
 21
400.7121524945
  0
ARC
  5
5E2
100
AcDbEntity
  8
0
100
AcDbCircle
 62
7
  6
CONTINUOUS
 10
114.1493124676
 20
441.5077608316
 40
6.7849239515
100
AcDbArc
 50
165.4909913778
 51
167.7496840242
  0
ARC
  5
5E3
100
AcDbEntity
  8
0
100
AcDbCircle
 62
7
  6
CONTINUOUS
 10
115.4600801542
 20
410.9072565901
 40
4.8688830074
100
AcDbArc
 50
242.7700197142
 51
244.0994166282
  0
ARC
  5
5E4
100
AcDbEntity
  8
0
100
AcDbCircle
 62
7
  6
CONTINUOUS
 10
136.8667666105
 20
399.0865524945
 40
3.9116
100
AcDbArc
 50
90.0
 51
144.5888877047
  0
ARC
  5
5E5
100
AcDbEntity
  8
0
100
AcDbCircle
 62
7
  6
CONTINUOUS
 10
132.4366687335
 20
402.2361524945
 40
3.9116
100
AcDbArc
 50
270.0
 51
324.5888877047
  0
ARC
  5
5E6
100
AcDbEntity
  8
0
100
AcDbCircle
 62
7
  6
CONTINUOUS
 10
115.4309816665
 20
407.2653524945
 40
2.8956
100
AcDbArc
 50
180.0
 51
236.3719274732
  0
ARC
  5
5E7
100
AcDbEntity
  8
0
100
AcDbCircle
 62
7
  6
CONTINUOUS
 10
136.8667666105
 20
399.0865524945
 40
1.524
100
AcDbArc
 50
90.0
 51
144.5888877047
  0
ARC
  5
5E8
100
AcDbEntity
  8
0
100
AcDbCircle
 62
7
  6
CONTINUOUS
 10
132.4366687335
 20
402.2361524945
 40
1.524
100
AcDbArc
 50
270.0
 51
324.5888877046
  0
ARC
  5
5E9
100
AcDbEntity
  8
0
100
AcDbCircle
 62
7
  6
CONTINUOUS
 10
111.7733816665
 20
439.4344524945
 40
0.762
100
AcDbArc
 50
0.0
 51
90.0
  0
ARC
  5
5EA
100
AcDbEntity
  8
0
100
AcDbCircle
 62
7
  6
CONTINUOUS
 10
114.1500876454
 20
445.9719126366
 40
6.785717227
100
AcDbArc
 50
192.2503173557
 51
194.513305362
  0
ARC
  5
5EB
100
AcDbEntity
  8
0
100
AcDbCircle
 62
7
  6
CONTINUOUS
 10
111.7733816665
 20
448.0450524945
 40
0.762
100
AcDbArc
 50
270.0
 51
360.0
  0
ARC
  5
5EC
100
AcDbEntity
  8
0
100
AcDbCircle
 62
7
  6
CONTINUOUS
 10
197.9111939605
 20
397.4720312957
 40
84.8915297645
100
AcDbArc
 50
94.2782941553
 51
94.5279784501
  0
ARC
  5
5ED
100
AcDbEntity
  8
0
100
AcDbCircle
 62
7
  6
CONTINUOUS
 10
191.1714238565
 20
440.0186748159
 40
47.4316010209
100
AcDbArc
 50
83.9274276625
 51
84.1848988012
  0
ARC
  5
5EE
100
AcDbEntity
  8
0
100
AcDbCircle
 62
7
  6
CONTINUOUS
 10
193.0207043317
 20
436.4174637323
 40
27.4483159855
100
AcDbArc
 50
95.6671921458
 51
95.8371100329
  0
ARC
  5
5EF
100
AcDbEntity
  8
0
100
AcDbCircle
 62
7
  6
CONTINUOUS
 10
192.362260922
 20
452.9098995406
 40
21.0818376276
100
AcDbArc
 50
96.0598137531
 51
96.2793171592
  0
ARC
  5
5F0
100
AcDbEntity
  8
0
100
AcDbCircle
 62
7
  6
CONTINUOUS
 10
192.3082134149
 20
459.5329921087
 40
20.5519898059
100
AcDbArc
 50
95.9278741692
 51
96.4960920439
  0
ARC
  5
5F1
100
AcDbEntity
  8
0
100
AcDbCircle
 62
7
  6
CONTINUOUS
 10
192.2787192153
 20
447.6656591635
 40
20.2259682555
100
AcDbArc
 50
95.9606228295
 51
96.520860793
  0
ARC
  5
5F2
100
AcDbEntity
  8
0
100
AcDbCircle
 62
7
  6
CONTINUOUS
 10
192.1459051148
 20
450.8902486087
 40
19.0261091737
100
AcDbArc
 50
95.8586954191
 51
96.7982815273
  0
ARC
  5
5F3
100
AcDbEntity
  8
0
100
AcDbCircle
 62
7
  6
CONTINUOUS
 10
192.0644867956
 20
453.5864465587
 40
18.3569833477
100
AcDbArc
 50
96.2241847715
 51
96.5725293509
  0
ARC
  5
5F4
100
AcDbEntity
  8
0
100
AcDbCircle
 62
7
  6
CONTINUOUS
 10
191.7279511222
 20
464.6405945094
 40
15.4115322087
100
AcDbArc
 50
96.5009775379
 51
96.9951196144
  0
ARC
  5
5F5
100
AcDbEntity
  8
0
100
AcDbCircle
 62
7
  6
CONTINUOUS
 10
191.7165471352
 20
452.5914776767
 40
15.2681739393
100
AcDbArc
 50
96.5241076055
 51
97.0420078172
  0
ARC
  5
5F6
100
AcDbEntity
  8
0
100
AcDbCircle
 62
7
  6
CONTINUOUS
 10
191.3707508368
 20
457.4261793573
 40
12.444374549
100
AcDbArc
 50
96.8166118944
 51
97.5581361851
  0
ARC
  5
5F7
100
AcDbEntity
  8
0
100
AcDbCircle
 62
7
  6
CONTINUOUS
 10
184.0109816665
 20
469.3937524945
 40
1.778
100
AcDbArc
 50
270.0
 51
90.0
  0
ARC
  5
5F8
100
AcDbEntity
  8
0
100
AcDbCircle
 62
7
  6
CONTINUOUS
 10
180.4549816665
 20
469.3937524945
 40
1.778
100
AcDbArc
 50
90.0
 51
270.0
  0
ARC
  5
5F9
100
AcDbEntity
  8
0
100
AcDbCircle
 62
7
  6
CONTINUOUS
 10
188.75337122
 20
486.6946941362
 40
1.6074860893
100
AcDbArc
 50
1.4352851616
 51
13.7128156916
  0
CIRCLE
  5
5FA
100
AcDbEntity
  8
0
100
AcDbCircle
 62
7
  6
CONTINUOUS
 10
182.2329816665
 20
469.3937524945
 40
1.5875
  0
ARC
  5
5FB
100
AcDbEntity
  8
0
100
AcDbCircle
 62
7
  6
CONTINUOUS
 10
188.5829816665
 20
478.0297524945
 40
1.524
100
AcDbArc
 50
180.0
 51
270.0
  0
ARC
  5
5FC
100
AcDbEntity
  8
0
100
AcDbCircle
 62
7
  6
CONTINUOUS
 10
193.2231623208
 20
446.5638451377
 40
29.5040460534
100
AcDbArc
 50
95.5433767555
 51
95.7029825102
  0
ARC
  5
5FD
100
AcDbEntity
  8
0
100
AcDbCircle
 62
7
  6
CONTINUOUS
 10
192.8125371565
 20
448.6453376594
 40
25.3701043869
100
AcDbArc
 50
95.6660114058
 51
96.0543139929
  0
ARC
  5
5FE
100
AcDbEntity
  8
0
100
AcDbCircle
 62
7
  6
CONTINUOUS
 10
192.5829051666
 20
448.8173954979
 40
23.1541286816
100
AcDbArc
 50
95.780491255
 51
96.2199948523
  0
ARC
  5
5FF
100
AcDbEntity
  8
0
100
AcDbCircle
 62
7
  6
CONTINUOUS
 10
193.4089816665
 20
463.8057524945
 40
4.7625
100
AcDbArc
 50
18.5399170826
 51
22.953679623
  0
ARC
  5
600
100
AcDbEntity
  8
0
100
AcDbCircle
 62
7
  6
CONTINUOUS
 10
193.4089816665
 20
463.8057524945
 40
4.7625
100
AcDbArc
 50
50.6843396783
 51
53.6061176482
  0
ARC
  5
601
100
AcDbEntity
  8
0
100
AcDbCircle
 62
7
  6
CONTINUOUS
 10
193.4089816665
 20
463.8057524945
 40
4.7625
100
AcDbArc
 50
140.3528558666
 51
358.3548628023
  0
ARC
  5
602
100
AcDbEntity
  8
0
100
AcDbCircle
 62
7
  6
CONTINUOUS
 10
196.119288638
 20
488.9244397956
 40
18.6248942924
100
AcDbArc
 50
276.1905472907
 51
276.5907067095
  0
ARC
  5
603
100
AcDbEntity
  8
0
100
AcDbCircle
 62
7
  6
CONTINUOUS
 10
196.2717858591
 20
481.4284022488
 40
17.2164991058
100
AcDbArc
 50
275.9248488192
 51
277.1333326014
  0
ARC
  5
604
100
AcDbEntity
  8
0
100
AcDbCircle
 62
7
  6
CONTINUOUS
 10
196.3118904295
 20
489.2631308351
 40
16.9206757426
100
AcDbArc
 50
276.2908400583
 51
276.8357930712
  0
ARC
  5
605
100
AcDbEntity
  8
0
100
AcDbCircle
 62
7
  6
CONTINUOUS
 10
196.5567594572
 20
489.2015895641
 40
14.812879427
100
AcDbArc
 50
276.5135364958
 51
277.0932575953
  0
ARC
  5
606
100
AcDbEntity
  8
0
100
AcDbCircle
 62
7
  6
CONTINUOUS
 10
193.411432492
 20
484.3994438774
 40
3.0806197758
100
AcDbArc
 50
288.6579814452
 51
298.3031320357
  0
ARC
  5
607
100
AcDbEntity
  8
0
100
AcDbCircle
 62
7
  6
CONTINUOUS
 10
193.3464787449
 20
484.3314573524
 40
2.9879295647
100
AcDbArc
 50
211.5117619859
 51
213.6795161668
  0
ARC
  5
608
100
AcDbEntity
  8
0
100
AcDbCircle
 62
7
  6
CONTINUOUS
 10
193.3440663202
 20
484.0162797859
 40
2.984747896
100
AcDbArc
 50
202.0786629224
 51
207.7375382289
  0
ARC
  5
609
100
AcDbEntity
  8
0
100
AcDbCircle
 62
7
  6
CONTINUOUS
 10
193.3384124985
 20
484.3263561538
 40
2.9783865656
100
AcDbArc
 50
207.8708590262
 51
211.5092048707
  0
CIRCLE
  5
60A
100
AcDbEntity
  8
0
100
AcDbCircle
 62
7
  6
CONTINUOUS
 10
204.5849816665
 20
469.3937524945
 40
1.778
  0
ARC
  5
60B
100
AcDbEntity
  8
0
100
AcDbCircle
 62
7
  6
CONTINUOUS
 10
198.1080008009
 20
486.3396821277
 40
1.6699455073
100
AcDbArc
 50
103.8439449783
 51
114.8684883699
  0
ARC
  5
60C
100
AcDbEntity
  8
0
100
AcDbCircle
 62
7
  6
CONTINUOUS
 10
198.1127049672
 20
486.669815087
 40
1.6523199387
100
AcDbArc
 50
73.5880897308
 51
77.0151898434
  0
ARC
  5
60D
100
AcDbEntity
  8
0
100
AcDbCircle
 62
7
  6
CONTINUOUS
 10
198.1345749446
 20
486.6915232894
 40
1.6245763391
100
AcDbArc
 50
11.4864605759
 51
25.8807727822
  0
ARC
  5
60E
100
AcDbEntity
  8
0
100
AcDbCircle
 62
7
  6
CONTINUOUS
 10
198.1547104684
 20
486.386343177
 40
1.6029477196
100
AcDbArc
 50
27.0723455999
 51
34.7981067177
  0
ARC
  5
60F
100
AcDbEntity
  8
0
100
AcDbCircle
 62
7
  6
CONTINUOUS
 10
198.1575948605
 20
486.6951889414
 40
1.6012878135
100
AcDbArc
 50
0.7489536692
 51
11.5219506303
  0
CIRCLE
  5
610
100
AcDbEntity
  8
0
100
AcDbCircle
 62
7
  6
CONTINUOUS
 10
204.5849816665
 20
469.3937524945
 40
1.5875
  0
ARC
  5
611
100
AcDbEntity
  8
0
100
AcDbCircle
 62
7
  6
CONTINUOUS
 10
198.2349816665
 20
478.0297524945
 40
1.524
100
AcDbArc
 50
305.6149414422
 51
360.0
  0
ARC
  5
612
100
AcDbEntity
  8
0
100
AcDbCircle
 62
7
  6
CONTINUOUS
 10
201.8098612233
 20
581.226772311
 40
96.185926024
100
AcDbArc
 50
264.4513565387
 51
264.7901626542
  0
ARC
  5
613
100
AcDbEntity
  8
0
100
AcDbCircle
 62
7
  6
CONTINUOUS
 10
197.7159558169
 20
539.1596132253
 40
53.9200314738
100
AcDbArc
 50
263.9228519259
 51
264.459024419
  0
ARC
  5
614
100
AcDbEntity
  8
0
100
AcDbCircle
 62
7
  6
CONTINUOUS
 10
193.3097316163
 20
530.1423738684
 40
47.7870994802
100
AcDbArc
 50
274.7471149953
 51
275.2058198199
  0
ARC
  5
615
100
AcDbEntity
  8
0
100
AcDbCircle
 62
7
  6
CONTINUOUS
 10
196.6404937885
 20
526.8694536664
 40
43.6056663034
100
AcDbArc
 50
263.8945412294
 51
264.0246280405
  0
ARC
  5
616
100
AcDbEntity
  8
0
100
AcDbCircle
 62
7
  6
CONTINUOUS
 10
194.1819481727
 20
506.0804210007
 40
37.9106002864
100
AcDbArc
 50
274.7436158206
 51
275.645957476
  0
ARC
  5
617
100
AcDbEntity
  8
0
100
AcDbCircle
 62
7
  6
CONTINUOUS
 10
194.5970780447
 20
515.9680553753
 40
33.5544387279
100
AcDbArc
 50
275.2127400338
 51
275.6598797558
  0
ARC
  5
618
100
AcDbEntity
  8
0
100
AcDbCircle
 62
7
  6
CONTINUOUS
 10
193.9738922378
 20
510.1231944624
 40
28.7019626405
100
AcDbArc
 50
266.3961361709
 51
267.4947574849
  0
ARC
  5
619
100
AcDbEntity
  8
0
100
AcDbCircle
 62
7
  6
CONTINUOUS
 10
195.3260212269
 20
492.2529814514
 40
26.0598129123
100
AcDbArc
 50
275.6371309204
 51
275.9816645536
  0
ARC
  5
61A
100
AcDbEntity
  8
0
100
AcDbCircle
 62
7
  6
CONTINUOUS
 10
195.4416748769
 20
505.4192009801
 40
24.995815547
100
AcDbArc
 50
275.6791642471
 51
276.063739008
  0
ARC
  5
61B
100
AcDbEntity
  8
0
100
AcDbCircle
 62
7
  6
CONTINUOUS
 10
195.4414141703
 20
511.4983901074
 40
24.9791223427
100
AcDbArc
 50
275.6237706762
 51
276.1052929409
  0
ARC
  5
61C
100
AcDbEntity
  8
0
100
AcDbCircle
 62
7
  6
CONTINUOUS
 10
195.6064185794
 20
493.6554724632
 40
23.3836447303
100
AcDbArc
 50
275.7877117522
 51
276.1898290885
  0
ARC
  5
61D
100
AcDbEntity
  8
0
100
AcDbCircle
 62
7
  6
CONTINUOUS
 10
195.6624314781
 20
507.3326520296
 40
22.8339750665
100
AcDbArc
 50
275.6597985695
 51
276.3713499275
  0
ARC
  5
61E
100
AcDbEntity
  8
0
100
AcDbCircle
 62
7
  6
CONTINUOUS
 10
195.7484620713
 20
494.3563918563
 40
22.0450055971
100
AcDbArc
 50
275.888753325
 51
276.295880974
  0
ARC
  5
61F
100
AcDbEntity
  8
0
100
AcDbCircle
 62
7
  6
CONTINUOUS
 10
195.9446188251
 20
500.6736762887
 40
20.223713752
100
AcDbArc
 50
276.0670321611
 51
276.3738699841
  0
ARC
  5
620
100
AcDbEntity
  8
0
100
AcDbCircle
 62
7
  6
CONTINUOUS
 10
195.9513582985
 20
494.5066198793
 40
20.1523416793
100
AcDbArc
 50
275.9568930325
 51
276.5126880753
  0
CIRCLE
  5
621
100
AcDbEntity
  8
0
100
AcDbCircle
 62
7
  6
CONTINUOUS
 10
193.7090816665
 20
512.7097524945
 40
3.048
  0
ARC
  5
622
100
AcDbEntity
  8
0
100
AcDbCircle
 62
7
  6
CONTINUOUS
 10
110.3970816665
 20
522.3617524945
 40
2.8956
100
AcDbArc
 50
90.0
 51
180.0
  0
CIRCLE
  5
623
100
AcDbEntity
  8
0
100
AcDbCircle
 62
7
  6
CONTINUOUS
 10
290.6909816665
 20
456.9477524945
 40
3.9878
  0
CIRCLE
  5
624
100
AcDbEntity
  8
0
100
AcDbCircle
 62
7
  6
CONTINUOUS
 10
290.6909816665
 20
456.9477524945
 40
2.667
  0
ARC
  5
625
100
AcDbEntity
  8
0
100
AcDbCircle
 62
7
  6
CONTINUOUS
 10
354.5527131736
 20
466.3457524945
 40
75.184
100
AcDbArc
 50
51.9433433674
 51
79.457571086
  0
ARC
  5
626
100
AcDbEntity
  8
0
100
AcDbCircle
 62
7
  6
CONTINUOUS
 10
355.2069816665
 20
466.3457524945
 40
72.644
100
AcDbArc
 50
45.0
 51
110.7671131714
  0
ARC
  5
627
100
AcDbEntity
  8
0
100
AcDbCircle
 62
7
  6
CONTINUOUS
 10
355.2069816665
 20
466.3457524945
 40
72.136
100
AcDbArc
 50
112.4797555648
 51
130.3596433246
  0
ARC
  5
628
100
AcDbEntity
  8
0
100
AcDbCircle
 62
7
  6
CONTINUOUS
 10
355.2069816665
 20
466.3457524945
 40
68.1482
100
AcDbArc
 50
76.8192442182
 51
93.9796330402
  0
ARC
  5
629
100
AcDbEntity
  8
0
100
AcDbCircle
 62
7
  6
CONTINUOUS
 10
355.2069816665
 20
466.3457524945
 40
57.8358
100
AcDbArc
 50
76.8192442185
 51
93.9796330402
  0
CIRCLE
  5
62A
100
AcDbEntity
  8
0
100
AcDbCircle
 62
7
  6
CONTINUOUS
 10
355.2069816665
 20
466.3457524945
 40
5.5499
  0
CIRCLE
  5
62B
100
AcDbEntity
  8
0
100
AcDbCircle
 62
7
  6
CONTINUOUS
 10
355.2069816665
 20
466.3457524945
 40
5.4737
  0
CIRCLE
  5
62C
100
AcDbEntity
  8
0
100
AcDbCircle
 62
7
  6
CONTINUOUS
 10
355.2069816665
 20
466.3457524945
 40
4.4577
  0
ARC
  5
62D
100
AcDbEntity
  8
0
100
AcDbCircle
 62
7
  6
CONTINUOUS
 10
275.0445816665
 20
505.4617524945
 40
8.89
100
AcDbArc
 50
180.0
 51
224.3221735632
  0
ARC
  5
62E
100
AcDbEntity
  8
0
100
AcDbCircle
 62
7
  6
CONTINUOUS
 10
341.7449816665
 20
569.4951524945
 40
6.35
100
AcDbArc
 50
135.0000000034
 51
194.9999999972
  0
ARC
  5
62F
100
AcDbEntity
  8
0
100
AcDbCircle
 62
7
  6
CONTINUOUS
 10
355.2069816665
 20
582.9571524945
 40
6.35
100
AcDbArc
 50
45.0000000034
 51
134.9999999966
  0
ARC
  5
630
100
AcDbEntity
  8
0
100
AcDbCircle
 62
7
  6
CONTINUOUS
 10
311.7729816665
 20
515.8757524945
 40
6.35
100
AcDbArc
 50
121.1009018034
 51
130.5358021113
  0
ARC
  5
631
100
AcDbEntity
  8
0
100
AcDbCircle
 62
7
  6
CONTINUOUS
 10
272.5045816665
 20
514.3517524945
 40
6.35
100
AcDbArc
 50
89.9999999993
 51
180.0
  0
ARC
  5
632
100
AcDbEntity
  8
0
100
AcDbCircle
 62
7
  6
CONTINUOUS
 10
350.8352194025
 20
529.1858651512
 40
5.1562
100
AcDbArc
 50
93.9796330406
 51
273.9796330396
  0
ARC
  5
633
100
AcDbEntity
  8
0
100
AcDbCircle
 62
7
  6
CONTINUOUS
 10
275.0445816665
 20
505.4617524945
 40
5.1562
100
AcDbArc
 50
180.0
 51
360.0
  0
ARC
  5
634
100
AcDbEntity
  8
0
100
AcDbCircle
 62
7
  6
CONTINUOUS
 10
275.0445816665
 20
511.8117524945
 40
5.1562
100
AcDbArc
 50
0.0
 51
180.0
  0
ARC
  5
635
100
AcDbEntity
  8
0
100
AcDbCircle
 62
7
  6
CONTINUOUS
 10
331.0706701979
 20
529.9950702653
 40
4.572
100
AcDbArc
 50
110.7671131724
 51
228.7184702011
  0
ARC
  5
636
100
AcDbEntity
  8
0
100
AcDbCircle
 62
7
  6
CONTINUOUS
 10
343.9073454987
 20
548.6671524945
 40
3.048
100
AcDbArc
 50
195.000000003
 51
270.0
  0
ARC
  5
637
100
AcDbEntity
  8
0
100
AcDbCircle
 62
7
  6
CONTINUOUS
 10
346.5709816665
 20
540.0092558595
 40
2.032
100
AcDbArc
 50
317.5743692715
 51
352.7196688798
  0
CIRCLE
  5
638
100
AcDbEntity
  8
0
100
AcDbCircle
 62
7
  6
CONTINUOUS
 10
275.0470816665
 20
512.7097524945
 40
1.778
  0
ARC
  5
639
100
AcDbEntity
  8
0
100
AcDbCircle
 62
7
  6
CONTINUOUS
 10
260.5690816665
 20
512.7097524945
 40
1.778
100
AcDbArc
 50
90.0
 51
270.0
  0
ARC
  5
63A
100
AcDbEntity
  8
0
100
AcDbCircle
 62
7
  6
CONTINUOUS
 10
264.1250816665
 20
512.7097524945
 40
1.778
100
AcDbArc
 50
270.0
 51
90.0
  0
CIRCLE
  5
63B
100
AcDbEntity
  8
0
100
AcDbCircle
 62
7
  6
CONTINUOUS
 10
275.0470816665
 20
512.7097524945
 40
1.5875
  0
CIRCLE
  5
63C
100
AcDbEntity
  8
0
100
AcDbCircle
 62
7
  6
CONTINUOUS
 10
262.3470816665
 20
512.7097524945
 40
1.5875
  0
ARC
  5
63D
100
AcDbEntity
  8
0
100
AcDbCircle
 62
7
  6
CONTINUOUS
 10
231.7725621505
 20
917.1350625634
 40
431.4040943698
100
AcDbArc
 50
264.8820905601
 51
265.0079921048
  0
CIRCLE
  5
63E
100
AcDbEntity
  8
0
100
AcDbCircle
 62
7
  6
CONTINUOUS
 10
429.1209816665
 20
435.8657524945
 40
6.35
  0
CIRCLE
  5
63F
100
AcDbEntity
  8
0
100
AcDbCircle
 62
7
  6
CONTINUOUS
 10
409.5629816665
 20
451.1057524945
 40
3.9878
  0
CIRCLE
  5
640
100
AcDbEntity
  8
0
100
AcDbCircle
 62
7
  6
CONTINUOUS
 10
409.5629816665
 20
451.1057524945
 40
2.667
  0
ARC
  5
641
100
AcDbEntity
  8
0
100
AcDbCircle
 62
7
  6
CONTINUOUS
 10
394.3229816665
 20
517.1457524945
 40
10.668
100
AcDbArc
 50
16.9896561429
 51
51.9433433678
  0
ARC
  5
642
100
AcDbEntity
  8
0
100
AcDbCircle
 62
7
  6
CONTINUOUS
 10
366.5522091665
 20
569.4951524945
 40
9.525
100
AcDbArc
 50
340.5287793656
 51
19.4712206344
  0
ARC
  5
643
100
AcDbEntity
  8
0
100
AcDbCircle
 62
7
  6
CONTINUOUS
 10
368.6689816665
 20
569.4951524945
 40
6.35
100
AcDbArc
 50
345.0000000023
 51
44.9999999954
  0
ARC
  5
644
100
AcDbEntity
  8
0
100
AcDbCircle
 62
7
  6
CONTINUOUS
 10
369.5706604318
 20
527.678262604
 40
5.1562
100
AcDbArc
 50
256.8192442185
 51
76.819244214
  0
ARC
  5
645
100
AcDbEntity
  8
0
100
AcDbCircle
 62
7
  6
CONTINUOUS
 10
368.8663214939
 20
543.2571719383
 40
3.048
100
AcDbArc
 50
186.0000000022
 51
259.4575710931
  0
ARC
  5
646
100
AcDbEntity
  8
0
100
AcDbCircle
 62
7
  6
CONTINUOUS
 10
366.5066178343
 20
548.6671524945
 40
3.048
100
AcDbArc
 50
270.0
 51
344.9999999958
  0
ARC
  5
647
100
AcDbEntity
  8
0
100
AcDbCircle
 62
7
  6
CONTINUOUS
 10
361.3029816665
 20
540.2628074142
 40
2.032
100
AcDbArc
 50
194.5664938135
 51
224.3976643691
  0
ARC
  5
648
100
AcDbEntity
  8
0
100
AcDbCircle
 62
7
  6
CONTINUOUS
 10
507.0917043379
 20
435.2532273532
 40
27.4483160481
100
AcDbArc
 50
95.6671921457
 51
95.8371100327
  0
ARC
  5
649
100
AcDbEntity
  8
0
100
AcDbCircle
 62
7
  6
CONTINUOUS
 10
507.3301512607
 20
445.0326882442
 40
29.8727272556
100
AcDbArc
 50
95.5353791871
 51
95.6752524485
  0
ARC
  5
64A
100
AcDbEntity
  8
0
100
AcDbCircle
 62
7
  6
CONTINUOUS
 10
506.8835372198
 20
447.4811007182
 40
25.3701050145
100
AcDbArc
 50
95.6660114089
 51
96.0543139116
  0
ARC
  5
64B
100
AcDbEntity
  8
0
100
AcDbCircle
 62
7
  6
CONTINUOUS
 10
506.6539052958
 20
447.6531579365
 40
23.1541299329
100
AcDbArc
 50
95.780491263
 51
96.2199946712
  0
ARC
  5
64C
100
AcDbEntity
  8
0
100
AcDbCircle
 62
7
  6
CONTINUOUS
 10
506.4332609828
 20
451.7456626627
 40
21.0818381921
100
AcDbArc
 50
96.0598136667
 51
96.2793171568
  0
ARC
  5
64D
100
AcDbEntity
  8
0
100
AcDbCircle
 62
7
  6
CONTINUOUS
 10
506.3497192186
 20
446.5014228165
 40
20.2259682858
100
AcDbArc
 50
95.9606228299
 51
96.5208607861
  0
ARC
  5
64E
100
AcDbEntity
  8
0
100
AcDbCircle
 62
7
  6
CONTINUOUS
 10
506.2169051122
 20
449.7260123152
 40
19.0261091502
100
AcDbArc
 50
95.8586954184
 51
96.7982815326
  0
ARC
  5
64F
100
AcDbEntity
  8
0
100
AcDbCircle
 62
7
  6
CONTINUOUS
 10
506.1354868726
 20
452.4222095675
 40
18.3569840266
100
AcDbArc
 50
96.2241845735
 51
96.572529408
  0
ARC
  5
650
100
AcDbEntity
  8
0
100
AcDbCircle
 62
7
  6
CONTINUOUS
 10
505.7875471561
 20
451.4272411827
 40
15.2681741177
100
AcDbArc
 50
96.5241075995
 51
97.0420077768
  0
ARC
  5
651
100
AcDbEntity
  8
0
100
AcDbCircle
 62
7
  6
CONTINUOUS
 10
505.4417507984
 20
456.2619433486
 40
12.4443742384
100
AcDbArc
 50
96.8166118946
 51
97.5581362919
  0
ARC
  5
652
100
AcDbEntity
  8
0
100
AcDbCircle
 62
7
  6
CONTINUOUS
 10
506.3592794553
 20
464.6604929155
 40
20.3552501337
100
AcDbArc
 50
95.902330219
 51
96.5465269214
  0
ARC
  5
653
100
AcDbEntity
  8
0
100
AcDbCircle
 62
7
  6
CONTINUOUS
 10
505.8014365632
 20
469.5527828988
 40
15.4312605711
100
AcDbArc
 50
96.5597616783
 51
96.9395383901
  0
ARC
  5
654
100
AcDbEntity
  8
0
100
AcDbCircle
 62
7
  6
CONTINUOUS
 10
499.4789816665
 20
469.3937524945
 40
1.778
100
AcDbArc
 50
270.0
 51
90.0
  0
ARC
  5
655
100
AcDbEntity
  8
0
100
AcDbCircle
 62
7
  6
CONTINUOUS
 10
495.9229816665
 20
469.3937524945
 40
1.778
100
AcDbArc
 50
90.0
 51
270.0
  0
CIRCLE
  5
656
100
AcDbEntity
  8
0
100
AcDbCircle
 62
7
  6
CONTINUOUS
 10
497.7009816665
 20
469.3937524945
 40
1.5875
  0
ARC
  5
657
100
AcDbEntity
  8
0
100
AcDbCircle
 62
7
  6
CONTINUOUS
 10
504.0509816665
 20
478.0297524945
 40
1.524
100
AcDbArc
 50
180.0
 51
237.8328452263
  0
ARC
  5
658
100
AcDbEntity
  8
0
100
AcDbCircle
 62
7
  6
CONTINUOUS
 10
503.8171097992
 20
474.5306484395
 40
0.6423309328
100
AcDbArc
 50
180.0443829228
 51
188.9724388456
  0
ARC
  5
659
100
AcDbEntity
  8
0
100
AcDbCircle
 62
7
  6
CONTINUOUS
 10
508.8769816665
 20
463.8057524945
 40
4.7625
100
AcDbArc
 50
159.1941629841
 51
161.8062625041
  0
ARC
  5
65A
100
AcDbEntity
  8
0
100
AcDbCircle
 62
7
  6
CONTINUOUS
 10
508.8769816665
 20
463.8057524945
 40
4.7625
100
AcDbArc
 50
179.7213276303
 51
185.2380570912
  0
ARC
  5
65B
100
AcDbEntity
  8
0
100
AcDbCircle
 62
7
  6
CONTINUOUS
 10
508.8769816665
 20
463.8057524945
 40
4.7625
100
AcDbArc
 50
198.9895163068
 51
37.9139821782
  0
ARC
  5
65C
100
AcDbEntity
  8
0
100
AcDbCircle
 62
7
  6
CONTINUOUS
 10
510.3427858521
 20
480.2641659947
 40
17.2164991689
100
AcDbArc
 50
275.9248488208
 51
277.1333325873
  0
ARC
  5
65D
100
AcDbEntity
  8
0
100
AcDbCircle
 62
7
  6
CONTINUOUS
 10
508.8503449894
 20
484.0459983198
 40
3.0335106094
100
AcDbArc
 50
220.9116034247
 51
230.6899086022
  0
ARC
  5
65E
100
AcDbEntity
  8
0
100
AcDbCircle
 62
7
  6
CONTINUOUS
 10
508.9346737316
 20
484.0195004932
 40
2.9926719594
100
AcDbArc
 50
330.0312377371
 51
335.9488975261
  0
CIRCLE
  5
65F
100
AcDbEntity
  8
0
100
AcDbCircle
 62
7
  6
CONTINUOUS
 10
520.0529816665
 20
469.3937524945
 40
1.778
  0
CIRCLE
  5
660
100
AcDbEntity
  8
0
100
AcDbCircle
 62
7
  6
CONTINUOUS
 10
520.0529816665
 20
469.3937524945
 40
1.5875
  0
ARC
  5
661
100
AcDbEntity
  8
0
100
AcDbCircle
 62
7
  6
CONTINUOUS
 10
513.7029816665
 20
478.0297524945
 40
1.524
100
AcDbArc
 50
270.0
 51
360.0
  0
ARC
  5
662
100
AcDbEntity
  8
0
100
AcDbCircle
 62
7
  6
CONTINUOUS
 10
593.1729846275
 20
412.0925922808
 40
9.1829100466
100
AcDbArc
 50
292.4763941525
 51
293.2309055793
  0
ARC
  5
663
100
AcDbEntity
  8
0
100
AcDbCircle
 62
7
  6
CONTINUOUS
 10
573.5471967224
 20
399.0865524945
 40
3.9116
100
AcDbArc
 50
35.4111122956
 51
90.0
  0
ARC
  5
664
100
AcDbEntity
  8
0
100
AcDbCircle
 62
7
  6
CONTINUOUS
 10
577.9772945995
 20
402.2361524945
 40
3.9116
100
AcDbArc
 50
215.4111122954
 51
270.0
  0
ARC
  5
665
100
AcDbEntity
  8
0
100
AcDbCircle
 62
7
  6
CONTINUOUS
 10
594.9829816665
 20
404.5221524945
 40
2.8956
100
AcDbArc
 50
270.0
 51
360.0
  0
ARC
  5
666
100
AcDbEntity
  8
0
100
AcDbCircle
 62
7
  6
CONTINUOUS
 10
594.9829816665
 20
404.5221524945
 40
1.524
100
AcDbArc
 50
270.0
 51
307.0628736937
  0
ARC
  5
667
100
AcDbEntity
  8
0
100
AcDbCircle
 62
7
  6
CONTINUOUS
 10
573.5471967224
 20
399.0865524945
 40
1.524
100
AcDbArc
 50
35.4111122933
 51
90.0
  0
ARC
  5
668
100
AcDbEntity
  8
0
100
AcDbCircle
 62
7
  6
CONTINUOUS
 10
577.9772945995
 20
402.2361524945
 40
1.524
100
AcDbArc
 50
215.4111122928
 51
270.0
  0
ARC
  5
669
100
AcDbEntity
  8
0
100
AcDbCircle
 62
7
  6
CONTINUOUS
 10
511.3463294102
 20
531.7466441201
 40
49.6803518011
100
AcDbArc
 50
263.9375614544
 51
264.2650876922
  0
ARC
  5
66A
100
AcDbEntity
  8
0
100
AcDbCircle
 62
7
  6
CONTINUOUS
 10
507.3825126758
 20
528.9580256552
 40
47.76690896
100
AcDbArc
 50
274.748066879
 51
275.2058811288
  0
ARC
  5
66B
100
AcDbEntity
  8
0
100
AcDbCircle
 62
7
  6
CONTINUOUS
 10
508.2529481726
 20
504.9161846854
 40
37.9106002879
100
AcDbArc
 50
274.7436158206
 51
275.645957476
  0
ARC
  5
66C
100
AcDbEntity
  8
0
100
AcDbCircle
 62
7
  6
CONTINUOUS
 10
508.7115062586
 20
514.3422010442
 40
33.0907842275
100
AcDbArc
 50
275.2104739696
 51
275.7006348032
  0
ARC
  5
66D
100
AcDbEntity
  8
0
100
AcDbCircle
 62
7
  6
CONTINUOUS
 10
508.7299577729
 20
516.2307409098
 40
32.9462196607
100
AcDbArc
 50
275.3661300425
 51
275.5630348792
  0
ARC
  5
66E
100
AcDbEntity
  8
0
100
AcDbCircle
 62
7
  6
CONTINUOUS
 10
509.1601557077
 20
511.8164898624
 40
28.5110553458
100
AcDbArc
 50
275.5625309548
 51
275.7866680141
  0
ARC
  5
66F
100
AcDbEntity
  8
0
100
AcDbCircle
 62
7
  6
CONTINUOUS
 10
509.3970211978
 20
491.0887454247
 40
26.0598132039
100
AcDbArc
 50
275.6371309215
 51
275.9816645157
  0
ARC
  5
670
100
AcDbEntity
  8
0
100
AcDbCircle
 62
7
  6
CONTINUOUS
 10
509.5066601628
 20
510.390339021
 40
25.0356012702
100
AcDbArc
 50
275.62137985
 51
276.100416111
  0
ARC
  5
671
100
AcDbEntity
  8
0
100
AcDbCircle
 62
7
  6
CONTINUOUS
 10
509.6774188356
 20
492.4912336768
 40
23.3836422474
100
AcDbArc
 50
275.7877117378
 51
276.189829453
  0
ARC
  5
672
100
AcDbEntity
  8
0
100
AcDbCircle
 62
7
  6
CONTINUOUS
 10
509.8194620289
 20
493.1921559406
 40
22.0450060005
100
AcDbArc
 50
275.8887533276
 51
276.2958809125
  0
ARC
  5
673
100
AcDbEntity
  8
0
100
AcDbCircle
 62
7
  6
CONTINUOUS
 10
509.8609904083
 20
502.9166166064
 40
21.607528043
100
AcDbArc
 50
275.6770690095
 51
276.5536294029
  0
ARC
  5
674
100
AcDbEntity
  8
0
100
AcDbCircle
 62
7
  6
CONTINUOUS
 10
510.0223584448
 20
493.3423822041
 40
20.1523403131
100
AcDbArc
 50
275.9568930198
 51
276.5126883147
  0
ARC
  5
675
100
AcDbEntity
  8
0
100
AcDbCircle
 62
7
  6
CONTINUOUS
 10
510.1902888564
 20
487.7602015515
 40
18.6248923528
100
AcDbArc
 50
276.1905476844
 51
276.5907067092
  0
ARC
  5
676
100
AcDbEntity
  8
0
100
AcDbCircle
 62
7
  6
CONTINUOUS
 10
510.382890393
 20
488.0988948303
 40
16.9206760568
100
AcDbArc
 50
276.2908399914
 51
276.8357930685
  0
ARC
  5
677
100
AcDbEntity
  8
0
100
AcDbCircle
 62
7
  6
CONTINUOUS
 10
510.6277595797
 20
488.0373522353
 40
14.8128784077
100
AcDbArc
 50
276.5135367609
 51
277.0932576115
  0
ARC
  5
678
100
AcDbEntity
  8
0
100
AcDbCircle
 62
7
  6
CONTINUOUS
 10
510.8691159571
 20
494.1641472689
 40
12.7971917673
100
AcDbArc
 50
276.5420291302
 51
277.6536008964
  0
ARC
  5
679
100
AcDbEntity
  8
0
100
AcDbCircle
 62
7
  6
CONTINUOUS
 10
501.5892656992
 20
490.4250257153
 40
12.6198375238
100
AcDbArc
 50
318.2590167693
 51
319.4792237336
  0
ARC
  5
67A
100
AcDbEntity
  8
0
100
AcDbCircle
 62
7
  6
CONTINUOUS
 10
511.0175120477
 20
485.3168323024
 40
5.5226417451
100
AcDbArc
 50
212.9262648522
 51
216.1454813803
  0
CIRCLE
  5
67B
100
AcDbEntity
  8
0
100
AcDbCircle
 62
7
  6
CONTINUOUS
 10
509.1768816665
 20
512.7097524945
 40
3.048
  0
ARC
  5
67C
100
AcDbEntity
  8
0
100
AcDbCircle
 62
7
  6
CONTINUOUS
 10
508.9059607057
 20
484.356883971
 40
3.0303002755
100
AcDbArc
 50
308.5874997946
 51
317.6730374187
  0
ARC
  5
67D
100
AcDbEntity
  8
0
100
AcDbCircle
 62
7
  6
CONTINUOUS
 10
508.9223356999
 20
484.3398164315
 40
3.0067742348
100
AcDbArc
 50
322.4316753535
 51
328.4795327844
  0
ARC
  5
67E
100
AcDbEntity
  8
0
100
AcDbCircle
 62
7
  6
CONTINUOUS
 10
508.9274620854
 20
484.3366675446
 40
3.0007910915
100
AcDbArc
 50
317.681975369
 51
322.4196521155
  0
ARC
  5
67F
100
AcDbEntity
  8
0
100
AcDbCircle
 62
7
  6
CONTINUOUS
 10
508.8033274883
 20
484.3228957669
 40
2.9743469119
100
AcDbArc
 50
180.0490539096
 51
193.52088302
  0
ARC
  5
680
100
AcDbEntity
  8
0
100
AcDbCircle
 62
7
  6
CONTINUOUS
 10
600.6168816665
 20
522.3617524945
 40
2.8956
100
AcDbArc
 50
0.0
 51
90.0
  0
ARC
  5
681
100
AcDbEntity
  8
0
100
AcDbCircle
 62
7
  6
CONTINUOUS
 10
504.1558209911
 20
486.3776550786
 40
1.6291126519
100
AcDbArc
 50
163.0243200552
 51
168.3014103912
  0
ARC
  5
682
100
AcDbEntity
  8
0
100
AcDbCircle
 62
7
  6
CONTINUOUS
 10
504.1480329796
 20
486.6891301403
 40
1.6226077061
100
AcDbArc
 50
139.3579426435
 51
153.5856276246
  0
ARC
  5
683
100
AcDbEntity
  8
0
100
AcDbCircle
 62
7
  6
CONTINUOUS
 10
504.2080113818
 20
486.6890107193
 40
1.6225889153
100
AcDbArc
 50
26.5293152428
 51
40.3177181216
  0
ARC
  5
684
100
AcDbEntity
  8
0
100
AcDbCircle
 62
7
  6
CONTINUOUS
 10
504.1066278979
 20
486.6964836581
 40
1.579532496
100
AcDbArc
 50
173.6097873385
 51
179.2876984762
  0
SPLINE
  5
685
100
AcDbEntity
  8
0
100
AcDbSpline
 62
7
  6
CONTINUOUS
 70
0
 71
3
 72
9
 73
5
 74
0
 42
0.0000001
 43
0.0000001
 44
0.0000000001
 40
0.0
 40
0.0
 40
0.0
 40
0.0
 40
0.7647367768
 40
1.0
 40
1.0
 40
1.0
 40
1.0
 10
113.8133230844
 20
406.3165079722
 30
0.0
 10
113.6893854442
 20
406.3665841901
 30
0.0
 10
113.5283835364
 20
406.4348808468
 30
0.0
 10
113.3702846326
 20
406.5094609902
 30
0.0
 10
113.3332987548
 20
406.5274366602
 30
0.0
  0
SPLINE
  5
686
100
AcDbEntity
  8
0
100
AcDbSpline
 62
7
  6
CONTINUOUS
 70
0
 71
3
 72
9
 73
5
 74
0
 42
0.0000001
 43
0.0000001
 44
0.0000000001
 40
0.0
 40
0.0
 40
0.0
 40
0.0
 40
0.6155419085
 40
1.0
 40
1.0
 40
1.0
 40
1.0
 10
113.2322581934
 20
406.5779574493
 30
0.0
 10
113.0482521657
 20
406.6727262205
 30
0.0
 10
112.7550741149
 20
406.8278772253
 30
0.0
 10
112.5353816665
 20
407.1360780275
 30
0.0
 10
112.5353816665
 20
407.2653524945
 30
0.0
  0
SPLINE
  5
687
100
AcDbEntity
  8
0
100
AcDbSpline
 62
7
  6
CONTINUOUS
 70
0
 71
3
 72
10
 73
6
 74
0
 42
0.0000001
 43
0.0000001
 44
0.0000000001
 40
0.0
 40
0.0
 40
0.0
 40
0.0
 40
0.1384639415
 40
0.3579277555
 40
1.0
 40
1.0
 40
1.0
 40
1.0
 10
584.6966303352
 20
501.9401525114
 30
0.0
 10
584.8559396253
 20
501.940260045
 30
0.0
 10
585.2325046047
 20
502.2077829183
 30
0.0
 10
585.7881651351
 20
503.2039704794
 30
0.0
 10
586.134749601
 20
504.1435844771
 30
0.0
 10
586.3928816665
 20
504.8357524945
 30
0.0
  0
SPLINE
  5
688
100
AcDbEntity
  8
0
100
AcDbSpline
 62
7
  6
CONTINUOUS
 70
0
 71
3
 72
10
 73
6
 74
0
 42
0.0000001
 43
0.0000001
 44
0.0000000001
 40
0.0
 40
0.0
 40
0.0
 40
0.0
 40
0.1384639415
 40
0.3579277555
 40
1.0
 40
1.0
 40
1.0
 40
1.0
 10
244.8446303352
 20
501.9401525114
 30
0.0
 10
245.0039396253
 20
501.940260045
 30
0.0
 10
245.3805046047
 20
502.2077829183
 30
0.0
 10
245.9361651351
 20
503.2039704794
 30
0.0
 10
246.282749601
 20
504.1435844771
 30
0.0
 10
246.5408816665
 20
504.8357524945
 30
0.0
  0
SPLINE
  5
689
100
AcDbEntity
  8
0
100
AcDbSpline
 62
7
  6
CONTINUOUS
 70
0
 71
3
 72
9
 73
5
 74
0
 42
0.0000001
 43
0.0000001
 44
0.0000000001
 40
0.0
 40
0.0
 40
0.0
 40
0.0
 40
0.3636134807
 40
1.0
 40
1.0
 40
1.0
 40
1.0
 10
597.8785816665
 20
404.5221524945
 30
0.0
 10
597.8785816665
 20
404.3490659147
 30
0.0
 10
597.4928437592
 20
403.9494905427
 30
0.0
 10
597.0734195861
 20
403.7737441518
 30
0.0
 10
596.795069973
 20
403.6542076799
 30
0.0
  0
SPLINE
  5
68A
100
AcDbEntity
  8
0
100
AcDbSpline
 62
7
  6
CONTINUOUS
 70
0
 71
3
 72
9
 73
5
 74
0
 42
0.0000001
 43
0.0000001
 44
0.0000000001
 40
0.0
 40
0.0
 40
0.0
 40
0.0
 40
0.23695231
 40
1.0
 40
1.0
 40
1.0
 40
1.0
 10
596.6836364993
 20
403.6072425321
 30
0.0
 10
596.6267634036
 20
403.5837006796
 30
0.0
 10
596.3858192015
 20
403.4865796697
 30
0.0
 10
596.1419824458
 20
403.396789916
 30
0.0
 10
595.9552281257
 20
403.330362574
 30
0.0
  0
SPLINE
  5
68B
100
AcDbEntity
  8
0
100
AcDbSpline
 62
7
  6
CONTINUOUS
 70
0
 71
3
 72
8
 73
4
 74
0
 42
0.0000001
 43
0.0000001
 44
0.0000000001
 40
0.0
 40
0.0
 40
0.0
 40
0.0
 40
1.0
 40
1.0
 40
1.0
 40
1.0
 10
595.9552281257
 20
403.330362574
 30
0.0
 10
595.6325534687
 20
403.2155892194
 30
0.0
 10
595.3077168601
 20
403.106959255
 30
0.0
 10
594.9829816665
 20
402.9981524945
 30
0.0
  0
SPLINE
  5
68C
100
AcDbEntity
  8
0
100
AcDbSpline
 62
7
  6
CONTINUOUS
 70
0
 71
3
 72
8
 73
4
 74
0
 42
0.0000001
 43
0.0000001
 44
0.0000000001
 40
0.0
 40
0.0
 40
0.0
 40
0.0
 40
1.0
 40
1.0
 40
1.0
 40
1.0
 10
515.2265101417
 20
486.4056156888
 30
0.0
 10
515.2231451726
 20
486.6495428349
 30
0.0
 10
515.160970903
 20
486.8986058189
 30
0.0
 10
515.050027333
 20
487.115869023
 30
0.0
  0
SPLINE
  5
68D
100
AcDbEntity
  8
0
100
AcDbSpline
 62
7
  6
CONTINUOUS
 70
0
 71
3
 72
9
 73
5
 74
0
 42
0.0000001
 43
0.0000001
 44
0.0000000001
 40
0.0
 40
0.0
 40
0.0
 40
0.0
 40
0.4982361459
 40
1.0
 40
1.0
 40
1.0
 40
1.0
 10
515.050027333
 20
487.115869023
 30
0.0
 10
514.8857193077
 20
487.4376369995
 30
0.0
 10
514.3143184618
 20
487.9824388734
 30
0.0
 10
513.5297502307
 20
488.0479731508
 30
0.0
 10
513.1764191918
 20
487.9611174595
 30
0.0
  0
SPLINE
  5
68E
100
AcDbEntity
  8
0
100
AcDbSpline
 62
7
  6
CONTINUOUS
 70
0
 71
3
 72
8
 73
4
 74
0
 42
0.0000001
 43
0.0000001
 44
0.0000000001
 40
0.0
 40
0.0
 40
0.0
 40
0.0
 40
1.0
 40
1.0
 40
1.0
 40
1.0
 10
505.4642685141
 20
487.4028293328
 30
0.0
 10
505.3605509121
 20
487.5299313827
 30
0.0
 10
505.2359079843
 20
487.6422229093
 30
0.0
 10
505.0991459114
 20
487.7328231711
 30
0.0
  0
SPLINE
  5
68F
100
AcDbEntity
  8
0
100
AcDbSpline
 62
7
  6
CONTINUOUS
 70
0
 71
3
 72
8
 73
4
 74
0
 42
0.0000001
 43
0.0000001
 44
0.0000000001
 40
0.0
 40
0.0
 40
0.0
 40
0.0
 40
1.0
 40
1.0
 40
1.0
 40
1.0
 10
505.0991459114
 20
487.7328231711
 30
0.0
 10
504.8615106922
 20
487.890248491
 30
0.0
 10
504.5731573668
 20
487.9869194414
 30
0.0
 10
504.2887330574
 20
488.0057884885
 30
0.0
  0
SPLINE
  5
690
100
AcDbEntity
  8
0
100
AcDbSpline
 62
7
  6
CONTINUOUS
 70
0
 71
3
 72
8
 73
4
 74
0
 42
0.0000001
 43
0.0000001
 44
0.0000000001
 40
0.0
 40
0.0
 40
0.0
 40
0.0
 40
1.0
 40
1.0
 40
1.0
 40
1.0
 10
504.2887330574
 20
488.0057884885
 30
0.0
 10
503.8180617268
 20
488.0370133846
 30
0.0
 10
503.2943821601
 20
487.8346736662
 30
0.0
 10
502.9701581676
 20
487.4920582867
 30
0.0
  0
SPLINE
  5
691
100
AcDbEntity
  8
0
100
AcDbSpline
 62
7
  6
CONTINUOUS
 70
0
 71
3
 72
8
 73
4
 74
0
 42
0.0000001
 43
0.0000001
 44
0.0000000001
 40
0.0
 40
0.0
 40
0.0
 40
0.0
 40
1.0
 40
1.0
 40
1.0
 40
1.0
 10
502.9701581676
 20
487.4920582867
 30
0.0
 10
502.8007460371
 20
487.3130363674
 30
0.0
 10
502.6696605691
 20
487.089032386
 30
0.0
 10
502.597690779
 20
486.8533001929
 30
0.0
  0
SPLINE
  5
692
100
AcDbEntity
  8
0
100
AcDbSpline
 62
7
  6
CONTINUOUS
 70
0
 71
3
 72
9
 73
5
 74
0
 42
0.0000001
 43
0.0000001
 44
0.0000000001
 40
0.0
 40
0.0
 40
0.0
 40
0.0
 40
0.5023074198
 40
1.0
 40
1.0
 40
1.0
 40
1.0
 10
189.0218390798
 20
487.9801814955
 30
0.0
 10
188.6109737341
 20
488.0580694842
 30
0.0
 10
187.6961831079
 20
487.8881080715
 30
0.0
 10
187.1761972119
 20
487.1125791497
 30
0.0
 10
187.092371698
 20
486.7068062711
 30
0.0
  0
SPLINE
  5
693
100
AcDbEntity
  8
0
100
AcDbSpline
 62
7
  6
CONTINUOUS
 70
0
 71
3
 72
8
 73
4
 74
0
 42
0.0000001
 43
0.0000001
 44
0.0000000001
 40
0.0
 40
0.0
 40
0.0
 40
0.0
 40
1.0
 40
1.0
 40
1.0
 40
1.0
 10
199.7585101416
 20
486.4056156888
 30
0.0
 10
199.7551451725
 20
486.6495428349
 30
0.0
 10
199.692970903
 20
486.8986058189
 30
0.0
 10
199.582027333
 20
487.115869023
 30
0.0
  0
SPLINE
  5
694
100
AcDbEntity
  8
0
100
AcDbSpline
 62
7
  6
CONTINUOUS
 70
0
 71
3
 72
9
 73
5
 74
0
 42
0.0000001
 43
0.0000001
 44
0.0000000001
 40
0.0
 40
0.0
 40
0.0
 40
0.0
 40
0.498551326
 40
1.0
 40
1.0
 40
1.0
 40
1.0
 10
199.4709999494
 20
487.3011236939
 30
0.0
 10
199.2841950666
 20
487.5700479433
 30
0.0
 10
198.72962367
 20
488.0026565282
 30
0.0
 10
198.0282399203
 20
488.03973566
 30
0.0
 10
197.7084191918
 20
487.9611174595
 30
0.0
  0
SPLINE
  5
695
100
AcDbEntity
  8
0
100
AcDbSpline
 62
7
  6
CONTINUOUS
 70
0
 71
3
 72
9
 73
5
 74
0
 42
0.0000001
 43
0.0000001
 44
0.0000000001
 40
0.0
 40
0.0
 40
0.0
 40
0.0
 40
0.2774176246
 40
1.0
 40
1.0
 40
1.0
 40
1.0
 10
108.8730816665
 20
522.3617524945
 30
0.0
 10
108.9422318663
 20
522.5681321662
 30
0.0
 10
109.1932792432
 20
523.3106487453
 30
0.0
 10
109.4503012703
 20
524.0570304408
 30
0.0
 10
109.7099582376
 20
524.5609957439
 30
0.0
  0
SPLINE
  5
696
100
AcDbEntity
  8
0
100
AcDbSpline
 62
7
  6
CONTINUOUS
 70
0
 71
3
 72
9
 73
5
 74
0
 42
0.0000001
 43
0.0000001
 44
0.0000000001
 40
0.0
 40
0.0
 40
0.0
 40
0.0
 40
0.6155357528
 40
1.0
 40
1.0
 40
1.0
 40
1.0
 10
109.7099582376
 20
524.5609957439
 30
0.0
 10
109.8046993347
 20
524.7448776794
 30
0.0
 10
109.9598475655
 20
525.0378407299
 30
0.0
 10
110.2678806558
 20
525.2573524945
 30
0.0
 10
110.3970816665
 20
525.2573524945
 30
0.0
  0
SPLINE
  5
697
100
AcDbEntity
  8
0
100
AcDbSpline
 62
7
  6
CONTINUOUS
 70
0
 71
3
 72
9
 73
5
 74
0
 42
0.0000001
 43
0.0000001
 44
0.0000000001
 40
0.0
 40
0.0
 40
0.0
 40
0.0
 40
0.366758668
 40
1.0
 40
1.0
 40
1.0
 40
1.0
 10
600.6168816665
 20
525.2573524945
 30
0.0
 10
600.7816317468
 20
525.2573524945
 30
0.0
 10
601.1653166932
 20
524.9052183173
 30
0.0
 10
601.3372290972
 20
524.509121834
 30
0.0
 10
601.4521413443
 20
524.2489100568
 30
0.0
  0
SPLINE
  5
698
100
AcDbEntity
  8
0
100
AcDbSpline
 62
7
  6
CONTINUOUS
 70
0
 71
3
 72
9
 73
5
 74
0
 42
0.0000001
 43
0.0000001
 44
0.0000000001
 40
0.0
 40
0.0
 40
0.0
 40
0.0
 40
0.2246031461
 40
1.0
 40
1.0
 40
1.0
 40
1.0
 10
601.4521413443
 20
524.2489100568
 30
0.0
 10
601.5129149049
 20
524.1112920342
 30
0.0
 10
601.7655209521
 20
523.4906480899
 30
0.0
 10
601.9758782204
 20
522.8542074278
 30
0.0
 10
602.1408816665
 20
522.3617524945
 30
0.0
  0
SPLINE
  5
699
100
AcDbEntity
  8
0
100
AcDbSpline
 62
7
  6
CONTINUOUS
 70
0
 71
3
 72
10
 73
6
 74
0
 42
0.0000001
 43
0.0000001
 44
0.0000000001
 40
0.0
 40
0.0
 40
0.0
 40
0.0
 40
0.6420721329
 40
0.8615360131
 40
1.0
 40
1.0
 40
1.0
 40
1.0
 10
124.6210816665
 20
504.8357524945
 30
0.0
 10
124.8792136869
 20
504.1435845978
 30
0.0
 10
125.2257981551
 20
503.2039705424
 30
0.0
 10
125.7814586025
 20
502.2077831785
 30
0.0
 10
126.1580236531
 20
501.9402598968
 30
0.0
 10
126.3173329955
 20
501.9401524913
 30
0.0
  0
SPLINE
  5
69A
100
AcDbEntity
  8
0
100
AcDbSpline
 62
7
  6
CONTINUOUS
 70
0
 71
3
 72
10
 73
6
 74
0
 42
0.0000001
 43
0.0000001
 44
0.0000000001
 40
0.0
 40
0.0
 40
0.0
 40
0.0
 40
0.6420721329
 40
0.8615360131
 40
1.0
 40
1.0
 40
1.0
 40
1.0
 10
449.7408816665
 20
504.8357524945
 30
0.0
 10
449.999013687
 20
504.1435845978
 30
0.0
 10
450.3455981552
 20
503.2039705424
 30
0.0
 10
450.9012586026
 20
502.2077831784
 30
0.0
 10
451.2778236531
 20
501.9402598968
 30
0.0
 10
451.4371329955
 20
501.9401524913
 30
0.0
  0
SPLINE
  5
69B
100
AcDbEntity
  8
0
100
AcDbSpline
 62
7
  6
CONTINUOUS
 70
0
 71
3
 72
9
 73
5
 74
0
 42
0.0000001
 43
0.0000001
 44
0.0000000001
 40
0.0
 40
0.0
 40
0.0
 40
0.0
 40
0.4113078047
 40
1.0
 40
1.0
 40
1.0
 40
1.0
 10
126.3173265624
 20
503.3118110895
 30
0.0
 10
125.9979147117
 20
503.311646035
 30
0.0
 10
125.2950524757
 20
503.831313557
 30
0.0
 10
124.8853899132
 20
504.4627371517
 30
0.0
 10
124.6210816665
 20
504.8357524945
 30
0.0
  0
SPLINE
  5
69C
100
AcDbEntity
  8
0
100
AcDbSpline
 62
7
  6
CONTINUOUS
 70
0
 71
3
 72
9
 73
5
 74
0
 42
0.0000001
 43
0.0000001
 44
0.0000000001
 40
0.0
 40
0.0
 40
0.0
 40
0.0
 40
0.239195835
 40
1.0
 40
1.0
 40
1.0
 40
1.0
 10
196.1922205014
 20
466.8637975354
 30
0.0
 10
195.8554525961
 20
466.8996956666
 30
0.0
 10
194.4459518256
 20
467.0344626749
 30
0.0
 10
193.0339860832
 20
467.1435667758
 30
0.0
 10
191.9630146547
 20
467.2594025398
 30
0.0
  0
SPLINE
  5
69D
100
AcDbEntity
  8
0
100
AcDbSpline
 62
7
  6
CONTINUOUS
 70
0
 71
3
 72
9
 73
5
 74
0
 42
0.0000001
 43
0.0000001
 44
0.0000000001
 40
0.0
 40
0.0
 40
0.0
 40
0.0
 40
0.2372960169
 40
1.0
 40
1.0
 40
1.0
 40
1.0
 10
191.977066145
 20
473.3538739082
 30
0.0
 10
192.3109016484
 20
473.317945016
 30
0.0
 10
193.7193826246
 20
473.1822787686
 30
0.0
 10
195.1303791639
 20
473.0731672726
 30
0.0
 10
196.2034725048
 20
472.9585949865
 30
0.0
  0
SPLINE
  5
69E
100
AcDbEntity
  8
0
100
AcDbSpline
 62
7
  6
CONTINUOUS
 70
0
 71
3
 72
9
 73
5
 74
0
 42
0.0000001
 43
0.0000001
 44
0.0000000001
 40
0.0
 40
0.0
 40
0.0
 40
0.0
 40
0.6856835584
 40
1.0
 40
1.0
 40
1.0
 40
1.0
 10
197.5836795548
 20
472.7552478335
 30
0.0
 10
197.6365380183
 20
472.7412021397
 30
0.0
 10
197.7052307743
 20
472.7235826659
 30
0.0
 10
197.7903423221
 20
472.6714235926
 30
0.0
 10
197.7903496916
 20
472.6463525016
 30
0.0
  0
SPLINE
  5
69F
100
AcDbEntity
  8
0
100
AcDbSpline
 62
7
  6
CONTINUOUS
 70
0
 71
3
 72
9
 73
5
 74
0
 42
0.0000001
 43
0.0000001
 44
0.0000000001
 40
0.0
 40
0.0
 40
0.0
 40
0.0
 40
0.4088398442
 40
1.0
 40
1.0
 40
1.0
 40
1.0
 10
190.4246034705
 20
483.8224667893
 30
0.0
 10
190.4246003348
 20
483.8143146292
 30
0.0
 10
190.4342585738
 20
483.794892607
 30
0.0
 10
190.4507596915
 20
483.7832956879
 30
0.0
 10
190.4607355519
 20
483.7770164152
 30
0.0
  0
SPLINE
  5
6A0
100
AcDbEntity
  8
0
100
AcDbSpline
 62
7
  6
CONTINUOUS
 70
0
 71
3
 72
9
 73
5
 74
0
 42
0.0000001
 43
0.0000001
 44
0.0000000001
 40
0.0
 40
0.0
 40
0.0
 40
0.0
 40
0.2411057297
 40
1.0
 40
1.0
 40
1.0
 40
1.0
 10
192.1011017187
 20
483.5007085451
 30
0.0
 10
192.4347169608
 20
483.4657817866
 30
0.0
 10
193.81976441
 20
483.3343002864
 30
0.0
 10
195.2070911676
 20
483.2263470109
 30
0.0
 10
196.2567869781
 20
483.1128649352
 30
0.0
  0
SPLINE
  5
6A1
100
AcDbEntity
  8
0
100
AcDbSpline
 62
7
  6
CONTINUOUS
 70
0
 71
3
 72
8
 73
4
 74
0
 42
0.0000001
 43
0.0000001
 44
0.0000000001
 40
0.0
 40
0.0
 40
0.0
 40
0.0
 40
1.0
 40
1.0
 40
1.0
 40
1.0
 10
195.8000498489
 20
483.822597833
 30
0.0
 10
195.9335587704
 20
483.826089558
 30
0.0
 10
196.0674982768
 20
483.823696967
 30
0.0
 10
196.2005878642
 20
483.8125620672
 30
0.0
  0
SPLINE
  5
6A2
100
AcDbEntity
  8
0
100
AcDbSpline
 62
7
  6
CONTINUOUS
 70
0
 71
3
 72
9
 73
5
 74
0
 42
0.0000001
 43
0.0000001
 44
0.0000000001
 40
0.0
 40
0.0
 40
0.0
 40
0.0
 40
0.2372711143
 40
1.0
 40
1.0
 40
1.0
 40
1.0
 10
191.9686366153
 20
475.3867792005
 30
0.0
 10
192.3042775951
 20
475.3505726607
 30
0.0
 10
193.7205585572
 20
475.2141066179
 30
0.0
 10
195.1393983337
 20
475.1046065086
 30
0.0
 10
196.2184288651
 20
474.9889899081
 30
0.0
  0
SPLINE
  5
6A3
100
AcDbEntity
  8
0
100
AcDbSpline
 62
7
  6
CONTINUOUS
 70
0
 71
3
 72
9
 73
5
 74
0
 42
0.0000001
 43
0.0000001
 44
0.0000000001
 40
0.0
 40
0.0
 40
0.0
 40
0.0
 40
0.5685911802
 40
1.0
 40
1.0
 40
1.0
 40
1.0
 10
197.7672961447
 20
474.7146951857
 30
0.0
 10
197.7738646231
 20
474.7095430656
 30
0.0
 10
197.7848736002
 20
474.6994332291
 30
0.0
 10
197.7903632795
 20
474.6848186996
 30
0.0
 10
197.7903672648
 20
474.6784847921
 30
0.0
  0
SPLINE
  5
6A4
100
AcDbEntity
  8
0
100
AcDbSpline
 62
7
  6
CONTINUOUS
 70
0
 71
3
 72
9
 73
5
 74
0
 42
0.0000001
 43
0.0000001
 44
0.0000000001
 40
0.0
 40
0.0
 40
0.0
 40
0.0
 40
0.5579110328
 40
1.0
 40
1.0
 40
1.0
 40
1.0
 10
196.719481715
 20
468.9595795995
 30
0.0
 10
196.7392798672
 20
469.1035114955
 30
0.0
 10
196.8258067718
 20
469.3676324738
 30
0.0
 10
197.0961241976
 20
469.5070162377
 30
0.0
 10
197.2106323832
 20
469.4951090256
 30
0.0
  0
SPLINE
  5
6A5
100
AcDbEntity
  8
0
100
AcDbSpline
 62
7
  6
CONTINUOUS
 70
0
 71
3
 72
9
 73
5
 74
0
 42
0.0000001
 43
0.0000001
 44
0.0000000001
 40
0.0
 40
0.0
 40
0.0
 40
0.0
 40
0.2389199867
 40
1.0
 40
1.0
 40
1.0
 40
1.0
 10
192.0199766628
 20
471.3172830949
 30
0.0
 10
192.3559732812
 20
471.2814716303
 30
0.0
 10
193.7638463289
 20
471.1466348553
 30
0.0
 10
195.1741930695
 20
471.037607892
 30
0.0
 10
196.2443691693
 20
470.9222088136
 30
0.0
  0
SPLINE
  5
6A6
100
AcDbEntity
  8
0
100
AcDbSpline
 62
7
  6
CONTINUOUS
 70
0
 71
3
 72
9
 73
5
 74
0
 42
0.0000001
 43
0.0000001
 44
0.0000000001
 40
0.0
 40
0.0
 40
0.0
 40
0.0
 40
0.4547709174
 40
1.0
 40
1.0
 40
1.0
 40
1.0
 10
190.4244905821
 20
469.5983425398
 30
0.0
 10
190.4244881315
 20
469.5936859235
 30
0.0
 10
190.4272430089
 20
469.5833948225
 30
0.0
 10
190.4336886667
 20
469.5752032833
 30
0.0
 10
190.4375565419
 20
469.5711773817
 30
0.0
  0
SPLINE
  5
6A7
100
AcDbEntity
  8
0
100
AcDbSpline
 62
7
  6
CONTINUOUS
 70
0
 71
3
 72
9
 73
5
 74
0
 42
0.0000001
 43
0.0000001
 44
0.0000000001
 40
0.0
 40
0.0
 40
0.0
 40
0.0
 40
0.2381341983
 40
1.0
 40
1.0
 40
1.0
 40
1.0
 10
191.9930810348
 20
469.2881570134
 30
0.0
 10
192.3294554754
 20
469.2520745647
 30
0.0
 10
193.7436320981
 20
469.1162372465
 30
0.0
 10
195.160336279
 20
469.0068842307
 30
0.0
 10
196.236461382
 20
468.8910546079
 30
0.0
  0
SPLINE
  5
6A8
100
AcDbEntity
  8
0
100
AcDbSpline
 62
7
  6
CONTINUOUS
 70
0
 71
3
 72
8
 73
4
 74
0
 42
0.0000001
 43
0.0000001
 44
0.0000000001
 40
0.0
 40
0.0
 40
0.0
 40
0.0
 40
1.0
 40
1.0
 40
1.0
 40
1.0
 10
192.7355273843
 20
481.5292123203
 30
0.0
 10
192.7337862384
 20
481.5015995083
 30
0.0
 10
192.7259779101
 20
481.4746527612
 30
0.0
 10
192.7191449175
 20
481.4478421442
 30
0.0
  0
SPLINE
  5
6A9
100
AcDbEntity
  8
0
100
AcDbSpline
 62
7
  6
CONTINUOUS
 70
0
 71
3
 72
9
 73
5
 74
0
 42
0.0000001
 43
0.0000001
 44
0.0000000001
 40
0.0
 40
0.0
 40
0.0
 40
0.0
 40
0.4999666352
 40
1.0
 40
1.0
 40
1.0
 40
1.0
 10
189.103779059
 20
475.6943871887
 30
0.0
 10
189.1037783664
 20
475.4727286
 30
0.0
 10
189.3696478556
 20
474.9962998076
 30
0.0
 10
189.9137667052
 20
475.0153901125
 30
0.0
 10
190.1041907252
 20
475.1288993135
 30
0.0
  0
SPLINE
  5
6AA
100
AcDbEntity
  8
0
100
AcDbSpline
 62
7
  6
CONTINUOUS
 70
0
 71
3
 72
8
 73
4
 74
0
 42
0.0000001
 43
0.0000001
 44
0.0000000001
 40
0.0
 40
0.0
 40
0.0
 40
0.0
 40
1.0
 40
1.0
 40
1.0
 40
1.0
 10
190.1041907252
 20
475.1288993135
 30
0.0
 10
190.2875987258
 20
475.2382263595
 30
0.0
 10
190.4208019043
 20
475.4701580036
 30
0.0
 10
190.4244612347
 20
475.6836468955
 30
0.0
  0
SPLINE
  5
6AB
100
AcDbEntity
  8
0
100
AcDbSpline
 62
7
  6
CONTINUOUS
 70
0
 71
3
 72
11
 73
7
 74
0
 42
0.0000001
 43
0.0000001
 44
0.0000000001
 40
0.0
 40
0.0
 40
0.0
 40
0.0
 40
0.0792894875
 40
0.2733929664
 40
0.5823699716
 40
1.0
 40
1.0
 40
1.0
 40
1.0
 10
199.1112239248
 20
468.5821399745
 30
0.0
 10
199.1112105959
 20
468.5495676981
 30
0.0
 10
198.9673855981
 20
468.5038139668
 30
0.0
 10
198.7658888418
 20
468.457239507
 30
0.0
 10
198.3734882074
 20
468.4021674667
 30
0.0
 10
198.0823593517
 20
468.3706937752
 30
0.0
 10
197.9116366037
 20
468.353732327
 30
0.0
  0
SPLINE
  5
6AC
100
AcDbEntity
  8
0
100
AcDbSpline
 62
7
  6
CONTINUOUS
 70
0
 71
3
 72
9
 73
5
 74
0
 42
0.0000001
 43
0.0000001
 44
0.0000000001
 40
0.0
 40
0.0
 40
0.0
 40
0.0
 40
0.5218086678
 40
1.0
 40
1.0
 40
1.0
 40
1.0
 10
197.3170473299
 20
468.2996750135
 30
0.0
 10
196.076497284
 20
468.1952123422
 30
0.0
 10
193.6953973682
 20
468.0466567148
 30
0.0
 10
191.3130344872
 20
467.9010327359
 30
0.0
 10
190.1783547099
 20
467.7822756984
 30
0.0
  0
SPLINE
  5
6AD
100
AcDbEntity
  8
0
100
AcDbSpline
 62
7
  6
CONTINUOUS
 70
0
 71
3
 72
11
 73
7
 74
0
 42
0.0000001
 43
0.0000001
 44
0.0000000001
 40
0.0
 40
0.0
 40
0.0
 40
0.0
 40
0.4164331482
 40
0.723747142
 40
0.9161675421
 40
1.0
 40
1.0
 40
1.0
 40
1.0
 10
189.8447145043
 20
467.7444766552
 30
0.0
 10
189.7384245238
 20
467.7313259952
 30
0.0
 10
189.5562340515
 20
467.7075539139
 30
0.0
 10
189.3169288367
 20
467.6625682035
 30
0.0
 10
189.1850729462
 20
467.6300415572
 30
0.0
 10
189.1048776113
 20
467.5884291458
 30
0.0
 10
189.1048797316
 20
467.5668686832
 30
0.0
  0
SPLINE
  5
6AE
100
AcDbEntity
  8
0
100
AcDbSpline
 62
7
  6
CONTINUOUS
 70
0
 71
3
 72
11
 73
7
 74
0
 42
0.0000001
 43
0.0000001
 44
0.0000000001
 40
0.0
 40
0.0
 40
0.0
 40
0.0
 40
0.2479806845
 40
0.4973637989
 40
0.7484975222
 40
1.0
 40
1.0
 40
1.0
 40
1.0
 10
187.0592174626
 20
486.7161199111
 30
0.0
 10
187.0623752288
 20
486.9763189272
 30
0.0
 10
187.2011734481
 20
487.5054255407
 30
0.0
 10
187.7574521295
 20
488.1023065291
 30
0.0
 10
188.5282480756
 20
488.3781897147
 30
0.0
 10
189.0745729236
 20
488.3037004417
 30
0.0
 10
189.3202337503
 20
488.2072575373
 30
0.0
  0
SPLINE
  5
6AF
100
AcDbEntity
  8
0
100
AcDbSpline
 62
7
  6
CONTINUOUS
 70
0
 71
3
 72
8
 73
4
 74
0
 42
0.0000001
 43
0.0000001
 44
0.0000000001
 40
0.0
 40
0.0
 40
0.0
 40
0.0
 40
1.0
 40
1.0
 40
1.0
 40
1.0
 10
196.6254166467
 20
487.4121530189
 30
0.0
 10
196.718004615
 20
487.5987545776
 30
0.0
 10
196.8500292671
 20
487.7698281128
 30
0.0
 10
197.006226917
 20
487.9076503453
 30
0.0
  0
SPLINE
  5
6B0
100
AcDbEntity
  8
0
100
AcDbSpline
 62
7
  6
CONTINUOUS
 70
0
 71
3
 72
8
 73
4
 74
0
 42
0.0000001
 43
0.0000001
 44
0.0000000001
 40
0.0
 40
0.0
 40
0.0
 40
0.0
 40
1.0
 40
1.0
 40
1.0
 40
1.0
 10
198.5795528746
 20
488.2548116836
 30
0.0
 10
199.0041418353
 20
488.1297751039
 30
0.0
 10
199.402573252
 20
487.7986625851
 30
0.0
 10
199.596213278
 20
487.4006506856
 30
0.0
  0
SPLINE
  5
6B1
100
AcDbEntity
  8
0
100
AcDbSpline
 62
7
  6
CONTINUOUS
 70
0
 71
3
 72
9
 73
5
 74
0
 42
0.0000001
 43
0.0000001
 44
0.0000000001
 40
0.0
 40
0.0
 40
0.0
 40
0.0
 40
0.2744497745
 40
1.0
 40
1.0
 40
1.0
 40
1.0
 10
197.9063160237
 20
482.5771988073
 30
0.0
 10
197.9560970103
 20
482.5821426342
 30
0.0
 10
198.1374305098
 20
482.6006455755
 30
0.0
 10
198.3185771057
 20
482.6211413164
 30
0.0
 10
198.4497234726
 20
482.6381995514
 30
0.0
  0
SPLINE
  5
6B2
100
AcDbEntity
  8
0
100
AcDbSpline
 62
7
  6
CONTINUOUS
 70
0
 71
3
 72
10
 73
6
 74
0
 42
0.0000001
 43
0.0000001
 44
0.0000000001
 40
0.0
 40
0.0
 40
0.0
 40
0.0
 40
0.7223076591
 40
0.9141136802
 40
1.0
 40
1.0
 40
1.0
 40
1.0
 10
198.4497234726
 20
482.6381995514
 30
0.0
 10
198.615115083
 20
482.6597120722
 30
0.0
 10
198.8350720499
 20
482.693138515
 30
0.0
 10
199.0410700923
 20
482.7467958585
 30
0.0
 10
199.1110820199
 20
482.7865521114
 30
0.0
 10
199.1110921842
 20
482.8063837324
 30
0.0
  0
SPLINE
  5
6B3
100
AcDbEntity
  8
0
100
AcDbSpline
 62
7
  6
CONTINUOUS
 70
0
 71
3
 72
9
 73
5
 74
0
 42
0.0000001
 43
0.0000001
 44
0.0000000001
 40
0.0
 40
0.0
 40
0.0
 40
0.0
 40
0.2653950264
 40
1.0
 40
1.0
 40
1.0
 40
1.0
 10
194.1074815718
 20
489.4103872007
 30
0.0
 10
194.2960130353
 20
489.3938318343
 30
0.0
 10
195.0063727197
 20
489.3313268579
 30
0.0
 10
195.7166481937
 20
489.267019155
 30
0.0
 10
196.2374961489
 20
489.2109497595
 30
0.0
  0
SPLINE
  5
6B4
100
AcDbEntity
  8
0
100
AcDbSpline
 62
7
  6
CONTINUOUS
 70
0
 71
3
 72
10
 73
6
 74
0
 42
0.0000001
 43
0.0000001
 44
0.0000000001
 40
0.0
 40
0.0
 40
0.0
 40
0.0
 40
0.2496239334
 40
0.5003309868
 40
1.0
 40
1.0
 40
1.0
 40
1.0
 10
194.6566843584
 20
483.0132641235
 30
0.0
 10
194.4210760319
 20
483.0862841275
 30
0.0
 10
193.9194910935
 20
483.1679928296
 30
0.0
 10
192.9496160913
 20
482.9588985889
 30
0.0
 10
192.2100191546
 20
482.7982697945
 30
0.0
 10
191.7181841911
 20
482.8416513552
 30
0.0
  0
SPLINE
  5
6B5
100
AcDbEntity
  8
0
100
AcDbSpline
 62
7
  6
CONTINUOUS
 70
0
 71
3
 72
8
 73
4
 74
0
 42
0.0000001
 43
0.0000001
 44
0.0000000001
 40
0.0
 40
0.0
 40
0.0
 40
0.0
 40
1.0
 40
1.0
 40
1.0
 40
1.0
 10
193.7623500507
 20
481.312739184
 30
0.0
 10
193.976952237
 20
481.3298835299
 30
0.0
 10
194.1904118559
 20
481.3720020361
 30
0.0
 10
194.3969789989
 20
481.4326489019
 30
0.0
  0
SPLINE
  5
6B6
100
AcDbEntity
  8
0
100
AcDbSpline
 62
7
  6
CONTINUOUS
 70
0
 71
3
 72
9
 73
5
 74
0
 42
0.0000001
 43
0.0000001
 44
0.0000000001
 40
0.0
 40
0.0
 40
0.0
 40
0.0
 40
0.4994271123
 40
1.0
 40
1.0
 40
1.0
 40
1.0
 10
192.7191449175
 20
481.4478149608
 30
0.0
 10
192.9967394775
 20
481.4017355367
 30
0.0
 10
193.5595351525
 20
481.3186908883
 30
0.0
 10
194.1230493553
 20
481.4135814745
 30
0.0
 10
194.3969789989
 20
481.4807256167
 30
0.0
  0
SPLINE
  5
6B7
100
AcDbEntity
  8
0
100
AcDbSpline
 62
7
  6
CONTINUOUS
 70
0
 71
3
 72
9
 73
5
 74
0
 42
0.0000001
 43
0.0000001
 44
0.0000000001
 40
0.0
 40
0.0
 40
0.0
 40
0.0
 40
0.2731322623
 40
1.0
 40
1.0
 40
1.0
 40
1.0
 10
197.6456122971
 20
482.5523872073
 30
0.0
 10
197.6456124241
 20
482.4954144281
 30
0.0
 10
197.626399554
 20
482.2888267195
 30
0.0
 10
197.5307080771
 20
482.0778892229
 30
0.0
 10
197.4132282203
 20
481.9820435199
 30
0.0
  0
SPLINE
  5
6B8
100
AcDbEntity
  8
0
100
AcDbSpline
 62
7
  6
CONTINUOUS
 70
0
 71
3
 72
8
 73
4
 74
0
 42
0.0000001
 43
0.0000001
 44
0.0000000001
 40
0.0
 40
0.0
 40
0.0
 40
0.0
 40
1.0
 40
1.0
 40
1.0
 40
1.0
 10
197.4132282203
 20
481.9820435199
 30
0.0
 10
197.3563492421
 20
481.9356389208
 30
0.0
 10
197.2845155552
 20
481.9013035056
 30
0.0
 10
197.2115032207
 20
481.8937006119
 30
0.0
  0
SPLINE
  5
6B9
100
AcDbEntity
  8
0
100
AcDbSpline
 62
7
  6
CONTINUOUS
 70
0
 71
3
 72
9
 73
5
 74
0
 42
0.0000001
 43
0.0000001
 44
0.0000000001
 40
0.0
 40
0.0
 40
0.0
 40
0.0
 40
0.491217966
 40
1.0
 40
1.0
 40
1.0
 40
1.0
 10
192.7193065109
 20
481.448664404
 30
0.0
 10
192.8872022044
 20
481.4051132115
 30
0.0
 10
193.2238530769
 20
481.2857632232
 30
0.0
 10
193.5832664055
 20
481.2984323804
 30
0.0
 10
193.7623500348
 20
481.3127391854
 30
0.0
  0
SPLINE
  5
6BA
100
AcDbEntity
  8
0
100
AcDbSpline
 62
7
  6
CONTINUOUS
 70
0
 71
3
 72
9
 73
5
 74
0
 42
0.0000001
 43
0.0000001
 44
0.0000000001
 40
0.0
 40
0.0
 40
0.0
 40
0.0
 40
0.2279979423
 40
1.0
 40
1.0
 40
1.0
 40
1.0
 10
197.2644977099
 20
482.5191998679
 30
0.0
 10
197.1170149411
 20
482.5069134798
 30
0.0
 10
196.4699492659
 20
482.4554890558
 30
0.0
 10
195.8223554562
 20
482.4110195091
 30
0.0
 10
195.3223570229
 20
482.3777031559
 30
0.0
  0
SPLINE
  5
6BB
100
AcDbEntity
  8
0
100
AcDbSpline
 62
7
  6
CONTINUOUS
 70
0
 71
3
 72
9
 73
5
 74
0
 42
0.0000001
 43
0.0000001
 44
0.0000000001
 40
0.0
 40
0.0
 40
0.0
 40
0.0
 40
0.2557105131
 40
1.0
 40
1.0
 40
1.0
 40
1.0
 10
195.3223570229
 20
482.3777031559
 30
0.0
 10
195.0032103765
 20
482.3564374844
 30
0.0
 10
193.7550165484
 20
482.2751174376
 30
0.0
 10
192.5065947544
 20
482.1965603291
 30
0.0
 10
191.578205246
 20
482.1270079935
 30
0.0
  0
SPLINE
  5
6BC
100
AcDbEntity
  8
0
100
AcDbSpline
 62
7
  6
CONTINUOUS
 70
0
 71
3
 72
9
 73
5
 74
0
 42
0.0000001
 43
0.0000001
 44
0.0000000001
 40
0.0
 40
0.0
 40
0.0
 40
0.0
 40
0.2750511982
 40
1.0
 40
1.0
 40
1.0
 40
1.0
 10
191.2093559859
 20
482.0986062797
 30
0.0
 10
191.1136112097
 20
482.0910136301
 30
0.0
 10
190.7655742167
 20
482.0626918382
 30
0.0
 10
190.4177465964
 20
482.0314605451
 30
0.0
 10
190.1659840929
 20
482.005035687
 30
0.0
  0
SPLINE
  5
6BD
100
AcDbEntity
  8
0
100
AcDbSpline
 62
7
  6
CONTINUOUS
 70
0
 71
3
 72
11
 73
7
 74
0
 42
0.0000001
 43
0.0000001
 44
0.0000000001
 40
0.0
 40
0.0
 40
0.0
 40
0.0
 40
0.4181377029
 40
0.7273126015
 40
0.9201243352
 40
1.0
 40
1.0
 40
1.0
 40
1.0
 10
190.1659840929
 20
482.005035687
 30
0.0
 10
190.0141949109
 20
481.9891039755
 30
0.0
 10
189.7549812858
 20
481.9598319243
 30
0.0
 10
189.40837246
 20
481.9073131315
 30
0.0
 10
189.227234413
 20
481.8652216503
 30
0.0
 10
189.1037568522
 20
481.8196499378
 30
0.0
 10
189.1036938226
 20
481.7904948683
 30
0.0
  0
SPLINE
  5
6BE
100
AcDbEntity
  8
0
100
AcDbSpline
 62
7
  6
CONTINUOUS
 70
0
 71
3
 72
9
 73
5
 74
0
 42
0.0000001
 43
0.0000001
 44
0.0000000001
 40
0.0
 40
0.0
 40
0.0
 40
0.0
 40
0.7092288429
 40
1.0
 40
1.0
 40
1.0
 40
1.0
 10
190.8261858634
 20
481.6378575413
 30
0.0
 10
190.7251092167
 20
481.6582301227
 30
0.0
 10
190.6103121835
 20
481.6857159977
 30
0.0
 10
190.4245115168
 20
481.7479952543
 30
0.0
 10
190.4246995115
 20
481.7902678131
 30
0.0
  0
SPLINE
  5
6BF
100
AcDbEntity
  8
0
100
AcDbSpline
 62
7
  6
CONTINUOUS
 70
0
 71
3
 72
8
 73
4
 74
0
 42
0.0000001
 43
0.0000001
 44
0.0000000001
 40
0.0
 40
0.0
 40
0.0
 40
0.0
 40
1.0
 40
1.0
 40
1.0
 40
1.0
 10
348.5865996901
 20
539.7517524945
 30
0.0
 10
348.5971631147
 20
539.786467779
 30
0.0
 10
348.6029820488
 20
539.8230865479
 30
0.0
 10
348.6029816665
 20
539.8593734177
 30
0.0
  0
SPLINE
  5
6C0
100
AcDbEntity
  8
0
100
AcDbSpline
 62
7
  6
CONTINUOUS
 70
0
 71
3
 72
8
 73
4
 74
0
 42
0.0000001
 43
0.0000001
 44
0.0000000001
 40
0.0
 40
0.0
 40
0.0
 40
0.0
 40
1.0
 40
1.0
 40
1.0
 40
1.0
 10
359.2709816665
 20
539.9632452328
 30
0.0
 10
359.2709816665
 20
539.8894622719
 30
0.0
 10
359.2974329479
 20
539.8144699324
 30
0.0
 10
359.3362974343
 20
539.7517524945
 30
0.0
  0
SPLINE
  5
6C1
100
AcDbEntity
  8
0
100
AcDbSpline
 62
7
  6
CONTINUOUS
 70
0
 71
3
 72
11
 73
7
 74
0
 42
0.0000001
 43
0.0000001
 44
0.0000000001
 40
0.0
 40
0.0
 40
0.0
 40
0.0
 40
0.0792108674
 40
0.2729183503
 40
0.5827353547
 40
1.0
 40
1.0
 40
1.0
 40
1.0
 10
199.1099143441
 20
466.5499754859
 30
0.0
 10
199.1099092269
 20
466.5209050527
 30
0.0
 10
198.9860187172
 20
466.4744819226
 30
0.0
 10
198.8032528196
 20
466.4333559849
 30
0.0
 10
198.4546309343
 20
466.3803049245
 30
0.0
 10
198.1940203856
 20
466.3510307581
 30
0.0
 10
198.0417194664
 20
466.3350565326
 30
0.0
  0
SPLINE
  5
6C2
100
AcDbEntity
  8
0
100
AcDbSpline
 62
7
  6
CONTINUOUS
 70
0
 71
3
 72
9
 73
5
 74
0
 42
0.0000001
 43
0.0000001
 44
0.0000000001
 40
0.0
 40
0.0
 40
0.0
 40
0.0
 40
0.2242159787
 40
1.0
 40
1.0
 40
1.0
 40
1.0
 10
197.8858204414
 20
466.3191950521
 30
0.0
 10
197.328156659
 20
466.2640921324
 30
0.0
 10
194.8358019121
 20
466.0743484435
 30
0.0
 10
192.3380073485
 20
465.9582209501
 30
0.0
 10
190.407946673
 20
465.7732384088
 30
0.0
  0
SPLINE
  5
6C3
100
AcDbEntity
  8
0
100
AcDbSpline
 62
7
  6
CONTINUOUS
 70
0
 71
3
 72
11
 73
7
 74
0
 42
0.0000001
 43
0.0000001
 44
0.0000000001
 40
0.0
 40
0.0
 40
0.0
 40
0.0
 40
0.417943034
 40
0.7273886292
 40
0.9214872625
 40
1.0
 40
1.0
 40
1.0
 40
1.0
 10
190.407946673
 20
465.7732384088
 30
0.0
 10
190.2224829542
 20
465.7554630349
 30
0.0
 10
189.9063656317
 20
465.7223557038
 30
0.0
 10
189.4789908255
 20
465.6655638069
 30
0.0
 10
189.2616700338
 20
465.6156163693
 30
0.0
 10
189.1037678034
 20
465.5694743748
 30
0.0
 10
189.1036828532
 20
465.5344745161
 30
0.0
  0
SPLINE
  5
6C4
100
AcDbEntity
  8
0
100
AcDbSpline
 62
7
  6
CONTINUOUS
 70
0
 71
3
 72
11
 73
7
 74
0
 42
0.0000001
 43
0.0000001
 44
0.0000000001
 40
0.0
 40
0.0
 40
0.0
 40
0.0
 40
0.084073177
 40
0.276080032
 40
0.5825336011
 40
1.0
 40
1.0
 40
1.0
 40
1.0
 10
503.1747250253
 20
484.6903200425
 30
0.0
 10
503.1748006053
 20
484.7125725308
 30
0.0
 10
503.2583871633
 20
484.7540760165
 30
0.0
 10
503.3931733303
 20
484.7879317991
 30
0.0
 10
503.6398481833
 20
484.8334639825
 30
0.0
 10
503.8273177789
 20
484.8576352577
 30
0.0
 10
503.9370025379
 20
484.8709971739
 30
0.0
  0
SPLINE
  5
6C5
100
AcDbEntity
  8
0
100
AcDbSpline
 62
7
  6
CONTINUOUS
 70
0
 71
3
 72
9
 73
5
 74
0
 42
0.0000001
 43
0.0000001
 44
0.0000000001
 40
0.0
 40
0.0
 40
0.0
 40
0.0
 40
0.2174444559
 40
1.0
 40
1.0
 40
1.0
 40
1.0
 10
504.2660881962
 20
484.9078324533
 30
0.0
 10
504.3763358354
 20
484.9192675062
 30
0.0
 10
504.8837108875
 20
484.968383572
 30
0.0
 10
505.3919557082
 20
485.0079399981
 30
0.0
 10
505.7897768327
 20
485.0372047956
 30
0.0
  0
LINE
  5
6C6
100
AcDbEntity
  8
0
100
AcDbLine
 62
7
  6
CONTINUOUS
 10
505.7897768327
 20
485.0372047956
 11
506.0077424335
 21
485.0530331036
  0
SPLINE
  5
6C7
100
AcDbEntity
  8
0
100
AcDbSpline
 62
7
  6
CONTINUOUS
 70
0
 71
3
 72
9
 73
5
 74
0
 42
0.0000001
 43
0.0000001
 44
0.0000000001
 40
0.0
 40
0.0
 40
0.0
 40
0.0
 40
0.2620117403
 40
1.0
 40
1.0
 40
1.0
 40
1.0
 10
506.0077424335
 20
485.0530331036
 30
0.0
 10
506.5274806527
 20
485.0903128289
 30
0.0
 10
508.5116145417
 20
485.224046677
 30
0.0
 10
510.4984242903
 20
485.3310701156
 30
0.0
 10
511.95900398
 20
485.4751360164
 30
0.0
  0
SPLINE
  5
6C8
100
AcDbEntity
  8
0
100
AcDbSpline
 62
7
  6
CONTINUOUS
 70
0
 71
3
 72
11
 73
7
 74
0
 42
0.0000001
 43
0.0000001
 44
0.0000000001
 40
0.0
 40
0.0
 40
0.0
 40
0.0
 40
0.4184316499
 40
0.7274386019
 40
0.9198995308
 40
1.0
 40
1.0
 40
1.0
 40
1.0
 10
512.1672258739
 20
485.4965100456
 30
0.0
 10
512.3125410497
 20
485.5120711816
 30
0.0
 10
512.5606808149
 20
485.5405517085
 30
0.0
 10
512.8917063128
 20
485.5922907509
 30
0.0
 10
513.0654858431
 20
485.6327700117
 30
0.0
 10
513.1824056309
 20
485.6782926246
 30
0.0
 10
513.1822799821
 20
485.706269103
 30
0.0
  0
SPLINE
  5
6C9
100
AcDbEntity
  8
0
100
AcDbSpline
 62
7
  6
CONTINUOUS
 70
0
 71
3
 72
11
 73
7
 74
0
 42
0.0000001
 43
0.0000001
 44
0.0000000001
 40
0.0
 40
0.0
 40
0.0
 40
0.0
 40
0.0808077163
 40
0.2735065798
 40
0.5816919861
 40
1.0
 40
1.0
 40
1.0
 40
1.0
 10
189.1038690768
 20
473.6624733287
 30
0.0
 10
189.1039505153
 20
473.6890070754
 30
0.0
 10
189.2122362754
 20
473.7338484277
 30
0.0
 10
189.3768251732
 20
473.7723329297
 30
0.0
 10
189.6867416329
 20
473.8228880268
 30
0.0
 10
189.9198942131
 20
473.8502279368
 30
0.0
 10
190.0564243847
 20
473.8652567464
 30
0.0
  0
SPLINE
  5
6CA
100
AcDbEntity
  8
0
100
AcDbSpline
 62
7
  6
CONTINUOUS
 70
0
 71
3
 72
10
 73
6
 74
0
 42
0.0000001
 43
0.0000001
 44
0.0000000001
 40
0.0
 40
0.0
 40
0.0
 40
0.0
 40
0.227279281
 40
0.6463298475
 40
1.0
 40
1.0
 40
1.0
 40
1.0
 10
190.3077606399
 20
473.8914916477
 30
0.0
 10
190.8924954626
 20
473.9495863278
 30
0.0
 10
192.5592598053
 20
474.0734139562
 30
0.0
 10
195.139108412
 20
474.2364638212
 30
0.0
 10
197.1333465425
 20
474.3679645015
 30
0.0
 10
198.0427722828
 20
474.4630956706
 30
0.0
  0
SPLINE
  5
6CB
100
AcDbEntity
  8
0
100
AcDbSpline
 62
7
  6
CONTINUOUS
 70
0
 71
3
 72
11
 73
7
 74
0
 42
0.0000001
 43
0.0000001
 44
0.0000000001
 40
0.0
 40
0.0
 40
0.0
 40
0.0
 40
0.4172656098
 40
0.7238743383
 40
0.9155569045
 40
1.0
 40
1.0
 40
1.0
 40
1.0
 10
198.3859234453
 20
474.5020808639
 30
0.0
 10
198.490406712
 20
474.5151084118
 30
0.0
 10
198.6691979157
 20
474.5386896709
 30
0.0
 10
198.9036282264
 20
474.5832631845
 30
0.0
 10
199.0328708503
 20
474.6159534067
 30
0.0
 10
199.1110918553
 20
474.6571247868
 30
0.0
 10
199.1111262184
 20
474.6784330294
 30
0.0
  0
SPLINE
  5
6CC
100
AcDbEntity
  8
0
100
AcDbSpline
 62
7
  6
CONTINUOUS
 70
0
 71
3
 72
10
 73
6
 74
0
 42
0.0000001
 43
0.0000001
 44
0.0000000001
 40
0.0
 40
0.0
 40
0.0
 40
0.0
 40
0.086955926
 40
0.2783942731
 40
1.0
 40
1.0
 40
1.0
 40
1.0
 10
503.1746938
 20
468.4341241871
 30
0.0
 10
503.1747240827
 20
468.453293774
 30
0.0
 10
503.2409894794
 20
468.492018212
 30
0.0
 10
503.4378446243
 20
468.5449001272
 30
0.0
 10
503.6472263141
 20
468.5772175843
 30
0.0
 10
503.8049159484
 20
468.5981997443
 30
0.0
  0
SPLINE
  5
6CD
100
AcDbEntity
  8
0
100
AcDbSpline
 62
7
  6
CONTINUOUS
 70
0
 71
3
 72
10
 73
6
 74
0
 42
0.0000001
 43
0.0000001
 44
0.0000000001
 40
0.0
 40
0.0
 40
0.0
 40
0.0
 40
0.2220618363
 40
0.6401705345
 40
1.0
 40
1.0
 40
1.0
 40
1.0
 10
504.2748068787
 20
468.6527416642
 30
0.0
 10
504.8477911986
 20
468.7119347618
 30
0.0
 10
506.5040672079
 20
468.8369902569
 30
0.0
 10
509.092504333
 20
469.0006790074
 30
0.0
 10
511.1068586458
 20
469.1325364167
 30
0.0
 10
512.0354936507
 20
469.2267928298
 30
0.0
  0
SPLINE
  5
6CE
100
AcDbEntity
  8
0
100
AcDbSpline
 62
7
  6
CONTINUOUS
 70
0
 71
3
 72
11
 73
7
 74
0
 42
0.0000001
 43
0.0000001
 44
0.0000000001
 40
0.0
 40
0.0
 40
0.0
 40
0.0
 40
0.4180066751
 40
0.725363584
 40
0.9176134612
 40
1.0
 40
1.0
 40
1.0
 40
1.0
 10
512.3279799739
 20
469.2583937524
 30
0.0
 10
512.4506657152
 20
469.2725845285
 30
0.0
 10
512.6602199664
 20
469.2983161122
 30
0.0
 10
512.9374827577
 20
469.3463416123
 30
0.0
 10
513.086574844
 20
469.3824869562
 30
0.0
 10
513.1821975303
 20
469.4256907004
 30
0.0
 10
513.1822132589
 20
469.4500325175
 30
0.0
  0
SPLINE
  5
6CF
100
AcDbEntity
  8
0
100
AcDbSpline
 62
7
  6
CONTINUOUS
 70
0
 71
3
 72
9
 73
5
 74
0
 42
0.0000001
 43
0.0000001
 44
0.0000000001
 40
0.0
 40
0.0
 40
0.0
 40
0.0
 40
0.2391958349
 40
1.0
 40
1.0
 40
1.0
 40
1.0
 10
510.2632205012
 20
465.6995612187
 30
0.0
 10
509.9264525965
 20
465.7354593497
 30
0.0
 10
508.5169518283
 20
465.8702263578
 30
0.0
 10
507.1049860881
 20
465.9793304586
 30
0.0
 10
506.0340146612
 20
466.0951662223
 30
0.0
  0
SPLINE
  5
6D0
100
AcDbEntity
  8
0
100
AcDbSpline
 62
7
  6
CONTINUOUS
 70
0
 71
3
 72
9
 73
5
 74
0
 42
0.0000001
 43
0.0000001
 44
0.0000000001
 40
0.0
 40
0.0
 40
0.0
 40
0.0
 40
0.4518706964
 40
1.0
 40
1.0
 40
1.0
 40
1.0
 10
189.1038159197
 20
471.630367681
 30
0.0
 10
189.1038284659
 20
471.6339711079
 30
0.0
 10
189.1060984267
 20
471.6419710333
 30
0.0
 10
189.1112604235
 20
471.648237624
 30
0.0
 10
189.1143532516
 20
471.6513264131
 30
0.0
  0
SPLINE
  5
6D1
100
AcDbEntity
  8
0
100
AcDbSpline
 62
7
  6
CONTINUOUS
 70
0
 71
3
 72
10
 73
6
 74
0
 42
0.0000001
 43
0.0000001
 44
0.0000000001
 40
0.0
 40
0.0
 40
0.0
 40
0.0
 40
0.1108292342
 40
0.3152596715
 40
1.0
 40
1.0
 40
1.0
 40
1.0
 10
189.1143532516
 20
471.6513264131
 30
0.0
 10
189.137106875
 20
471.6740503221
 30
0.0
 10
189.2282778344
 20
471.704381543
 30
0.0
 10
189.5064609782
 20
471.7701648994
 30
0.0
 10
189.7659589542
 20
471.8000228445
 30
0.0
 10
189.9633306676
 20
471.8227833771
 30
0.0
  0
SPLINE
  5
6D2
100
AcDbEntity
  8
0
100
AcDbSpline
 62
7
  6
CONTINUOUS
 70
0
 71
3
 72
10
 73
6
 74
0
 42
0.0000001
 43
0.0000001
 44
0.0000000001
 40
0.0
 40
0.0
 40
0.0
 40
0.0
 40
0.224629365
 40
0.643405026
 40
1.0
 40
1.0
 40
1.0
 40
1.0
 10
190.2508782253
 20
471.8537868245
 30
0.0
 10
190.8304981967
 20
471.912563678
 30
0.0
 10
192.494898298
 20
472.0372699042
 30
0.0
 10
195.0828777052
 20
472.2008675522
 30
0.0
 10
197.0902588356
 20
472.3327002654
 30
0.0
 10
198.0102197514
 20
472.4277182992
 30
0.0
  0
SPLINE
  5
6D3
100
AcDbEntity
  8
0
100
AcDbSpline
 62
7
  6
CONTINUOUS
 70
0
 71
3
 72
11
 73
7
 74
0
 42
0.0000001
 43
0.0000001
 44
0.0000000001
 40
0.0
 40
0.0
 40
0.0
 40
0.0
 40
0.4177702341
 40
0.7246376156
 40
0.9167864473
 40
1.0
 40
1.0
 40
1.0
 40
1.0
 10
198.325861298
 20
472.462738312
 30
0.0
 10
198.4388603513
 20
472.4763105796
 30
0.0
 10
198.6320079158
 20
472.500845924
 30
0.0
 10
198.8863663531
 20
472.5472961896
 30
0.0
 10
199.0249390124
 20
472.5812738136
 30
0.0
 10
199.1111428381
 20
472.6237121904
 30
0.0
 10
199.1111023309
 20
472.6463816378
 30
0.0
  0
SPLINE
  5
6D4
100
AcDbEntity
  8
0
100
AcDbSpline
 62
7
  6
CONTINUOUS
 70
0
 71
3
 72
9
 73
5
 74
0
 42
0.0000001
 43
0.0000001
 44
0.0000000001
 40
0.0
 40
0.0
 40
0.0
 40
0.0
 40
0.3923459069
 40
1.0
 40
1.0
 40
1.0
 40
1.0
 10
504.4955134921
 20
484.6902528222
 30
0.0
 10
504.4955122724
 20
484.6805844137
 30
0.0
 10
504.5096344787
 20
484.6572259702
 30
0.0
 10
504.5309483047
 20
484.6447620906
 30
0.0
 10
504.5441049797
 20
484.6376117626
 30
0.0
  0
SPLINE
  5
6D5
100
AcDbEntity
  8
0
100
AcDbSpline
 62
7
  6
CONTINUOUS
 70
0
 71
3
 72
9
 73
5
 74
0
 42
0.0000001
 43
0.0000001
 44
0.0000000001
 40
0.0
 40
0.0
 40
0.0
 40
0.0
 40
0.4371423014
 40
1.0
 40
1.0
 40
1.0
 40
1.0
 10
197.1451053714
 20
483.2109969239
 30
0.0
 10
197.2753288048
 20
483.2248563398
 30
0.0
 10
197.5815336872
 20
483.0364209278
 30
0.0
 10
197.6456556164
 20
482.7210078418
 30
0.0
 10
197.6456552449
 20
482.5523872147
 30
0.0
  0
SPLINE
  5
6D6
100
AcDbEntity
  8
0
100
AcDbSpline
 62
7
  6
CONTINUOUS
 70
0
 71
3
 72
8
 73
4
 74
0
 42
0.0000001
 43
0.0000001
 44
0.0000000001
 40
0.0
 40
0.0
 40
0.0
 40
0.0
 40
1.0
 40
1.0
 40
1.0
 40
1.0
 10
107.7388457291
 20
443.7397523481
 30
0.0
 10
107.6803866274
 20
443.9151296434
 30
0.0
 10
107.6271727933
 20
444.0923985341
 30
0.0
 10
107.5809062487
 20
444.2713791731
 30
0.0
  0
SPLINE
  5
6D7
100
AcDbEntity
  8
0
100
AcDbSpline
 62
7
  6
CONTINUOUS
 70
0
 71
3
 72
8
 73
4
 74
0
 42
0.0000001
 43
0.0000001
 44
0.0000000001
 40
0.0
 40
0.0
 40
0.0
 40
0.0
 40
1.0
 40
1.0
 40
1.0
 40
1.0
 10
107.5188816665
 20
446.8653567671
 30
0.0
 10
107.5769491657
 20
447.1332393243
 30
0.0
 10
107.652166585
 20
447.3976648566
 30
0.0
 10
107.7388458206
 20
447.6577025635
 30
0.0
  0
SPLINE
  5
6D8
100
AcDbEntity
  8
0
100
AcDbSpline
 62
7
  6
CONTINUOUS
 70
0
 71
3
 72
9
 73
5
 74
0
 42
0.0000001
 43
0.0000001
 44
0.0000000001
 40
0.0
 40
0.0
 40
0.0
 40
0.0
 40
0.2322929665
 40
1.0
 40
1.0
 40
1.0
 40
1.0
 10
191.9718652954
 20
487.5784389102
 30
0.0
 10
192.0737314388
 20
487.5674577146
 30
0.0
 10
192.5124385126
 20
487.5218752668
 30
0.0
 10
192.9516430164
 20
487.4812534298
 30
0.0
 10
193.2888865169
 20
487.4508769704
 30
0.0
  0
SPLINE
  5
6D9
100
AcDbEntity
  8
0
100
AcDbSpline
 62
7
  6
CONTINUOUS
 70
0
 71
3
 72
9
 73
5
 74
0
 42
0.0000001
 43
0.0000001
 44
0.0000000001
 40
0.0
 40
0.0
 40
0.0
 40
0.0
 40
0.2616057817
 40
1.0
 40
1.0
 40
1.0
 40
1.0
 10
194.2331651877
 20
487.3673505204
 30
0.0
 10
194.3853040015
 20
487.3539839102
 30
0.0
 10
194.9668444589
 20
487.3027343802
 30
0.0
 10
195.5482721089
 20
487.2499067323
 30
0.0
 10
195.9771230008
 20
487.2061946823
 30
0.0
  0
SPLINE
  5
6DA
100
AcDbEntity
  8
0
100
AcDbSpline
 62
7
  6
CONTINUOUS
 70
0
 71
3
 72
9
 73
5
 74
0
 42
0.0000001
 43
0.0000001
 44
0.0000000001
 40
0.0
 40
0.0
 40
0.0
 40
0.0
 40
0.3859374672
 40
1.0
 40
1.0
 40
1.0
 40
1.0
 10
197.6460050686
 20
486.9612531283
 30
0.0
 10
197.6672353607
 20
486.9545219061
 30
0.0
 10
197.7163124177
 20
486.9361137025
 30
0.0
 10
197.7904291665
 20
486.9058897045
 30
0.0
 10
197.7904805509
 20
486.8704531728
 30
0.0
  0
SPLINE
  5
6DB
100
AcDbEntity
  8
0
100
AcDbSpline
 62
7
  6
CONTINUOUS
 70
0
 71
3
 72
8
 73
4
 74
0
 42
0.0000001
 43
0.0000001
 44
0.0000000001
 40
0.0
 40
0.0
 40
0.0
 40
0.0
 40
1.0
 40
1.0
 40
1.0
 40
1.0
 10
107.7388457291
 20
443.7397524165
 30
0.0
 10
107.6803297756
 20
443.5642045459
 30
0.0
 10
107.6270696478
 20
443.3867611009
 30
0.0
 10
107.580771539
 20
443.2076029116
 30
0.0
  0
SPLINE
  5
6DC
100
AcDbEntity
  8
0
100
AcDbSpline
 62
7
  6
CONTINUOUS
 70
0
 71
3
 72
9
 73
5
 74
0
 42
0.0000001
 43
0.0000001
 44
0.0000000001
 40
0.0
 40
0.0
 40
0.0
 40
0.0
 40
0.4089229386
 40
1.0
 40
1.0
 40
1.0
 40
1.0
 10
504.4954976419
 20
486.7221040459
 30
0.0
 10
504.4954894723
 20
486.7140283021
 30
0.0
 10
504.5050743037
 20
486.6947946694
 30
0.0
 10
504.5214116084
 20
486.6833134337
 30
0.0
 10
504.5312841291
 20
486.6770849441
 30
0.0
  0
SPLINE
  5
6DD
100
AcDbEntity
  8
0
100
AcDbSpline
 62
7
  6
CONTINUOUS
 70
0
 71
3
 72
9
 73
5
 74
0
 42
0.0000001
 43
0.0000001
 44
0.0000000001
 40
0.0
 40
0.0
 40
0.0
 40
0.0
 40
0.4547709173
 40
1.0
 40
1.0
 40
1.0
 40
1.0
 10
504.4954905821
 20
468.4341062232
 30
0.0
 10
504.4954881315
 20
468.4294496068
 30
0.0
 10
504.4982430088
 20
468.4191585058
 30
0.0
 10
504.5046886667
 20
468.4109669665
 30
0.0
 10
504.5085565419
 20
468.406941065
 30
0.0
  0
SPLINE
  5
6DE
100
AcDbEntity
  8
0
100
AcDbSpline
 62
7
  6
CONTINUOUS
 70
0
 71
3
 72
9
 73
5
 74
0
 42
0.0000001
 43
0.0000001
 44
0.0000000001
 40
0.0
 40
0.0
 40
0.0
 40
0.0
 40
0.2381341983
 40
1.0
 40
1.0
 40
1.0
 40
1.0
 10
506.0640810345
 20
468.1239206966
 30
0.0
 10
506.4004554751
 20
468.0878382479
 30
0.0
 10
507.8146320978
 20
467.9520009297
 30
0.0
 10
509.2313362786
 20
467.842647914
 30
0.0
 10
510.3074613816
 20
467.7268182912
 30
0.0
  0
SPLINE
  5
6DF
100
AcDbEntity
  8
0
100
AcDbSpline
 62
7
  6
CONTINUOUS
 70
0
 71
3
 72
9
 73
5
 74
0
 42
0.0000001
 43
0.0000001
 44
0.0000000001
 40
0.0
 40
0.0
 40
0.0
 40
0.0
 40
0.237296017
 40
1.0
 40
1.0
 40
1.0
 40
1.0
 10
506.0480661461
 20
472.1896375913
 30
0.0
 10
506.3819016495
 20
472.1537086991
 30
0.0
 10
507.7903826254
 20
472.0180424517
 30
0.0
 10
509.2013791645
 20
471.9089309558
 30
0.0
 10
510.2744725052
 20
471.7943586697
 30
0.0
  0
SPLINE
  5
6E0
100
AcDbEntity
  8
0
100
AcDbSpline
 62
7
  6
CONTINUOUS
 70
0
 71
3
 72
9
 73
5
 74
0
 42
0.0000001
 43
0.0000001
 44
0.0000000001
 40
0.0
 40
0.0
 40
0.0
 40
0.0
 40
0.6856835587
 40
1.0
 40
1.0
 40
1.0
 40
1.0
 10
511.6546795548
 20
471.5910115167
 30
0.0
 10
511.7075380183
 20
471.5769658229
 30
0.0
 10
511.7762307743
 20
471.5593463492
 30
0.0
 10
511.8613423222
 20
471.5071872757
 30
0.0
 10
511.8613496916
 20
471.4821161847
 30
0.0
  0
SPLINE
  5
6E1
100
AcDbEntity
  8
0
100
AcDbSpline
 62
7
  6
CONTINUOUS
 70
0
 71
3
 72
11
 73
7
 74
0
 42
0.0000001
 43
0.0000001
 44
0.0000000001
 40
0.0
 40
0.0
 40
0.0
 40
0.0
 40
0.0757431226
 40
0.2716905345
 40
0.5841898394
 40
1.0
 40
1.0
 40
1.0
 40
1.0
 10
513.1822132617
 20
479.6102509213
 30
0.0
 10
513.1821958616
 20
479.5651681996
 30
0.0
 10
512.9623392064
 20
479.518406551
 30
0.0
 10
512.676872336
 20
479.4548490158
 30
0.0
 10
512.0992075659
 20
479.3920447718
 30
0.0
 10
511.6773249446
 20
479.3519543224
 30
0.0
 10
511.4307230807
 20
479.3309766965
 30
0.0
  0
SPLINE
  5
6E2
100
AcDbEntity
  8
0
100
AcDbSpline
 62
7
  6
CONTINUOUS
 70
0
 71
3
 72
9
 73
5
 74
0
 42
0.0000001
 43
0.0000001
 44
0.0000000001
 40
0.0
 40
0.0
 40
0.0
 40
0.0
 40
0.2335255218
 40
1.0
 40
1.0
 40
1.0
 40
1.0
 10
511.4307230807
 20
479.3309766965
 30
0.0
 10
510.9253234563
 20
479.287983979
 30
0.0
 10
508.7589413353
 20
479.1303930913
 30
0.0
 10
506.5895489907
 20
479.0146126362
 30
0.0
 10
504.9307148118
 20
478.8737142611
 30
0.0
  0
SPLINE
  5
6E3
100
AcDbEntity
  8
0
100
AcDbSpline
 62
7
  6
CONTINUOUS
 70
0
 71
3
 72
11
 73
7
 74
0
 42
0.0000001
 43
0.0000001
 44
0.0000000001
 40
0.0
 40
0.0
 40
0.0
 40
0.0
 40
0.4154201929
 40
0.7280301645
 40
0.9239970576
 40
1.0
 40
1.0
 40
1.0
 40
1.0
 10
504.9307148118
 20
478.8737142611
 30
0.0
 10
504.6837507558
 20
478.8527375808
 30
0.0
 10
504.2610555072
 20
478.8124380245
 30
0.0
 10
503.6820147272
 20
478.7500266477
 30
0.0
 10
503.3958801914
 20
478.6857541307
 30
0.0
 10
503.1749021517
 20
478.6396322566
 30
0.0
 10
503.1748158307
 20
478.5942864899
 30
0.0
  0
SPLINE
  5
6E4
100
AcDbEntity
  8
0
100
AcDbSpline
 62
7
  6
CONTINUOUS
 70
0
 71
3
 72
8
 73
4
 74
0
 42
0.0000001
 43
0.0000001
 44
0.0000000001
 40
0.0
 40
0.0
 40
0.0
 40
0.0
 40
1.0
 40
1.0
 40
1.0
 40
1.0
 10
193.0758361114
 20
485.4382073858
 30
0.0
 10
193.7779609568
 20
485.3739738666
 30
0.0
 10
194.4805640115
 20
485.3150344659
 30
0.0
 10
195.1826684831
 20
485.2505786324
 30
0.0
  0
SPLINE
  5
6E5
100
AcDbEntity
  8
0
100
AcDbSpline
 62
7
  6
CONTINUOUS
 70
0
 71
3
 72
9
 73
5
 74
0
 42
0.0000001
 43
0.0000001
 44
0.0000000001
 40
0.0
 40
0.0
 40
0.0
 40
0.0
 40
0.2640055182
 40
1.0
 40
1.0
 40
1.0
 40
1.0
 10
195.1826684831
 20
485.2505786324
 30
0.0
 10
195.2761235519
 20
485.2419991053
 30
0.0
 10
195.6300742816
 20
485.2091006285
 30
0.0
 10
195.9838575026
 20
485.1742843319
 30
0.0
 10
196.2439799958
 20
485.1462428088
 30
0.0
  0
SPLINE
  5
6E6
100
AcDbEntity
  8
0
100
AcDbSpline
 62
7
  6
CONTINUOUS
 70
0
 71
3
 72
8
 73
4
 74
0
 42
0.0000001
 43
0.0000001
 44
0.0000000001
 40
0.0
 40
0.0
 40
0.0
 40
0.0
 40
1.0
 40
1.0
 40
1.0
 40
1.0
 10
107.5188816665
 20
440.6141482219
 30
0.0
 10
107.5769491656
 20
440.346265665
 30
0.0
 10
107.6521665851
 20
440.0818401331
 30
0.0
 10
107.7388458206
 20
439.8218024264
 30
0.0
  0
SPLINE
  5
6E7
100
AcDbEntity
  8
0
100
AcDbSpline
 62
7
  6
CONTINUOUS
 70
0
 71
3
 72
9
 73
5
 74
0
 42
0.0000001
 43
0.0000001
 44
0.0000000001
 40
0.0
 40
0.0
 40
0.0
 40
0.0
 40
0.4518707363
 40
1.0
 40
1.0
 40
1.0
 40
1.0
 10
503.1748159197
 20
470.4661313641
 30
0.0
 10
503.1748284659
 20
470.4697347891
 30
0.0
 10
503.1770984238
 20
470.4777347093
 30
0.0
 10
503.1822604153
 20
470.4840012974
 30
0.0
 10
503.1853532403
 20
470.487090085
 30
0.0
  0
SPLINE
  5
6E8
100
AcDbEntity
  8
0
100
AcDbSpline
 62
7
  6
CONTINUOUS
 70
0
 71
3
 72
10
 73
6
 74
0
 42
0.0000001
 43
0.0000001
 44
0.0000000001
 40
0.0
 40
0.0
 40
0.0
 40
0.0
 40
0.1108292194
 40
0.315259651
 40
1.0
 40
1.0
 40
1.0
 40
1.0
 10
503.1853532403
 20
470.487090085
 30
0.0
 10
503.2081068545
 20
470.509813997
 30
0.0
 10
503.2992778114
 20
470.5401452189
 30
0.0
 10
503.5774609477
 20
470.6059285801
 30
0.0
 10
503.8369589302
 20
470.6357865248
 30
0.0
 10
504.0343306486
 20
470.6585470581
 30
0.0
  0
SPLINE
  5
6E9
100
AcDbEntity
  8
0
100
AcDbSpline
 62
7
  6
CONTINUOUS
 70
0
 71
3
 72
10
 73
6
 74
0
 42
0.0000001
 43
0.0000001
 44
0.0000000001
 40
0.0
 40
0.0
 40
0.0
 40
0.0
 40
0.224629365
 40
0.643405026
 40
1.0
 40
1.0
 40
1.0
 40
1.0
 10
504.3218782252
 20
470.6895505077
 30
0.0
 10
504.9014981967
 20
470.7483273612
 30
0.0
 10
506.565898298
 20
470.8730335874
 30
0.0
 10
509.1538777052
 20
471.0366312354
 30
0.0
 10
511.1612588355
 20
471.1684639486
 30
0.0
 10
512.0812197513
 20
471.2634819824
 30
0.0
  0
SPLINE
  5
6EA
100
AcDbEntity
  8
0
100
AcDbSpline
 62
7
  6
CONTINUOUS
 70
0
 71
3
 72
11
 73
7
 74
0
 42
0.0000001
 43
0.0000001
 44
0.0000000001
 40
0.0
 40
0.0
 40
0.0
 40
0.0
 40
0.4177702326
 40
0.7246376137
 40
0.9167864461
 40
1.0
 40
1.0
 40
1.0
 40
1.0
 10
512.3968612981
 20
471.2985019953
 30
0.0
 10
512.5098603509
 20
471.3120742628
 30
0.0
 10
512.7030079148
 20
471.3366096072
 30
0.0
 10
512.9573663513
 20
471.383059872
 30
0.0
 10
513.0959390113
 20
471.4170374971
 30
0.0
 10
513.1821428371
 20
471.4594758723
 30
0.0
 10
513.1821023309
 20
471.4821453201
 30
0.0
  0
SPLINE
  5
6EB
100
AcDbEntity
  8
0
100
AcDbSpline
 62
7
  6
CONTINUOUS
 70
0
 71
3
 72
9
 73
5
 74
0
 42
0.0000001
 43
0.0000001
 44
0.0000000001
 40
0.0
 40
0.0
 40
0.0
 40
0.0
 40
0.2731322624
 40
1.0
 40
1.0
 40
1.0
 40
1.0
 10
511.716612297
 20
481.3881508698
 30
0.0
 10
511.7166124228
 20
481.3311780924
 30
0.0
 10
511.6973995492
 20
481.1245903908
 30
0.0
 10
511.6017080733
 20
480.913652903
 30
0.0
 10
511.4842282203
 20
480.8178072031
 30
0.0
  0
SPLINE
  5
6EC
100
AcDbEntity
  8
0
100
AcDbSpline
 62
7
  6
CONTINUOUS
 70
0
 71
3
 72
8
 73
4
 74
0
 42
0.0000001
 43
0.0000001
 44
0.0000000001
 40
0.0
 40
0.0
 40
0.0
 40
0.0
 40
1.0
 40
1.0
 40
1.0
 40
1.0
 10
511.4842282203
 20
480.8178072031
 30
0.0
 10
511.4273555221
 20
480.7714077276
 30
0.0
 10
511.3555322792
 20
480.7370747645
 30
0.0
 10
511.2825286072
 20
480.7294669396
 30
0.0
  0
SPLINE
  5
6ED
100
AcDbEntity
  8
0
100
AcDbSpline
 62
7
  6
CONTINUOUS
 70
0
 71
3
 72
9
 73
5
 74
0
 42
0.0000001
 43
0.0000001
 44
0.0000000001
 40
0.0
 40
0.0
 40
0.0
 40
0.0
 40
0.2374840159
 40
1.0
 40
1.0
 40
1.0
 40
1.0
 10
506.0476814276
 20
474.221675903
 30
0.0
 10
506.3829941718
 20
474.185574348
 30
0.0
 10
507.7966009457
 20
474.0494902909
 30
0.0
 10
509.2127443791
 20
473.9401188164
 30
0.0
 10
510.2894288676
 20
473.824753591
 30
0.0
  0
SPLINE
  5
6EE
100
AcDbEntity
  8
0
100
AcDbSpline
 62
7
  6
CONTINUOUS
 70
0
 71
3
 72
9
 73
5
 74
0
 42
0.0000001
 43
0.0000001
 44
0.0000000001
 40
0.0
 40
0.0
 40
0.0
 40
0.0
 40
0.5685911798
 40
1.0
 40
1.0
 40
1.0
 40
1.0
 10
511.8382961447
 20
473.550458869
 30
0.0
 10
511.844864623
 20
473.5453067489
 30
0.0
 10
511.8558736
 20
473.5351969125
 30
0.0
 10
511.8613632794
 20
473.5205823833
 30
0.0
 10
511.8613672648
 20
473.514248476
 30
0.0
  0
SPLINE
  5
6EF
100
AcDbEntity
  8
0
100
AcDbSpline
 62
7
  6
CONTINUOUS
 70
0
 71
3
 72
11
 73
7
 74
0
 42
0.0000001
 43
0.0000001
 44
0.0000000001
 40
0.0
 40
0.0
 40
0.0
 40
0.0
 40
0.0794714095
 40
0.2724492415
 40
0.5814991272
 40
1.0
 40
1.0
 40
1.0
 40
1.0
 10
513.1821023614
 20
477.5781858999
 30
0.0
 10
513.1820867607
 20
477.5491758704
 30
0.0
 10
513.0591388538
 20
477.5030017159
 30
0.0
 10
512.8777834593
 20
477.4615508865
 30
0.0
 10
512.5311914964
 20
477.4085779527
 30
0.0
 10
512.2718103496
 20
477.379436299
 30
0.0
 10
512.1198752036
 20
477.3635016797
 30
0.0
  0
SPLINE
  5
6F0
100
AcDbEntity
  8
0
100
AcDbSpline
 62
7
  6
CONTINUOUS
 70
0
 71
3
 72
9
 73
5
 74
0
 42
0.0000001
 43
0.0000001
 44
0.0000000001
 40
0.0
 40
0.0
 40
0.0
 40
0.0
 40
0.2244194921
 40
1.0
 40
1.0
 40
1.0
 40
1.0
 10
512.1198752036
 20
477.3635016797
 30
0.0
 10
512.0452168723
 20
477.3556716804
 30
0.0
 10
511.7123758578
 20
477.3223813901
 30
0.0
 10
511.3790550703
 20
477.2940774236
 30
0.0
 10
511.1204490517
 20
477.2734182892
 30
0.0
  0
SPLINE
  5
6F1
100
AcDbEntity
  8
0
100
AcDbSpline
 62
7
  6
CONTINUOUS
 70
0
 71
3
 72
9
 73
5
 74
0
 42
0.0000001
 43
0.0000001
 44
0.0000000001
 40
0.0
 40
0.0
 40
0.0
 40
0.0
 40
0.2443128705
 40
1.0
 40
1.0
 40
1.0
 40
1.0
 10
511.1204490517
 20
477.2734182892
 30
0.0
 10
510.5931036809
 20
477.2312905036
 30
0.0
 10
508.43312239
 20
477.0788177973
 30
0.0
 10
506.2700216507
 20
476.9651533822
 30
0.0
 10
504.6404835281
 20
476.8161644685
 30
0.0
  0
SPLINE
  5
6F2
100
AcDbEntity
  8
0
100
AcDbSpline
 62
7
  6
CONTINUOUS
 70
0
 71
3
 72
11
 73
7
 74
0
 42
0.0000001
 43
0.0000001
 44
0.0000000001
 40
0.0
 40
0.0
 40
0.0
 40
0.0
 40
0.4172293051
 40
0.7284675125
 40
0.9231964346
 40
1.0
 40
1.0
 40
1.0
 40
1.0
 10
504.6404835281
 20
476.8161644685
 30
0.0
 10
504.4328379215
 20
476.7971793997
 30
0.0
 10
504.0780799029
 20
476.7615776714
 30
0.0
 10
503.5964871941
 20
476.7020640218
 30
0.0
 10
503.3539152637
 20
476.6481356
 30
0.0
 10
503.1749790702
 20
476.6005753287
 30
0.0
 10
503.1748690642
 20
476.5621926544
 30
0.0
  0
SPLINE
  5
6F3
100
AcDbEntity
  8
0
100
AcDbSpline
 62
7
  6
CONTINUOUS
 70
0
 71
3
 72
9
 73
5
 74
0
 42
0.0000001
 43
0.0000001
 44
0.0000000001
 40
0.0
 40
0.0
 40
0.0
 40
0.0
 40
0.5000125199
 40
1.0
 40
1.0
 40
1.0
 40
1.0
 10
503.1826387639
 20
474.4304709335
 30
0.0
 10
503.2148948326
 20
474.22545888
 30
0.0
 10
503.5048831155
 20
473.8224622789
 30
0.0
 10
504.0000786704
 20
473.8591753779
 30
0.0
 10
504.1778439561
 20
473.9662528526
 30
0.0
  0
SPLINE
  5
6F4
100
AcDbEntity
  8
0
100
AcDbSpline
 62
7
  6
CONTINUOUS
 70
0
 71
3
 72
8
 73
4
 74
0
 42
0.0000001
 43
0.0000001
 44
0.0000000001
 40
0.0
 40
0.0
 40
0.0
 40
0.0
 40
1.0
 40
1.0
 40
1.0
 40
1.0
 10
504.1778439561
 20
473.9662528526
 30
0.0
 10
504.3626532003
 20
474.0775732778
 30
0.0
 10
504.4955540281
 20
474.3144040513
 30
0.0
 10
504.4955533513
 20
474.5301508794
 30
0.0
  0
SPLINE
  5
6F5
100
AcDbEntity
  8
0
100
AcDbSpline
 62
7
  6
CONTINUOUS
 70
0
 71
3
 72
9
 73
5
 74
0
 42
0.0000001
 43
0.0000001
 44
0.0000000001
 40
0.0
 40
0.0
 40
0.0
 40
0.0
 40
0.5579110329
 40
1.0
 40
1.0
 40
1.0
 40
1.0
 10
510.7904817149
 20
467.795343282
 30
0.0
 10
510.8102798671
 20
467.9392751781
 30
0.0
 10
510.8968067714
 20
468.2033961567
 30
0.0
 10
511.1671241975
 20
468.3427799209
 30
0.0
 10
511.2816323832
 20
468.3308727088
 30
0.0
  0
SPLINE
  5
6F6
100
AcDbEntity
  8
0
100
AcDbSpline
 62
7
  6
CONTINUOUS
 70
0
 71
3
 72
11
 73
7
 74
0
 42
0.0000001
 43
0.0000001
 44
0.0000000001
 40
0.0
 40
0.0
 40
0.0
 40
0.0
 40
0.0797262365
 40
0.2724977764
 40
0.5817994826
 40
1.0
 40
1.0
 40
1.0
 40
1.0
 10
189.1037036257
 20
487.8864185998
 30
0.0
 10
189.1038537835
 20
487.915656724
 30
0.0
 10
189.2276309327
 20
487.9614223528
 30
0.0
 10
189.4097989645
 20
488.0035634846
 30
0.0
 10
189.7580375528
 20
488.0562401918
 30
0.0
 10
190.018580555
 20
488.0856099467
 30
0.0
 10
190.17111633
 20
488.1015783631
 30
0.0
  0
SPLINE
  5
6F7
100
AcDbEntity
  8
0
100
AcDbSpline
 62
7
  6
CONTINUOUS
 70
0
 71
3
 72
9
 73
5
 74
0
 42
0.0000001
 43
0.0000001
 44
0.0000000001
 40
0.0
 40
0.0
 40
0.0
 40
0.0
 40
0.2234551709
 40
1.0
 40
1.0
 40
1.0
 40
1.0
 10
190.17111633
 20
488.1015783631
 30
0.0
 10
190.2502199372
 20
488.1098594325
 30
0.0
 10
190.6044118853
 20
488.1451063575
 30
0.0
 10
190.9591281952
 20
488.1748574428
 30
0.0
 10
191.2346713685
 20
488.1966138241
 30
0.0
  0
SPLINE
  5
6F8
100
AcDbEntity
  8
0
100
AcDbSpline
 62
7
  6
CONTINUOUS
 70
0
 71
3
 72
9
 73
5
 74
0
 42
0.0000001
 43
0.0000001
 44
0.0000000001
 40
0.0
 40
0.0
 40
0.0
 40
0.0
 40
0.2454008656
 40
1.0
 40
1.0
 40
1.0
 40
1.0
 10
191.2346713685
 20
488.1966138241
 30
0.0
 10
191.7568935458
 20
488.2378475249
 30
0.0
 10
193.8863042947
 20
488.3873350787
 30
0.0
 10
196.0186298392
 20
488.5006349811
 30
0.0
 10
197.6228424297
 20
488.6463065174
 30
0.0
  0
SPLINE
  5
6F9
100
AcDbEntity
  8
0
100
AcDbSpline
 62
7
  6
CONTINUOUS
 70
0
 71
3
 72
11
 73
7
 74
0
 42
0.0000001
 43
0.0000001
 44
0.0000000001
 40
0.0
 40
0.0
 40
0.0
 40
0.0
 40
0.4169025574
 40
0.7283941222
 40
0.9230671533
 40
1.0
 40
1.0
 40
1.0
 40
1.0
 10
197.6228424297
 20
488.6463065174
 30
0.0
 10
197.8334784001
 20
488.6654334496
 30
0.0
 10
198.1934494651
 20
488.7015373434
 30
0.0
 10
198.6827861923
 20
488.7609720019
 30
0.0
 10
198.9284415697
 20
488.816152177
 30
0.0
 10
199.1111897908
 20
488.8632466873
 30
0.0
 10
199.1111983873
 20
488.9022761841
 30
0.0
  0
SPLINE
  5
6FA
100
AcDbEntity
  8
0
100
AcDbSpline
 62
7
  6
CONTINUOUS
 70
0
 71
3
 72
9
 73
5
 74
0
 42
0.0000001
 43
0.0000001
 44
0.0000000001
 40
0.0
 40
0.0
 40
0.0
 40
0.0
 40
0.2325448285
 40
1.0
 40
1.0
 40
1.0
 40
1.0
 10
511.3363986948
 20
481.3550385961
 30
0.0
 10
510.8643067528
 20
481.3157025121
 30
0.0
 10
508.8324280828
 20
481.168407465
 30
0.0
 10
506.7981590599
 20
481.0556094347
 30
0.0
 10
505.2397034033
 20
480.9311346426
 30
0.0
  0
SPLINE
  5
6FB
100
AcDbEntity
  8
0
100
AcDbSpline
 62
7
  6
CONTINUOUS
 70
0
 71
3
 72
9
 73
5
 74
0
 42
0.0000001
 43
0.0000001
 44
0.0000000001
 40
0.0
 40
0.0
 40
0.0
 40
0.0
 40
0.2744979256
 40
1.0
 40
1.0
 40
1.0
 40
1.0
 10
505.2397034033
 20
480.9311346426
 30
0.0
 10
505.1477724249
 20
480.92379206
 30
0.0
 10
504.8129248308
 20
480.896359333
 30
0.0
 10
504.4782811928
 20
480.8661375905
 30
0.0
 10
504.2358653497
 20
480.8406818995
 30
0.0
  0
SPLINE
  5
6FC
100
AcDbEntity
  8
0
100
AcDbSpline
 62
7
  6
CONTINUOUS
 70
0
 71
3
 72
11
 73
7
 74
0
 42
0.0000001
 43
0.0000001
 44
0.0000000001
 40
0.0
 40
0.0
 40
0.0
 40
0.0
 40
0.4180142187
 40
0.7271426956
 40
0.9200013278
 40
1.0
 40
1.0
 40
1.0
 40
1.0
 10
504.2358653497
 20
480.8406818995
 30
0.0
 10
504.08428545
 20
480.8247647424
 30
0.0
 10
503.8253904792
 20
480.7954961671
 30
0.0
 10
503.479275264
 20
480.7430907174
 30
0.0
 10
503.2981706682
 20
480.7009074479
 30
0.0
 10
503.1748785235
 20
480.6555128581
 30
0.0
 10
503.1746941889
 20
480.6263449024
 30
0.0
  0
SPLINE
  5
6FD
100
AcDbEntity
  8
0
100
AcDbSpline
 62
7
  6
CONTINUOUS
 70
0
 71
3
 72
9
 73
5
 74
0
 42
0.0000001
 43
0.0000001
 44
0.0000000001
 40
0.0
 40
0.0
 40
0.0
 40
0.0
 40
0.5886920605
 40
1.0
 40
1.0
 40
1.0
 40
1.0
 10
246.5408816665
 20
504.8357524945
 30
0.0
 10
246.2765734832
 20
504.4627372414
 30
0.0
 10
245.8669109603
 20
503.8313135967
 30
0.0
 10
245.1640487389
 20
503.3116461187
 30
0.0
 10
244.8446367871
 20
503.3118111139
 30
0.0
  0
SPLINE
  5
6FE
100
AcDbEntity
  8
0
100
AcDbSpline
 62
7
  6
CONTINUOUS
 70
0
 71
3
 72
8
 73
4
 74
0
 42
0.0000001
 43
0.0000001
 44
0.0000000001
 40
0.0
 40
0.0
 40
0.0
 40
0.0
 40
1.0
 40
1.0
 40
1.0
 40
1.0
 10
243.9965125147
 20
502.7882540989
 30
0.0
 10
244.0451047715
 20
502.6961197344
 30
0.0
 10
244.0962915332
 20
502.6052428815
 30
0.0
 10
244.151395531
 20
502.5168488887
 30
0.0
  0
SPLINE
  5
6FF
100
AcDbEntity
  8
0
100
AcDbSpline
 62
7
  6
CONTINUOUS
 70
0
 71
3
 72
9
 73
5
 74
0
 42
0.0000001
 43
0.0000001
 44
0.0000000001
 40
0.0
 40
0.0
 40
0.0
 40
0.0
 40
0.329374766
 40
1.0
 40
1.0
 40
1.0
 40
1.0
 10
244.151395531
 20
502.5168488887
 30
0.0
 10
244.2046846452
 20
502.431366206
 30
0.0
 10
244.3698479366
 20
502.1853366113
 30
0.0
 10
244.6395336227
 20
501.9400140712
 30
0.0
 10
244.8446303352
 20
501.9401525114
 30
0.0
  0
SPLINE
  5
700
100
AcDbEntity
  8
0
100
AcDbSpline
 62
7
  6
CONTINUOUS
 70
0
 71
3
 72
8
 73
4
 74
0
 42
0.0000001
 43
0.0000001
 44
0.0000000001
 40
0.0
 40
0.0
 40
0.0
 40
0.0
 40
1.0
 40
1.0
 40
1.0
 40
1.0
 10
583.8485125147
 20
502.7882540989
 30
0.0
 10
583.8971047715
 20
502.6961197344
 30
0.0
 10
583.9482915332
 20
502.6052428815
 30
0.0
 10
584.003395531
 20
502.5168488887
 30
0.0
  0
SPLINE
  5
701
100
AcDbEntity
  8
0
100
AcDbSpline
 62
7
  6
CONTINUOUS
 70
0
 71
3
 72
9
 73
5
 74
0
 42
0.0000001
 43
0.0000001
 44
0.0000000001
 40
0.0
 40
0.0
 40
0.0
 40
0.0
 40
0.329374766
 40
1.0
 40
1.0
 40
1.0
 40
1.0
 10
584.003395531
 20
502.5168488887
 30
0.0
 10
584.0566846452
 20
502.431366206
 30
0.0
 10
584.2218479366
 20
502.1853366113
 30
0.0
 10
584.4915336227
 20
501.9400140712
 30
0.0
 10
584.6966303352
 20
501.9401525114
 30
0.0
  0
SPLINE
  5
702
100
AcDbEntity
  8
0
100
AcDbSpline
 62
7
  6
CONTINUOUS
 70
0
 71
3
 72
9
 73
5
 74
0
 42
0.0000001
 43
0.0000001
 44
0.0000000001
 40
0.0
 40
0.0
 40
0.0
 40
0.0
 40
0.2367259716
 40
1.0
 40
1.0
 40
1.0
 40
1.0
 10
510.3199167426
 20
475.8534823574
 30
0.0
 10
509.987893301
 20
475.8893128578
 30
0.0
 10
508.583659444
 20
476.024794653
 30
0.0
 10
507.1769214301
 20
476.1337113442
 30
0.0
 10
506.1061862513
 20
476.2474260887
 30
0.0
  0
SPLINE
  5
703
100
AcDbEntity
  8
0
100
AcDbSpline
 62
7
  6
CONTINUOUS
 70
0
 71
3
 72
9
 73
5
 74
0
 42
0.0000001
 43
0.0000001
 44
0.0000000001
 40
0.0
 40
0.0
 40
0.0
 40
0.0
 40
0.3702560439
 40
1.0
 40
1.0
 40
1.0
 40
1.0
 10
504.5876578039
 20
476.4896643395
 30
0.0
 10
504.5739706933
 20
476.4950639454
 30
0.0
 10
504.5400421127
 20
476.5099771641
 30
0.0
 10
504.4956136759
 20
476.5371135908
 30
0.0
 10
504.4956195361
 20
476.5621391338
 30
0.0
  0
SPLINE
  5
704
100
AcDbEntity
  8
0
100
AcDbSpline
 62
7
  6
CONTINUOUS
 70
0
 71
3
 72
11
 73
7
 74
0
 42
0.0000001
 43
0.0000001
 44
0.0000000001
 40
0.0
 40
0.0
 40
0.0
 40
0.0
 40
0.0857116039
 40
0.2766214097
 40
0.5819866447
 40
1.0
 40
1.0
 40
1.0
 40
1.0
 10
513.1808534972
 20
463.3538557345
 30
0.0
 10
513.1801827395
 20
463.3329647385
 30
0.0
 10
513.1056620059
 20
463.2931713483
 30
0.0
 10
512.9802688808
 20
463.2602543585
 30
0.0
 10
512.7546248297
 20
463.2167888139
 30
0.0
 10
512.5818432789
 20
463.1936980425
 30
0.0
 10
512.4807093393
 20
463.1809248855
 30
0.0
  0
SPLINE
  5
705
100
AcDbEntity
  8
0
100
AcDbSpline
 62
7
  6
CONTINUOUS
 70
0
 71
3
 72
9
 73
5
 74
0
 42
0.0000001
 43
0.0000001
 44
0.0000000001
 40
0.0
 40
0.0
 40
0.0
 40
0.0
 40
0.2175172992
 40
1.0
 40
1.0
 40
1.0
 40
1.0
 10
512.1199404451
 20
463.1396349008
 30
0.0
 10
512.0139668859
 20
463.12851572
 30
0.0
 10
511.526427488
 20
463.0806713443
 30
0.0
 10
511.0380328129
 20
463.0420747297
 30
0.0
 10
510.6557728418
 20
463.0136525285
 30
0.0
  0
SPLINE
  5
706
100
AcDbEntity
  8
0
100
AcDbSpline
 62
7
  6
CONTINUOUS
 70
0
 71
3
 72
9
 73
5
 74
0
 42
0.0000001
 43
0.0000001
 44
0.0000000001
 40
0.0
 40
0.0
 40
0.0
 40
0.0
 40
0.2355327061
 40
1.0
 40
1.0
 40
1.0
 40
1.0
 10
510.6557728418
 20
463.0136525285
 30
0.0
 10
510.3723707348
 20
462.9925807127
 30
0.0
 10
509.1687698906
 20
462.9079954063
 30
0.0
 10
507.9645177785
 20
462.8332357808
 30
0.0
 10
507.0441659112
 20
462.7721647606
 30
0.0
  0
SPLINE
  5
707
100
AcDbEntity
  8
0
100
AcDbSpline
 62
7
  6
CONTINUOUS
 70
0
 71
3
 72
9
 73
5
 74
0
 42
0.0000001
 43
0.0000001
 44
0.0000000001
 40
0.0
 40
0.0
 40
0.0
 40
0.0
 40
0.2664670951
 40
1.0
 40
1.0
 40
1.0
 40
1.0
 10
507.0441659112
 20
462.7721647606
 30
0.0
 10
506.8801221476
 20
462.7612794456
 30
0.0
 10
506.2645336326
 20
462.7199234162
 30
0.0
 10
505.6490889498
 20
462.6761274009
 30
0.0
 10
505.1979774919
 20
462.6397703304
 30
0.0
  0
SPLINE
  5
708
100
AcDbEntity
  8
0
100
AcDbSpline
 62
7
  6
CONTINUOUS
 70
0
 71
3
 72
9
 73
5
 74
0
 42
0.0000001
 43
0.0000001
 44
0.0000000001
 40
0.0
 40
0.0
 40
0.0
 40
0.0
 40
0.2688879429
 40
1.0
 40
1.0
 40
1.0
 40
1.0
 10
505.1979774919
 20
462.6397703304
 30
0.0
 10
505.1247189585
 20
462.6338661007
 30
0.0
 10
504.8523070139
 20
462.6114514202
 30
0.0
 10
504.5800443383
 20
462.5871230154
 30
0.0
 10
504.3811842365
 20
462.5673836583
 30
0.0
  0
SPLINE
  5
709
100
AcDbEntity
  8
0
100
AcDbSpline
 62
7
  6
CONTINUOUS
 70
0
 71
3
 72
11
 73
7
 74
0
 42
0.0000001
 43
0.0000001
 44
0.0000000001
 40
0.0
 40
0.0
 40
0.0
 40
0.0
 40
0.4184810442
 40
0.727733554
 40
0.9200865125
 40
1.0
 40
1.0
 40
1.0
 40
1.0
 10
504.3001926865
 20
462.5592251665
 30
0.0
 10
504.1396392936
 20
462.5428072542
 30
0.0
 10
503.8653983369
 20
462.5124649379
 30
0.0
 10
503.4993104175
 20
462.4594107567
 30
0.0
 10
503.3071395303
 20
462.4144141529
 30
0.0
 10
503.1772276989
 20
462.3693852316
 30
0.0
 10
503.1758449828
 20
462.3385969739
 30
0.0
  0
SPLINE
  5
70A
100
AcDbEntity
  8
0
100
AcDbSpline
 62
7
  6
CONTINUOUS
 70
0
 71
3
 72
9
 73
5
 74
0
 42
0.0000001
 43
0.0000001
 44
0.0000000001
 40
0.0
 40
0.0
 40
0.0
 40
0.0
 40
0.5886920605
 40
1.0
 40
1.0
 40
1.0
 40
1.0
 10
586.3928816665
 20
504.8357524945
 30
0.0
 10
586.1285734832
 20
504.4627372414
 30
0.0
 10
585.7189109603
 20
503.8313135967
 30
0.0
 10
585.0160487389
 20
503.3116461187
 30
0.0
 10
584.6966367871
 20
503.3118111139
 30
0.0
  0
SPLINE
  5
70B
100
AcDbEntity
  8
0
100
AcDbSpline
 62
7
  6
CONTINUOUS
 70
0
 71
3
 72
11
 73
7
 74
0
 42
0.0000001
 43
0.0000001
 44
0.0000000001
 40
0.0
 40
0.0
 40
0.0
 40
0.0
 40
0.0775910807
 40
0.2717406025
 40
0.5826697843
 40
1.0
 40
1.0
 40
1.0
 40
1.0
 10
189.1037249954
 20
485.8545469063
 30
0.0
 10
189.103832011
 20
485.8909104463
 30
0.0
 10
189.2702054715
 20
485.937860383
 30
0.0
 10
189.4985118017
 20
485.9894303548
 30
0.0
 10
189.9489294184
 20
486.0471977853
 30
0.0
 10
190.2816083986
 20
486.0814895466
 30
0.0
 10
190.4763365693
 20
486.0997795257
 30
0.0
  0
SPLINE
  5
70C
100
AcDbEntity
  8
0
100
AcDbSpline
 62
7
  6
CONTINUOUS
 70
0
 71
3
 72
9
 73
5
 74
0
 42
0.0000001
 43
0.0000001
 44
0.0000000001
 40
0.0
 40
0.0
 40
0.0
 40
0.0
 40
0.2151540031
 40
1.0
 40
1.0
 40
1.0
 40
1.0
 10
190.4763365693
 20
486.0997795257
 30
0.0
 10
190.6674094126
 20
486.1177261756
 30
0.0
 10
191.5561530652
 20
486.1939856014
 30
0.0
 10
192.4461929094
 20
486.2537604415
 30
0.0
 10
193.1447487795
 20
486.2997739232
 30
0.0
  0
LINE
  5
70D
100
AcDbEntity
  8
0
100
AcDbLine
 62
7
  6
CONTINUOUS
 10
193.1447487795
 20
486.2997739232
 11
193.5173332909
 21
486.3241582067
  0
SPLINE
  5
70E
100
AcDbEntity
  8
0
100
AcDbSpline
 62
7
  6
CONTINUOUS
 70
0
 71
3
 72
8
 73
4
 74
0
 42
0.0000001
 43
0.0000001
 44
0.0000000001
 40
0.0
 40
0.0
 40
0.0
 40
0.0
 40
1.0
 40
1.0
 40
1.0
 40
1.0
 10
193.5173332909
 20
486.3241582067
 30
0.0
 10
194.0802806942
 20
486.3607997236
 30
0.0
 10
194.6432775166
 20
486.3966878031
 30
0.0
 10
195.206181964
 20
486.4339834168
 30
0.0
  0
SPLINE
  5
70F
100
AcDbEntity
  8
0
100
AcDbSpline
 62
7
  6
CONTINUOUS
 70
0
 71
3
 72
9
 73
5
 74
0
 42
0.0000001
 43
0.0000001
 44
0.0000000001
 40
0.0
 40
0.0
 40
0.0
 40
0.0
 40
0.2824728179
 40
1.0
 40
1.0
 40
1.0
 40
1.0
 10
195.206181964
 20
486.4339834168
 30
0.0
 10
195.4590040037
 20
486.4507343115
 30
0.0
 10
196.3539104209
 20
486.5114429289
 30
0.0
 10
197.248756536
 20
486.5762913381
 30
0.0
 10
197.8892629447
 20
486.6394965402
 30
0.0
  0
SPLINE
  5
710
100
AcDbEntity
  8
0
100
AcDbSpline
 62
7
  6
CONTINUOUS
 70
0
 71
3
 72
11
 73
7
 74
0
 42
0.0000001
 43
0.0000001
 44
0.0000000001
 40
0.0
 40
0.0
 40
0.0
 40
0.0
 40
0.4183161355
 40
0.7272744095
 40
0.9197763553
 40
1.0
 40
1.0
 40
1.0
 40
1.0
 10
198.0980918845
 20
486.6609462668
 30
0.0
 10
198.2430985635
 20
486.6764871132
 30
0.0
 10
198.4907455355
 20
486.7049502297
 30
0.0
 10
198.8210451982
 20
486.7565675648
 30
0.0
 10
198.9946541666
 20
486.7971055492
 30
0.0
 10
199.1112992987
 20
486.8424582379
 30
0.0
 10
199.1112801862
 20
486.8704265103
 30
0.0
  0
SPLINE
  5
711
100
AcDbEntity
  8
0
100
AcDbSpline
 62
7
  6
CONTINUOUS
 70
0
 71
3
 72
9
 73
5
 74
0
 42
0.0000001
 43
0.0000001
 44
0.0000000001
 40
0.0
 40
0.0
 40
0.0
 40
0.0
 40
0.2389199868
 40
1.0
 40
1.0
 40
1.0
 40
1.0
 10
506.0909766657
 20
470.1530467778
 30
0.0
 10
506.4269732842
 20
470.1172353132
 30
0.0
 10
507.8348463316
 20
469.9823985383
 30
0.0
 10
509.2451930718
 20
469.873371575
 30
0.0
 10
510.3153691712
 20
469.7579724966
 30
0.0
  0
SPLINE
  5
712
100
AcDbEntity
  8
0
100
AcDbSpline
 62
7
  6
CONTINUOUS
 70
0
 71
3
 72
9
 73
5
 74
0
 42
0.0000001
 43
0.0000001
 44
0.0000000001
 40
0.0
 40
0.0
 40
0.0
 40
0.0
 40
0.6413798348
 40
1.0
 40
1.0
 40
1.0
 40
1.0
 10
511.8614313146
 20
479.6102746885
 30
0.0
 10
511.8614198754
 20
479.6309353373
 30
0.0
 10
511.8286023946
 20
479.6553389934
 30
0.0
 10
511.8012894871
 20
479.6688374726
 30
0.0
 10
511.7907554749
 20
479.6735795323
 30
0.0
  0
SPLINE
  5
713
100
AcDbEntity
  8
0
100
AcDbSpline
 62
7
  6
CONTINUOUS
 70
0
 71
3
 72
9
 73
5
 74
0
 42
0.0000001
 43
0.0000001
 44
0.0000000001
 40
0.0
 40
0.0
 40
0.0
 40
0.0
 40
0.2377839968
 40
1.0
 40
1.0
 40
1.0
 40
1.0
 10
510.3117476119
 20
479.9183547257
 30
0.0
 10
509.9734368003
 20
479.9548005814
 30
0.0
 10
508.5489794788
 20
480.0919073174
 30
0.0
 10
507.121915456
 20
480.2017170988
 30
0.0
 10
506.0374863043
 20
480.3187788363
 30
0.0
  0
SPLINE
  5
714
100
AcDbEntity
  8
0
100
AcDbSpline
 62
7
  6
CONTINUOUS
 70
0
 71
3
 72
11
 73
7
 74
0
 42
0.0000001
 43
0.0000001
 44
0.0000000001
 40
0.0
 40
0.0
 40
0.0
 40
0.0
 40
0.0762520546
 40
0.2717825832
 40
0.5839638357
 40
1.0
 40
1.0
 40
1.0
 40
1.0
 10
189.1038472337
 20
483.8225154392
 30
0.0
 10
189.1039690796
 20
483.8654093039
 30
0.0
 10
189.31004189
 20
483.9121546276
 30
0.0
 10
189.5808939001
 20
483.9727526221
 30
0.0
 10
190.1255982734
 20
484.0342160002
 30
0.0
 10
190.5244144712
 20
484.0728883165
 30
0.0
 10
190.7575664264
 20
484.0931725547
 30
0.0
  0
SPLINE
  5
715
100
AcDbEntity
  8
0
100
AcDbSpline
 62
7
  6
CONTINUOUS
 70
0
 71
3
 72
9
 73
5
 74
0
 42
0.0000001
 43
0.0000001
 44
0.0000000001
 40
0.0
 40
0.0
 40
0.0
 40
0.0
 40
0.2278062599
 40
1.0
 40
1.0
 40
1.0
 40
1.0
 10
190.7575664264
 20
484.0931725547
 30
0.0
 10
190.8772721249
 20
484.1035869598
 30
0.0
 10
191.4029169469
 20
484.1473128435
 30
0.0
 10
191.9290259289
 20
484.1852331131
 30
0.0
 10
192.3353553551
 20
484.2133132697
 30
0.0
  0
SPLINE
  5
716
100
AcDbEntity
  8
0
100
AcDbSpline
 62
7
  6
CONTINUOUS
 70
0
 71
3
 72
9
 73
5
 74
0
 42
0.0000001
 43
0.0000001
 44
0.0000000001
 40
0.0
 40
0.0
 40
0.0
 40
0.0
 40
0.2478498319
 40
1.0
 40
1.0
 40
1.0
 40
1.0
 10
192.3353553551
 20
484.2133132697
 30
0.0
 10
192.6574197454
 20
484.2355701331
 30
0.0
 10
193.9570781141
 20
484.3220630171
 30
0.0
 10
195.2571442074
 20
484.4025985369
 30
0.0
 10
196.234356473
 20
484.4723748648
 30
0.0
  0
SPLINE
  5
717
100
AcDbEntity
  8
0
100
AcDbSpline
 62
7
  6
CONTINUOUS
 70
0
 71
3
 72
9
 73
5
 74
0
 42
0.0000001
 43
0.0000001
 44
0.0000000001
 40
0.0
 40
0.0
 40
0.0
 40
0.0
 40
0.2789496368
 40
1.0
 40
1.0
 40
1.0
 40
1.0
 10
196.234356473
 20
484.4723748648
 30
0.0
 10
196.3906953626
 20
484.483538001
 30
0.0
 10
196.9510648221
 20
484.5246160506
 30
0.0
 10
197.5112008624
 20
484.5698554968
 30
0.0
 10
197.9143534295
 20
484.6099923071
 30
0.0
  0
SPLINE
  5
718
100
AcDbEntity
  8
0
100
AcDbSpline
 62
7
  6
CONTINUOUS
 70
0
 71
3
 72
11
 73
7
 74
0
 42
0.0000001
 43
0.0000001
 44
0.0000000001
 40
0.0
 40
0.0
 40
0.0
 40
0.0
 40
0.4182063435
 40
0.7264648885
 40
0.9187021846
 40
1.0
 40
1.0
 40
1.0
 40
1.0
 10
198.1963632786
 20
484.6397102421
 30
0.0
 10
198.3275924899
 20
484.6544230935
 30
0.0
 10
198.5518324402
 20
484.6812400992
 30
0.0
 10
198.8492232599
 20
484.7307702993
 30
0.0
 10
199.0080027803
 20
484.7684089067
 30
0.0
 10
199.1110995083
 20
484.8127639702
 30
0.0
 10
199.1111720246
 20
484.8384341882
 30
0.0
  0
SPLINE
  5
719
100
AcDbEntity
  8
0
100
AcDbSpline
 62
7
  6
CONTINUOUS
 70
0
 71
3
 72
9
 73
5
 74
0
 42
0.0000001
 43
0.0000001
 44
0.0000000001
 40
0.0
 40
0.0
 40
0.0
 40
0.0
 40
0.2373085993
 40
1.0
 40
1.0
 40
1.0
 40
1.0
 10
196.2434606541
 20
464.8262805078
 30
0.0
 10
195.9087204286
 20
464.8623259727
 30
0.0
 10
194.4964998857
 20
464.9984668016
 30
0.0
 10
193.0817269545
 20
465.1077163604
 30
0.0
 10
192.0058227546
 20
465.2228639152
 30
0.0
  0
SPLINE
  5
71A
100
AcDbEntity
  8
0
100
AcDbSpline
 62
7
  6
CONTINUOUS
 70
0
 71
3
 72
9
 73
5
 74
0
 42
0.0000001
 43
0.0000001
 44
0.0000000001
 40
0.0
 40
0.0
 40
0.0
 40
0.0
 40
0.5816844596
 40
1.0
 40
1.0
 40
1.0
 40
1.0
 10
190.4545593876
 20
465.4934147482
 30
0.0
 10
190.4462622796
 20
465.4991057015
 30
0.0
 10
190.4324458622
 20
465.5098745453
 30
0.0
 10
190.4246007391
 20
465.5267523577
 30
0.0
 10
190.4244859728
 20
465.5339869534
 30
0.0
  0
SPLINE
  5
71B
100
AcDbEntity
  8
0
100
AcDbSpline
 62
7
  6
CONTINUOUS
 70
0
 71
3
 72
11
 73
7
 74
0
 42
0.0000001
 43
0.0000001
 44
0.0000000001
 40
0.0
 40
0.0
 40
0.0
 40
0.0
 40
0.0792894874
 40
0.2733929662
 40
0.5823699714
 40
1.0
 40
1.0
 40
1.0
 40
1.0
 10
513.1822239248
 20
467.4179036578
 30
0.0
 10
513.1822105961
 20
467.3853313814
 30
0.0
 10
513.0383855982
 20
467.3395776499
 30
0.0
 10
512.8368888421
 20
467.2930031903
 30
0.0
 10
512.4444882075
 20
467.2379311499
 30
0.0
 10
512.1533593518
 20
467.2064574584
 30
0.0
 10
511.9826366037
 20
467.1894960102
 30
0.0
  0
SPLINE
  5
71C
100
AcDbEntity
  8
0
100
AcDbSpline
 62
7
  6
CONTINUOUS
 70
0
 71
3
 72
9
 73
5
 74
0
 42
0.0000001
 43
0.0000001
 44
0.0000000001
 40
0.0
 40
0.0
 40
0.0
 40
0.0
 40
0.5218086678
 40
1.0
 40
1.0
 40
1.0
 40
1.0
 10
511.3880473299
 20
467.1354386967
 30
0.0
 10
510.147497284
 20
467.0309760254
 30
0.0
 10
507.7663973682
 20
466.882420398
 30
0.0
 10
505.3840344872
 20
466.7367964191
 30
0.0
 10
504.2493547098
 20
466.6180393816
 30
0.0
  0
SPLINE
  5
71D
100
AcDbEntity
  8
0
100
AcDbSpline
 62
7
  6
CONTINUOUS
 70
0
 71
3
 72
11
 73
7
 74
0
 42
0.0000001
 43
0.0000001
 44
0.0000000001
 40
0.0
 40
0.0
 40
0.0
 40
0.0
 40
0.4164331482
 40
0.7237471421
 40
0.9161675423
 40
1.0
 40
1.0
 40
1.0
 40
1.0
 10
503.915714514
 20
466.5802403396
 30
0.0
 10
503.8094245321
 20
466.5670896795
 30
0.0
 10
503.6272340575
 20
466.543317598
 30
0.0
 10
503.3879288395
 20
466.4983318874
 30
0.0
 10
503.2560729475
 20
466.4658052408
 30
0.0
 10
503.1758776113
 20
466.4241928293
 30
0.0
 10
503.1758797316
 20
466.4026323664
 30
0.0
  0
SPLINE
  5
71E
100
AcDbEntity
  8
0
100
AcDbSpline
 62
7
  6
CONTINUOUS
 70
0
 71
3
 72
9
 73
5
 74
0
 42
0.0000001
 43
0.0000001
 44
0.0000000001
 40
0.0
 40
0.0
 40
0.0
 40
0.0
 40
0.2380723717
 40
1.0
 40
1.0
 40
1.0
 40
1.0
 10
510.2929196145
 20
477.8883807989
 30
0.0
 10
509.9569356179
 20
477.9244076452
 30
0.0
 10
508.5440448523
 20
478.0601730864
 30
0.0
 10
507.1286296712
 20
478.1694690116
 30
0.0
 10
506.0533768822
 20
478.2850631836
 30
0.0
  0
SPLINE
  5
71F
100
AcDbEntity
  8
0
100
AcDbSpline
 62
7
  6
CONTINUOUS
 70
0
 71
3
 72
9
 73
5
 74
0
 42
0.0000001
 43
0.0000001
 44
0.0000000001
 40
0.0
 40
0.0
 40
0.0
 40
0.0
 40
0.7062633304
 40
1.0
 40
1.0
 40
1.0
 40
1.0
 10
504.8603164165
 20
478.4490127574
 30
0.0
 10
504.7681577577
 20
478.4676705629
 30
0.0
 10
504.6609648708
 20
478.4925642167
 30
0.0
 10
504.4956137673
 20
478.5551156875
 30
0.0
 10
504.4955803992
 20
478.5942223003
 30
0.0
  0
SPLINE
  5
720
100
AcDbEntity
  8
0
100
AcDbSpline
 62
7
  6
CONTINUOUS
 70
0
 71
3
 72
11
 73
7
 74
0
 42
0.0000001
 43
0.0000001
 44
0.0000000001
 40
0.0
 40
0.0
 40
0.0
 40
0.0
 40
0.0808077161
 40
0.2735065795
 40
0.5816919859
 40
1.0
 40
1.0
 40
1.0
 40
1.0
 10
503.1748690769
 20
472.4982370118
 30
0.0
 10
503.1749505152
 20
472.5247707585
 30
0.0
 10
503.2832362753
 20
472.569612111
 30
0.0
 10
503.4478251729
 20
472.6080966128
 30
0.0
 10
503.7577416327
 20
472.6586517101
 30
0.0
 10
503.990894213
 20
472.68599162
 30
0.0
 10
504.1274243847
 20
472.7010204296
 30
0.0
  0
SPLINE
  5
721
100
AcDbEntity
  8
0
100
AcDbSpline
 62
7
  6
CONTINUOUS
 70
0
 71
3
 72
10
 73
6
 74
0
 42
0.0000001
 43
0.0000001
 44
0.0000000001
 40
0.0
 40
0.0
 40
0.0
 40
0.0
 40
0.227279281
 40
0.6463298475
 40
1.0
 40
1.0
 40
1.0
 40
1.0
 10
504.3787606399
 20
472.7272553309
 30
0.0
 10
504.9634954625
 20
472.785350011
 30
0.0
 10
506.6302598053
 20
472.9091776395
 30
0.0
 10
509.210108412
 20
473.0722275044
 30
0.0
 10
511.2043465426
 20
473.2037281847
 30
0.0
 10
512.1137722828
 20
473.2988593538
 30
0.0
  0
SPLINE
  5
722
100
AcDbEntity
  8
0
100
AcDbSpline
 62
7
  6
CONTINUOUS
 70
0
 71
3
 72
11
 73
7
 74
0
 42
0.0000001
 43
0.0000001
 44
0.0000000001
 40
0.0
 40
0.0
 40
0.0
 40
0.0
 40
0.4172656104
 40
0.723874339
 40
0.915556905
 40
1.0
 40
1.0
 40
1.0
 40
1.0
 10
512.4569234462
 20
473.3378445473
 30
0.0
 10
512.5614067128
 20
473.3508720952
 30
0.0
 10
512.7401979166
 20
473.3744533542
 30
0.0
 10
512.9746282274
 20
473.4190268681
 30
0.0
 10
513.1038708509
 20
473.4517170899
 30
0.0
 10
513.1820918558
 20
473.4928884705
 30
0.0
 10
513.1821262185
 20
473.5141967129
 30
0.0
  0
SPLINE
  5
723
100
AcDbEntity
  8
0
100
AcDbSpline
 62
7
  6
CONTINUOUS
 70
0
 71
3
 72
11
 73
7
 74
0
 42
0.0000001
 43
0.0000001
 44
0.0000000001
 40
0.0
 40
0.0
 40
0.0
 40
0.0
 40
0.0811948708
 40
0.2733565295
 40
0.5817161824
 40
1.0
 40
1.0
 40
1.0
 40
1.0
 10
199.1112132615
 20
480.7744867482
 30
0.0
 10
199.1112026951
 20
480.7486681891
 30
0.0
 10
199.0071627572
 20
480.7042048583
 30
0.0
 10
198.8474697179
 20
480.6663585617
 30
0.0
 10
198.547800775
 20
480.6166838651
 30
0.0
 10
198.3219523943
 20
480.5897486977
 30
0.0
 10
198.1897687254
 20
480.5749723542
 30
0.0
  0
SPLINE
  5
724
100
AcDbEntity
  8
0
100
AcDbSpline
 62
7
  6
CONTINUOUS
 70
0
 71
3
 72
10
 73
6
 74
0
 42
0.0000001
 43
0.0000001
 44
0.0000000001
 40
0.0
 40
0.0
 40
0.0
 40
0.0
 40
0.2267657406
 40
0.6455435047
 40
1.0
 40
1.0
 40
1.0
 40
1.0
 10
197.915208011
 20
480.5460743432
 30
0.0
 10
197.3322223273
 20
480.4880182561
 30
0.0
 10
195.6686847209
 20
480.3641973266
 30
0.0
 10
193.0906627887
 20
480.2012601171
 30
0.0
 10
191.0965244758
 20
480.0699041439
 30
0.0
 10
190.1856769994
 20
479.9750840796
 30
0.0
  0
SPLINE
  5
725
100
AcDbEntity
  8
0
100
AcDbSpline
 62
7
  6
CONTINUOUS
 70
0
 71
3
 72
11
 73
7
 74
0
 42
0.0000001
 43
0.0000001
 44
0.0000000001
 40
0.0
 40
0.0
 40
0.0
 40
0.0
 40
0.417358381
 40
0.7236811778
 40
0.9158169643
 40
1.0
 40
1.0
 40
1.0
 40
1.0
 10
189.8510607688
 20
479.9374114208
 30
0.0
 10
189.7434944229
 20
479.9241934481
 30
0.0
 10
189.5595931099
 20
479.9003085254
 30
0.0
 10
189.3179159464
 20
479.855050929
 30
0.0
 10
189.185333382
 20
479.8218229955
 30
0.0
 10
189.1038741698
 20
479.7803985308
 30
0.0
 10
189.1038158672
 20
479.7585388041
 30
0.0
  0
SPLINE
  5
726
100
AcDbEntity
  8
0
100
AcDbSpline
 62
7
  6
CONTINUOUS
 70
0
 71
3
 72
11
 73
7
 74
0
 42
0.0000001
 43
0.0000001
 44
0.0000000001
 40
0.0
 40
0.0
 40
0.0
 40
0.0
 40
0.0782312057
 40
0.2717628045
 40
0.5820428278
 40
1.0
 40
1.0
 40
1.0
 40
1.0
 10
503.1747036016
 20
486.7221757051
 30
0.0
 10
503.1748670456
 20
486.7554959118
 30
0.0
 10
503.3229110607
 20
486.8024031399
 30
0.0
 10
503.5320499269
 20
486.8497493506
 30
0.0
 10
503.9395222405
 20
486.9057016597
 30
0.0
 10
504.2421081198
 20
486.9379155237
 30
0.0
 10
504.4192794898
 20
486.9552597978
 30
0.0
  0
SPLINE
  5
727
100
AcDbEntity
  8
0
100
AcDbSpline
 62
7
  6
CONTINUOUS
 70
0
 71
3
 72
9
 73
5
 74
0
 42
0.0000001
 43
0.0000001
 44
0.0000000001
 40
0.0
 40
0.0
 40
0.0
 40
0.0
 40
0.2321420647
 40
1.0
 40
1.0
 40
1.0
 40
1.0
 10
504.4192794898
 20
486.9552597978
 30
0.0
 10
504.4769657059
 20
486.9609070168
 30
0.0
 10
504.7255316992
 20
486.9845120199
 30
0.0
 10
504.974323354
 20
487.005688581
 30
0.0
 10
505.1654190793
 20
487.0211629129
 30
0.0
  0
SPLINE
  5
728
100
AcDbEntity
  8
0
100
AcDbSpline
 62
7
  6
CONTINUOUS
 70
0
 71
3
 72
9
 73
5
 74
0
 42
0.0000001
 43
0.0000001
 44
0.0000000001
 40
0.0
 40
0.0
 40
0.0
 40
0.0
 40
0.2402898158
 40
1.0
 40
1.0
 40
1.0
 40
1.0
 10
505.1654190793
 20
487.0211629129
 30
0.0
 10
505.6750507651
 20
487.0624312866
 30
0.0
 10
507.7975677653
 20
487.2133012097
 30
0.0
 10
509.9228553314
 20
487.3275481007
 30
0.0
 10
511.5333065301
 20
487.4677981185
 30
0.0
  0
SPLINE
  5
729
100
AcDbEntity
  8
0
100
AcDbSpline
 62
7
  6
CONTINUOUS
 70
0
 71
3
 72
11
 73
7
 74
0
 42
0.0000001
 43
0.0000001
 44
0.0000000001
 40
0.0
 40
0.0
 40
0.0
 40
0.0
 40
0.4161351421
 40
0.728333973
 40
0.9237252886
 40
1.0
 40
1.0
 40
1.0
 40
1.0
 10
511.5333065301
 20
487.4677981185
 30
0.0
 10
511.7658459688
 20
487.488049375
 30
0.0
 10
512.1635225589
 20
487.5266699512
 30
0.0
 10
512.7068323334
 20
487.5880369506
 30
0.0
 10
512.9765309401
 20
487.6485459017
 30
0.0
 10
513.1822799894
 20
487.6952984413
 30
0.0
 10
513.1821983498
 20
487.7380825695
 30
0.0
  0
SPLINE
  5
72A
100
AcDbEntity
  8
0
100
AcDbSpline
 62
7
  6
CONTINUOUS
 70
0
 71
3
 72
11
 73
7
 74
0
 42
0.0000001
 43
0.0000001
 44
0.0000000001
 40
0.0
 40
0.0
 40
0.0
 40
0.0
 40
0.0778504266
 40
0.2716416305
 40
0.5818198345
 40
1.0
 40
1.0
 40
1.0
 40
1.0
 10
199.1111023621
 20
478.7424235966
 30
0.0
 10
199.1110865233
 20
478.7088590796
 30
0.0
 10
198.960968698
 20
478.6614326253
 30
0.0
 10
198.7495649091
 20
478.6141512351
 30
0.0
 10
198.3367707101
 20
478.5575456597
 30
0.0
 10
198.0304457342
 20
478.525237725
 30
0.0
 10
197.8510003967
 20
478.5077580699
 30
0.0
  0
SPLINE
  5
72B
100
AcDbEntity
  8
0
100
AcDbSpline
 62
7
  6
CONTINUOUS
 70
0
 71
3
 72
9
 73
5
 74
0
 42
0.0000001
 43
0.0000001
 44
0.0000000001
 40
0.0
 40
0.0
 40
0.0
 40
0.0
 40
0.2275305802
 40
1.0
 40
1.0
 40
1.0
 40
1.0
 10
197.8510003967
 20
478.5077580699
 30
0.0
 10
197.7723752738
 20
478.5000992472
 30
0.0
 10
197.4266870056
 20
478.4677693768
 30
0.0
 10
197.0806133811
 20
478.4396988569
 30
0.0
 10
196.8132044665
 20
478.4191565348
 30
0.0
  0
SPLINE
  5
72C
100
AcDbEntity
  8
0
100
AcDbSpline
 62
7
  6
CONTINUOUS
 70
0
 71
3
 72
9
 73
5
 74
0
 42
0.0000001
 43
0.0000001
 44
0.0000000001
 40
0.0
 40
0.0
 40
0.0
 40
0.0
 40
0.2518259075
 40
1.0
 40
1.0
 40
1.0
 40
1.0
 10
196.8132044665
 20
478.4191565348
 30
0.0
 10
196.2746043124
 20
478.3777813328
 30
0.0
 10
194.1347308271
 20
478.2292875233
 30
0.0
 10
191.9915636077
 20
478.1180082531
 30
0.0
 10
190.3940817896
 20
477.9639390518
 30
0.0
  0
SPLINE
  5
72D
100
AcDbEntity
  8
0
100
AcDbSpline
 62
7
  6
CONTINUOUS
 70
0
 71
3
 72
11
 73
7
 74
0
 42
0.0000001
 43
0.0000001
 44
0.0000000001
 40
0.0
 40
0.0
 40
0.0
 40
0.0
 40
0.417983327
 40
0.7282977438
 40
0.9222646433
 40
1.0
 40
1.0
 40
1.0
 40
1.0
 10
190.3940817896
 20
477.9639390518
 30
0.0
 10
190.2105264864
 20
477.9462360529
 30
0.0
 10
189.8971342636
 20
477.9134363658
 30
0.0
 10
189.4743376149
 20
477.8564212403
 30
0.0
 10
189.2582861157
 20
477.8081093968
 30
0.0
 10
189.1039634164
 20
477.7607219233
 30
0.0
 10
189.1038690574
 20
477.726426559
 30
0.0
  0
SPLINE
  5
72E
100
AcDbEntity
  8
0
100
AcDbSpline
 62
7
  6
CONTINUOUS
 70
0
 71
3
 72
11
 73
7
 74
0
 42
0.0000001
 43
0.0000001
 44
0.0000000001
 40
0.0
 40
0.0
 40
0.0
 40
0.0
 40
0.0796962596
 40
0.2726934119
 40
0.5815940946
 40
1.0
 40
1.0
 40
1.0
 40
1.0
 10
513.1821262412
 20
475.5460881821
 30
0.0
 10
513.1821451502
 20
475.5172054749
 30
0.0
 10
513.0598904376
 20
475.4713230475
 30
0.0
 10
512.8799188448
 20
475.4299255929
 30
0.0
 10
512.5358955093
 20
475.3772138707
 30
0.0
 10
512.2784883218
 20
475.3482010934
 30
0.0
 10
512.1276871302
 20
475.3323264408
 30
0.0
  0
SPLINE
  5
72F
100
AcDbEntity
  8
0
100
AcDbSpline
 62
7
  6
CONTINUOUS
 70
0
 71
3
 72
9
 73
5
 74
0
 42
0.0000001
 43
0.0000001
 44
0.0000000001
 40
0.0
 40
0.0
 40
0.0
 40
0.0
 40
0.2189574578
 40
1.0
 40
1.0
 40
1.0
 40
1.0
 10
512.1276871302
 20
475.3323264408
 30
0.0
 10
512.0305300671
 20
475.3220988384
 30
0.0
 10
511.5865095224
 20
475.2781875754
 30
0.0
 10
511.1417287703
 20
475.242405016
 30
0.0
 10
510.7942425793
 20
475.2160572804
 30
0.0
  0
SPLINE
  5
730
100
AcDbEntity
  8
0
100
AcDbSpline
 62
7
  6
CONTINUOUS
 70
0
 71
3
 72
9
 73
5
 74
0
 42
0.0000001
 43
0.0000001
 44
0.0000000001
 40
0.0
 40
0.0
 40
0.0
 40
0.0
 40
0.253779955
 40
1.0
 40
1.0
 40
1.0
 40
1.0
 10
510.7942425793
 20
475.2160572804
 30
0.0
 10
510.2576375343
 20
475.175369828
 30
0.0
 10
508.142217918
 20
475.0294351211
 30
0.0
 10
506.0236092285
 20
474.918780354
 30
0.0
 10
504.4486167951
 20
474.7661137585
 30
0.0
  0
SPLINE
  5
731
100
AcDbEntity
  8
0
100
AcDbSpline
 62
7
  6
CONTINUOUS
 70
0
 71
3
 72
11
 73
7
 74
0
 42
0.0000001
 43
0.0000001
 44
0.0000000001
 40
0.0
 40
0.0
 40
0.0
 40
0.0
 40
0.3986644575
 40
0.7020757692
 40
0.9030636422
 40
1.0
 40
1.0
 40
1.0
 40
1.0
 10
504.37603876
 20
474.7589906214
 30
0.0
 10
504.2144986476
 20
474.7429340335
 30
0.0
 10
503.9319605598
 20
474.7116614264
 30
0.0
 10
503.5619768166
 20
474.6635686246
 30
0.0
 10
503.3327745086
 20
474.611077246
 30
0.0
 10
503.2027215669
 20
474.5770805432
 30
0.0
 10
503.1799857841
 20
474.5448135213
 30
0.0
  0
SPLINE
  5
732
100
AcDbEntity
  8
0
100
AcDbSpline
 62
7
  6
CONTINUOUS
 70
0
 71
3
 72
9
 73
5
 74
0
 42
0.0000001
 43
0.0000001
 44
0.0000000001
 40
0.0
 40
0.0
 40
0.0
 40
0.0
 40
0.5269207227
 40
1.0
 40
1.0
 40
1.0
 40
1.0
 10
503.1799857841
 20
474.5448135213
 30
0.0
 10
503.1783930549
 20
474.5425530921
 30
0.0
 10
503.175800799
 20
474.5379075423
 30
0.0
 10
503.1747920965
 20
474.5326367249
 30
0.0
 10
503.1747790487
 20
474.5301541117
 30
0.0
  0
SPLINE
  5
733
100
AcDbEntity
  8
0
100
AcDbSpline
 62
7
  6
CONTINUOUS
 70
0
 71
3
 72
9
 73
5
 74
0
 42
0.0000001
 43
0.0000001
 44
0.0000000001
 40
0.0
 40
0.0
 40
0.0
 40
0.0
 40
0.4003748228
 40
1.0
 40
1.0
 40
1.0
 40
1.0
 10
197.7904313121
 20
480.7745148932
 30
0.0
 10
197.7904252236
 20
480.7833283701
 30
0.0
 10
197.778807393
 20
480.8045079268
 30
0.0
 10
197.7601124761
 20
480.8164393596
 30
0.0
 10
197.7487142705
 20
480.8230959436
 30
0.0
  0
SPLINE
  5
734
100
AcDbEntity
  8
0
100
AcDbSpline
 62
7
  6
CONTINUOUS
 70
0
 71
3
 72
9
 73
5
 74
0
 42
0.0000001
 43
0.0000001
 44
0.0000000001
 40
0.0
 40
0.0
 40
0.0
 40
0.0
 40
0.2367450084
 40
1.0
 40
1.0
 40
1.0
 40
1.0
 10
196.202994722
 20
481.0866402967
 30
0.0
 10
196.1340544329
 20
481.0940025478
 30
0.0
 10
195.842776422
 20
481.1243765226
 30
0.0
 10
195.5512549177
 20
481.1523691757
 30
0.0
 10
195.3286926098
 20
481.1730825213
 30
0.0
  0
SPLINE
  5
735
100
AcDbEntity
  8
0
100
AcDbSpline
 62
7
  6
CONTINUOUS
 70
0
 71
3
 72
9
 73
5
 74
0
 42
0.0000001
 43
0.0000001
 44
0.0000000001
 40
0.0
 40
0.0
 40
0.0
 40
0.0
 40
0.2436124302
 40
1.0
 40
1.0
 40
1.0
 40
1.0
 10
195.3286926098
 20
481.1730825213
 30
0.0
 10
195.2015438858
 20
481.1849159511
 30
0.0
 10
194.6795276899
 20
481.2325701321
 30
0.0
 10
194.1573046604
 20
481.2779063221
 30
0.0
 10
193.7623500507
 20
481.312739184
 30
0.0
  0
SPLINE
  5
736
100
AcDbEntity
  8
0
100
AcDbSpline
 62
7
  6
CONTINUOUS
 70
0
 71
3
 72
11
 73
7
 74
0
 42
0.0000001
 43
0.0000001
 44
0.0000000001
 40
0.0
 40
0.0
 40
0.0
 40
0.0
 40
0.0851833533
 40
0.2758061885
 40
0.5813427713
 40
1.0
 40
1.0
 40
1.0
 40
1.0
 10
199.1098624223
 20
464.5184820598
 30
0.0
 10
199.1095785546
 20
464.4977024234
 30
0.0
 10
199.0351423586
 20
464.4573494577
 30
0.0
 10
198.9100118872
 20
464.4247871678
 30
0.0
 10
198.6840588179
 20
464.3810146721
 30
0.0
 10
198.5110411597
 20
464.3579593516
 30
0.0
 10
198.4097093427
 20
464.3451612027
 30
0.0
  0
SPLINE
  5
737
100
AcDbEntity
  8
0
100
AcDbSpline
 62
7
  6
CONTINUOUS
 70
0
 71
3
 72
9
 73
5
 74
0
 42
0.0000001
 43
0.0000001
 44
0.0000000001
 40
0.0
 40
0.0
 40
0.0
 40
0.0
 40
0.2175172992
 40
1.0
 40
1.0
 40
1.0
 40
1.0
 10
198.0489404451
 20
464.3038712176
 30
0.0
 10
197.942966886
 20
464.2927520368
 30
0.0
 10
197.4554274881
 20
464.2449076611
 30
0.0
 10
196.9670328129
 20
464.2063110465
 30
0.0
 10
196.5847728419
 20
464.1778888453
 30
0.0
  0
SPLINE
  5
738
100
AcDbEntity
  8
0
100
AcDbSpline
 62
7
  6
CONTINUOUS
 70
0
 71
3
 72
9
 73
5
 74
0
 42
0.0000001
 43
0.0000001
 44
0.0000000001
 40
0.0
 40
0.0
 40
0.0
 40
0.0
 40
0.2355327061
 40
1.0
 40
1.0
 40
1.0
 40
1.0
 10
196.5847728419
 20
464.1778888453
 30
0.0
 10
196.3013707348
 20
464.1568170295
 30
0.0
 10
195.0977698906
 20
464.072231723
 30
0.0
 10
193.8935177784
 20
463.9974720976
 30
0.0
 10
192.9731659111
 20
463.9364010774
 30
0.0
  0
SPLINE
  5
739
100
AcDbEntity
  8
0
100
AcDbSpline
 62
7
  6
CONTINUOUS
 70
0
 71
3
 72
9
 73
5
 74
0
 42
0.0000001
 43
0.0000001
 44
0.0000000001
 40
0.0
 40
0.0
 40
0.0
 40
0.0
 40
0.2664670951
 40
1.0
 40
1.0
 40
1.0
 40
1.0
 10
192.9731659111
 20
463.9364010774
 30
0.0
 10
192.8091221474
 20
463.9255157624
 30
0.0
 10
192.1935336325
 20
463.8841597329
 30
0.0
 10
191.5780889498
 20
463.8403637177
 30
0.0
 10
191.126977492
 20
463.8040066471
 30
0.0
  0
SPLINE
  5
73A
100
AcDbEntity
  8
0
100
AcDbSpline
 62
7
  6
CONTINUOUS
 70
0
 71
3
 72
9
 73
5
 74
0
 42
0.0000001
 43
0.0000001
 44
0.0000000001
 40
0.0
 40
0.0
 40
0.0
 40
0.0
 40
0.2688879429
 40
1.0
 40
1.0
 40
1.0
 40
1.0
 10
191.126977492
 20
463.8040066471
 30
0.0
 10
191.0537189585
 20
463.7981024174
 30
0.0
 10
190.7813070139
 20
463.775687737
 30
0.0
 10
190.5090443382
 20
463.7513593321
 30
0.0
 10
190.3101842365
 20
463.7316199751
 30
0.0
  0
SPLINE
  5
73B
100
AcDbEntity
  8
0
100
AcDbSpline
 62
7
  6
CONTINUOUS
 70
0
 71
3
 72
11
 73
7
 74
0
 42
0.0000001
 43
0.0000001
 44
0.0000000001
 40
0.0
 40
0.0
 40
0.0
 40
0.0
 40
0.4184810438
 40
0.7277335536
 40
0.9200865121
 40
1.0
 40
1.0
 40
1.0
 40
1.0
 10
190.2291926867
 20
463.7234614833
 30
0.0
 10
190.0686392938
 20
463.707043571
 30
0.0
 10
189.7943983373
 20
463.6767012547
 30
0.0
 10
189.4283104183
 20
463.6236470737
 30
0.0
 10
189.2361395306
 20
463.5786504695
 30
0.0
 10
189.1062276994
 20
463.5336215487
 30
0.0
 10
189.1048449828
 20
463.502833291
 30
0.0
  0
SPLINE
  5
73C
100
AcDbEntity
  8
0
100
AcDbSpline
 62
7
  6
CONTINUOUS
 70
0
 71
3
 72
9
 73
5
 74
0
 42
0.0000001
 43
0.0000001
 44
0.0000000001
 40
0.0
 40
0.0
 40
0.0
 40
0.0
 40
0.2381309234
 40
1.0
 40
1.0
 40
1.0
 40
1.0
 10
196.2201705991
 20
479.0528046176
 30
0.0
 10
195.8841600037
 20
479.0888197312
 30
0.0
 10
194.4715088063
 20
479.224532476
 30
0.0
 10
193.0563361786
 20
479.3338164201
 30
0.0
 10
191.9813532043
 20
479.4494095601
 30
0.0
  0
SPLINE
  5
73D
100
AcDbEntity
  8
0
100
AcDbSpline
 62
7
  6
CONTINUOUS
 70
0
 71
3
 72
11
 73
7
 74
0
 42
0.0000001
 43
0.0000001
 44
0.0000000001
 40
0.0
 40
0.0
 40
0.0
 40
0.0
 40
0.0792108673
 40
0.2729183503
 40
0.5827353548
 40
1.0
 40
1.0
 40
1.0
 40
1.0
 10
513.1809143441
 20
465.3857391691
 30
0.0
 10
513.1809092268
 20
465.3566687355
 30
0.0
 10
513.0570187149
 20
465.3102456053
 30
0.0
 10
512.8742528149
 20
465.2691196672
 30
0.0
 10
512.5256309243
 20
465.2160686064
 30
0.0
 10
512.265020372
 20
465.1867944398
 30
0.0
 10
512.1127194505
 20
465.1708202141
 30
0.0
  0
SPLINE
  5
73E
100
AcDbEntity
  8
0
100
AcDbSpline
 62
7
  6
CONTINUOUS
 70
0
 71
3
 72
9
 73
5
 74
0
 42
0.0000001
 43
0.0000001
 44
0.0000000001
 40
0.0
 40
0.0
 40
0.0
 40
0.0
 40
0.2242159787
 40
1.0
 40
1.0
 40
1.0
 40
1.0
 10
511.9568204415
 20
465.1549587353
 30
0.0
 10
511.399156659
 20
465.0998558156
 30
0.0
 10
508.9068019121
 20
464.9101121267
 30
0.0
 10
506.4090073485
 20
464.7939846333
 30
0.0
 10
504.4789466731
 20
464.609002092
 30
0.0
  0
SPLINE
  5
73F
100
AcDbEntity
  8
0
100
AcDbSpline
 62
7
  6
CONTINUOUS
 70
0
 71
3
 72
11
 73
7
 74
0
 42
0.0000001
 43
0.0000001
 44
0.0000000001
 40
0.0
 40
0.0
 40
0.0
 40
0.0
 40
0.4179430337
 40
0.7273886288
 40
0.9214872623
 40
1.0
 40
1.0
 40
1.0
 40
1.0
 10
504.4789466731
 20
464.609002092
 30
0.0
 10
504.2934829543
 20
464.5912267181
 30
0.0
 10
503.977365632
 20
464.558119387
 30
0.0
 10
503.5499908262
 20
464.5013274903
 30
0.0
 10
503.3326700339
 20
464.4513800524
 30
0.0
 10
503.1747678038
 20
464.4052380583
 30
0.0
 10
503.1746828531
 20
464.3702381995
 30
0.0
  0
SPLINE
  5
740
100
AcDbEntity
  8
0
100
AcDbSpline
 62
7
  6
CONTINUOUS
 70
0
 71
3
 72
9
 73
5
 74
0
 42
0.0000001
 43
0.0000001
 44
0.0000000001
 40
0.0
 40
0.0
 40
0.0
 40
0.0
 40
0.5031192635
 40
1.0
 40
1.0
 40
1.0
 40
1.0
 10
513.0360795727
 20
488.2330500286
 30
0.0
 10
513.5104291056
 20
488.3956564687
 30
0.0
 10
514.6760281559
 20
488.2563942114
 30
0.0
 10
515.2207362375
 20
487.2113119063
 30
0.0
 10
515.2267458704
 20
486.7161199111
 30
0.0
  0
SPLINE
  5
741
100
AcDbEntity
  8
0
100
AcDbSpline
 62
7
  6
CONTINUOUS
 70
0
 71
3
 72
8
 73
4
 74
0
 42
0.0000001
 43
0.0000001
 44
0.0000000001
 40
0.0
 40
0.0
 40
0.0
 40
0.0
 40
1.0
 40
1.0
 40
1.0
 40
1.0
 10
502.5369091228
 20
486.87228432
 30
0.0
 10
502.5576911693
 20
487.0582428996
 30
0.0
 10
502.6117876354
 20
487.2432811707
 30
0.0
 10
502.6948251977
 20
487.4109631615
 30
0.0
  0
SPLINE
  5
742
100
AcDbEntity
  8
0
100
AcDbSpline
 62
7
  6
CONTINUOUS
 70
0
 71
3
 72
9
 73
5
 74
0
 42
0.0000001
 43
0.0000001
 44
0.0000000001
 40
0.0
 40
0.0
 40
0.0
 40
0.0
 40
0.4987303706
 40
1.0
 40
1.0
 40
1.0
 40
1.0
 10
502.9168089469
 20
487.7459854517
 30
0.0
 10
503.1089904227
 20
487.9699861336
 30
0.0
 10
503.6281399985
 20
488.3185493856
 30
0.0
 10
504.2521721895
 20
488.347108888
 30
0.0
 10
504.5417321921
 20
488.2826548724
 30
0.0
  0
SPLINE
  5
743
100
AcDbEntity
  8
0
100
AcDbSpline
 62
7
  6
CONTINUOUS
 70
0
 71
3
 72
8
 73
4
 74
0
 42
0.0000001
 43
0.0000001
 44
0.0000000001
 40
0.0
 40
0.0
 40
0.0
 40
0.0
 40
1.0
 40
1.0
 40
1.0
 40
1.0
 10
504.5417321921
 20
488.2826548724
 30
0.0
 10
504.8848287837
 20
488.2062839894
 30
0.0
 10
505.2178353858
 20
488.0069351958
 30
0.0
 10
505.4451839616
 20
487.738867279
 30
0.0
  0
SPLINE
  5
744
100
AcDbEntity
  8
0
100
AcDbSpline
 62
7
  6
CONTINUOUS
 70
0
 71
3
 72
8
 73
4
 74
0
 42
0.0000001
 43
0.0000001
 44
0.0000000001
 40
0.0
 40
0.0
 40
0.0
 40
0.0
 40
1.0
 40
1.0
 40
1.0
 40
1.0
 10
511.2161962415
 20
482.0467702653
 30
0.0
 10
511.322561596
 20
482.0580600987
 30
0.0
 10
511.4386067657
 20
482.0052465747
 30
0.0
 10
511.5153861519
 20
481.9307752726
 30
0.0
  0
SPLINE
  5
745
100
AcDbEntity
  8
0
100
AcDbSpline
 62
7
  6
CONTINUOUS
 70
0
 71
3
 72
9
 73
5
 74
0
 42
0.0000001
 43
0.0000001
 44
0.0000000001
 40
0.0
 40
0.0
 40
0.0
 40
0.0
 40
0.2291009303
 40
1.0
 40
1.0
 40
1.0
 40
1.0
 10
511.5153861519
 20
481.9307752726
 30
0.0
 10
511.5475925375
 20
481.899537051
 30
0.0
 10
511.6692397187
 20
481.7438864454
 30
0.0
 10
511.7166555811
 20
481.5391244541
 30
0.0
 10
511.7166552449
 20
481.3881508773
 30
0.0
  0
SPLINE
  5
746
100
AcDbEntity
  8
0
100
AcDbSpline
 62
7
  6
CONTINUOUS
 70
0
 71
3
 72
9
 73
5
 74
0
 42
0.0000001
 43
0.0000001
 44
0.0000000001
 40
0.0
 40
0.0
 40
0.0
 40
0.0
 40
0.4896553914
 40
1.0
 40
1.0
 40
1.0
 40
1.0
 10
510.8103163697
 20
488.1070211535
 30
0.0
 10
510.8250257779
 20
488.2818800995
 30
0.0
 10
511.1164853256
 20
488.6017383342
 30
0.0
 10
511.4913144937
 20
488.6288382165
 30
0.0
 10
511.6729176317
 20
488.607173117
 30
0.0
  0
SPLINE
  5
747
100
AcDbEntity
  8
0
100
AcDbSpline
 62
7
  6
CONTINUOUS
 70
0
 71
3
 72
9
 73
5
 74
0
 42
0.0000001
 43
0.0000001
 44
0.0000000001
 40
0.0
 40
0.0
 40
0.0
 40
0.0
 40
0.5086277403
 40
1.0
 40
1.0
 40
1.0
 40
1.0
 10
511.8593689885
 20
487.7488442337
 30
0.0
 10
511.8600322066
 20
487.747097462
 30
0.0
 10
511.8610614271
 20
487.7435492367
 30
0.0
 10
511.861419187
 20
487.7398680384
 30
0.0
 10
511.861420364
 20
487.7380629862
 30
0.0
  0
SPLINE
  5
748
100
AcDbEntity
  8
0
100
AcDbSpline
 62
7
  6
CONTINUOUS
 70
0
 71
3
 72
9
 73
5
 74
0
 42
0.0000001
 43
0.0000001
 44
0.0000000001
 40
0.0
 40
0.0
 40
0.0
 40
0.0
 40
0.2365616215
 40
1.0
 40
1.0
 40
1.0
 40
1.0
 10
196.2542463801
 20
477.0171431518
 30
0.0
 10
195.9221897822
 20
477.0530231485
 30
0.0
 10
194.5168268623
 20
477.1887031554
 30
0.0
 10
193.1089481906
 20
477.297674992
 30
0.0
 10
192.037110449
 20
477.4114580914
 30
0.0
  0
SPLINE
  5
749
100
AcDbEntity
  8
0
100
AcDbSpline
 62
7
  6
CONTINUOUS
 70
0
 71
3
 72
9
 73
5
 74
0
 42
0.0000001
 43
0.0000001
 44
0.0000000001
 40
0.0
 40
0.0
 40
0.0
 40
0.0
 40
0.3759615662
 40
1.0
 40
1.0
 40
1.0
 40
1.0
 10
190.5311256527
 20
477.648397931
 30
0.0
 10
190.5153377495
 20
477.654195022
 30
0.0
 10
190.4771209332
 20
477.6700461198
 30
0.0
 10
190.4246389192
 20
477.6984327271
 30
0.0
 10
190.4246195422
 20
477.7263489552
 30
0.0
  0
SPLINE
  5
74A
100
AcDbEntity
  8
0
100
AcDbSpline
 62
7
  6
CONTINUOUS
 70
0
 71
3
 72
8
 73
4
 74
0
 42
0.0000001
 43
0.0000001
 44
0.0000000001
 40
0.0
 40
0.0
 40
0.0
 40
0.0
 40
1.0
 40
1.0
 40
1.0
 40
1.0
 10
511.1398140308
 20
486.1096660041
 30
0.0
 10
511.1645915703
 20
486.206040867
 30
0.0
 10
511.2212890469
 20
486.2977002347
 30
0.0
 10
511.2947182899
 20
486.3648581599
 30
0.0
  0
SPLINE
  5
74B
100
AcDbEntity
  8
0
100
AcDbSpline
 62
7
  6
CONTINUOUS
 70
0
 71
3
 72
8
 73
4
 74
0
 42
0.0000001
 43
0.0000001
 44
0.0000000001
 40
0.0
 40
0.0
 40
0.0
 40
0.0
 40
1.0
 40
1.0
 40
1.0
 40
1.0
 10
511.2947182899
 20
486.3648581599
 30
0.0
 10
511.4557941175
 20
486.5121771016
 30
0.0
 10
511.7082853317
 20
486.5689163888
 30
0.0
 10
511.9249816665
 20
486.5426296751
 30
0.0
  0
SPLINE
  5
74C
100
AcDbEntity
  8
0
100
AcDbSpline
 62
7
  6
CONTINUOUS
 70
0
 71
3
 72
9
 73
5
 74
0
 42
0.0000001
 43
0.0000001
 44
0.0000000001
 40
0.0
 40
0.0
 40
0.0
 40
0.0
 40
0.520455775
 40
1.0
 40
1.0
 40
1.0
 40
1.0
 10
511.8271917742
 20
485.7502405411
 30
0.0
 10
511.8296471871
 20
485.748656475
 30
0.0
 10
511.8342927649
 20
485.7454985425
 30
0.0
 10
511.8387453125
 20
485.7420710624
 30
0.0
 10
511.840817506
 20
485.7403521251
 30
0.0
  0
SPLINE
  5
74D
100
AcDbEntity
  8
0
100
AcDbSpline
 62
7
  6
CONTINUOUS
 70
0
 71
3
 72
9
 73
5
 74
0
 42
0.0000001
 43
0.0000001
 44
0.0000000001
 40
0.0
 40
0.0
 40
0.0
 40
0.0
 40
0.5635661894
 40
1.0
 40
1.0
 40
1.0
 40
1.0
 10
511.840817506
 20
485.7403521251
 30
0.0
 10
511.8467317324
 20
485.7354461235
 30
0.0
 10
511.8566540626
 20
485.7257416611
 30
0.0
 10
511.8614784261
 20
485.7121369718
 30
0.0
 10
511.8614805787
 20
485.7061862168
 30
0.0
  0
SPLINE
  5
74E
100
AcDbEntity
  8
0
100
AcDbSpline
 62
7
  6
CONTINUOUS
 70
0
 71
3
 72
9
 73
5
 74
0
 42
0.0000001
 43
0.0000001
 44
0.0000000001
 40
0.0
 40
0.0
 40
0.0
 40
0.0
 40
0.6963514199
 40
1.0
 40
1.0
 40
1.0
 40
1.0
 10
511.1824928457
 20
482.2256176853
 30
0.0
 10
511.2451605687
 20
482.2987541208
 30
0.0
 10
511.3363529377
 20
482.3994970556
 30
0.0
 10
511.4267634855
 20
482.5102554154
 30
0.0
 10
511.463891024
 20
482.5298862117
 30
0.0
  0
SPLINE
  5
74F
100
AcDbEntity
  8
0
100
AcDbSpline
 62
7
  6
CONTINUOUS
 70
0
 71
3
 72
9
 73
5
 74
0
 42
0.0000001
 43
0.0000001
 44
0.0000000001
 40
0.0
 40
0.0
 40
0.0
 40
0.0
 40
0.5755214406
 40
1.0
 40
1.0
 40
1.0
 40
1.0
 10
511.463891024
 20
482.5298862117
 30
0.0
 10
511.466393068
 20
482.5312091412
 30
0.0
 10
511.4708896781
 20
482.5332488305
 30
0.0
 10
511.4758886679
 20
482.5340178143
 30
0.0
 10
511.4779635483
 20
482.5337888899
 30
0.0
  0
SPLINE
  5
750
100
AcDbEntity
  8
0
100
AcDbSpline
 62
7
  6
CONTINUOUS
 70
0
 71
3
 72
8
 73
4
 74
0
 42
0.0000001
 43
0.0000001
 44
0.0000000001
 40
0.0
 40
0.0
 40
0.0
 40
0.0
 40
1.0
 40
1.0
 40
1.0
 40
1.0
 10
511.4048398509
 20
484.1059505502
 30
0.0
 10
511.4833976662
 20
484.3042677626
 30
0.0
 10
511.7135821846
 20
484.4502430722
 30
0.0
 10
511.9249816665
 20
484.4787265092
 30
0.0
  0
SPLINE
  5
751
100
AcDbEntity
  8
0
100
AcDbSpline
 62
7
  6
CONTINUOUS
 70
0
 71
3
 72
11
 73
7
 74
0
 42
0.0000001
 43
0.0000001
 44
0.0000000001
 40
0.0
 40
0.0
 40
0.0
 40
0.0
 40
0.0796056583
 40
0.2726126427
 40
0.5815678937
 40
1.0
 40
1.0
 40
1.0
 40
1.0
 10
199.1111262162
 20
476.7103459767
 30
0.0
 10
199.111174931
 20
476.6813262371
 30
0.0
 10
198.9880468164
 20
476.6353458008
 30
0.0
 10
198.8071361625
 20
476.5937956807
 30
0.0
 10
198.4609542829
 20
476.5409339266
 30
0.0
 10
198.2020179763
 20
476.5118202649
 30
0.0
 10
198.0503148064
 20
476.4958928348
 30
0.0
  0
SPLINE
  5
752
100
AcDbEntity
  8
0
100
AcDbSpline
 62
7
  6
CONTINUOUS
 70
0
 71
3
 72
9
 73
5
 74
0
 42
0.0000001
 43
0.0000001
 44
0.0000000001
 40
0.0
 40
0.0
 40
0.0
 40
0.0
 40
0.2185736583
 40
1.0
 40
1.0
 40
1.0
 40
1.0
 10
198.0503148064
 20
476.4958928348
 30
0.0
 10
197.9504566232
 20
476.4854086488
 30
0.0
 10
197.4932856889
 20
476.4403758552
 30
0.0
 10
197.0353287273
 20
476.4037935373
 30
0.0
 10
196.6773761416
 20
476.3768270986
 30
0.0
  0
SPLINE
  5
753
100
AcDbEntity
  8
0
100
AcDbSpline
 62
7
  6
CONTINUOUS
 70
0
 71
3
 72
9
 73
5
 74
0
 42
0.0000001
 43
0.0000001
 44
0.0000000001
 40
0.0
 40
0.0
 40
0.0
 40
0.0
 40
0.2546841822
 40
1.0
 40
1.0
 40
1.0
 40
1.0
 10
196.6773761416
 20
476.3768270986
 30
0.0
 10
196.1423484522
 20
476.336520667
 30
0.0
 10
194.0406898175
 20
476.1919387947
 30
0.0
 10
191.935903684
 20
476.0816266531
 30
0.0
 10
190.3730919243
 20
475.9299111366
 30
0.0
  0
SPLINE
  5
754
100
AcDbEntity
  8
0
100
AcDbSpline
 62
7
  6
CONTINUOUS
 70
0
 71
3
 72
11
 73
7
 74
0
 42
0.0000001
 43
0.0000001
 44
0.0000000001
 40
0.0
 40
0.0
 40
0.0
 40
0.0
 40
0.4181976037
 40
0.7280948195
 40
0.9214613993
 40
1.0
 40
1.0
 40
1.0
 40
1.0
 10
190.291299626
 20
475.9218579223
 30
0.0
 10
190.121986365
 20
475.9049450126
 30
0.0
 10
189.8328677088
 20
475.8737020276
 30
0.0
 10
189.4445103592
 20
475.8185722003
 30
0.0
 10
189.2439357709
 20
475.7731654664
 30
0.0
 10
189.1039469951
 20
475.7263457036
 30
0.0
 10
189.1037790486
 20
475.694390425
 30
0.0
  0
SPLINE
  5
755
100
AcDbEntity
  8
0
100
AcDbSpline
 62
7
  6
CONTINUOUS
 70
0
 71
3
 72
9
 73
5
 74
0
 42
0.0000001
 43
0.0000001
 44
0.0000000001
 40
0.0
 40
0.0
 40
0.0
 40
0.0
 40
0.2373085993
 40
1.0
 40
1.0
 40
1.0
 40
1.0
 10
510.3144606536
 20
463.6620441911
 30
0.0
 10
509.9797204282
 20
463.6980896559
 30
0.0
 10
508.5674998858
 20
463.8342304848
 30
0.0
 10
507.152726955
 20
463.9434800436
 30
0.0
 10
506.0768227554
 20
464.0586275983
 30
0.0
  0
SPLINE
  5
756
100
AcDbEntity
  8
0
100
AcDbSpline
 62
7
  6
CONTINUOUS
 70
0
 71
3
 72
9
 73
5
 74
0
 42
0.0000001
 43
0.0000001
 44
0.0000000001
 40
0.0
 40
0.0
 40
0.0
 40
0.0
 40
0.5816844593
 40
1.0
 40
1.0
 40
1.0
 40
1.0
 10
504.5255593876
 20
464.3291784315
 30
0.0
 10
504.5172622796
 20
464.3348693847
 30
0.0
 10
504.5034458623
 20
464.3456382285
 30
0.0
 10
504.4956007391
 20
464.3625160407
 30
0.0
 10
504.4954859729
 20
464.3697506364
 30
0.0
  0
SPLINE
  5
757
100
AcDbEntity
  8
0
100
AcDbSpline
 62
7
  6
CONTINUOUS
 70
0
 71
3
 72
11
 73
7
 74
0
 42
0.0000001
 43
0.0000001
 44
0.0000000001
 40
0.0
 40
0.0
 40
0.0
 40
0.0
 40
0.0798488844
 40
0.2729332695
 40
0.5817620987
 40
1.0
 40
1.0
 40
1.0
 40
1.0
 10
503.1748474962
 20
482.6583402085
 30
0.0
 10
503.1750137947
 20
482.6872530178
 30
0.0
 10
503.297062466
 20
482.7329111642
 30
0.0
 10
503.4771347877
 20
482.7744328464
 30
0.0
 10
503.8206907293
 20
482.8270169665
 30
0.0
 10
504.0778290986
 20
482.8560310798
 30
0.0
 10
504.2284403925
 20
482.8718903602
 30
0.0
  0
SPLINE
  5
758
100
AcDbEntity
  8
0
100
AcDbSpline
 62
7
  6
CONTINUOUS
 70
0
 71
3
 72
9
 73
5
 74
0
 42
0.0000001
 43
0.0000001
 44
0.0000000001
 40
0.0
 40
0.0
 40
0.0
 40
0.0
 40
0.2181750873
 40
1.0
 40
1.0
 40
1.0
 40
1.0
 10
504.2284403925
 20
482.8718903602
 30
0.0
 10
504.3293266124
 20
482.8825136196
 30
0.0
 10
504.7920550907
 20
482.9281757729
 30
0.0
 10
505.2555915679
 20
482.9651570607
 30
0.0
 10
505.6180890848
 20
482.9924293026
 30
0.0
  0
SPLINE
  5
759
100
AcDbEntity
  8
0
100
AcDbSpline
 62
7
  6
CONTINUOUS
 70
0
 71
3
 72
9
 73
5
 74
0
 42
0.0000001
 43
0.0000001
 44
0.0000000001
 40
0.0
 40
0.0
 40
0.0
 40
0.0
 40
0.240737849
 40
1.0
 40
1.0
 40
1.0
 40
1.0
 10
505.6180890848
 20
482.9924293026
 30
0.0
 10
506.0287656302
 20
483.0233262594
 30
0.0
 10
507.7354113049
 20
483.1416587048
 30
0.0
 10
509.4432639047
 20
483.2424303341
 30
0.0
 10
510.7384975312
 20
483.3398429887
 30
0.0
  0
SPLINE
  5
75A
100
AcDbEntity
  8
0
100
AcDbSpline
 62
7
  6
CONTINUOUS
 70
0
 71
3
 72
9
 73
5
 74
0
 42
0.0000001
 43
0.0000001
 44
0.0000000001
 40
0.0
 40
0.0
 40
0.0
 40
0.0
 40
0.2700139776
 40
1.0
 40
1.0
 40
1.0
 40
1.0
 10
510.7384975312
 20
483.3398429887
 30
0.0
 10
510.8350951785
 20
483.3471079585
 30
0.0
 10
511.1928022311
 20
483.374566003
 30
0.0
 10
511.5503392229
 20
483.4044082666
 30
0.0
 10
511.8110809263
 20
483.4289106249
 30
0.0
  0
SPLINE
  5
75B
100
AcDbEntity
  8
0
100
AcDbSpline
 62
7
  6
CONTINUOUS
 70
0
 71
3
 72
11
 73
7
 74
0
 42
0.0000001
 43
0.0000001
 44
0.0000000001
 40
0.0
 40
0.0
 40
0.0
 40
0.0
 40
0.4176662155
 40
0.7271338809
 40
0.9206015272
 40
1.0
 40
1.0
 40
1.0
 40
1.0
 10
512.0347771206
 20
483.4507212555
 30
0.0
 10
512.1982391931
 20
483.4672947549
 30
0.0
 10
512.4775762235
 20
483.4979636653
 30
0.0
 10
512.8518529568
 20
483.5519207628
 30
0.0
 10
513.0471158551
 20
483.5967502015
 30
0.0
 10
513.1813562523
 20
483.6424916912
 30
0.0
 10
513.1821650841
 20
483.6737147191
 30
0.0
  0
SPLINE
  5
75C
100
AcDbEntity
  8
0
100
AcDbSpline
 62
7
  6
CONTINUOUS
 70
0
 71
3
 72
9
 73
5
 74
0
 42
0.0000001
 43
0.0000001
 44
0.0000000001
 40
0.0
 40
0.0
 40
0.0
 40
0.0
 40
0.3607818484
 40
1.0
 40
1.0
 40
1.0
 40
1.0
 10
511.7873221258
 20
483.7391161263
 30
0.0
 10
511.7983586622
 20
483.7342654232
 30
0.0
 10
511.8267489404
 20
483.7205447399
 30
0.0
 10
511.8613702997
 20
483.6956572358
 30
0.0
 10
511.8614009977
 20
483.6742978742
 30
0.0
  0
SPLINE
  5
75D
100
AcDbEntity
  8
0
100
AcDbSpline
 62
7
  6
CONTINUOUS
 70
0
 71
3
 72
10
 73
6
 74
0
 42
0.0000001
 43
0.0000001
 44
0.0000000001
 40
0.0
 40
0.0
 40
0.0
 40
0.0
 40
0.7195749425
 40
0.9117923428
 40
1.0
 40
1.0
 40
1.0
 40
1.0
 10
512.5734923645
 20
481.480960832
 30
0.0
 10
512.725419188
 20
481.5015095133
 30
0.0
 10
512.9267483877
 20
481.5330015174
 30
0.0
 10
513.1179222153
 20
481.5851710708
 30
0.0
 10
513.1814887933
 20
481.6227112332
 30
0.0
 10
513.182081721
 20
481.6414950984
 30
0.0
  0
SPLINE
  5
75E
100
AcDbEntity
  8
0
100
AcDbSpline
 62
7
  6
CONTINUOUS
 70
0
 71
3
 72
9
 73
5
 74
0
 42
0.0000001
 43
0.0000001
 44
0.0000000001
 40
0.0
 40
0.0
 40
0.0
 40
0.0
 40
0.702423334
 40
1.0
 40
1.0
 40
1.0
 40
1.0
 10
511.5365621049
 20
481.7789997154
 30
0.0
 10
511.6187586578
 20
481.7614101168
 30
0.0
 10
511.7164866898
 20
481.7385365751
 30
0.0
 10
511.8612942432
 20
481.677806927
 30
0.0
 10
511.861342176
 20
481.6421965852
 30
0.0
  0
SPLINE
  5
75F
100
AcDbEntity
  8
0
100
AcDbSpline
 62
7
  6
CONTINUOUS
 70
0
 71
3
 72
8
 73
4
 74
0
 42
0.0000001
 43
0.0000001
 44
0.0000000001
 40
0.0
 40
0.0
 40
0.0
 40
0.0
 40
1.0
 40
1.0
 40
1.0
 40
1.0
 10
511.9397708794
 20
486.9101494158
 30
0.0
 10
511.9309002014
 20
486.843726062
 30
0.0
 10
511.9256809991
 20
486.7766542731
 30
0.0
 10
511.9251388639
 20
486.7096434013
 30
0.0
  0
SPLINE
  5
760
100
AcDbEntity
  8
0
100
AcDbSpline
 62
7
  6
CONTINUOUS
 70
0
 71
3
 72
9
 73
5
 74
0
 42
0.0000001
 43
0.0000001
 44
0.0000000001
 40
0.0
 40
0.0
 40
0.0
 40
0.0
 40
0.4113078047
 40
1.0
 40
1.0
 40
1.0
 40
1.0
 10
451.4371265624
 20
503.3118110895
 30
0.0
 10
451.1177147117
 20
503.311646035
 30
0.0
 10
450.4148524757
 20
503.831313557
 30
0.0
 10
450.0051899132
 20
504.4627371517
 30
0.0
 10
449.7408816665
 20
504.8357524945
 30
0.0
  0
SPLINE
  5
761
100
AcDbEntity
  8
0
100
AcDbSpline
 62
7
  6
CONTINUOUS
 70
0
 71
3
 72
10
 73
6
 74
0
 42
0.0000001
 43
0.0000001
 44
0.0000000001
 40
0.0
 40
0.0
 40
0.0
 40
0.0
 40
0.0869559258
 40
0.2783942732
 40
1.0
 40
1.0
 40
1.0
 40
1.0
 10
189.1036938
 20
469.5983605041
 30
0.0
 10
189.1037240829
 20
469.6175300916
 30
0.0
 10
189.1699894823
 20
469.6562545297
 30
0.0
 10
189.3668446332
 20
469.7091364461
 30
0.0
 10
189.5762263297
 20
469.7414539035
 30
0.0
 10
189.7339159689
 20
469.7624360638
 30
0.0
  0
SPLINE
  5
762
100
AcDbEntity
  8
0
100
AcDbSpline
 62
7
  6
CONTINUOUS
 70
0
 71
3
 72
10
 73
6
 74
0
 42
0.0000001
 43
0.0000001
 44
0.0000000001
 40
0.0
 40
0.0
 40
0.0
 40
0.0
 40
0.2220618363
 40
0.6401705344
 40
1.0
 40
1.0
 40
1.0
 40
1.0
 10
190.2038068786
 20
469.816977981
 30
0.0
 10
190.7767911985
 20
469.8761710786
 30
0.0
 10
192.4330672078
 20
470.0012265736
 30
0.0
 10
195.0215043329
 20
470.1649153242
 30
0.0
 10
197.0358586457
 20
470.2967727335
 30
0.0
 10
197.9644936507
 20
470.3910291466
 30
0.0
  0
SPLINE
  5
763
100
AcDbEntity
  8
0
100
AcDbSpline
 62
7
  6
CONTINUOUS
 70
0
 71
3
 72
11
 73
7
 74
0
 42
0.0000001
 43
0.0000001
 44
0.0000000001
 40
0.0
 40
0.0
 40
0.0
 40
0.0
 40
0.4180066744
 40
0.7253635831
 40
0.9176134606
 40
1.0
 40
1.0
 40
1.0
 40
1.0
 10
198.2569799782
 20
470.4226300696
 30
0.0
 10
198.3796657187
 20
470.4368208457
 30
0.0
 10
198.5892199685
 20
470.4625524294
 30
0.0
 10
198.866482758
 20
470.5105779289
 30
0.0
 10
199.0155748441
 20
470.5467232733
 30
0.0
 10
199.1111975298
 20
470.5899270167
 30
0.0
 10
199.1112132589
 20
470.6142688338
 30
0.0
  0
SPLINE
  5
764
100
AcDbEntity
  8
0
100
AcDbSpline
 62
7
  6
CONTINUOUS
 70
0
 71
3
 72
8
 73
4
 74
0
 42
0.0000001
 43
0.0000001
 44
0.0000000001
 40
0.0
 40
0.0
 40
0.0
 40
0.0
 40
1.0
 40
1.0
 40
1.0
 40
1.0
 10
507.4796018047
 20
481.6528796133
 30
0.0
 10
507.1470141071
 20
481.8219229481
 30
0.0
 10
506.8406473306
 20
482.0564109126
 30
0.0
 10
506.5916538993
 20
482.3342462897
 30
0.0
  0
SPLINE
  5
765
100
AcDbEntity
  8
0
100
AcDbSpline
 62
7
  6
CONTINUOUS
 70
0
 71
3
 72
9
 73
5
 74
0
 42
0.0000001
 43
0.0000001
 44
0.0000000001
 40
0.0
 40
0.0
 40
0.0
 40
0.0
 40
0.1911221201
 40
1.0
 40
1.0
 40
1.0
 40
1.0
 10
451.4371329955
 20
501.9401524913
 30
0.0
 10
451.4961556224
 20
501.9401126985
 30
0.0
 10
451.8058637076
 20
502.0174038311
 30
0.0
 10
451.9982199857
 20
502.304866653
 30
0.0
 10
452.1303677968
 20
502.5168489159
 30
0.0
  0
SPLINE
  5
766
100
AcDbEntity
  8
0
100
AcDbSpline
 62
7
  6
CONTINUOUS
 70
0
 71
3
 72
8
 73
4
 74
0
 42
0.0000001
 43
0.0000001
 44
0.0000000001
 40
0.0
 40
0.0
 40
0.0
 40
0.0
 40
1.0
 40
1.0
 40
1.0
 40
1.0
 10
452.1303677968
 20
502.5168489159
 30
0.0
 10
452.1854717994
 20
502.6052428974
 30
0.0
 10
452.2366585647
 20
502.6961197406
 30
0.0
 10
452.2852508183
 20
502.7882540989
 30
0.0
  0
SPLINE
  5
767
100
AcDbEntity
  8
0
100
AcDbSpline
 62
7
  6
CONTINUOUS
 70
0
 71
3
 72
9
 73
5
 74
0
 42
0.0000001
 43
0.0000001
 44
0.0000000001
 40
0.0
 40
0.0
 40
0.0
 40
0.0
 40
0.19112212
 40
1.0
 40
1.0
 40
1.0
 40
1.0
 10
126.3173329955
 20
501.9401524913
 30
0.0
 10
126.3763556223
 20
501.9401126985
 30
0.0
 10
126.6860637075
 20
502.0174038311
 30
0.0
 10
126.8784199857
 20
502.304866653
 30
0.0
 10
127.0105677967
 20
502.5168489159
 30
0.0
  0
SPLINE
  5
768
100
AcDbEntity
  8
0
100
AcDbSpline
 62
7
  6
CONTINUOUS
 70
0
 71
3
 72
8
 73
4
 74
0
 42
0.0000001
 43
0.0000001
 44
0.0000000001
 40
0.0
 40
0.0
 40
0.0
 40
0.0
 40
1.0
 40
1.0
 40
1.0
 40
1.0
 10
127.0105677967
 20
502.5168489159
 30
0.0
 10
127.0656717994
 20
502.6052428974
 30
0.0
 10
127.1168585646
 20
502.6961197406
 30
0.0
 10
127.1654508182
 20
502.7882540989
 30
0.0
  0
SPLINE
  5
769
100
AcDbEntity
  8
0
100
AcDbSpline
 62
7
  6
CONTINUOUS
 70
0
 71
3
 72
9
 73
5
 74
0
 42
0.0000001
 43
0.0000001
 44
0.0000000001
 40
0.0
 40
0.0
 40
0.0
 40
0.0
 40
0.5
 40
1.0
 40
1.0
 40
1.0
 40
1.0
 10
173.2032816665
 20
503.2265524945
 30
0.0
 10
173.2032816665
 20
502.6762087407
 30
0.0
 10
173.1931216665
 20
501.5755524945
 30
0.0
 10
173.1829616665
 20
500.4748962482
 30
0.0
 10
173.1829616665
 20
499.9245524945
 30
0.0
  0
SPLINE
  5
76A
100
AcDbEntity
  8
0
100
AcDbSpline
 62
7
  6
CONTINUOUS
 70
0
 71
3
 72
9
 73
5
 74
0
 42
0.0000001
 43
0.0000001
 44
0.0000000001
 40
0.0
 40
0.0
 40
0.0
 40
0.0
 40
0.5
 40
1.0
 40
1.0
 40
1.0
 40
1.0
 10
215.0116816665
 20
503.2265524945
 30
0.0
 10
215.0116816665
 20
502.6762087407
 30
0.0
 10
215.0218416665
 20
501.5755524945
 30
0.0
 10
215.0320016665
 20
500.4748962482
 30
0.0
 10
215.0320016665
 20
499.9245524945
 30
0.0
  0
SPLINE
  5
76B
100
AcDbEntity
  8
0
100
AcDbSpline
 62
7
  6
CONTINUOUS
 70
0
 71
3
 72
11
 73
7
 74
0
 42
0.0000001
 43
0.0000001
 44
0.0000000001
 40
0.0
 40
0.0
 40
0.0
 40
0.0
 40
0.3144278112
 40
0.5946541966
 40
0.8215538984
 40
1.0
 40
1.0
 40
1.0
 40
1.0
 10
215.0320028188
 20
499.9245524945
 30
0.0
 10
215.4863847051
 20
499.6352844981
 30
0.0
 10
216.3593645356
 20
499.108731141
 30
0.0
 10
217.4879330574
 20
498.2642753348
 30
0.0
 10
218.316538141
 20
497.415811773
 30
0.0
 10
218.5676816665
 20
496.7250480125
 30
0.0
 10
218.5676816665
 20
496.4193524945
 30
0.0
  0
SPLINE
  5
76C
100
AcDbEntity
  8
0
100
AcDbSpline
 62
7
  6
CONTINUOUS
 70
0
 71
3
 72
10
 73
6
 74
0
 42
0.0000001
 43
0.0000001
 44
0.0000000001
 40
0.0
 40
0.0
 40
0.0
 40
0.0
 40
0.3079577749
 40
0.6409591486
 40
1.0
 40
1.0
 40
1.0
 40
1.0
 10
216.5864816665
 20
496.4193524945
 30
0.0
 10
216.5864816665
 20
496.8189260916
 30
0.0
 10
216.4207490141
 20
497.65225138
 30
0.0
 10
215.8311831892
 20
498.8182647712
 30
0.0
 10
215.2947390243
 20
499.539855368
 30
0.0
 10
215.0320077606
 20
499.9245524945
 30
0.0
  0
SPLINE
  5
76D
100
AcDbEntity
  8
0
100
AcDbSpline
 62
7
  6
CONTINUOUS
 70
0
 71
3
 72
11
 73
7
 74
0
 42
0.0000001
 43
0.0000001
 44
0.0000000001
 40
0.0
 40
0.0
 40
0.0
 40
0.0
 40
0.1794572439
 40
0.4066077714
 40
0.6862550441
 40
1.0
 40
1.0
 40
1.0
 40
1.0
 10
169.6472816665
 20
496.4193524945
 30
0.0
 10
169.6472816665
 20
496.7267733144
 30
0.0
 10
169.9006881516
 20
497.4194740144
 30
0.0
 10
170.7310321887
 20
498.2674508103
 30
0.0
 10
171.8584770218
 20
499.110511439
 30
0.0
 10
172.7295755785
 20
499.6359191756
 30
0.0
 10
173.1829605142
 20
499.9245524945
 30
0.0
  0
SPLINE
  5
76E
100
AcDbEntity
  8
0
100
AcDbSpline
 62
7
  6
CONTINUOUS
 70
0
 71
3
 72
10
 73
6
 74
0
 42
0.0000001
 43
0.0000001
 44
0.0000000001
 40
0.0
 40
0.0
 40
0.0
 40
0.0
 40
0.3590318868
 40
0.6920340981
 40
1.0
 40
1.0
 40
1.0
 40
1.0
 10
173.1829555723
 20
499.9245524945
 30
0.0
 10
172.920230888
 20
499.5398650018
 30
0.0
 10
172.3837933143
 20
498.8182828829
 30
0.0
 10
171.7942211758
 20
497.6522734288
 30
0.0
 10
171.6284816665
 20
496.8189366067
 30
0.0
 10
171.6284816665
 20
496.4193524945
 30
0.0
  0
LINE
  5
76F
100
AcDbEntity
  8
0
100
AcDbLine
 62
7
  6
CONTINUOUS
 10
215.0320016665
 20
499.9245524945
 11
215.0624816665
 21
440.3869524945
  0
LINE
  5
770
100
AcDbEntity
  8
0
100
AcDbLine
 62
7
  6
CONTINUOUS
 10
173.1524816665
 20
440.3869524945
 11
173.1829616665
 21
499.9245524945
  0
SPLINE
  5
771
100
AcDbEntity
  8
0
100
AcDbSpline
 62
7
  6
CONTINUOUS
 70
0
 71
3
 72
9
 73
5
 74
0
 42
0.0000001
 43
0.0000001
 44
0.0000000001
 40
0.0
 40
0.0
 40
0.0
 40
0.0
 40
0.5
 40
1.0
 40
1.0
 40
1.0
 40
1.0
 10
487.2742816665
 20
503.2265524945
 30
0.0
 10
487.2742816665
 20
502.6762087407
 30
0.0
 10
487.2641216665
 20
501.5755524945
 30
0.0
 10
487.2539616665
 20
500.4748962482
 30
0.0
 10
487.2539616665
 20
499.9245524945
 30
0.0
  0
SPLINE
  5
772
100
AcDbEntity
  8
0
100
AcDbSpline
 62
7
  6
CONTINUOUS
 70
0
 71
3
 72
9
 73
5
 74
0
 42
0.0000001
 43
0.0000001
 44
0.0000000001
 40
0.0
 40
0.0
 40
0.0
 40
0.0
 40
0.5
 40
1.0
 40
1.0
 40
1.0
 40
1.0
 10
529.0826816665
 20
503.2265524945
 30
0.0
 10
529.0826816665
 20
502.6762087407
 30
0.0
 10
529.0928416665
 20
501.5755524945
 30
0.0
 10
529.1030016665
 20
500.4748962482
 30
0.0
 10
529.1030016665
 20
499.9245524945
 30
0.0
  0
SPLINE
  5
773
100
AcDbEntity
  8
0
100
AcDbSpline
 62
7
  6
CONTINUOUS
 70
0
 71
3
 72
11
 73
7
 74
0
 42
0.0000001
 43
0.0000001
 44
0.0000000001
 40
0.0
 40
0.0
 40
0.0
 40
0.0
 40
0.3144278112
 40
0.5946541966
 40
0.8215538984
 40
1.0
 40
1.0
 40
1.0
 40
1.0
 10
529.1030028188
 20
499.9245524945
 30
0.0
 10
529.5573847051
 20
499.6352844981
 30
0.0
 10
530.4303645356
 20
499.108731141
 30
0.0
 10
531.5589330574
 20
498.2642753348
 30
0.0
 10
532.387538141
 20
497.415811773
 30
0.0
 10
532.6386816665
 20
496.7250480125
 30
0.0
 10
532.6386816665
 20
496.4193524945
 30
0.0
  0
SPLINE
  5
774
100
AcDbEntity
  8
0
100
AcDbSpline
 62
7
  6
CONTINUOUS
 70
0
 71
3
 72
10
 73
6
 74
0
 42
0.0000001
 43
0.0000001
 44
0.0000000001
 40
0.0
 40
0.0
 40
0.0
 40
0.0
 40
0.3079577749
 40
0.6409591486
 40
1.0
 40
1.0
 40
1.0
 40
1.0
 10
530.6574816665
 20
496.4193524945
 30
0.0
 10
530.6574816665
 20
496.8189260916
 30
0.0
 10
530.4917490141
 20
497.65225138
 30
0.0
 10
529.9021831892
 20
498.8182647712
 30
0.0
 10
529.3657390243
 20
499.539855368
 30
0.0
 10
529.1030077606
 20
499.9245524945
 30
0.0
  0
SPLINE
  5
775
100
AcDbEntity
  8
0
100
AcDbSpline
 62
7
  6
CONTINUOUS
 70
0
 71
3
 72
11
 73
7
 74
0
 42
0.0000001
 43
0.0000001
 44
0.0000000001
 40
0.0
 40
0.0
 40
0.0
 40
0.0
 40
0.1794572439
 40
0.4066077714
 40
0.6862550441
 40
1.0
 40
1.0
 40
1.0
 40
1.0
 10
483.7182816665
 20
496.4193524945
 30
0.0
 10
483.7182816665
 20
496.7267733144
 30
0.0
 10
483.9716881516
 20
497.4194740144
 30
0.0
 10
484.8020321887
 20
498.2674508104
 30
0.0
 10
485.9294770218
 20
499.110511439
 30
0.0
 10
486.8005755785
 20
499.6359191756
 30
0.0
 10
487.2539605142
 20
499.9245524945
 30
0.0
  0
SPLINE
  5
776
100
AcDbEntity
  8
0
100
AcDbSpline
 62
7
  6
CONTINUOUS
 70
0
 71
3
 72
10
 73
6
 74
0
 42
0.0000001
 43
0.0000001
 44
0.0000000001
 40
0.0
 40
0.0
 40
0.0
 40
0.0
 40
0.3590318868
 40
0.6920340981
 40
1.0
 40
1.0
 40
1.0
 40
1.0
 10
487.2539555723
 20
499.9245524945
 30
0.0
 10
486.991230888
 20
499.5398650018
 30
0.0
 10
486.4547933143
 20
498.8182828829
 30
0.0
 10
485.8652211758
 20
497.6522734288
 30
0.0
 10
485.6994816665
 20
496.8189366067
 30
0.0
 10
485.6994816665
 20
496.4193524945
 30
0.0
  0
LINE
  5
777
100
AcDbEntity
  8
0
100
AcDbLine
 62
7
  6
CONTINUOUS
 10
529.1030016665
 20
499.9245524945
 11
529.1334816665
 21
440.3869524945
  0
LINE
  5
778
100
AcDbEntity
  8
0
100
AcDbLine
 62
7
  6
CONTINUOUS
 10
487.2234816665
 20
440.3869524945
 11
487.2539616665
 21
499.9245524945
  0
ENDSEC
  0
SECTION
  2
OBJECTS
  0
DICTIONARY
  5
C
100
AcDbDictionary
280
0
281
1
  3
ACAD_GROUP
350
D
  3
ACAD_MLINESTYLE
350
17
  3
ACAD_LAYOUT
350
1A
  3
ACAD_PLOTSETTINGS
350
19
  3
ACAD_PLOTSTYLENAME
350
E
  0
DICTIONARY
  5
D
102
{ACAD_REACTORS
330
C
102
}
100
AcDbDictionary
280
0
281
1
  0
ACDBDICTIONARYWDFLT
  5
E
102
{ACAD_REACTORS
330
C
102
}
100
AcDbDictionary
281
1
  3
Normal
350
F
100
AcDbDictionaryWithDefault
340
F
  0
DICTIONARY
  5
17
102
{ACAD_REACTORS
330
C
102
}
100
AcDbDictionary
280
0
281
1
  3
Standard
350
18
  0
DICTIONARY
  5
19
102
{ACAD_REACTORS
330
C
102
}
100
AcDbDictionary
281
1
  0
DICTIONARY
  5
1A
102
{ACAD_REACTORS
330
C
102
}
100
AcDbDictionary
281
1
  3
Model
350
779
  3
Layout1
350
77A
  0
ACDBPLACEHOLDER
  5
F
102
{ACAD_REACTORS
330
E
102
}
  0
MLINESTYLE
  5
18
102
{ACAD_REACTORS
330
17
102
}
100
AcDbMlineStyle
  2
STANDARD
 70
0
  3

 62
256
 51
90.0
 52
90.0
 71
2
 49
0.5
 62
256
  6
BYLAYER
 49
-0.5
 62
256
  6
BYLAYER
  0
LAYOUT
  5
779
102
{ACAD_REACTORS
330
1A
102
}
100
AcDbPlotSettings
  1

  2
none_device
  4

  6

 40
0.0
 41
0.0
 42
0.0
 43
0.0
 44
210.0
 45
297.0
 46
0.0
 47
0.0
 48
0.0
 49
0.0
140
0.0
141
0.0
142
1.0
143
1.0
 70
1024
 72
1
 73
0
 74
0
  7

 75
0
147
1.0
148
0.0
149
0.0
100
AcDbLayout
  1
Model
 70
0
 71
0
 10
0.0
 20
0.0
 11
210.0
 21
297.0
 12
0.0
 22
0.0
 32
0.0
 14
0.0
 24
0.0
 34
0.0
 15
0.0
 25
0.0
 35
0.0
146
0.0
 13
0.0
 23
0.0
 33
0.0
 16
1.0
 26
0.0
 36
0.0
 17
0.0
 27
1.0
 37
0.0
 76
0
330
210
345
0
346
0
  0
LAYOUT
  5
77A
102
{ACAD_REACTORS
330
1A
102
}
100
AcDbPlotSettings
  1

  2
none_device
  4

  6

 40
0.0
 41
0.0
 42
0.0
 43
0.0
 44
210.0
 45
297.0
 46
0.0
 47
0.0
 48
0.0
 49
0.0
140
0.0
141
0.0
142
1.0
143
1.0
 70
0
 72
1
 73
0
 74
0
  7

 75
0
147
1.0
148
0.0
149
0.0
100
AcDbLayout
  1
Layout1
 70
0
 71
1
 10
0.0
 20
0.0
 11
210.0
 21
297.0
 12
0.0
 22
0.0
 32
0.0
 14
0.0
 24
0.0
 34
0.0
 15
0.0
 25
0.0
 35
0.0
146
0.0
 13
0.0
 23
0.0
 33
0.0
 16
1.0
 26
0.0
 36
0.0
 17
0.0
 27
1.0
 37
0.0
 76
0
330
211
345
0
346
0
  0
ENDSEC
  0
EOF
