999
DXF file: C:\Users\sesa63760\Dev\_Creo\CAD\MCADPD0003747_3D-CAD\drw0001_6.dxf
999
Pro/ENGINEER 2019471 by Parametric Technology Corporation
  0
SECTION
  2
HEADER
  9
$ACADVER
  1
AC1024
  9
$DWGCODEPAGE
  3
ANSI_1252
  9
$EXTMAX
 10
59.7751458869
 20
84.5391348973
 30
0.0
  9
$EXTMIN
 10
0.0
 20
0.0
 30
0.0
  9
$LIMMIN
 10
0.0
 20
0.0
  9
$LIMMAX
 10
59.7751458869
 20
84.5391348973
  9
$VIEWCTR
 10
29.8875729435
 20
42.2695674486
  9
$VIEWSIZE
 40
84.5391348973
  9
$CLAYER
  8
0
  9
$LTSCALE
 40
5.5106991637
  9
$CELTYPE
  6
BYLAYER
  9
$DIMSCALE
 40
1.0
  9
$DIMASZ
 40
0.7116088796
  9
$DIMEXO
 40
1.0
  9
$DIMDLI
 40
3.8073921494
  9
$DIMEXE
 40
1.0
  9
$DIMCEN
 40
0.9017507722
  9
$DIMLFAC
 40
1.0
  9
$DIMBLK
  1
_FILLED
  9
$DIMALT
 70
0
  9
$DIMALTF
 40
0.0393700787
  9
$DIMTXT
 40
0.9962524314
  9
$DIMTOL
 70
1
  9
$DIMLIM
 70
0
  9
$DIMTFAC
 40
1.0
  9
$DIMTP
 40
0.01
  9
$DIMTM
 40
0.01
  9
$DIMGAP
 40
0.625
  9
$DIMDSEP
 70
46
  9
$AUNITS
 70
0
  9
$PDMODE
 70
3
  9
$PDSIZE
 40
0.3125
  9
$HANDSEED
  5
5A1
  9
$TILEMODE
 70
1
  9
$MEASUREMENT
 70
1
  9
$INSUNITS
 70
4
  0
ENDSEC
  0
SECTION
  2
CLASSES
  0
CLASS
  1
ACDBDICTIONARYWDFLT
  2
AcDbDictionaryWithDefault
  3
AutoCAD 2000
 90
0
 91
1
280
0
281
0
  0
CLASS
  1
ACDBPLACEHOLDER
  2
AcDbPlaceHolder
  3
AutoCAD 2000
 90
0
 91
1
280
0
281
0
  0
CLASS
  1
LAYOUT
  2
AcDbLayout
  3
AutoCAD 2000
 90
0
 91
0
280
0
281
0
  0
ENDSEC
  0
SECTION
  2
TABLES
  0
TABLE
  2
VPORT
  5
8
100
AcDbSymbolTable
 70
2
  0
VPORT
  5
1F4
100
AcDbSymbolTableRecord
100
AcDbViewportTableRecord
  2
*ACTIVE
 70
0
 10
0.0
 20
0.0
 11
1.0
 21
1.0
 12
29.8875729435
 22
42.2695674486
 13
0.0
 23
0.0
 14
1.0
 24
1.0
 15
0.0
 25
0.0
 16
0.0
 26
0.0
 36
1.0
 17
0.0
 27
0.0
 37
0.0
 40
84.5391348973
 41
0.7070707071
 42
50.0
 43
0.0
 44
0.0
 50
0.0
 51
0.0
 71
0
 72
100
 73
1
 74
1
 75
0
 76
0
 77
0
 78
0
  0
ENDTAB
  0
TABLE
  2
LTYPE
  5
5
100
AcDbSymbolTable
 70
6
  0
LTYPE
  5
14
100
AcDbSymbolTableRecord
100
AcDbLinetypeTableRecord
  2
BYBLOCK
 70
0
  3

 72
65
 73
0
 40
0.0
  0
LTYPE
  5
15
100
AcDbSymbolTableRecord
100
AcDbLinetypeTableRecord
  2
BYLAYER
 70
0
  3

 72
65
 73
0
 40
0.0
  0
LTYPE
  5
16
100
AcDbSymbolTableRecord
100
AcDbLinetypeTableRecord
  2
CONTINUOUS
 70
64
  3
Solid line
 72
65
 73
0
 40
0.0
  0
LTYPE
  5
1F5
100
AcDbSymbolTableRecord
100
AcDbLinetypeTableRecord
  2
CENTER
 70
64
  3
____ _ ____ _ ____ _ ____ _ ____ _ ____ _ ____
 72
65
 73
4
 40
0.6
 49
0.375
 74
0
 49
-0.075
 74
0
 49
0.075
 74
0
 49
-0.075
 74
0
  0
LTYPE
  5
1F6
100
AcDbSymbolTableRecord
100
AcDbLinetypeTableRecord
  2
HIDDEN
 70
64
  3
- - - - - - - - - - - - - - - - - - - -
 72
65
 73
2
 40
0.2
 49
0.1
 74
0
 49
-0.1
 74
0
  0
LTYPE
  5
1F7
100
AcDbSymbolTableRecord
100
AcDbLinetypeTableRecord
  2
PHANTOM
 70
64
  3
_____ _ _ _____ _ _ _____ _ _ _____
 72
65
 73
6
 40
0.8
 49
0.45
 74
0
 49
-0.05
 74
0
 49
0.1
 74
0
 49
-0.05
 74
0
 49
0.1
 74
0
 49
-0.05
 74
0
  0
LTYPE
  5
1F8
100
AcDbSymbolTableRecord
100
AcDbLinetypeTableRecord
  2
DOT
 70
64
  3
. . . . . . . . . . . . . . . . . . . .
 72
65
 73
2
 40
0.2
 49
0.1
 74
0
 49
-0.1
 74
0
  0
LTYPE
  5
1F9
100
AcDbSymbolTableRecord
100
AcDbLinetypeTableRecord
  2
DASHED
 70
64
  3
- - - - - - - - - - - - - - - - - - - -
 72
65
 73
2
 40
0.2
 49
0.1
 74
0
 49
-0.1
 74
0
  0
ENDTAB
  0
TABLE
  2
LAYER
  5
2
100
AcDbSymbolTable
 70
36
  0
LAYER
  5
10
100
AcDbSymbolTableRecord
100
AcDbLayerTableRecord
  2
0
 70
0
 62
7
  6
CONTINUOUS
370
-3
390
F
  0
LAYER
  5
1FA
100
AcDbSymbolTableRecord
100
AcDbLayerTableRecord
  2
DEFAULT_1
 70
0
 62
7
  6
CENTER
370
-3
390
F
  0
LAYER
  5
1FB
100
AcDbSymbolTableRecord
100
AcDbLayerTableRecord
  2
DEFAULT_2
 70
0
 62
7
  6
HIDDEN
370
-3
390
F
  0
LAYER
  5
1FC
100
AcDbSymbolTableRecord
100
AcDbLayerTableRecord
  2
DEFAULT_3
 70
0
 62
7
  6
PHANTOM
370
-3
390
F
  0
LAYER
  5
1FD
100
AcDbSymbolTableRecord
100
AcDbLayerTableRecord
  2
00_COMPONENTS
 70
0
 62
7
  6
CONTINUOUS
370
-3
390
F
  0
LAYER
  5
1FE
100
AcDbSymbolTableRecord
100
AcDbLayerTableRecord
  2
01_1_DEFAULT_DATUMS
 70
0
 62
7
  6
CONTINUOUS
370
-3
390
F
  0
LAYER
  5
1FF
100
AcDbSymbolTableRecord
100
AcDbLayerTableRecord
  2
01_PLANES
 70
0
 62
7
  6
CONTINUOUS
370
-3
390
F
  0
LAYER
  5
200
100
AcDbSymbolTableRecord
100
AcDbLayerTableRecord
  2
02_COORD_SYS
 70
0
 62
7
  6
CONTINUOUS
370
-3
390
F
  0
LAYER
  5
201
100
AcDbSymbolTableRecord
100
AcDbLayerTableRecord
  2
03_AXES
 70
0
 62
7
  6
CONTINUOUS
370
-3
390
F
  0
LAYER
  5
202
100
AcDbSymbolTableRecord
100
AcDbLayerTableRecord
  2
04_POINTS
 70
0
 62
7
  6
CONTINUOUS
370
-3
390
F
  0
LAYER
  5
203
100
AcDbSymbolTableRecord
100
AcDbLayerTableRecord
  2
05_CURVES
 70
0
 62
7
  6
CONTINUOUS
370
-3
390
F
  0
LAYER
  5
204
100
AcDbSymbolTableRecord
100
AcDbLayerTableRecord
  2
06_SURFS
 70
0
 62
7
  6
CONTINUOUS
370
-3
390
F
  0
LAYER
  5
205
100
AcDbSymbolTableRecord
100
AcDbLayerTableRecord
  2
07_COSMETICS
 70
0
 62
7
  6
CONTINUOUS
370
-3
390
F
  0
LAYER
  5
206
100
AcDbSymbolTableRecord
100
AcDbLayerTableRecord
  2
10_NOTES
 70
0
 62
7
  6
CONTINUOUS
370
-3
390
F
  0
LAYER
  5
207
100
AcDbSymbolTableRecord
100
AcDbLayerTableRecord
  2
11_NOTES_PUB
 70
0
 62
7
  6
CONTINUOUS
370
-3
390
F
  0
LAYER
  5
208
100
AcDbSymbolTableRecord
100
AcDbLayerTableRecord
  2
13_REF_GTOL
 70
0
 62
7
  6
CONTINUOUS
370
-3
390
F
  0
LAYER
  5
209
100
AcDbSymbolTableRecord
100
AcDbLayerTableRecord
  2
16_MISC
 70
0
 62
7
  6
CONTINUOUS
370
-3
390
F
  0
LAYER
  5
20A
100
AcDbSymbolTableRecord
100
AcDbLayerTableRecord
  2
17_NO_PRINT
 70
0
 62
7
  6
CONTINUOUS
370
-3
390
F
  0
LAYER
  5
20B
100
AcDbSymbolTableRecord
100
AcDbLayerTableRecord
  2
18_DATUM_CAMS_JOINTS
 70
0
 62
7
  6
CONTINUOUS
370
-3
390
F
  0
LAYER
  5
20C
100
AcDbSymbolTableRecord
100
AcDbLayerTableRecord
  2
19_DATUM_FUNCTIONAL
 70
0
 62
7
  6
CONTINUOUS
370
-3
390
F
  0
LAYER
  5
20D
100
AcDbSymbolTableRecord
100
AcDbLayerTableRecord
  2
20_DATUM_KINEMATIC_SCHEME
 70
0
 62
7
  6
CONTINUOUS
370
-3
390
F
  0
ENDTAB
  0
TABLE
  2
STYLE
  5
3
100
AcDbSymbolTable
 70
1
  0
STYLE
  5
11
100
AcDbSymbolTableRecord
100
AcDbTextStyleTableRecord
  2
STANDARD
 70
0
 40
0.0
 41
1.0
 50
0.0
 71
0
 42
0.2
  3
ARIAL.TTF
  4

  0
STYLE
  5
20E
100
AcDbSymbolTableRecord
100
AcDbTextStyleTableRecord
  2
TEXTSTYLE_1
 70
0
 40
0.0
 41
0.8
 50
0.0
 71
0
 42
0.2
  3
gdt
  4

  0
ENDTAB
  0
TABLE
  2
VIEW
  5
6
100
AcDbSymbolTable
 70
0
  0
ENDTAB
  0
TABLE
  2
UCS
  5
7
100
AcDbSymbolTable
 70
0
  0
ENDTAB
  0
TABLE
  2
APPID
  5
9
100
AcDbSymbolTable
 70
1
  0
APPID
  5
20F
100
AcDbSymbolTableRecord
100
AcDbRegAppTableRecord
  2
ACAD
 70
0
  0
ENDTAB
  0
TABLE
  2
BLOCK_RECORD
  5
1
100
AcDbSymbolTable
 70
0
  0
BLOCK_RECORD
  5
210
100
AcDbSymbolTableRecord
100
AcDbBlockTableRecord
  2
*Model_Space
  0
BLOCK_RECORD
  5
211
100
AcDbSymbolTableRecord
100
AcDbBlockTableRecord
  2
*Paper_Space
  0
BLOCK_RECORD
  5
212
100
AcDbSymbolTableRecord
100
AcDbBlockTableRecord
  2
_FILLED
  0
ENDTAB
  0
TABLE
  2
DIMSTYLE
  5
A
100
AcDbSymbolTable
 70
1
100
AcDbDimStyleTable
 71
0
  0
DIMSTYLE
105
213
100
AcDbSymbolTableRecord
100
AcDbDimStyleTableRecord
  2
STANDARD
 70
0
  3

  4

 40
1.0
 41
0.7116088796
 42
1.0
 43
0.38
 44
1.0
 45
0.0
 46
0.0
 47
0.01
 48
0.01
140
0.9962524314
141
0.09
142
0.0
143
25.4
144
1.0
145
0.0
146
1.0
147
0.625
 71
1
 72
0
 73
0
 74
0
 75
0
 76
0
 77
1
 78
8
 79
2
170
0
171
1
172
0
173
0
174
0
175
0
176
0
177
0
178
0
270
2
179
2
271
2
272
2
273
2
274
2
275
0
280
0
281
0
282
0
283
1
284
8
285
0
286
0
287
3
288
0
340
11
278
46
341
212
342
212
343
212
344
212
  0
ENDTAB
  0
ENDSEC
  0
SECTION
  2
BLOCKS
  0
BLOCK
  5
20
100
AcDbEntity
  8
0
100
AcDbBlockBegin
  2
*Model_Space
 70
0
 10
0.0
 20
0.0
 30
0.0
  3
*Model_Space
  1

  0
ENDBLK
  5
21
100
AcDbEntity
  8
0
100
AcDbBlockEnd
  0
BLOCK
  5
1C
100
AcDbEntity
  8
0
100
AcDbBlockBegin
  2
*Paper_Space
 70
0
 10
0.0
 20
0.0
 30
0.0
  3
*Paper_Space
  1

  0
ENDBLK
  5
1D
100
AcDbEntity
  8
0
100
AcDbBlockEnd
  0
BLOCK
  5
214
100
AcDbEntity
  8
0
100
AcDbBlockBegin
  2
_FILLED
 70
64
 10
0.0
 20
0.0
  3
_FILLED
  1

  0
SOLID
  5
215
100
AcDbEntity
  8
0
  6
BYBLOCK
 62
0
100
AcDbTrace
 10
0.0
 20
0.0
 11
-1.0
 21
0.25
 12
-1.0
 22
-0.25
 13
-1.0
 23
-0.25
  0
ENDBLK
  5
216
100
AcDbEntity
  8
0
  6
BYBLOCK
 62
0
100
AcDbBlockEnd
  0
ENDSEC
  0
SECTION
  2
ENTITIES
  0
LINE
  5
217
100
AcDbEntity
  8
0
100
AcDbLine
 62
7
  6
BYLAYER
 10
8.50494831
 20
6.9845674487
 11
52.30494831
 21
6.9845674487
  0
LINE
  5
218
100
AcDbEntity
  8
0
100
AcDbLine
 62
7
  6
BYLAYER
 10
39.5208537541
 20
7.9845674487
 11
34.15494831
 21
7.9845674487
  0
LINE
  5
219
100
AcDbEntity
  8
0
100
AcDbLine
 62
7
  6
BYLAYER
 10
21.289042866
 20
7.9845674487
 11
26.65494831
 21
7.9845674487
  0
LINE
  5
21A
100
AcDbEntity
  8
0
100
AcDbLine
 62
7
  6
BYLAYER
 10
28.15494831
 20
8.9845674487
 11
32.65494831
 21
8.9845674487
  0
LINE
  5
21B
100
AcDbEntity
  8
0
100
AcDbLine
 62
7
  6
BYLAYER
 10
9.3867651935
 20
69.1047993641
 11
9.0815548152
 21
68.7045674487
  0
LINE
  5
21C
100
AcDbEntity
  8
0
100
AcDbLine
 62
7
  6
BYLAYER
 10
28.15494831
 20
9.4850950755
 11
32.65494831
 21
9.4850950755
  0
LINE
  5
21D
100
AcDbEntity
  8
0
100
AcDbLine
 62
7
  6
BYLAYER
 10
9.50494831
 20
9.5025488111
 11
26.65494831
 21
9.5025488111
  0
LINE
  5
21E
100
AcDbEntity
  8
0
100
AcDbLine
 62
7
  6
BYLAYER
 10
34.15494831
 20
9.5025488111
 11
51.30494831
 21
9.5025488111
  0
LINE
  5
21F
100
AcDbEntity
  8
0
100
AcDbLine
 62
7
  6
BYLAYER
 10
34.15494831
 20
9.7845674487
 11
32.65494831
 21
9.7845674487
  0
LINE
  5
220
100
AcDbEntity
  8
0
100
AcDbLine
 62
7
  6
BYLAYER
 10
28.15494831
 20
9.7845674487
 11
26.65494831
 21
9.7845674487
  0
LINE
  5
221
100
AcDbEntity
  8
0
100
AcDbLine
 62
7
  6
BYLAYER
 10
8.00494831
 20
9.7845674487
 11
9.50494831
 21
9.7845674487
  0
LINE
  5
222
100
AcDbEntity
  8
0
100
AcDbLine
 62
7
  6
BYLAYER
 10
51.30494831
 20
9.7845674487
 11
52.80494831
 21
9.7845674487
  0
LINE
  5
223
100
AcDbEntity
  8
0
100
AcDbLine
 62
7
  6
BYLAYER
 10
9.00494831
 20
9.8845674487
 11
8.00494831
 21
9.8845674487
  0
LINE
  5
224
100
AcDbEntity
  8
0
100
AcDbLine
 62
7
  6
BYLAYER
 10
9.50494831
 20
9.8845674487
 11
26.65494831
 21
9.8845674487
  0
LINE
  5
225
100
AcDbEntity
  8
0
100
AcDbLine
 62
7
  6
BYLAYER
 10
28.15494831
 20
9.8845674487
 11
32.65494831
 21
9.8845674487
  0
LINE
  5
226
100
AcDbEntity
  8
0
100
AcDbLine
 62
7
  6
BYLAYER
 10
34.15494831
 20
9.8845674487
 11
51.30494831
 21
9.8845674487
  0
LINE
  5
227
100
AcDbEntity
  8
0
100
AcDbLine
 62
7
  6
BYLAYER
 10
51.80494831
 20
9.8845674487
 11
52.80494831
 21
9.8845674487
  0
LINE
  5
228
100
AcDbEntity
  8
0
100
AcDbLine
 62
7
  6
BYLAYER
 10
52.80494831
 20
10.0845674487
 11
8.00494831
 21
10.0845674487
  0
LINE
  5
229
100
AcDbEntity
  8
0
100
AcDbLine
 62
7
  6
BYLAYER
 10
8.50494831
 20
10.5845674487
 11
52.30494831
 21
10.5845674487
  0
LINE
  5
22A
100
AcDbEntity
  8
0
100
AcDbLine
 62
7
  6
BYLAYER
 10
8.8717630447
 20
70.3351371915
 11
8.3874752637
 21
69.0045674487
  0
LINE
  5
22B
100
AcDbEntity
  8
0
100
AcDbLine
 62
7
  6
BYLAYER
 10
8.00494831
 20
7.4845674487
 11
8.00494831
 21
68.5108807345
  0
LINE
  5
22C
100
AcDbEntity
  8
0
100
AcDbLine
 62
7
  6
BYLAYER
 10
8.20494831
 20
65.1045674487
 11
8.20494831
 21
52.5045674487
  0
LINE
  5
22D
100
AcDbEntity
  8
0
100
AcDbLine
 62
7
  6
BYLAYER
 10
8.50494831
 20
68.5108807345
 11
8.50494831
 21
66.8419148876
  0
LINE
  5
22E
100
AcDbEntity
  8
0
100
AcDbLine
 62
7
  6
BYLAYER
 10
8.50494831
 20
66.1338934488
 11
8.50494831
 21
65.1045674487
  0
LINE
  5
22F
100
AcDbEntity
  8
0
100
AcDbLine
 62
7
  6
BYLAYER
 10
8.50494831
 20
52.5045674487
 11
8.50494831
 21
51.992966465
  0
LINE
  5
230
100
AcDbEntity
  8
0
100
AcDbLine
 62
7
  6
BYLAYER
 10
8.50494831
 20
50.9156742398
 11
8.50494831
 21
10.5845674487
  0
LINE
  5
231
100
AcDbEntity
  8
0
100
AcDbLine
 62
7
  6
BYLAYER
 10
8.6770874612
 20
68.7045674487
 11
8.6770874612
 21
69.0045674487
  0
LINE
  5
232
100
AcDbEntity
  8
0
100
AcDbLine
 62
7
  6
BYLAYER
 10
8.7089499113
 20
54.2045674487
 11
8.7089499113
 21
61.2045674487
  0
LINE
  5
233
100
AcDbEntity
  8
0
100
AcDbLine
 62
7
  6
BYLAYER
 10
8.9089499113
 20
52.7045674487
 11
8.9089499113
 21
65.7460071098
  0
LINE
  5
234
100
AcDbEntity
  8
0
100
AcDbLine
 62
7
  6
BYLAYER
 10
9.00494831
 20
9.8845674487
 11
9.00494831
 21
10.0845674487
  0
LINE
  5
235
100
AcDbEntity
  8
0
100
AcDbLine
 62
7
  6
BYLAYER
 10
9.03494831
 20
69.0045674487
 11
9.03494831
 21
69.3437671678
  0
LINE
  5
236
100
AcDbEntity
  8
0
100
AcDbLine
 62
7
  6
BYLAYER
 10
9.20494831
 20
52.1132725038
 11
9.20494831
 21
51.9435566627
  0
LINE
  5
237
100
AcDbEntity
  8
0
100
AcDbLine
 62
7
  6
BYLAYER
 10
9.20494831
 20
66.9883721125
 11
9.20494831
 21
68.1063841066
  0
LINE
  5
238
100
AcDbEntity
  8
0
100
AcDbLine
 62
7
  6
BYLAYER
 10
9.45494831
 20
67.0192424244
 11
9.45494831
 21
68.0045674487
  0
LINE
  5
239
100
AcDbEntity
  8
0
100
AcDbLine
 62
7
  6
BYLAYER
 10
9.50494831
 20
6.9845674487
 11
9.50494831
 21
9.8845674487
  0
LINE
  5
23A
100
AcDbEntity
  8
0
100
AcDbLine
 62
7
  6
BYLAYER
 10
9.70494831
 20
59.5579703227
 11
9.70494831
 21
54.3434793274
  0
LINE
  5
23B
100
AcDbEntity
  8
0
100
AcDbLine
 62
7
  6
BYLAYER
 10
9.83494831
 20
70.9664504265
 11
9.83494831
 21
71.0095674487
  0
LINE
  5
23C
100
AcDbEntity
  8
0
100
AcDbLine
 62
7
  6
BYLAYER
 10
9.92994831
 20
58.6819504273
 11
9.92994831
 21
54.6845674487
  0
LINE
  5
23D
100
AcDbEntity
  8
0
100
AcDbLine
 62
7
  6
BYLAYER
 10
9.95494831
 20
54.7845674487
 11
9.95494831
 21
56.4421589584
  0
LINE
  5
23E
100
AcDbEntity
  8
0
100
AcDbLine
 62
7
  6
BYLAYER
 10
10.3359827928
 20
56.6213504571
 11
10.3359827928
 21
54.9637589474
  0
LINE
  5
23F
100
AcDbEntity
  8
0
100
AcDbLine
 62
7
  6
BYLAYER
 10
11.00494831
 20
30.0845674487
 11
11.00494831
 21
50.5545674487
  0
LINE
  5
240
100
AcDbEntity
  8
0
100
AcDbLine
 62
7
  6
BYLAYER
 10
11.07994831
 20
32.0845674487
 11
11.07994831
 21
31.4845674487
  0
LINE
  5
241
100
AcDbEntity
  8
0
100
AcDbLine
 62
7
  6
BYLAYER
 10
11.15494831
 20
31.4845674487
 11
11.15494831
 21
31.5845674487
  0
LINE
  5
242
100
AcDbEntity
  8
0
100
AcDbLine
 62
7
  6
BYLAYER
 10
11.15494831
 20
32.1545674487
 11
11.15494831
 21
35.5545674487
  0
LINE
  5
243
100
AcDbEntity
  8
0
100
AcDbLine
 62
7
  6
BYLAYER
 10
11.15494831
 20
36.4543108916
 11
11.15494831
 21
50.5545674487
  0
LINE
  5
244
100
AcDbEntity
  8
0
100
AcDbLine
 62
7
  6
BYLAYER
 10
10.80494831
 20
57.9845674487
 11
10.8844203788
 21
58.892937351
  0
LINE
  5
245
100
AcDbEntity
  8
0
100
AcDbLine
 62
7
  6
BYLAYER
 10
15.4116442896
 20
55.9335955003
 11
15.3192362243
 21
55.737098124
  0
LINE
  5
246
100
AcDbEntity
  8
0
100
AcDbLine
 62
7
  6
BYLAYER
 10
34.6317033539
 20
67.7583076737
 11
35.0650238673
 21
68.0077732438
  0
LINE
  5
247
100
AcDbEntity
  8
0
100
AcDbLine
 62
7
  6
BYLAYER
 10
9.95494831
 20
56.4421589584
 11
12.344993196
 21
57.5661404996
  0
LINE
  5
248
100
AcDbEntity
  8
0
100
AcDbLine
 62
7
  6
BYLAYER
 10
9.95494831
 20
54.7845674487
 11
13.2665993924
 21
56.3419585712
  0
LINE
  5
249
100
AcDbEntity
  8
0
100
AcDbLine
 62
7
  6
BYLAYER
 10
13.55494831
 20
31.1845674487
 11
13.25494831
 21
31.4845674487
  0
LINE
  5
24A
100
AcDbEntity
  8
0
100
AcDbLine
 62
7
  6
BYLAYER
 10
8.8343488202
 20
51.9010146958
 11
8.9196485651
 21
51.4083444678
  0
LINE
  5
24B
100
AcDbEntity
  8
0
100
AcDbLine
 62
7
  6
BYLAYER
 10
11.35494831
 20
31.5845674487
 11
11.35494831
 21
31.4845674487
  0
LINE
  5
24C
100
AcDbEntity
  8
0
100
AcDbLine
 62
7
  6
BYLAYER
 10
11.45494831
 20
68.9845674487
 11
11.45494831
 21
68.846147491
  0
LINE
  5
24D
100
AcDbEntity
  8
0
100
AcDbLine
 62
7
  6
BYLAYER
 10
12.0719180321
 20
67.4671815269
 11
12.0719180321
 21
69.0045674487
  0
LINE
  5
24E
100
AcDbEntity
  8
0
100
AcDbLine
 62
7
  6
BYLAYER
 10
12.15494831
 20
54.7845674487
 11
12.15494831
 21
55.491050217
  0
LINE
  5
24F
100
AcDbEntity
  8
0
100
AcDbLine
 62
7
  6
BYLAYER
 10
12.15494831
 20
57.6845674487
 11
12.15494831
 21
57.9845674487
  0
LINE
  5
250
100
AcDbEntity
  8
0
100
AcDbLine
 62
7
  6
BYLAYER
 10
12.20494831
 20
57.9045674487
 11
12.20494831
 21
58.5579703227
  0
LINE
  5
251
100
AcDbEntity
  8
0
100
AcDbLine
 62
7
  6
BYLAYER
 10
12.25494831
 20
35.8755437209
 11
12.25494831
 21
32.1545674487
  0
LINE
  5
252
100
AcDbEntity
  8
0
100
AcDbLine
 62
7
  6
BYLAYER
 10
12.40494831
 20
54.7845674487
 11
12.40494831
 21
54.6845674487
  0
LINE
  5
253
100
AcDbEntity
  8
0
100
AcDbLine
 62
7
  6
BYLAYER
 10
12.40494831
 20
31.6256384743
 11
12.40494831
 21
33.6101066717
  0
LINE
  5
254
100
AcDbEntity
  8
0
100
AcDbLine
 62
7
  6
BYLAYER
 10
13.0341149767
 20
33.9021561148
 11
13.0341149767
 21
31.9176879174
  0
LINE
  5
255
100
AcDbEntity
  8
0
100
AcDbLine
 62
7
  6
BYLAYER
 10
13.25494831
 20
34.0046635352
 11
13.25494831
 21
36.0974432668
  0
LINE
  5
256
100
AcDbEntity
  8
0
100
AcDbLine
 62
7
  6
BYLAYER
 10
13.55494831
 20
30.0845674487
 11
13.55494831
 21
31.1845674487
  0
LINE
  5
257
100
AcDbEntity
  8
0
100
AcDbLine
 62
7
  6
BYLAYER
 10
13.60494831
 20
30.0845674487
 11
13.60494831
 21
31.5845674487
  0
LINE
  5
258
100
AcDbEntity
  8
0
100
AcDbLine
 62
7
  6
BYLAYER
 10
13.80494831
 20
31.5745423229
 11
13.80494831
 21
30.0845674487
  0
LINE
  5
259
100
AcDbEntity
  8
0
100
AcDbLine
 62
7
  6
BYLAYER
 10
20.95494831
 20
56.4421589584
 11
23.344993196
 21
57.5661404996
  0
LINE
  5
25A
100
AcDbEntity
  8
0
100
AcDbLine
 62
7
  6
BYLAYER
 10
15.30494831
 20
32.1451780826
 11
15.3109415431
 21
32.138399767
  0
LINE
  5
25B
100
AcDbEntity
  8
0
100
AcDbLine
 62
7
  6
BYLAYER
 10
15.3103334322
 20
31.5889002292
 11
15.30494831
 21
31.5951780826
  0
LINE
  5
25C
100
AcDbEntity
  8
0
100
AcDbLine
 62
7
  6
BYLAYER
 10
14.9700675248
 20
32.5123183206
 11
14.8539671486
 21
32.7624351704
  0
LINE
  5
25D
100
AcDbEntity
  8
0
100
AcDbLine
 62
7
  6
BYLAYER
 10
8.6674124934
 20
66.921996519
 11
8.7533726267
 21
66.4294396216
  0
LINE
  5
25E
100
AcDbEntity
  8
0
100
AcDbLine
 62
7
  6
BYLAYER
 10
15.6787457371
 20
32.8341678886
 11
15.6525888042
 21
33.1331430004
  0
LINE
  5
25F
100
AcDbEntity
  8
0
100
AcDbLine
 62
7
  6
BYLAYER
 10
14.57494831
 20
35.4951780826
 11
14.57494831
 21
34.617387135
  0
LINE
  5
260
100
AcDbEntity
  8
0
100
AcDbLine
 62
7
  6
BYLAYER
 10
14.60494831
 20
31.5845674487
 11
14.60494831
 21
32.1845674487
  0
LINE
  5
261
100
AcDbEntity
  8
0
100
AcDbLine
 62
7
  6
BYLAYER
 10
15.30494831
 20
31.5951780826
 11
15.30494831
 21
31.6451780826
  0
LINE
  5
262
100
AcDbEntity
  8
0
100
AcDbLine
 62
7
  6
BYLAYER
 10
15.30494831
 20
32.1451780826
 11
15.30494831
 21
32.6951780826
  0
LINE
  5
263
100
AcDbEntity
  8
0
100
AcDbLine
 62
7
  6
BYLAYER
 10
15.30494831
 20
35.6545674487
 11
15.30494831
 21
35.9827154554
  0
LINE
  5
264
100
AcDbEntity
  8
0
100
AcDbLine
 62
7
  6
BYLAYER
 10
15.35494831
 20
35.1951780826
 11
15.35494831
 21
35.4951780826
  0
LINE
  5
265
100
AcDbEntity
  8
0
100
AcDbLine
 62
7
  6
BYLAYER
 10
15.40494831
 20
54.7845674487
 11
15.40494831
 21
54.6845674487
  0
LINE
  5
266
100
AcDbEntity
  8
0
100
AcDbLine
 62
7
  6
BYLAYER
 10
15.60494831
 20
58.5579703227
 11
15.60494831
 21
57.9045674487
  0
LINE
  5
267
100
AcDbEntity
  8
0
100
AcDbLine
 62
7
  6
BYLAYER
 10
15.6053371845
 20
31.9717370335
 11
15.6053371845
 21
31.8220447837
  0
LINE
  5
268
100
AcDbEntity
  8
0
100
AcDbLine
 62
7
  6
BYLAYER
 10
15.65494831
 20
54.7845674487
 11
15.65494831
 21
55.491050217
  0
LINE
  5
269
100
AcDbEntity
  8
0
100
AcDbLine
 62
7
  6
BYLAYER
 10
15.65494831
 20
57.6845674487
 11
15.65494831
 21
57.9845674487
  0
LINE
  5
26A
100
AcDbEntity
  8
0
100
AcDbLine
 62
7
  6
BYLAYER
 10
15.72994831
 20
32.9951780826
 11
15.72994831
 21
33.1690520875
  0
LINE
  5
26B
100
AcDbEntity
  8
0
100
AcDbLine
 62
7
  6
BYLAYER
 10
15.737978588
 20
69.0045674487
 11
15.737978588
 21
67.9496914637
  0
LINE
  5
26C
100
AcDbEntity
  8
0
100
AcDbLine
 62
7
  6
BYLAYER
 10
13.77994831
 20
35.4951780826
 11
13.8433954697
 21
36.2203824355
  0
LINE
  5
26D
100
AcDbEntity
  8
0
100
AcDbLine
 62
7
  6
BYLAYER
 10
14.9226602275
 20
34.7787896333
 11
15.0158147002
 21
35.5042035079
  0
LINE
  5
26E
100
AcDbEntity
  8
0
100
AcDbLine
 62
7
  6
BYLAYER
 10
40.5000214284
 20
72.9180366443
 11
40.1074231535
 21
72.5694785403
  0
LINE
  5
26F
100
AcDbEntity
  8
0
100
AcDbLine
 62
7
  6
BYLAYER
 10
20.95494831
 20
54.7845674487
 11
24.2665993924
 21
56.3419585712
  0
LINE
  5
270
100
AcDbEntity
  8
0
100
AcDbLine
 62
7
  6
BYLAYER
 10
15.310941743
 20
32.1384587959
 11
15.6036673485
 21
31.9688561414
  0
LINE
  5
271
100
AcDbEntity
  8
0
100
AcDbLine
 62
7
  6
BYLAYER
 10
19.2988936852
 20
31.9268907265
 11
19.0061481922
 21
32.0965163196
  0
LINE
  5
272
100
AcDbEntity
  8
0
100
AcDbLine
 62
7
  6
BYLAYER
 10
19.30494831
 20
31.9201780826
 11
19.2988940259
 21
31.926990855
  0
LINE
  5
273
100
AcDbEntity
  8
0
100
AcDbLine
 62
7
  6
BYLAYER
 10
9.484186537
 20
71.7806370961
 11
9.6384833825
 21
70.990562743
  0
LINE
  5
274
100
AcDbEntity
  8
0
100
AcDbLine
 62
7
  6
BYLAYER
 10
19.7805936903
 20
31.7709820588
 11
19.7097260838
 21
32.4452422953
  0
LINE
  5
275
100
AcDbEntity
  8
0
100
AcDbLine
 62
7
  6
BYLAYER
 10
19.4530341733
 20
34.887502684
 11
19.3891649153
 21
35.4951780826
  0
LINE
  5
276
100
AcDbEntity
  8
0
100
AcDbLine
 62
7
  6
BYLAYER
 10
17.00494831
 20
57.9845674487
 11
16.9254761425
 21
58.8929384805
  0
LINE
  5
277
100
AcDbEntity
  8
0
100
AcDbLine
 62
7
  6
BYLAYER
 10
16.95494831
 20
54.7845674487
 11
16.95494831
 21
54.8623387815
  0
LINE
  5
278
100
AcDbEntity
  8
0
100
AcDbLine
 62
7
  6
BYLAYER
 10
17.4739138273
 20
54.9637589474
 11
17.4739138273
 21
56.6213504571
  0
LINE
  5
279
100
AcDbEntity
  8
0
100
AcDbLine
 62
7
  6
BYLAYER
 10
17.85494831
 20
56.4421589584
 11
17.85494831
 21
54.7845674487
  0
LINE
  5
27A
100
AcDbEntity
  8
0
100
AcDbLine
 62
7
  6
BYLAYER
 10
17.90494831
 20
58.9711240364
 11
17.90494831
 21
58.6613997435
  0
LINE
  5
27B
100
AcDbEntity
  8
0
100
AcDbLine
 62
7
  6
BYLAYER
 10
18.07994831
 20
58.9119593304
 11
18.07994831
 21
54.6845674487
  0
LINE
  5
27C
100
AcDbEntity
  8
0
100
AcDbLine
 62
7
  6
BYLAYER
 10
18.10494831
 20
54.3434793274
 11
18.10494831
 21
59.5579703227
  0
LINE
  5
27D
100
AcDbEntity
  8
0
100
AcDbLine
 62
7
  6
BYLAYER
 10
18.87994831
 20
32.9951780826
 11
18.87994831
 21
33.1690520875
  0
LINE
  5
27E
100
AcDbEntity
  8
0
100
AcDbLine
 62
7
  6
BYLAYER
 10
18.9009467088
 20
67.0750944589
 11
18.9009467088
 21
54.1045674487
  0
LINE
  5
27F
100
AcDbEntity
  8
0
100
AcDbLine
 62
7
  6
BYLAYER
 10
19.0039364942
 20
31.5845674487
 11
19.0039364942
 21
31.6931159293
  0
LINE
  5
280
100
AcDbEntity
  8
0
100
AcDbLine
 62
7
  6
BYLAYER
 10
19.004471073
 20
32.0936230761
 11
19.004471073
 21
32.2433022502
  0
LINE
  5
281
100
AcDbEntity
  8
0
100
AcDbLine
 62
7
  6
BYLAYER
 10
19.25494831
 20
35.1951780826
 11
19.25494831
 21
35.4951780826
  0
LINE
  5
282
100
AcDbEntity
  8
0
100
AcDbLine
 62
7
  6
BYLAYER
 10
19.30494831
 20
35.9827154554
 11
19.30494831
 21
35.6545674487
  0
LINE
  5
283
100
AcDbEntity
  8
0
100
AcDbLine
 62
7
  6
BYLAYER
 10
19.30494831
 20
31.8701780826
 11
19.30494831
 21
31.9201780826
  0
LINE
  5
284
100
AcDbEntity
  8
0
100
AcDbLine
 62
7
  6
BYLAYER
 10
19.30494831
 20
32.4201780826
 11
19.30494831
 21
32.6951780826
  0
LINE
  5
285
100
AcDbEntity
  8
0
100
AcDbLine
 62
7
  6
BYLAYER
 10
19.40494831
 20
32.0845674487
 11
19.40494831
 21
31.5845674487
  0
LINE
  5
286
100
AcDbEntity
  8
0
100
AcDbLine
 62
7
  6
BYLAYER
 10
31.95494831
 20
56.4421589584
 11
34.344993196
 21
57.5661404996
  0
LINE
  5
287
100
AcDbEntity
  8
0
100
AcDbLine
 62
7
  6
BYLAYER
 10
11.00494831
 20
30.0845674487
 11
23.52994831
 21
30.0845674487
  0
LINE
  5
288
100
AcDbEntity
  8
0
100
AcDbLine
 62
7
  6
BYLAYER
 10
25.07994831
 20
30.0845674487
 11
37.52994831
 21
30.0845674487
  0
LINE
  5
289
100
AcDbEntity
  8
0
100
AcDbLine
 62
7
  6
BYLAYER
 10
39.07994831
 20
30.0845674487
 11
51.52994831
 21
30.0845674487
  0
LINE
  5
28A
100
AcDbEntity
  8
0
100
AcDbLine
 62
7
  6
BYLAYER
 10
51.52994831
 20
30.4845674487
 11
49.35494831
 21
30.4845674487
  0
LINE
  5
28B
100
AcDbEntity
  8
0
100
AcDbLine
 62
7
  6
BYLAYER
 10
41.55494831
 20
30.4845674487
 11
39.07994831
 21
30.4845674487
  0
LINE
  5
28C
100
AcDbEntity
  8
0
100
AcDbLine
 62
7
  6
BYLAYER
 10
37.52994831
 20
30.4845674487
 11
35.35494831
 21
30.4845674487
  0
LINE
  5
28D
100
AcDbEntity
  8
0
100
AcDbLine
 62
7
  6
BYLAYER
 10
27.55494831
 20
30.4845674487
 11
25.07994831
 21
30.4845674487
  0
LINE
  5
28E
100
AcDbEntity
  8
0
100
AcDbLine
 62
7
  6
BYLAYER
 10
23.52994831
 20
30.4845674487
 11
21.35494831
 21
30.4845674487
  0
LINE
  5
28F
100
AcDbEntity
  8
0
100
AcDbLine
 62
7
  6
BYLAYER
 10
13.55494831
 20
30.4845674487
 11
11.00494831
 21
30.4845674487
  0
LINE
  5
290
100
AcDbEntity
  8
0
100
AcDbLine
 62
7
  6
BYLAYER
 10
51.52994831
 20
31.4845674487
 11
49.65494831
 21
31.4845674487
  0
LINE
  5
291
100
AcDbEntity
  8
0
100
AcDbLine
 62
7
  6
BYLAYER
 10
41.25494831
 20
31.4845674487
 11
39.07994831
 21
31.4845674487
  0
LINE
  5
292
100
AcDbEntity
  8
0
100
AcDbLine
 62
7
  6
BYLAYER
 10
37.52994831
 20
31.4845674487
 11
35.65494831
 21
31.4845674487
  0
LINE
  5
293
100
AcDbEntity
  8
0
100
AcDbLine
 62
7
  6
BYLAYER
 10
27.25494831
 20
31.4845674487
 11
25.07994831
 21
31.4845674487
  0
LINE
  5
294
100
AcDbEntity
  8
0
100
AcDbLine
 62
7
  6
BYLAYER
 10
23.52994831
 20
31.4845674487
 11
21.65494831
 21
31.4845674487
  0
LINE
  5
295
100
AcDbEntity
  8
0
100
AcDbLine
 62
7
  6
BYLAYER
 10
13.25494831
 20
31.4845674487
 11
11.00494831
 21
31.4845674487
  0
LINE
  5
296
100
AcDbEntity
  8
0
100
AcDbLine
 62
7
  6
BYLAYER
 10
18.1470199368
 20
33.5092661112
 11
22.20494831
 21
31.6256384743
  0
LINE
  5
297
100
AcDbEntity
  8
0
100
AcDbLine
 62
7
  6
BYLAYER
 10
18.9048844008
 20
35.1419453369
 11
22.20494831
 21
33.6101066717
  0
LINE
  5
298
100
AcDbEntity
  8
0
100
AcDbLine
 62
7
  6
BYLAYER
 10
20.82994831
 20
35.4951780826
 11
20.7665047587
 21
36.2203411922
  0
LINE
  5
299
100
AcDbEntity
  8
0
100
AcDbLine
 62
7
  6
BYLAYER
 10
19.9089499113
 20
54.1045674487
 11
19.9089499113
 21
67.1639729665
  0
LINE
  5
29A
100
AcDbEntity
  8
0
100
AcDbLine
 62
7
  6
BYLAYER
 10
20.00494831
 20
32.1845674487
 11
20.00494831
 21
31.5845674487
  0
LINE
  5
29B
100
AcDbEntity
  8
0
100
AcDbLine
 62
7
  6
BYLAYER
 10
20.70494831
 20
59.5579703227
 11
20.70494831
 21
54.3434793274
  0
LINE
  5
29C
100
AcDbEntity
  8
0
100
AcDbLine
 62
7
  6
BYLAYER
 10
20.73494831
 20
58.9119593304
 11
20.73494831
 21
54.6845674487
  0
LINE
  5
29D
100
AcDbEntity
  8
0
100
AcDbLine
 62
7
  6
BYLAYER
 10
20.80494831
 20
12.8946695001
 11
20.80494831
 21
13.8744653972
  0
LINE
  5
29E
100
AcDbEntity
  8
0
100
AcDbLine
 62
7
  6
BYLAYER
 10
20.80494831
 20
30.0845674487
 11
20.80494831
 21
31.5745423229
  0
LINE
  5
29F
100
AcDbEntity
  8
0
100
AcDbLine
 62
7
  6
BYLAYER
 10
20.90494831
 20
58.6613997435
 11
20.90494831
 21
58.9711240364
  0
LINE
  5
2A0
100
AcDbEntity
  8
0
100
AcDbLine
 62
7
  6
BYLAYER
 10
20.95494831
 20
54.7845674487
 11
20.95494831
 21
56.4421589584
  0
LINE
  5
2A1
100
AcDbEntity
  8
0
100
AcDbLine
 62
7
  6
BYLAYER
 10
21.00494831
 20
31.5845674487
 11
21.00494831
 21
30.0845674487
  0
LINE
  5
2A2
100
AcDbEntity
  8
0
100
AcDbLine
 62
7
  6
BYLAYER
 10
21.00494831
 20
13.7845674487
 11
21.00494831
 21
12.9845674487
  0
LINE
  5
2A3
100
AcDbEntity
  8
0
100
AcDbLine
 62
7
  6
BYLAYER
 10
21.25494831
 20
12.6210313432
 11
21.25494831
 21
12.6863554465
  0
LINE
  5
2A4
100
AcDbEntity
  8
0
100
AcDbLine
 62
7
  6
BYLAYER
 10
21.25494831
 20
14.0827794509
 11
21.25494831
 21
14.1882310557
  0
LINE
  5
2A5
100
AcDbEntity
  8
0
100
AcDbLine
 62
7
  6
BYLAYER
 10
21.289042866
 20
7.9845674487
 11
21.289042866
 21
6.9845674487
  0
LINE
  5
2A6
100
AcDbEntity
  8
0
100
AcDbLine
 62
7
  6
BYLAYER
 10
21.3359827928
 20
56.6213504571
 11
21.3359827928
 21
54.9637589474
  0
LINE
  5
2A7
100
AcDbEntity
  8
0
100
AcDbLine
 62
7
  6
BYLAYER
 10
21.35494831
 20
30.0845674487
 11
21.35494831
 21
31.1845674487
  0
LINE
  5
2A8
100
AcDbEntity
  8
0
100
AcDbLine
 62
7
  6
BYLAYER
 10
21.35494831
 20
34.0046635352
 11
21.35494831
 21
36.0974482603
  0
LINE
  5
2A9
100
AcDbEntity
  8
0
100
AcDbLine
 62
7
  6
BYLAYER
 10
21.5757816434
 20
31.9176879174
 11
21.5757816434
 21
33.9021561148
  0
LINE
  5
2AA
100
AcDbEntity
  8
0
100
AcDbLine
 62
7
  6
BYLAYER
 10
21.60494831
 20
12.9845674487
 11
21.60494831
 21
13.7845674487
  0
LINE
  5
2AB
100
AcDbEntity
  8
0
100
AcDbLine
 62
7
  6
BYLAYER
 10
21.75494831
 20
74.2045674487
 11
21.75494831
 21
73.459555499
  0
LINE
  5
2AC
100
AcDbEntity
  8
0
100
AcDbLine
 62
7
  6
BYLAYER
 10
21.80494831
 20
13.8744653972
 11
21.80494831
 21
12.8946695001
  0
LINE
  5
2AD
100
AcDbEntity
  8
0
100
AcDbLine
 62
7
  6
BYLAYER
 10
22.20494831
 20
33.6101066717
 11
22.20494831
 21
31.6256384743
  0
LINE
  5
2AE
100
AcDbEntity
  8
0
100
AcDbLine
 62
7
  6
BYLAYER
 10
22.35494831
 20
32.1545674487
 11
22.35494831
 21
35.8755437209
  0
LINE
  5
2AF
100
AcDbEntity
  8
0
100
AcDbLine
 62
7
  6
BYLAYER
 10
21.80494831
 20
57.9845674487
 11
21.8844203788
 21
58.892937351
  0
LINE
  5
2B0
100
AcDbEntity
  8
0
100
AcDbLine
 62
7
  6
BYLAYER
 10
26.4116442896
 20
55.9335955003
 11
26.3192362243
 21
55.737098124
  0
LINE
  5
2B1
100
AcDbEntity
  8
0
100
AcDbLine
 62
7
  6
BYLAYER
 10
23.60494831
 20
49.6885420449
 11
24.10494831
 21
50.5545674487
  0
LINE
  5
2B2
100
AcDbEntity
  8
0
100
AcDbLine
 62
7
  6
BYLAYER
 10
41.1174891568
 20
66.5786510428
 11
42.05494831
 21
67.5161101961
  0
LINE
  5
2B3
100
AcDbEntity
  8
0
100
AcDbLine
 62
7
  6
BYLAYER
 10
25.00494831
 20
49.5545674487
 11
24.85494831
 21
49.4045674487
  0
LINE
  5
2B4
100
AcDbEntity
  8
0
100
AcDbLine
 62
7
  6
BYLAYER
 10
31.95494831
 20
54.7845674487
 11
35.2665993924
 21
56.3419585712
  0
LINE
  5
2B5
100
AcDbEntity
  8
0
100
AcDbLine
 62
7
  6
BYLAYER
 10
51.45494831
 20
31.5845674487
 11
49.00494831
 21
31.5845674487
  0
LINE
  5
2B6
100
AcDbEntity
  8
0
100
AcDbLine
 62
7
  6
BYLAYER
 10
41.60494831
 20
31.5845674487
 11
39.15494831
 21
31.5845674487
  0
LINE
  5
2B7
100
AcDbEntity
  8
0
100
AcDbLine
 62
7
  6
BYLAYER
 10
37.45494831
 20
31.5845674487
 11
35.00494831
 21
31.5845674487
  0
LINE
  5
2B8
100
AcDbEntity
  8
0
100
AcDbLine
 62
7
  6
BYLAYER
 10
27.60494831
 20
31.5845674487
 11
25.15494831
 21
31.5845674487
  0
LINE
  5
2B9
100
AcDbEntity
  8
0
100
AcDbLine
 62
7
  6
BYLAYER
 10
23.45494831
 20
31.5845674487
 11
21.00494831
 21
31.5845674487
  0
LINE
  5
2BA
100
AcDbEntity
  8
0
100
AcDbLine
 62
7
  6
BYLAYER
 10
13.60494831
 20
31.5845674487
 11
11.15494831
 21
31.5845674487
  0
LINE
  5
2BB
100
AcDbEntity
  8
0
100
AcDbLine
 62
7
  6
BYLAYER
 10
13.80494831
 20
31.5845674487
 11
20.80494831
 21
31.5845674487
  0
LINE
  5
2BC
100
AcDbEntity
  8
0
100
AcDbLine
 62
7
  6
BYLAYER
 10
27.80494831
 20
31.5845674487
 11
34.80494831
 21
31.5845674487
  0
LINE
  5
2BD
100
AcDbEntity
  8
0
100
AcDbLine
 62
7
  6
BYLAYER
 10
41.80494831
 20
31.5845674487
 11
48.80494831
 21
31.5845674487
  0
LINE
  5
2BE
100
AcDbEntity
  8
0
100
AcDbLine
 62
7
  6
BYLAYER
 10
36.33494831
 20
31.7345674487
 11
36.20494831
 21
31.7345674487
  0
LINE
  5
2BF
100
AcDbEntity
  8
0
100
AcDbLine
 62
7
  6
BYLAYER
 10
51.60494831
 20
32.0845674487
 11
51.52994831
 21
32.0845674487
  0
LINE
  5
2C0
100
AcDbEntity
  8
0
100
AcDbLine
 62
7
  6
BYLAYER
 10
39.07994831
 20
32.0845674487
 11
39.00494831
 21
32.0845674487
  0
LINE
  5
2C1
100
AcDbEntity
  8
0
100
AcDbLine
 62
7
  6
BYLAYER
 10
37.60494831
 20
32.0845674487
 11
37.52994831
 21
32.0845674487
  0
LINE
  5
2C2
100
AcDbEntity
  8
0
100
AcDbLine
 62
7
  6
BYLAYER
 10
25.07994831
 20
32.0845674487
 11
25.00494831
 21
32.0845674487
  0
LINE
  5
2C3
100
AcDbEntity
  8
0
100
AcDbLine
 62
7
  6
BYLAYER
 10
23.60494831
 20
32.0845674487
 11
23.52994831
 21
32.0845674487
  0
LINE
  5
2C4
100
AcDbEntity
  8
0
100
AcDbLine
 62
7
  6
BYLAYER
 10
11.07994831
 20
32.0845674487
 11
11.00494831
 21
32.0845674487
  0
LINE
  5
2C5
100
AcDbEntity
  8
0
100
AcDbLine
 62
7
  6
BYLAYER
 10
14.60494831
 20
32.0845674487
 11
15.4039869292
 21
32.0845674487
  0
LINE
  5
2C6
100
AcDbEntity
  8
0
100
AcDbLine
 62
7
  6
BYLAYER
 10
19.0267615118
 20
32.0845674487
 11
19.40494831
 21
32.0845674487
  0
LINE
  5
2C7
100
AcDbEntity
  8
0
100
AcDbLine
 62
7
  6
BYLAYER
 10
33.63494831
 20
32.1045674487
 11
34.00494831
 21
32.1045674487
  0
LINE
  5
2C8
100
AcDbEntity
  8
0
100
AcDbLine
 62
7
  6
BYLAYER
 10
36.3673191155
 20
32.1045674487
 11
36.60494831
 21
32.1045674487
  0
LINE
  5
2C9
100
AcDbEntity
  8
0
100
AcDbLine
 62
7
  6
BYLAYER
 10
11.15494831
 20
32.1545674487
 11
12.40494831
 21
32.1545674487
  0
LINE
  5
2CA
100
AcDbEntity
  8
0
100
AcDbLine
 62
7
  6
BYLAYER
 10
22.20494831
 20
32.1545674487
 11
23.45494831
 21
32.1545674487
  0
LINE
  5
2CB
100
AcDbEntity
  8
0
100
AcDbLine
 62
7
  6
BYLAYER
 10
25.15494831
 20
32.1545674487
 11
26.40494831
 21
32.1545674487
  0
LINE
  5
2CC
100
AcDbEntity
  8
0
100
AcDbLine
 62
7
  6
BYLAYER
 10
36.20494831
 20
32.1545674487
 11
37.45494831
 21
32.1545674487
  0
LINE
  5
2CD
100
AcDbEntity
  8
0
100
AcDbLine
 62
7
  6
BYLAYER
 10
39.15494831
 20
32.1545674487
 11
40.40494831
 21
32.1545674487
  0
LINE
  5
2CE
100
AcDbEntity
  8
0
100
AcDbLine
 62
7
  6
BYLAYER
 10
50.20494831
 20
32.1545674487
 11
51.45494831
 21
32.1545674487
  0
LINE
  5
2CF
100
AcDbEntity
  8
0
100
AcDbLine
 62
7
  6
BYLAYER
 10
47.30494831
 20
32.6951780826
 11
43.30494831
 21
32.6951780826
  0
LINE
  5
2D0
100
AcDbEntity
  8
0
100
AcDbLine
 62
7
  6
BYLAYER
 10
33.30494831
 20
32.6951780826
 11
29.30494831
 21
32.6951780826
  0
LINE
  5
2D1
100
AcDbEntity
  8
0
100
AcDbLine
 62
7
  6
BYLAYER
 10
19.30494831
 20
32.6951780826
 11
15.30494831
 21
32.6951780826
  0
LINE
  5
2D2
100
AcDbEntity
  8
0
100
AcDbLine
 62
7
  6
BYLAYER
 10
15.72994831
 20
32.9951780826
 11
18.8797108263
 21
32.9951780826
  0
LINE
  5
2D3
100
AcDbEntity
  8
0
100
AcDbLine
 62
7
  6
BYLAYER
 10
29.72994831
 20
32.9951780826
 11
32.8797108263
 21
32.9951780826
  0
LINE
  5
2D4
100
AcDbEntity
  8
0
100
AcDbLine
 62
7
  6
BYLAYER
 10
43.72994831
 20
32.9951780826
 11
46.8797108263
 21
32.9951780826
  0
LINE
  5
2D5
100
AcDbEntity
  8
0
100
AcDbLine
 62
7
  6
BYLAYER
 10
29.310941743
 20
32.1384587959
 11
29.6036673485
 21
31.9688561414
  0
LINE
  5
2D6
100
AcDbEntity
  8
0
100
AcDbLine
 62
7
  6
BYLAYER
 10
27.55494831
 20
31.1845674487
 11
27.25494831
 21
31.4845674487
  0
LINE
  5
2D7
100
AcDbEntity
  8
0
100
AcDbLine
 62
7
  6
BYLAYER
 10
12.4906603958
 20
55.737098124
 11
12.3982523305
 21
55.9335955003
  0
LINE
  5
2D8
100
AcDbEntity
  8
0
100
AcDbLine
 62
7
  6
BYLAYER
 10
22.60494831
 20
54.7845674487
 11
22.60494831
 21
54.8845674487
  0
LINE
  5
2D9
100
AcDbEntity
  8
0
100
AcDbLine
 62
7
  6
BYLAYER
 10
22.75494831
 20
73.5112138351
 11
22.75494831
 21
74.2045674487
  0
LINE
  5
2DA
100
AcDbEntity
  8
0
100
AcDbLine
 62
7
  6
BYLAYER
 10
23.15494831
 20
54.7845674487
 11
23.15494831
 21
55.491050217
  0
LINE
  5
2DB
100
AcDbEntity
  8
0
100
AcDbLine
 62
7
  6
BYLAYER
 10
23.15494831
 20
57.6845674487
 11
23.15494831
 21
57.9845674487
  0
LINE
  5
2DC
100
AcDbEntity
  8
0
100
AcDbLine
 62
7
  6
BYLAYER
 10
23.20494831
 20
57.9045674487
 11
23.20494831
 21
58.5579703227
  0
LINE
  5
2DD
100
AcDbEntity
  8
0
100
AcDbLine
 62
7
  6
BYLAYER
 10
23.25494831
 20
31.4845674487
 11
23.25494831
 21
31.5845674487
  0
LINE
  5
2DE
100
AcDbEntity
  8
0
100
AcDbLine
 62
7
  6
BYLAYER
 10
23.3269749262
 20
68.6054974365
 11
23.3269749262
 21
69.0045674487
  0
LINE
  5
2DF
100
AcDbEntity
  8
0
100
AcDbLine
 62
7
  6
BYLAYER
 10
23.40494831
 20
54.7845674487
 11
23.40494831
 21
54.6845674487
  0
LINE
  5
2E0
100
AcDbEntity
  8
0
100
AcDbLine
 62
7
  6
BYLAYER
 10
23.45494831
 20
52.1676701244
 11
23.45494831
 21
32.1545674487
  0
LINE
  5
2E1
100
AcDbEntity
  8
0
100
AcDbLine
 62
7
  6
BYLAYER
 10
23.45494831
 20
31.5845674487
 11
23.45494831
 21
31.4845674487
  0
LINE
  5
2E2
100
AcDbEntity
  8
0
100
AcDbLine
 62
7
  6
BYLAYER
 10
23.4801015114
 20
6.9845674487
 11
23.4801015114
 21
7.9845674487
  0
LINE
  5
2E3
100
AcDbEntity
  8
0
100
AcDbLine
 62
7
  6
BYLAYER
 10
23.52994831
 20
32.0845674487
 11
23.52994831
 21
30.0845674487
  0
LINE
  5
2E4
100
AcDbEntity
  8
0
100
AcDbLine
 62
7
  6
BYLAYER
 10
23.60494831
 20
32.0845674487
 11
23.60494831
 21
49.6885420449
  0
LINE
  5
2E5
100
AcDbEntity
  8
0
100
AcDbLine
 62
7
  6
BYLAYER
 10
23.75494831
 20
49.4045674487
 11
23.75494831
 21
45.7045674487
  0
LINE
  5
2E6
100
AcDbEntity
  8
0
100
AcDbLine
 62
7
  6
BYLAYER
 10
24.35494831
 20
74.2045674487
 11
24.35494831
 21
73.6269822302
  0
LINE
  5
2E7
100
AcDbEntity
  8
0
100
AcDbLine
 62
7
  6
BYLAYER
 10
24.85494831
 20
45.7045674487
 11
24.85494831
 21
49.4045674487
  0
LINE
  5
2E8
100
AcDbEntity
  8
0
100
AcDbLine
 62
7
  6
BYLAYER
 10
25.00494831
 20
49.6885420449
 11
25.00494831
 21
32.0845674487
  0
LINE
  5
2E9
100
AcDbEntity
  8
0
100
AcDbLine
 62
7
  6
BYLAYER
 10
25.07994831
 20
32.0845674487
 11
25.07994831
 21
30.0845674487
  0
LINE
  5
2EA
100
AcDbEntity
  8
0
100
AcDbLine
 62
7
  6
BYLAYER
 10
25.15494831
 20
31.4845674487
 11
25.15494831
 21
31.5845674487
  0
LINE
  5
2EB
100
AcDbEntity
  8
0
100
AcDbLine
 62
7
  6
BYLAYER
 10
25.15494831
 20
32.1545674487
 11
25.15494831
 21
52.2507001236
  0
LINE
  5
2EC
100
AcDbEntity
  8
0
100
AcDbLine
 62
7
  6
BYLAYER
 10
19.7559294715
 20
32.7624351704
 11
19.6398290953
 21
32.5123183206
  0
LINE
  5
2ED
100
AcDbEntity
  8
0
100
AcDbLine
 62
7
  6
BYLAYER
 10
23.60494831
 20
45.5545674487
 11
23.75494831
 21
45.7045674487
  0
LINE
  5
2EE
100
AcDbEntity
  8
0
100
AcDbLine
 62
7
  6
BYLAYER
 10
42.95494831
 20
56.4421589584
 11
45.344993196
 21
57.5661404996
  0
LINE
  5
2EF
100
AcDbEntity
  8
0
100
AcDbLine
 62
7
  6
BYLAYER
 10
42.95494831
 20
54.7845674487
 11
46.2665993924
 21
56.3419585712
  0
LINE
  5
2F0
100
AcDbEntity
  8
0
100
AcDbLine
 62
7
  6
BYLAYER
 10
15.80494831
 20
35.1545674487
 11
18.80494831
 21
35.1545674487
  0
LINE
  5
2F1
100
AcDbEntity
  8
0
100
AcDbLine
 62
7
  6
BYLAYER
 10
29.80494831
 20
35.1545674487
 11
32.80494831
 21
35.1545674487
  0
LINE
  5
2F2
100
AcDbEntity
  8
0
100
AcDbLine
 62
7
  6
BYLAYER
 10
43.80494831
 20
35.1545674487
 11
46.80494831
 21
35.1545674487
  0
LINE
  5
2F3
100
AcDbEntity
  8
0
100
AcDbLine
 62
7
  6
BYLAYER
 10
15.35494831
 20
35.1951780826
 11
15.6803710867
 21
35.1951780826
  0
LINE
  5
2F4
100
AcDbEntity
  8
0
100
AcDbLine
 62
7
  6
BYLAYER
 10
18.9295883254
 20
35.1951780826
 11
19.25494831
 21
35.1951780826
  0
LINE
  5
2F5
100
AcDbEntity
  8
0
100
AcDbLine
 62
7
  6
BYLAYER
 10
29.35494831
 20
35.1951780826
 11
29.6803710867
 21
35.1951780826
  0
LINE
  5
2F6
100
AcDbEntity
  8
0
100
AcDbLine
 62
7
  6
BYLAYER
 10
32.9295883254
 20
35.1951780826
 11
33.25494831
 21
35.1951780826
  0
LINE
  5
2F7
100
AcDbEntity
  8
0
100
AcDbLine
 62
7
  6
BYLAYER
 10
43.35494831
 20
35.1951780826
 11
43.6803710867
 21
35.1951780826
  0
LINE
  5
2F8
100
AcDbEntity
  8
0
100
AcDbLine
 62
7
  6
BYLAYER
 10
46.9295883254
 20
35.1951780826
 11
47.25494831
 21
35.1951780826
  0
LINE
  5
2F9
100
AcDbEntity
  8
0
100
AcDbLine
 62
7
  6
BYLAYER
 10
51.60494831
 20
35.4345674487
 11
51.45494831
 21
35.4345674487
  0
LINE
  5
2FA
100
AcDbEntity
  8
0
100
AcDbLine
 62
7
  6
BYLAYER
 10
49.35494831
 20
35.4345674487
 11
47.25494831
 21
35.4345674487
  0
LINE
  5
2FB
100
AcDbEntity
  8
0
100
AcDbLine
 62
7
  6
BYLAYER
 10
37.60494831
 20
35.4345674487
 11
37.45494831
 21
35.4345674487
  0
LINE
  5
2FC
100
AcDbEntity
  8
0
100
AcDbLine
 62
7
  6
BYLAYER
 10
35.35494831
 20
35.4345674487
 11
33.63494831
 21
35.4345674487
  0
LINE
  5
2FD
100
AcDbEntity
  8
0
100
AcDbLine
 62
7
  6
BYLAYER
 10
13.77994831
 20
35.4951780826
 11
15.3566024253
 21
35.4951780826
  0
LINE
  5
2FE
100
AcDbEntity
  8
0
100
AcDbLine
 62
7
  6
BYLAYER
 10
19.2532334906
 20
35.4951780826
 11
20.82994831
 21
35.4951780826
  0
LINE
  5
2FF
100
AcDbEntity
  8
0
100
AcDbLine
 62
7
  6
BYLAYER
 10
27.77994831
 20
35.4951780826
 11
29.3566024253
 21
35.4951780826
  0
LINE
  5
300
100
AcDbEntity
  8
0
100
AcDbLine
 62
7
  6
BYLAYER
 10
33.2532334906
 20
35.4951780826
 11
34.82994831
 21
35.4951780826
  0
LINE
  5
301
100
AcDbEntity
  8
0
100
AcDbLine
 62
7
  6
BYLAYER
 10
41.77994831
 20
35.4951780826
 11
43.3566024253
 21
35.4951780826
  0
LINE
  5
302
100
AcDbEntity
  8
0
100
AcDbLine
 62
7
  6
BYLAYER
 10
47.2532334906
 20
35.4951780826
 11
48.82994831
 21
35.4951780826
  0
LINE
  5
303
100
AcDbEntity
  8
0
100
AcDbLine
 62
7
  6
BYLAYER
 10
11.00494831
 20
35.5545674487
 11
11.15494831
 21
35.5545674487
  0
LINE
  5
304
100
AcDbEntity
  8
0
100
AcDbLine
 62
7
  6
BYLAYER
 10
51.45494831
 20
36.9827154554
 11
48.3049469233
 21
36.9827154554
  0
LINE
  5
305
100
AcDbEntity
  8
0
100
AcDbLine
 62
7
  6
BYLAYER
 10
42.3049483707
 20
36.9827154554
 11
39.15494831
 21
36.9827154554
  0
LINE
  5
306
100
AcDbEntity
  8
0
100
AcDbLine
 62
7
  6
BYLAYER
 10
37.45494831
 20
36.9827154554
 11
34.3049469221
 21
36.9827154554
  0
LINE
  5
307
100
AcDbEntity
  8
0
100
AcDbLine
 62
7
  6
BYLAYER
 10
28.3049483713
 20
36.9827154554
 11
25.15494831
 21
36.9827154554
  0
LINE
  5
308
100
AcDbEntity
  8
0
100
AcDbLine
 62
7
  6
BYLAYER
 10
23.45494831
 20
36.9827154554
 11
20.304946922
 21
36.9827154554
  0
LINE
  5
309
100
AcDbEntity
  8
0
100
AcDbLine
 62
7
  6
BYLAYER
 10
14.3049483803
 20
36.9827154554
 11
11.15494831
 21
36.9827154554
  0
LINE
  5
30A
100
AcDbEntity
  8
0
100
AcDbLine
 62
7
  6
BYLAYER
 10
32.1470199368
 20
33.5092661112
 11
36.20494831
 21
31.6256384743
  0
LINE
  5
30B
100
AcDbEntity
  8
0
100
AcDbLine
 62
7
  6
BYLAYER
 10
32.9048844008
 20
35.1419453369
 11
36.20494831
 21
33.6101066717
  0
LINE
  5
30C
100
AcDbEntity
  8
0
100
AcDbLine
 62
7
  6
BYLAYER
 10
33.2988936852
 20
31.9268907265
 11
33.0061481922
 21
32.0965163196
  0
LINE
  5
30D
100
AcDbEntity
  8
0
100
AcDbLine
 62
7
  6
BYLAYER
 10
52.80494831
 20
10.0845674487
 11
52.30494831
 21
10.5845674487
  0
LINE
  5
30E
100
AcDbEntity
  8
0
100
AcDbLine
 62
7
  6
BYLAYER
 10
29.30494831
 20
32.1451780826
 11
29.3109415431
 21
32.138399767
  0
LINE
  5
30F
100
AcDbEntity
  8
0
100
AcDbLine
 62
7
  6
BYLAYER
 10
29.3103334322
 20
31.5889002292
 11
29.30494831
 21
31.5951780826
  0
LINE
  5
310
100
AcDbEntity
  8
0
100
AcDbLine
 62
7
  6
BYLAYER
 10
28.9700675248
 20
32.5123183206
 11
28.8539671486
 21
32.7624351704
  0
LINE
  5
311
100
AcDbEntity
  8
0
100
AcDbLine
 62
7
  6
BYLAYER
 10
25.35494831
 20
31.5845674487
 11
25.35494831
 21
31.4845674487
  0
LINE
  5
312
100
AcDbEntity
  8
0
100
AcDbLine
 62
7
  6
BYLAYER
 10
25.35494831
 20
73.645525509
 11
25.35494831
 21
74.2045674487
  0
LINE
  5
313
100
AcDbEntity
  8
0
100
AcDbLine
 62
7
  6
BYLAYER
 10
26.25494831
 20
35.8755437209
 11
26.25494831
 21
32.1545674487
  0
LINE
  5
314
100
AcDbEntity
  8
0
100
AcDbLine
 62
7
  6
BYLAYER
 10
26.40494831
 20
54.7845674487
 11
26.40494831
 21
54.6845674487
  0
LINE
  5
315
100
AcDbEntity
  8
0
100
AcDbLine
 62
7
  6
BYLAYER
 10
26.40494831
 20
31.6256384743
 11
26.40494831
 21
33.6101066717
  0
LINE
  5
316
100
AcDbEntity
  8
0
100
AcDbLine
 62
7
  6
BYLAYER
 10
26.4829216938
 20
69.0045674487
 11
26.4829216938
 21
68.742827687
  0
LINE
  5
317
100
AcDbEntity
  8
0
100
AcDbLine
 62
7
  6
BYLAYER
 10
26.60494831
 20
58.5579703227
 11
26.60494831
 21
57.9045674487
  0
LINE
  5
318
100
AcDbEntity
  8
0
100
AcDbLine
 62
7
  6
BYLAYER
 10
26.65494831
 20
9.8845674487
 11
26.65494831
 21
6.9845674487
  0
LINE
  5
319
100
AcDbEntity
  8
0
100
AcDbLine
 62
7
  6
BYLAYER
 10
26.65494831
 20
54.7845674487
 11
26.65494831
 21
55.491050217
  0
LINE
  5
31A
100
AcDbEntity
  8
0
100
AcDbLine
 62
7
  6
BYLAYER
 10
26.65494831
 20
57.6845674487
 11
26.65494831
 21
57.9845674487
  0
LINE
  5
31B
100
AcDbEntity
  8
0
100
AcDbLine
 62
7
  6
BYLAYER
 10
27.0341149767
 20
33.9021561148
 11
27.0341149767
 21
31.9176879174
  0
LINE
  5
31C
100
AcDbEntity
  8
0
100
AcDbLine
 62
7
  6
BYLAYER
 10
27.25494831
 20
34.0046635352
 11
27.25494831
 21
36.0974538933
  0
LINE
  5
31D
100
AcDbEntity
  8
0
100
AcDbLine
 62
7
  6
BYLAYER
 10
27.55494831
 20
30.0845674487
 11
27.55494831
 21
31.1845674487
  0
LINE
  5
31E
100
AcDbEntity
  8
0
100
AcDbLine
 62
7
  6
BYLAYER
 10
27.60494831
 20
30.0845674487
 11
27.60494831
 21
31.5845674487
  0
LINE
  5
31F
100
AcDbEntity
  8
0
100
AcDbLine
 62
7
  6
BYLAYER
 10
27.80494831
 20
31.5745423229
 11
27.80494831
 21
30.0845674487
  0
LINE
  5
320
100
AcDbEntity
  8
0
100
AcDbLine
 62
7
  6
BYLAYER
 10
29.08494831
 20
56.6309776102
 11
28.88494831
 21
55.8845674487
  0
LINE
  5
321
100
AcDbEntity
  8
0
100
AcDbLine
 62
7
  6
BYLAYER
 10
15.3102813727
 20
31.6512649646
 11
15.30494831
 21
31.6451780826
  0
LINE
  5
322
100
AcDbEntity
  8
0
100
AcDbLine
 62
7
  6
BYLAYER
 10
33.30494831
 20
31.9201780826
 11
33.2988940259
 21
31.926990855
  0
LINE
  5
323
100
AcDbEntity
  8
0
100
AcDbLine
 62
7
  6
BYLAYER
 10
28.00494831
 20
57.9845674487
 11
27.9254761425
 21
58.8929384805
  0
LINE
  5
324
100
AcDbEntity
  8
0
100
AcDbLine
 62
7
  6
BYLAYER
 10
28.15494831
 20
6.9845674487
 11
28.15494831
 21
9.8845674487
  0
LINE
  5
325
100
AcDbEntity
  8
0
100
AcDbLine
 62
7
  6
BYLAYER
 10
28.4739138273
 20
54.9637589474
 11
28.4739138273
 21
56.6213504571
  0
LINE
  5
326
100
AcDbEntity
  8
0
100
AcDbLine
 62
7
  6
BYLAYER
 10
28.60494831
 20
31.5845674487
 11
28.60494831
 21
32.1845674487
  0
LINE
  5
327
100
AcDbEntity
  8
0
100
AcDbLine
 62
7
  6
BYLAYER
 10
28.85494831
 20
56.4421589584
 11
28.85494831
 21
54.7845674487
  0
LINE
  5
328
100
AcDbEntity
  8
0
100
AcDbLine
 62
7
  6
BYLAYER
 10
28.88494831
 20
54.8845674487
 11
28.88494831
 21
55.8845674487
  0
LINE
  5
329
100
AcDbEntity
  8
0
100
AcDbLine
 62
7
  6
BYLAYER
 10
28.90494831
 20
58.9711240364
 11
28.90494831
 21
58.6613997435
  0
LINE
  5
32A
100
AcDbEntity
  8
0
100
AcDbLine
 62
7
  6
BYLAYER
 10
28.90494831
 20
54.7845674487
 11
28.90494831
 21
54.6845674487
  0
LINE
  5
32B
100
AcDbEntity
  8
0
100
AcDbLine
 62
7
  6
BYLAYER
 10
29.08494831
 20
58.9119593304
 11
29.08494831
 21
54.6845674487
  0
LINE
  5
32C
100
AcDbEntity
  8
0
100
AcDbLine
 62
7
  6
BYLAYER
 10
29.10494831
 20
54.3434793274
 11
29.10494831
 21
59.5579703227
  0
LINE
  5
32D
100
AcDbEntity
  8
0
100
AcDbLine
 62
7
  6
BYLAYER
 10
29.30494831
 20
31.5951780826
 11
29.30494831
 21
31.6451780826
  0
LINE
  5
32E
100
AcDbEntity
  8
0
100
AcDbLine
 62
7
  6
BYLAYER
 10
29.30494831
 20
32.1451780826
 11
29.30494831
 21
32.6951780826
  0
LINE
  5
32F
100
AcDbEntity
  8
0
100
AcDbLine
 62
7
  6
BYLAYER
 10
29.30494831
 20
35.6545674487
 11
29.30494831
 21
35.9827154554
  0
LINE
  5
330
100
AcDbEntity
  8
0
100
AcDbLine
 62
7
  6
BYLAYER
 10
29.35494831
 20
35.1951780826
 11
29.35494831
 21
35.4951780826
  0
LINE
  5
331
100
AcDbEntity
  8
0
100
AcDbLine
 62
7
  6
BYLAYER
 10
29.6053371845
 20
31.9717370335
 11
29.6053371845
 21
31.8220447837
  0
LINE
  5
332
100
AcDbEntity
  8
0
100
AcDbLine
 62
7
  6
BYLAYER
 10
29.72994831
 20
32.9951780826
 11
29.72994831
 21
33.1690520875
  0
LINE
  5
333
100
AcDbEntity
  8
0
100
AcDbLine
 62
7
  6
BYLAYER
 10
29.9009467088
 20
67.6035533212
 11
29.9009467088
 21
54.1045674487
  0
LINE
  5
334
100
AcDbEntity
  8
0
100
AcDbLine
 62
7
  6
BYLAYER
 10
30.00494831
 20
63.9045674487
 11
30.00494831
 21
53.7521413358
  0
LINE
  5
335
100
AcDbEntity
  8
0
100
AcDbLine
 62
7
  6
BYLAYER
 10
27.77994831
 20
35.4951780826
 11
27.8433886093
 21
36.2203040209
  0
LINE
  5
336
100
AcDbEntity
  8
0
100
AcDbLine
 62
7
  6
BYLAYER
 10
19.30494831
 20
32.4201780826
 11
19.2995866166
 21
32.4137670058
  0
LINE
  5
337
100
AcDbEntity
  8
0
100
AcDbLine
 62
7
  6
BYLAYER
 10
19.30494831
 20
31.8701780826
 11
19.2991975553
 21
31.8635383717
  0
LINE
  5
338
100
AcDbEntity
  8
0
100
AcDbLine
 62
7
  6
BYLAYER
 10
12.40494831
 20
33.6101066717
 11
15.7050122192
 21
35.1419453369
  0
LINE
  5
339
100
AcDbEntity
  8
0
100
AcDbLine
 62
7
  6
BYLAYER
 10
46.1470199368
 20
33.5092661112
 11
50.20494831
 21
31.6256384743
  0
LINE
  5
33A
100
AcDbEntity
  8
0
100
AcDbLine
 62
7
  6
BYLAYER
 10
43.310941743
 20
32.1384587959
 11
43.6036673485
 21
31.9688561414
  0
LINE
  5
33B
100
AcDbEntity
  8
0
100
AcDbLine
 62
7
  6
BYLAYER
 10
47.2988936852
 20
31.9268907265
 11
47.0061481922
 21
32.0965163196
  0
LINE
  5
33C
100
AcDbEntity
  8
0
100
AcDbLine
 62
7
  6
BYLAYER
 10
25.00494831
 20
45.5545674487
 11
24.85494831
 21
45.7045674487
  0
LINE
  5
33D
100
AcDbEntity
  8
0
100
AcDbLine
 62
7
  6
BYLAYER
 10
41.55494831
 20
31.1845674487
 11
41.25494831
 21
31.4845674487
  0
LINE
  5
33E
100
AcDbEntity
  8
0
100
AcDbLine
 62
7
  6
BYLAYER
 10
23.60494831
 20
49.5545674487
 11
23.75494831
 21
49.4045674487
  0
LINE
  5
33F
100
AcDbEntity
  8
0
100
AcDbLine
 62
7
  6
BYLAYER
 10
24.50494831
 20
50.5545674487
 11
25.00494831
 21
49.6885420449
  0
LINE
  5
340
100
AcDbEntity
  8
0
100
AcDbLine
 62
7
  6
BYLAYER
 10
23.4906603958
 20
55.737098124
 11
23.3982523305
 21
55.9335955003
  0
LINE
  5
341
100
AcDbEntity
  8
0
100
AcDbLine
 62
7
  6
BYLAYER
 10
30.80494831
 20
53.7045674487
 11
30.80494831
 21
63.9045674487
  0
LINE
  5
342
100
AcDbEntity
  8
0
100
AcDbLine
 62
7
  6
BYLAYER
 10
30.9089499113
 20
54.1045674487
 11
30.9089499113
 21
67.6035533212
  0
LINE
  5
343
100
AcDbEntity
  8
0
100
AcDbLine
 62
7
  6
BYLAYER
 10
31.70494831
 20
59.5579703227
 11
31.70494831
 21
54.3434793274
  0
LINE
  5
344
100
AcDbEntity
  8
0
100
AcDbLine
 62
7
  6
BYLAYER
 10
31.72494831
 20
58.9119593304
 11
31.72494831
 21
54.6845674487
  0
LINE
  5
345
100
AcDbEntity
  8
0
100
AcDbLine
 62
7
  6
BYLAYER
 10
31.90494831
 20
54.7845674487
 11
31.90494831
 21
54.6845674487
  0
LINE
  5
346
100
AcDbEntity
  8
0
100
AcDbLine
 62
7
  6
BYLAYER
 10
31.90494831
 20
58.6613997435
 11
31.90494831
 21
58.9711240364
  0
LINE
  5
347
100
AcDbEntity
  8
0
100
AcDbLine
 62
7
  6
BYLAYER
 10
31.92494831
 20
55.8845674487
 11
31.92494831
 21
54.8845674487
  0
LINE
  5
348
100
AcDbEntity
  8
0
100
AcDbLine
 62
7
  6
BYLAYER
 10
31.95494831
 20
54.7845674487
 11
31.95494831
 21
56.4421589584
  0
LINE
  5
349
100
AcDbEntity
  8
0
100
AcDbLine
 62
7
  6
BYLAYER
 10
32.3359827928
 20
56.6213504571
 11
32.3359827928
 21
54.9637589474
  0
LINE
  5
34A
100
AcDbEntity
  8
0
100
AcDbLine
 62
7
  6
BYLAYER
 10
32.65494831
 20
9.8845674487
 11
32.65494831
 21
6.9845674487
  0
LINE
  5
34B
100
AcDbEntity
  8
0
100
AcDbLine
 62
7
  6
BYLAYER
 10
32.87994831
 20
32.9951780826
 11
32.87994831
 21
33.1690520875
  0
LINE
  5
34C
100
AcDbEntity
  8
0
100
AcDbLine
 62
7
  6
BYLAYER
 10
33.0039364942
 20
31.5845674487
 11
33.0039364942
 21
31.6931159293
  0
LINE
  5
34D
100
AcDbEntity
  8
0
100
AcDbLine
 62
7
  6
BYLAYER
 10
33.004471073
 20
32.0936230761
 11
33.004471073
 21
32.2433022502
  0
LINE
  5
34E
100
AcDbEntity
  8
0
100
AcDbLine
 62
7
  6
BYLAYER
 10
33.25494831
 20
35.1951780826
 11
33.25494831
 21
35.4951780826
  0
LINE
  5
34F
100
AcDbEntity
  8
0
100
AcDbLine
 62
7
  6
BYLAYER
 10
33.30494831
 20
35.9827154554
 11
33.30494831
 21
35.6545674487
  0
LINE
  5
350
100
AcDbEntity
  8
0
100
AcDbLine
 62
7
  6
BYLAYER
 10
33.30494831
 20
31.8701780826
 11
33.30494831
 21
31.9201780826
  0
LINE
  5
351
100
AcDbEntity
  8
0
100
AcDbLine
 62
7
  6
BYLAYER
 10
33.30494831
 20
32.4201780826
 11
33.30494831
 21
32.6951780826
  0
LINE
  5
352
100
AcDbEntity
  8
0
100
AcDbLine
 62
7
  6
BYLAYER
 10
33.7919554785
 20
68.259014683
 11
33.8054023849
 21
68.7588335848
  0
LINE
  5
353
100
AcDbEntity
  8
0
100
AcDbLine
 62
7
  6
BYLAYER
 10
32.80494831
 20
57.9845674487
 11
32.8844203788
 21
58.892937351
  0
LINE
  5
354
100
AcDbEntity
  8
0
100
AcDbLine
 62
7
  6
BYLAYER
 10
37.4116442896
 20
55.9335955003
 11
37.3192362243
 21
55.737098124
  0
LINE
  5
355
100
AcDbEntity
  8
0
100
AcDbLine
 62
7
  6
BYLAYER
 10
37.60494831
 20
49.6885420449
 11
38.10494831
 21
50.5545674487
  0
LINE
  5
356
100
AcDbEntity
  8
0
100
AcDbLine
 62
7
  6
BYLAYER
 10
39.00494831
 20
49.5545674487
 11
38.85494831
 21
49.4045674487
  0
LINE
  5
357
100
AcDbEntity
  8
0
100
AcDbLine
 62
7
  6
BYLAYER
 10
21.35494831
 20
31.1845674487
 11
21.65494831
 21
31.4845674487
  0
LINE
  5
358
100
AcDbEntity
  8
0
100
AcDbLine
 62
7
  6
BYLAYER
 10
37.60494831
 20
45.5545674487
 11
37.75494831
 21
45.7045674487
  0
LINE
  5
359
100
AcDbEntity
  8
0
100
AcDbLine
 62
7
  6
BYLAYER
 10
15.612101928
 20
31.8259661768
 11
15.310281944
 21
31.6510789112
  0
LINE
  5
35A
100
AcDbEntity
  8
0
100
AcDbLine
 62
7
  6
BYLAYER
 10
18.9976875491
 20
32.2393697407
 11
19.299584869
 21
32.4143126131
  0
LINE
  5
35B
100
AcDbEntity
  8
0
100
AcDbLine
 62
7
  6
BYLAYER
 10
12.40494831
 20
31.6256384743
 11
16.4628766833
 21
33.5092661112
  0
LINE
  5
35C
100
AcDbEntity
  8
0
100
AcDbLine
 62
7
  6
BYLAYER
 10
46.9048844008
 20
35.1419453369
 11
50.20494831
 21
33.6101066717
  0
LINE
  5
35D
100
AcDbEntity
  8
0
100
AcDbLine
 62
7
  6
BYLAYER
 10
43.30494831
 20
32.1451780826
 11
43.3109415431
 21
32.138399767
  0
LINE
  5
35E
100
AcDbEntity
  8
0
100
AcDbLine
 62
7
  6
BYLAYER
 10
43.3103334322
 20
31.5889002292
 11
43.30494831
 21
31.5951780826
  0
LINE
  5
35F
100
AcDbEntity
  8
0
100
AcDbLine
 62
7
  6
BYLAYER
 10
34.6059220163
 20
34.3523499648
 11
34.5711378981
 21
34.7499342557
  0
LINE
  5
360
100
AcDbEntity
  8
0
100
AcDbLine
 62
7
  6
BYLAYER
 10
34.82994831
 20
35.4951780826
 11
34.7665064375
 21
36.2203220043
  0
LINE
  5
361
100
AcDbEntity
  8
0
100
AcDbLine
 62
7
  6
BYLAYER
 10
33.63494831
 20
35.4345674487
 11
33.63494831
 21
34.8030609532
  0
LINE
  5
362
100
AcDbEntity
  8
0
100
AcDbLine
 62
7
  6
BYLAYER
 10
33.63494831
 20
32.5123183206
 11
33.63494831
 21
31.5845674487
  0
LINE
  5
363
100
AcDbEntity
  8
0
100
AcDbLine
 62
7
  6
BYLAYER
 10
34.00494831
 20
32.1845674487
 11
34.00494831
 21
31.5845674487
  0
LINE
  5
364
100
AcDbEntity
  8
0
100
AcDbLine
 62
7
  6
BYLAYER
 10
34.15494831
 20
6.9845674487
 11
34.15494831
 21
9.8845674487
  0
LINE
  5
365
100
AcDbEntity
  8
0
100
AcDbLine
 62
7
  6
BYLAYER
 10
34.15494831
 20
54.7845674487
 11
34.15494831
 21
55.491050217
  0
LINE
  5
366
100
AcDbEntity
  8
0
100
AcDbLine
 62
7
  6
BYLAYER
 10
34.15494831
 20
57.6845674487
 11
34.15494831
 21
57.9845674487
  0
LINE
  5
367
100
AcDbEntity
  8
0
100
AcDbLine
 62
7
  6
BYLAYER
 10
34.20494831
 20
57.9045674487
 11
34.20494831
 21
58.5579703227
  0
LINE
  5
368
100
AcDbEntity
  8
0
100
AcDbLine
 62
7
  6
BYLAYER
 10
34.3269749262
 20
68.632389031
 11
34.3269749262
 21
70.4045674487
  0
LINE
  5
369
100
AcDbEntity
  8
0
100
AcDbLine
 62
7
  6
BYLAYER
 10
34.40494831
 20
54.7845674487
 11
34.40494831
 21
54.6845674487
  0
LINE
  5
36A
100
AcDbEntity
  8
0
100
AcDbLine
 62
7
  6
BYLAYER
 10
34.80494831
 20
30.0845674487
 11
34.80494831
 21
31.5745423229
  0
LINE
  5
36B
100
AcDbEntity
  8
0
100
AcDbLine
 62
7
  6
BYLAYER
 10
35.00494831
 20
31.5845674487
 11
35.00494831
 21
30.0845674487
  0
LINE
  5
36C
100
AcDbEntity
  8
0
100
AcDbLine
 62
7
  6
BYLAYER
 10
35.35494831
 20
30.0845674487
 11
35.35494831
 21
31.1845674487
  0
LINE
  5
36D
100
AcDbEntity
  8
0
100
AcDbLine
 62
7
  6
BYLAYER
 10
35.35494831
 20
34.0046635352
 11
35.35494831
 21
36.0974505726
  0
LINE
  5
36E
100
AcDbEntity
  8
0
100
AcDbLine
 62
7
  6
BYLAYER
 10
35.40494831
 20
70.4045674487
 11
35.40494831
 21
67.6197542084
  0
LINE
  5
36F
100
AcDbEntity
  8
0
100
AcDbLine
 62
7
  6
BYLAYER
 10
35.5757816434
 20
31.9176879174
 11
35.5757816434
 21
33.9021561148
  0
LINE
  5
370
100
AcDbEntity
  8
0
100
AcDbLine
 62
7
  6
BYLAYER
 10
35.65494831
 20
68.7845674487
 11
35.65494831
 21
67.3042980663
  0
LINE
  5
371
100
AcDbEntity
  8
0
100
AcDbLine
 62
7
  6
BYLAYER
 10
36.20494831
 20
33.6101066717
 11
36.20494831
 21
31.6256384743
  0
LINE
  5
372
100
AcDbEntity
  8
0
100
AcDbLine
 62
7
  6
BYLAYER
 10
51.3293446141
 20
69.7159840483
 11
51.30494831
 21
69.6737284101
  0
LINE
  5
373
100
AcDbEntity
  8
0
100
AcDbLine
 62
7
  6
BYLAYER
 10
18.9970851955
 20
31.6891427214
 11
19.2991951274
 21
31.8642703092
  0
LINE
  5
374
100
AcDbEntity
  8
0
100
AcDbLine
 62
7
  6
BYLAYER
 10
39.00494831
 20
45.5545674487
 11
37.60494831
 21
45.5545674487
  0
LINE
  5
375
100
AcDbEntity
  8
0
100
AcDbLine
 62
7
  6
BYLAYER
 10
25.00494831
 20
45.5545674487
 11
23.60494831
 21
45.5545674487
  0
LINE
  5
376
100
AcDbEntity
  8
0
100
AcDbLine
 62
7
  6
BYLAYER
 10
23.75494831
 20
45.7045674487
 11
24.85494831
 21
45.7045674487
  0
LINE
  5
377
100
AcDbEntity
  8
0
100
AcDbLine
 62
7
  6
BYLAYER
 10
37.75494831
 20
45.7045674487
 11
38.85494831
 21
45.7045674487
  0
LINE
  5
378
100
AcDbEntity
  8
0
100
AcDbLine
 62
7
  6
BYLAYER
 10
51.45494831
 20
46.3945674487
 11
51.60494831
 21
46.3945674487
  0
LINE
  5
379
100
AcDbEntity
  8
0
100
AcDbLine
 62
7
  6
BYLAYER
 10
47.30494831
 20
31.9201780826
 11
47.2988940259
 21
31.926990855
  0
LINE
  5
37A
100
AcDbEntity
  8
0
100
AcDbLine
 62
7
  6
BYLAYER
 10
31.92494831
 20
55.8845674487
 11
31.72494831
 21
56.6309776102
  0
LINE
  5
37B
100
AcDbEntity
  8
0
100
AcDbLine
 62
7
  6
BYLAYER
 10
36.35494831
 20
32.1545674487
 11
36.35494831
 21
35.8755437209
  0
LINE
  5
37C
100
AcDbEntity
  8
0
100
AcDbLine
 62
7
  6
BYLAYER
 10
36.60494831
 20
32.1545674487
 11
36.60494831
 21
32.1045674487
  0
LINE
  5
37D
100
AcDbEntity
  8
0
100
AcDbLine
 62
7
  6
BYLAYER
 10
37.25494831
 20
31.4845674487
 11
37.25494831
 21
31.5845674487
  0
LINE
  5
37E
100
AcDbEntity
  8
0
100
AcDbLine
 62
7
  6
BYLAYER
 10
37.3297951087
 20
7.9845674487
 11
37.3297951087
 21
6.9845674487
  0
LINE
  5
37F
100
AcDbEntity
  8
0
100
AcDbLine
 62
7
  6
BYLAYER
 10
37.40494831
 20
54.7845674487
 11
37.40494831
 21
54.6845674487
  0
LINE
  5
380
100
AcDbEntity
  8
0
100
AcDbLine
 62
7
  6
BYLAYER
 10
37.45494831
 20
52.1620634098
 11
37.45494831
 21
32.1545674487
  0
LINE
  5
381
100
AcDbEntity
  8
0
100
AcDbLine
 62
7
  6
BYLAYER
 10
37.45494831
 20
31.5845674487
 11
37.45494831
 21
31.4845674487
  0
LINE
  5
382
100
AcDbEntity
  8
0
100
AcDbLine
 62
7
  6
BYLAYER
 10
37.52994831
 20
32.0845674487
 11
37.52994831
 21
30.0845674487
  0
LINE
  5
383
100
AcDbEntity
  8
0
100
AcDbLine
 62
7
  6
BYLAYER
 10
37.60494831
 20
58.5579703227
 11
37.60494831
 21
57.9045674487
  0
LINE
  5
384
100
AcDbEntity
  8
0
100
AcDbLine
 62
7
  6
BYLAYER
 10
37.60494831
 20
32.0845674487
 11
37.60494831
 21
49.6885420449
  0
LINE
  5
385
100
AcDbEntity
  8
0
100
AcDbLine
 62
7
  6
BYLAYER
 10
37.65494831
 20
54.7845674487
 11
37.65494831
 21
55.491050217
  0
LINE
  5
386
100
AcDbEntity
  8
0
100
AcDbLine
 62
7
  6
BYLAYER
 10
37.65494831
 20
57.6845674487
 11
37.65494831
 21
57.9845674487
  0
LINE
  5
387
100
AcDbEntity
  8
0
100
AcDbLine
 62
7
  6
BYLAYER
 10
37.66494831
 20
66.5045674487
 11
37.66494831
 21
66.0045674487
  0
LINE
  5
388
100
AcDbEntity
  8
0
100
AcDbLine
 62
7
  6
BYLAYER
 10
37.66494831
 20
65.3045674487
 11
37.66494831
 21
64.6016620537
  0
LINE
  5
389
100
AcDbEntity
  8
0
100
AcDbLine
 62
7
  6
BYLAYER
 10
37.75494831
 20
49.4045674487
 11
37.75494831
 21
45.7045674487
  0
LINE
  5
38A
100
AcDbEntity
  8
0
100
AcDbLine
 62
7
  6
BYLAYER
 10
38.57494831
 20
54.9986234834
 11
38.57494831
 21
54.8845674487
  0
LINE
  5
38B
100
AcDbEntity
  8
0
100
AcDbLine
 62
7
  6
BYLAYER
 10
38.85494831
 20
45.7045674487
 11
38.85494831
 21
49.4045674487
  0
LINE
  5
38C
100
AcDbEntity
  8
0
100
AcDbLine
 62
7
  6
BYLAYER
 10
39.00494831
 20
49.6885420449
 11
39.00494831
 21
32.0845674487
  0
LINE
  5
38D
100
AcDbEntity
  8
0
100
AcDbLine
 62
7
  6
BYLAYER
 10
39.07994831
 20
32.0845674487
 11
39.07994831
 21
30.0845674487
  0
LINE
  5
38E
100
AcDbEntity
  8
0
100
AcDbLine
 62
7
  6
BYLAYER
 10
36.3715663498
 20
32.1531135586
 11
36.33494831
 21
31.7345674487
  0
LINE
  5
38F
100
AcDbEntity
  8
0
100
AcDbLine
 62
7
  6
BYLAYER
 10
40.1790418552
 20
73.3662811779
 11
40.1074244787
 21
72.5694932818
  0
LINE
  5
390
100
AcDbEntity
  8
0
100
AcDbLine
 62
7
  6
BYLAYER
 10
36.6384817958
 20
32.1545674487
 11
36.5514389715
 21
31.5845674487
  0
LINE
  5
391
100
AcDbEntity
  8
0
100
AcDbLine
 62
7
  6
BYLAYER
 10
33.7559294715
 20
32.7624351704
 11
33.6398290953
 21
32.5123183206
  0
LINE
  5
392
100
AcDbEntity
  8
0
100
AcDbLine
 62
7
  6
BYLAYER
 10
33.30494831
 20
32.4201780826
 11
33.2995866166
 21
32.4137670058
  0
LINE
  5
393
100
AcDbEntity
  8
0
100
AcDbLine
 62
7
  6
BYLAYER
 10
29.3102813727
 20
31.6512649646
 11
29.30494831
 21
31.6451780826
  0
LINE
  5
394
100
AcDbEntity
  8
0
100
AcDbLine
 62
7
  6
BYLAYER
 10
8.00494831
 20
10.0845674487
 11
8.50494831
 21
10.5845674487
  0
LINE
  5
395
100
AcDbEntity
  8
0
100
AcDbLine
 62
7
  6
BYLAYER
 10
29.612101928
 20
31.8259661768
 11
29.310281944
 21
31.6510789112
  0
LINE
  5
396
100
AcDbEntity
  8
0
100
AcDbLine
 62
7
  6
BYLAYER
 10
26.40494831
 20
33.6101066717
 11
29.7050122192
 21
35.1419453369
  0
LINE
  5
397
100
AcDbEntity
  8
0
100
AcDbLine
 62
7
  6
BYLAYER
 10
26.40494831
 20
31.6256384743
 11
30.4628766833
 21
33.5092661112
  0
LINE
  5
398
100
AcDbEntity
  8
0
100
AcDbLine
 62
7
  6
BYLAYER
 10
39.15494831
 20
49.0545674487
 11
39.00494831
 21
49.0545674487
  0
LINE
  5
399
100
AcDbEntity
  8
0
100
AcDbLine
 62
7
  6
BYLAYER
 10
37.60494831
 20
49.0545674487
 11
37.45494831
 21
49.0545674487
  0
LINE
  5
39A
100
AcDbEntity
  8
0
100
AcDbLine
 62
7
  6
BYLAYER
 10
25.15494831
 20
49.0545674487
 11
25.00494831
 21
49.0545674487
  0
LINE
  5
39B
100
AcDbEntity
  8
0
100
AcDbLine
 62
7
  6
BYLAYER
 10
23.60494831
 20
49.0545674487
 11
23.45494831
 21
49.0545674487
  0
LINE
  5
39C
100
AcDbEntity
  8
0
100
AcDbLine
 62
7
  6
BYLAYER
 10
38.85494831
 20
49.4045674487
 11
37.75494831
 21
49.4045674487
  0
LINE
  5
39D
100
AcDbEntity
  8
0
100
AcDbLine
 62
7
  6
BYLAYER
 10
24.85494831
 20
49.4045674487
 11
23.75494831
 21
49.4045674487
  0
LINE
  5
39E
100
AcDbEntity
  8
0
100
AcDbLine
 62
7
  6
BYLAYER
 10
23.60494831
 20
49.5545674487
 11
25.00494831
 21
49.5545674487
  0
LINE
  5
39F
100
AcDbEntity
  8
0
100
AcDbLine
 62
7
  6
BYLAYER
 10
37.60494831
 20
49.5545674487
 11
39.00494831
 21
49.5545674487
  0
LINE
  5
3A0
100
AcDbEntity
  8
0
100
AcDbLine
 62
7
  6
BYLAYER
 10
8.00494831
 20
50.5545674487
 11
11.15494831
 21
50.5545674487
  0
LINE
  5
3A1
100
AcDbEntity
  8
0
100
AcDbLine
 62
7
  6
BYLAYER
 10
23.45494831
 20
50.5545674487
 11
25.15494831
 21
50.5545674487
  0
LINE
  5
3A2
100
AcDbEntity
  8
0
100
AcDbLine
 62
7
  6
BYLAYER
 10
37.45494831
 20
50.5545674487
 11
39.15494831
 21
50.5545674487
  0
LINE
  5
3A3
100
AcDbEntity
  8
0
100
AcDbLine
 62
7
  6
BYLAYER
 10
51.45494831
 20
50.5545674487
 11
52.80494831
 21
50.5545674487
  0
LINE
  5
3A4
100
AcDbEntity
  8
0
100
AcDbLine
 62
7
  6
BYLAYER
 10
52.80494831
 20
50.9156742398
 11
52.30494831
 21
50.9156742398
  0
LINE
  5
3A5
100
AcDbEntity
  8
0
100
AcDbLine
 62
7
  6
BYLAYER
 10
8.50494831
 20
50.9156742398
 11
8.00494831
 21
50.9156742398
  0
LINE
  5
3A6
100
AcDbEntity
  8
0
100
AcDbLine
 62
7
  6
BYLAYER
 10
14.5432972276
 20
56.3419585712
 11
17.85494831
 21
54.7845674487
  0
LINE
  5
3A7
100
AcDbEntity
  8
0
100
AcDbLine
 62
7
  6
BYLAYER
 10
15.464927441
 20
57.566129205
 11
17.85494831
 21
56.4421589584
  0
LINE
  5
3A8
100
AcDbEntity
  8
0
100
AcDbLine
 62
7
  6
BYLAYER
 10
39.00494831
 20
45.5545674487
 11
38.85494831
 21
45.7045674487
  0
LINE
  5
3A9
100
AcDbEntity
  8
0
100
AcDbLine
 62
7
  6
BYLAYER
 10
42.9700675248
 20
32.5123183206
 11
42.8539671486
 21
32.7624351704
  0
LINE
  5
3AA
100
AcDbEntity
  8
0
100
AcDbLine
 62
7
  6
BYLAYER
 10
39.00494831
 20
57.9845674487
 11
38.9254761425
 21
58.8929384805
  0
LINE
  5
3AB
100
AcDbEntity
  8
0
100
AcDbLine
 62
7
  6
BYLAYER
 10
39.15494831
 20
31.4845674487
 11
39.15494831
 21
31.5845674487
  0
LINE
  5
3AC
100
AcDbEntity
  8
0
100
AcDbLine
 62
7
  6
BYLAYER
 10
39.15494831
 20
32.1545674487
 11
39.15494831
 21
52.0544457866
  0
LINE
  5
3AD
100
AcDbEntity
  8
0
100
AcDbLine
 62
7
  6
BYLAYER
 10
39.35494831
 20
31.5845674487
 11
39.35494831
 21
31.4845674487
  0
LINE
  5
3AE
100
AcDbEntity
  8
0
100
AcDbLine
 62
7
  6
BYLAYER
 10
39.4739138273
 20
54.9637589474
 11
39.4739138273
 21
56.6213504571
  0
LINE
  5
3AF
100
AcDbEntity
  8
0
100
AcDbLine
 62
7
  6
BYLAYER
 10
39.5208537541
 20
7.9845674487
 11
39.5208537541
 21
6.9845674487
  0
LINE
  5
3B0
100
AcDbEntity
  8
0
100
AcDbLine
 62
7
  6
BYLAYER
 10
39.85494831
 20
56.4421589584
 11
39.85494831
 21
54.7845674487
  0
LINE
  5
3B1
100
AcDbEntity
  8
0
100
AcDbLine
 62
7
  6
BYLAYER
 10
39.90494831
 20
58.9711240364
 11
39.90494831
 21
58.6613997435
  0
LINE
  5
3B2
100
AcDbEntity
  8
0
100
AcDbLine
 62
7
  6
BYLAYER
 10
40.07494831
 20
58.9119593304
 11
40.07494831
 21
54.6845674487
  0
LINE
  5
3B3
100
AcDbEntity
  8
0
100
AcDbLine
 62
7
  6
BYLAYER
 10
40.10494831
 20
54.3434793274
 11
40.10494831
 21
59.5579703227
  0
LINE
  5
3B4
100
AcDbEntity
  8
0
100
AcDbLine
 62
7
  6
BYLAYER
 10
40.25494831
 20
35.8755437209
 11
40.25494831
 21
32.1545674487
  0
LINE
  5
3B5
100
AcDbEntity
  8
0
100
AcDbLine
 62
7
  6
BYLAYER
 10
40.40494831
 20
31.6256384743
 11
40.40494831
 21
33.6101066717
  0
LINE
  5
3B6
100
AcDbEntity
  8
0
100
AcDbLine
 62
7
  6
BYLAYER
 10
40.9009467088
 20
65.3045674487
 11
40.9009467088
 21
54.1045674487
  0
LINE
  5
3B7
100
AcDbEntity
  8
0
100
AcDbLine
 62
7
  6
BYLAYER
 10
41.0341149767
 20
33.9021561148
 11
41.0341149767
 21
31.9176879174
  0
LINE
  5
3B8
100
AcDbEntity
  8
0
100
AcDbLine
 62
7
  6
BYLAYER
 10
41.25494831
 20
34.0046635352
 11
41.25494831
 21
36.0974538933
  0
LINE
  5
3B9
100
AcDbEntity
  8
0
100
AcDbLine
 62
7
  6
BYLAYER
 10
41.55494831
 20
30.0845674487
 11
41.55494831
 21
31.1845674487
  0
LINE
  5
3BA
100
AcDbEntity
  8
0
100
AcDbLine
 62
7
  6
BYLAYER
 10
41.60494831
 20
30.0845674487
 11
41.60494831
 21
31.5845674487
  0
LINE
  5
3BB
100
AcDbEntity
  8
0
100
AcDbLine
 62
7
  6
BYLAYER
 10
41.80494831
 20
31.5745423229
 11
41.80494831
 21
30.0845674487
  0
LINE
  5
3BC
100
AcDbEntity
  8
0
100
AcDbLine
 62
7
  6
BYLAYER
 10
41.9089499113
 20
54.1045674487
 11
41.9089499113
 21
65.3045674487
  0
LINE
  5
3BD
100
AcDbEntity
  8
0
100
AcDbLine
 62
7
  6
BYLAYER
 10
43.6505346334
 20
76.933134585
 11
43.3549519164
 21
73.5546086698
  0
LINE
  5
3BE
100
AcDbEntity
  8
0
100
AcDbLine
 62
7
  6
BYLAYER
 10
43.8530492655
 20
73.5546086698
 11
44.148631866
 21
76.9331331943
  0
LINE
  5
3BF
100
AcDbEntity
  8
0
100
AcDbLine
 62
7
  6
BYLAYER
 10
48.4116442896
 20
55.9335955003
 11
48.3192362243
 21
55.737098124
  0
LINE
  5
3C0
100
AcDbEntity
  8
0
100
AcDbLine
 62
7
  6
BYLAYER
 10
33.30494831
 20
31.8701780826
 11
33.2991975553
 21
31.8635383717
  0
LINE
  5
3C1
100
AcDbEntity
  8
0
100
AcDbLine
 62
7
  6
BYLAYER
 10
35.35494831
 20
31.1845674487
 11
35.65494831
 21
31.4845674487
  0
LINE
  5
3C2
100
AcDbEntity
  8
0
100
AcDbLine
 62
7
  6
BYLAYER
 10
32.9970851955
 20
31.6891427214
 11
33.2991951274
 21
31.8642703092
  0
LINE
  5
3C3
100
AcDbEntity
  8
0
100
AcDbLine
 62
7
  6
BYLAYER
 10
32.9976875491
 20
32.2393697407
 11
33.299584869
 21
32.4143126131
  0
LINE
  5
3C4
100
AcDbEntity
  8
0
100
AcDbLine
 62
7
  6
BYLAYER
 10
52.60494831
 20
52.5045674487
 11
52.1009467088
 21
52.5045674487
  0
LINE
  5
3C5
100
AcDbEntity
  8
0
100
AcDbLine
 62
7
  6
BYLAYER
 10
8.7089499113
 20
52.5045674487
 11
8.20494831
 21
52.5045674487
  0
LINE
  5
3C6
100
AcDbEntity
  8
0
100
AcDbLine
 62
7
  6
BYLAYER
 10
8.00494831
 20
52.7045674487
 11
8.9089499113
 21
52.7045674487
  0
LINE
  5
3C7
100
AcDbEntity
  8
0
100
AcDbLine
 62
7
  6
BYLAYER
 10
51.9009467088
 20
52.7045674487
 11
52.80494831
 21
52.7045674487
  0
LINE
  5
3C8
100
AcDbEntity
  8
0
100
AcDbLine
 62
7
  6
BYLAYER
 10
25.5432972276
 20
56.3419585712
 11
28.85494831
 21
54.7845674487
  0
LINE
  5
3C9
100
AcDbEntity
  8
0
100
AcDbLine
 62
7
  6
BYLAYER
 10
37.60494831
 20
49.5545674487
 11
37.75494831
 21
49.4045674487
  0
LINE
  5
3CA
100
AcDbEntity
  8
0
100
AcDbLine
 62
7
  6
BYLAYER
 10
38.50494831
 20
50.5545674487
 11
39.00494831
 21
49.6885420449
  0
LINE
  5
3CB
100
AcDbEntity
  8
0
100
AcDbLine
 62
7
  6
BYLAYER
 10
34.4906603958
 20
55.737098124
 11
34.3982523305
 21
55.9335955003
  0
LINE
  5
3CC
100
AcDbEntity
  8
0
100
AcDbLine
 62
7
  6
BYLAYER
 10
42.05494831
 20
67.1545674487
 11
42.05494831
 21
70.0293770859
  0
LINE
  5
3CD
100
AcDbEntity
  8
0
100
AcDbLine
 62
7
  6
BYLAYER
 10
42.40494831
 20
68.2045674487
 11
42.40494831
 21
69.0045674487
  0
LINE
  5
3CE
100
AcDbEntity
  8
0
100
AcDbLine
 62
7
  6
BYLAYER
 10
42.60494831
 20
31.5845674487
 11
42.60494831
 21
32.1845674487
  0
LINE
  5
3CF
100
AcDbEntity
  8
0
100
AcDbLine
 62
7
  6
BYLAYER
 10
42.70494831
 20
59.5579703227
 11
42.70494831
 21
54.3434793274
  0
LINE
  5
3D0
100
AcDbEntity
  8
0
100
AcDbLine
 62
7
  6
BYLAYER
 10
42.72994831
 20
58.9119593304
 11
42.72994831
 21
54.6845674487
  0
LINE
  5
3D1
100
AcDbEntity
  8
0
100
AcDbLine
 62
7
  6
BYLAYER
 10
42.90494831
 20
58.6613997435
 11
42.90494831
 21
58.9711240364
  0
LINE
  5
3D2
100
AcDbEntity
  8
0
100
AcDbLine
 62
7
  6
BYLAYER
 10
42.95494831
 20
54.7845674487
 11
42.95494831
 21
56.4421589584
  0
LINE
  5
3D3
100
AcDbEntity
  8
0
100
AcDbLine
 62
7
  6
BYLAYER
 10
43.10494831
 20
73.0635001406
 11
43.10494831
 21
73.0569005333
  0
LINE
  5
3D4
100
AcDbEntity
  8
0
100
AcDbLine
 62
7
  6
BYLAYER
 10
43.30494831
 20
31.5951780826
 11
43.30494831
 21
31.6451780826
  0
LINE
  5
3D5
100
AcDbEntity
  8
0
100
AcDbLine
 62
7
  6
BYLAYER
 10
43.30494831
 20
32.1451780826
 11
43.30494831
 21
32.6951780826
  0
LINE
  5
3D6
100
AcDbEntity
  8
0
100
AcDbLine
 62
7
  6
BYLAYER
 10
43.30494831
 20
35.6545674487
 11
43.30494831
 21
35.9827154554
  0
LINE
  5
3D7
100
AcDbEntity
  8
0
100
AcDbLine
 62
7
  6
BYLAYER
 10
43.3359827928
 20
56.6213504571
 11
43.3359827928
 21
54.9637589474
  0
LINE
  5
3D8
100
AcDbEntity
  8
0
100
AcDbLine
 62
7
  6
BYLAYER
 10
43.35494831
 20
35.1951780826
 11
43.35494831
 21
35.4951780826
  0
LINE
  5
3D9
100
AcDbEntity
  8
0
100
AcDbLine
 62
7
  6
BYLAYER
 10
43.35494831
 20
73.0287517179
 11
43.35494831
 21
73.5545674487
  0
LINE
  5
3DA
100
AcDbEntity
  8
0
100
AcDbLine
 62
7
  6
BYLAYER
 10
43.6053371845
 20
31.9717370335
 11
43.6053371845
 21
31.8220447837
  0
LINE
  5
3DB
100
AcDbEntity
  8
0
100
AcDbLine
 62
7
  6
BYLAYER
 10
43.72994831
 20
32.9951780826
 11
43.72994831
 21
33.1690520875
  0
LINE
  5
3DC
100
AcDbEntity
  8
0
100
AcDbLine
 62
7
  6
BYLAYER
 10
43.85494831
 20
73.5545674487
 11
43.85494831
 21
72.9724540872
  0
LINE
  5
3DD
100
AcDbEntity
  8
0
100
AcDbLine
 62
7
  6
BYLAYER
 10
44.20494831
 20
54.8845674487
 11
44.20494831
 21
54.7845674487
  0
LINE
  5
3DE
100
AcDbEntity
  8
0
100
AcDbLine
 62
7
  6
BYLAYER
 10
41.77994831
 20
35.4951780826
 11
41.8433886093
 21
36.2203040209
  0
LINE
  5
3DF
100
AcDbEntity
  8
0
100
AcDbLine
 62
7
  6
BYLAYER
 10
43.80494831
 20
57.9845674487
 11
43.8844203788
 21
58.892937351
  0
LINE
  5
3E0
100
AcDbEntity
  8
0
100
AcDbLine
 62
7
  6
BYLAYER
 10
49.5467136258
 20
72.1134992889
 11
49.4064390682
 21
71.3258735922
  0
LINE
  5
3E1
100
AcDbEntity
  8
0
100
AcDbLine
 62
7
  6
BYLAYER
 10
40.40494831
 20
33.6101066717
 11
43.7050122192
 21
35.1419453369
  0
LINE
  5
3E2
100
AcDbEntity
  8
0
100
AcDbLine
 62
7
  6
BYLAYER
 10
40.40494831
 20
31.6256384743
 11
44.4628766833
 21
33.5092661112
  0
LINE
  5
3E3
100
AcDbEntity
  8
0
100
AcDbLine
 62
7
  6
BYLAYER
 10
30.00494831
 20
53.9045674487
 11
30.80494831
 21
53.9045674487
  0
LINE
  5
3E4
100
AcDbEntity
  8
0
100
AcDbLine
 62
7
  6
BYLAYER
 10
8.9089499113
 20
54.1045674487
 11
18.9009467088
 21
54.1045674487
  0
LINE
  5
3E5
100
AcDbEntity
  8
0
100
AcDbLine
 62
7
  6
BYLAYER
 10
19.9089499113
 20
54.1045674487
 11
29.9009467088
 21
54.1045674487
  0
LINE
  5
3E6
100
AcDbEntity
  8
0
100
AcDbLine
 62
7
  6
BYLAYER
 10
30.9089499113
 20
54.1045674487
 11
40.9009467088
 21
54.1045674487
  0
LINE
  5
3E7
100
AcDbEntity
  8
0
100
AcDbLine
 62
7
  6
BYLAYER
 10
41.9089499113
 20
54.1045674487
 11
51.9009467088
 21
54.1045674487
  0
LINE
  5
3E8
100
AcDbEntity
  8
0
100
AcDbLine
 62
7
  6
BYLAYER
 10
52.60494831
 20
54.2045674487
 11
52.1009467088
 21
54.2045674487
  0
LINE
  5
3E9
100
AcDbEntity
  8
0
100
AcDbLine
 62
7
  6
BYLAYER
 10
8.7089499113
 20
54.2045674487
 11
8.20494831
 21
54.2045674487
  0
LINE
  5
3EA
100
AcDbEntity
  8
0
100
AcDbLine
 62
7
  6
BYLAYER
 10
8.00494831
 20
54.4045674487
 11
8.9089499113
 21
54.4045674487
  0
LINE
  5
3EB
100
AcDbEntity
  8
0
100
AcDbLine
 62
7
  6
BYLAYER
 10
51.9009467088
 20
54.4045674487
 11
52.80494831
 21
54.4045674487
  0
LINE
  5
3EC
100
AcDbEntity
  8
0
100
AcDbLine
 62
7
  6
BYLAYER
 10
9.70494831
 20
54.6045674487
 11
18.10494831
 21
54.6045674487
  0
LINE
  5
3ED
100
AcDbEntity
  8
0
100
AcDbLine
 62
7
  6
BYLAYER
 10
20.70494831
 20
54.6045674487
 11
29.10494831
 21
54.6045674487
  0
LINE
  5
3EE
100
AcDbEntity
  8
0
100
AcDbLine
 62
7
  6
BYLAYER
 10
31.70494831
 20
54.6045674487
 11
40.10494831
 21
54.6045674487
  0
LINE
  5
3EF
100
AcDbEntity
  8
0
100
AcDbLine
 62
7
  6
BYLAYER
 10
42.70494831
 20
54.6045674487
 11
51.10494831
 21
54.6045674487
  0
LINE
  5
3F0
100
AcDbEntity
  8
0
100
AcDbLine
 62
7
  6
BYLAYER
 10
50.87994831
 20
54.6845674487
 11
42.72994831
 21
54.6845674487
  0
LINE
  5
3F1
100
AcDbEntity
  8
0
100
AcDbLine
 62
7
  6
BYLAYER
 10
40.07494831
 20
54.6845674487
 11
31.72494831
 21
54.6845674487
  0
LINE
  5
3F2
100
AcDbEntity
  8
0
100
AcDbLine
 62
7
  6
BYLAYER
 10
29.08494831
 20
54.6845674487
 11
20.73494831
 21
54.6845674487
  0
LINE
  5
3F3
100
AcDbEntity
  8
0
100
AcDbLine
 62
7
  6
BYLAYER
 10
18.07994831
 20
54.6845674487
 11
9.92994831
 21
54.6845674487
  0
LINE
  5
3F4
100
AcDbEntity
  8
0
100
AcDbLine
 62
7
  6
BYLAYER
 10
50.87994831
 20
54.7845674487
 11
42.72994831
 21
54.7845674487
  0
LINE
  5
3F5
100
AcDbEntity
  8
0
100
AcDbLine
 62
7
  6
BYLAYER
 10
9.92994831
 20
54.7845674487
 11
18.07994831
 21
54.7845674487
  0
LINE
  5
3F6
100
AcDbEntity
  8
0
100
AcDbLine
 62
7
  6
BYLAYER
 10
20.73494831
 20
54.7845674487
 11
29.08494831
 21
54.7845674487
  0
LINE
  5
3F7
100
AcDbEntity
  8
0
100
AcDbLine
 62
7
  6
BYLAYER
 10
31.72494831
 20
54.7845674487
 11
40.07494831
 21
54.7845674487
  0
LINE
  5
3F8
100
AcDbEntity
  8
0
100
AcDbLine
 62
7
  6
BYLAYER
 10
49.52994831
 20
54.8845674487
 11
48.65494831
 21
54.8845674487
  0
LINE
  5
3F9
100
AcDbEntity
  8
0
100
AcDbLine
 62
7
  6
BYLAYER
 10
45.15494831
 20
54.8845674487
 11
43.9581194743
 21
54.8845674487
  0
LINE
  5
3FA
100
AcDbEntity
  8
0
100
AcDbLine
 62
7
  6
BYLAYER
 10
42.95494831
 20
54.8845674487
 11
42.72994831
 21
54.8845674487
  0
LINE
  5
3FB
100
AcDbEntity
  8
0
100
AcDbLine
 62
7
  6
BYLAYER
 10
38.57494831
 20
54.8845674487
 11
37.65494831
 21
54.8845674487
  0
LINE
  5
3FC
100
AcDbEntity
  8
0
100
AcDbLine
 62
7
  6
BYLAYER
 10
34.15494831
 20
54.8845674487
 11
32.9581194743
 21
54.8845674487
  0
LINE
  5
3FD
100
AcDbEntity
  8
0
100
AcDbLine
 62
7
  6
BYLAYER
 10
27.8517771458
 20
54.8845674487
 11
26.65494831
 21
54.8845674487
  0
LINE
  5
3FE
100
AcDbEntity
  8
0
100
AcDbLine
 62
7
  6
BYLAYER
 10
23.15494831
 20
54.8845674487
 11
21.9581194743
 21
54.8845674487
  0
LINE
  5
3FF
100
AcDbEntity
  8
0
100
AcDbLine
 62
7
  6
BYLAYER
 10
20.95494831
 20
54.8845674487
 11
20.73494831
 21
54.8845674487
  0
LINE
  5
400
100
AcDbEntity
  8
0
100
AcDbLine
 62
7
  6
BYLAYER
 10
18.07994831
 20
54.8845674487
 11
17.85494831
 21
54.8845674487
  0
LINE
  5
401
100
AcDbEntity
  8
0
100
AcDbLine
 62
7
  6
BYLAYER
 10
16.8517771458
 20
54.8845674487
 11
15.65494831
 21
54.8845674487
  0
LINE
  5
402
100
AcDbEntity
  8
0
100
AcDbLine
 62
7
  6
BYLAYER
 10
12.15494831
 20
54.8845674487
 11
10.9581194743
 21
54.8845674487
  0
LINE
  5
403
100
AcDbEntity
  8
0
100
AcDbLine
 62
7
  6
BYLAYER
 10
9.95494831
 20
54.8845674487
 11
9.92994831
 21
54.8845674487
  0
LINE
  5
404
100
AcDbEntity
  8
0
100
AcDbLine
 62
7
  6
BYLAYER
 10
28.85494831
 20
54.8845674487
 11
29.08494831
 21
54.8845674487
  0
LINE
  5
405
100
AcDbEntity
  8
0
100
AcDbLine
 62
7
  6
BYLAYER
 10
31.72494831
 20
54.8845674487
 11
31.95494831
 21
54.8845674487
  0
LINE
  5
406
100
AcDbEntity
  8
0
100
AcDbLine
 62
7
  6
BYLAYER
 10
40.07494831
 20
55.0345674487
 11
39.85494831
 21
55.0345674487
  0
LINE
  5
407
100
AcDbEntity
  8
0
100
AcDbLine
 62
7
  6
BYLAYER
 10
48.0880186998
 20
55.9845674487
 11
45.7218025637
 21
55.9845674487
  0
LINE
  5
408
100
AcDbEntity
  8
0
100
AcDbLine
 62
7
  6
BYLAYER
 10
37.0880186998
 20
55.9845674487
 11
34.7218025637
 21
55.9845674487
  0
LINE
  5
409
100
AcDbEntity
  8
0
100
AcDbLine
 62
7
  6
BYLAYER
 10
26.0880186998
 20
55.9845674487
 11
23.7218025637
 21
55.9845674487
  0
LINE
  5
40A
100
AcDbEntity
  8
0
100
AcDbLine
 62
7
  6
BYLAYER
 10
15.0880186998
 20
55.9845674487
 11
12.7218025637
 21
55.9845674487
  0
LINE
  5
40B
100
AcDbEntity
  8
0
100
AcDbLine
 62
7
  6
BYLAYER
 10
13.1445623716
 20
56.2845674487
 11
14.6653342485
 21
56.2845674487
  0
LINE
  5
40C
100
AcDbEntity
  8
0
100
AcDbLine
 62
7
  6
BYLAYER
 10
24.1445623716
 20
56.2845674487
 11
25.6653342485
 21
56.2845674487
  0
LINE
  5
40D
100
AcDbEntity
  8
0
100
AcDbLine
 62
7
  6
BYLAYER
 10
35.1445623716
 20
56.2845674487
 11
36.6653342485
 21
56.2845674487
  0
LINE
  5
40E
100
AcDbEntity
  8
0
100
AcDbLine
 62
7
  6
BYLAYER
 10
46.1445623716
 20
56.2845674487
 11
47.6653342485
 21
56.2845674487
  0
LINE
  5
40F
100
AcDbEntity
  8
0
100
AcDbLine
 62
7
  6
BYLAYER
 10
26.464927441
 20
57.566129205
 11
28.85494831
 21
56.4421589584
  0
LINE
  5
410
100
AcDbEntity
  8
0
100
AcDbLine
 62
7
  6
BYLAYER
 10
47.8450211587
 20
34.7055483834
 11
47.8411378981
 21
34.7499342557
  0
LINE
  5
411
100
AcDbEntity
  8
0
100
AcDbLine
 62
7
  6
BYLAYER
 10
45.15494831
 20
54.7845674487
 11
45.15494831
 21
55.491050217
  0
LINE
  5
412
100
AcDbEntity
  8
0
100
AcDbLine
 62
7
  6
BYLAYER
 10
45.15494831
 20
57.6845674487
 11
45.15494831
 21
57.9845674487
  0
LINE
  5
413
100
AcDbEntity
  8
0
100
AcDbLine
 62
7
  6
BYLAYER
 10
45.20494831
 20
57.9045674487
 11
45.20494831
 21
58.5579703227
  0
LINE
  5
414
100
AcDbEntity
  8
0
100
AcDbLine
 62
7
  6
BYLAYER
 10
45.40494831
 20
54.7845674487
 11
45.40494831
 21
54.6845674487
  0
LINE
  5
415
100
AcDbEntity
  8
0
100
AcDbLine
 62
7
  6
BYLAYER
 10
46.65494831
 20
72.578620417
 11
46.65494831
 21
73.5545674487
  0
LINE
  5
416
100
AcDbEntity
  8
0
100
AcDbLine
 62
7
  6
BYLAYER
 10
46.87994831
 20
32.9951780826
 11
46.87994831
 21
33.1690520875
  0
LINE
  5
417
100
AcDbEntity
  8
0
100
AcDbLine
 62
7
  6
BYLAYER
 10
46.90494831
 20
33.1574474739
 11
46.90494831
 21
32.9018768124
  0
LINE
  5
418
100
AcDbEntity
  8
0
100
AcDbLine
 62
7
  6
BYLAYER
 10
47.0039364942
 20
31.5845674487
 11
47.0039364942
 21
31.6931159293
  0
LINE
  5
419
100
AcDbEntity
  8
0
100
AcDbLine
 62
7
  6
BYLAYER
 10
47.004471073
 20
32.0936230761
 11
47.004471073
 21
32.2433022502
  0
LINE
  5
41A
100
AcDbEntity
  8
0
100
AcDbLine
 62
7
  6
BYLAYER
 10
47.15494831
 20
73.5545674487
 11
47.15494831
 21
72.5027559961
  0
LINE
  5
41B
100
AcDbEntity
  8
0
100
AcDbLine
 62
7
  6
BYLAYER
 10
47.25494831
 20
35.1951780826
 11
47.25494831
 21
35.4951780826
  0
LINE
  5
41C
100
AcDbEntity
  8
0
100
AcDbLine
 62
7
  6
BYLAYER
 10
47.30494831
 20
35.9827154554
 11
47.30494831
 21
35.6545674487
  0
LINE
  5
41D
100
AcDbEntity
  8
0
100
AcDbLine
 62
7
  6
BYLAYER
 10
47.30494831
 20
31.8701780826
 11
47.30494831
 21
31.9201780826
  0
LINE
  5
41E
100
AcDbEntity
  8
0
100
AcDbLine
 62
7
  6
BYLAYER
 10
47.30494831
 20
32.4201780826
 11
47.30494831
 21
32.6951780826
  0
LINE
  5
41F
100
AcDbEntity
  8
0
100
AcDbLine
 62
7
  6
BYLAYER
 10
51.4150253131
 20
66.5396867936
 11
51.498438355
 21
67.0326799624
  0
LINE
  5
420
100
AcDbEntity
  8
0
100
AcDbLine
 62
7
  6
BYLAYER
 10
51.3297517224
 20
71.7806370952
 11
51.1764132403
 21
70.9954700366
  0
LINE
  5
421
100
AcDbEntity
  8
0
100
AcDbLine
 62
7
  6
BYLAYER
 10
51.60494831
 20
49.6885420449
 11
52.10494831
 21
50.5545674487
  0
LINE
  5
422
100
AcDbEntity
  8
0
100
AcDbLine
 62
7
  6
BYLAYER
 10
43.3102813727
 20
31.6512649646
 11
43.30494831
 21
31.6451780826
  0
LINE
  5
423
100
AcDbEntity
  8
0
100
AcDbLine
 62
7
  6
BYLAYER
 10
43.612101928
 20
31.8259661768
 11
43.310281944
 21
31.6510789112
  0
LINE
  5
424
100
AcDbEntity
  8
0
100
AcDbLine
 62
7
  6
BYLAYER
 10
46.9976875491
 20
32.2393697407
 11
47.299584869
 21
32.4143126131
  0
LINE
  5
425
100
AcDbEntity
  8
0
100
AcDbLine
 62
7
  6
BYLAYER
 10
12.70494831
 20
57.4045674487
 11
15.10494831
 21
57.4045674487
  0
LINE
  5
426
100
AcDbEntity
  8
0
100
AcDbLine
 62
7
  6
BYLAYER
 10
23.70494831
 20
57.4045674487
 11
26.10494831
 21
57.4045674487
  0
LINE
  5
427
100
AcDbEntity
  8
0
100
AcDbLine
 62
7
  6
BYLAYER
 10
34.70494831
 20
57.4045674487
 11
37.10494831
 21
57.4045674487
  0
LINE
  5
428
100
AcDbEntity
  8
0
100
AcDbLine
 62
7
  6
BYLAYER
 10
45.70494831
 20
57.4045674487
 11
48.10494831
 21
57.4045674487
  0
LINE
  5
429
100
AcDbEntity
  8
0
100
AcDbLine
 62
7
  6
BYLAYER
 10
12.15494831
 20
57.6845674487
 11
12.2762642523
 21
57.6845674487
  0
LINE
  5
42A
100
AcDbEntity
  8
0
100
AcDbLine
 62
7
  6
BYLAYER
 10
15.5335075094
 20
57.6845674487
 11
15.65494831
 21
57.6845674487
  0
LINE
  5
42B
100
AcDbEntity
  8
0
100
AcDbLine
 62
7
  6
BYLAYER
 10
23.15494831
 20
57.6845674487
 11
23.2762642523
 21
57.6845674487
  0
LINE
  5
42C
100
AcDbEntity
  8
0
100
AcDbLine
 62
7
  6
BYLAYER
 10
26.5335075094
 20
57.6845674487
 11
26.65494831
 21
57.6845674487
  0
LINE
  5
42D
100
AcDbEntity
  8
0
100
AcDbLine
 62
7
  6
BYLAYER
 10
34.15494831
 20
57.6845674487
 11
34.2762642523
 21
57.6845674487
  0
LINE
  5
42E
100
AcDbEntity
  8
0
100
AcDbLine
 62
7
  6
BYLAYER
 10
37.5335075094
 20
57.6845674487
 11
37.65494831
 21
57.6845674487
  0
LINE
  5
42F
100
AcDbEntity
  8
0
100
AcDbLine
 62
7
  6
BYLAYER
 10
45.15494831
 20
57.6845674487
 11
45.2762642523
 21
57.6845674487
  0
LINE
  5
430
100
AcDbEntity
  8
0
100
AcDbLine
 62
7
  6
BYLAYER
 10
48.5335075094
 20
57.6845674487
 11
48.65494831
 21
57.6845674487
  0
LINE
  5
431
100
AcDbEntity
  8
0
100
AcDbLine
 62
7
  6
BYLAYER
 10
10.80494831
 20
57.9845674487
 11
12.20494831
 21
57.9845674487
  0
LINE
  5
432
100
AcDbEntity
  8
0
100
AcDbLine
 62
7
  6
BYLAYER
 10
15.60494831
 20
57.9845674487
 11
17.00494831
 21
57.9845674487
  0
LINE
  5
433
100
AcDbEntity
  8
0
100
AcDbLine
 62
7
  6
BYLAYER
 10
21.80494831
 20
57.9845674487
 11
23.20494831
 21
57.9845674487
  0
LINE
  5
434
100
AcDbEntity
  8
0
100
AcDbLine
 62
7
  6
BYLAYER
 10
26.60494831
 20
57.9845674487
 11
28.00494831
 21
57.9845674487
  0
LINE
  5
435
100
AcDbEntity
  8
0
100
AcDbLine
 62
7
  6
BYLAYER
 10
32.80494831
 20
57.9845674487
 11
34.20494831
 21
57.9845674487
  0
LINE
  5
436
100
AcDbEntity
  8
0
100
AcDbLine
 62
7
  6
BYLAYER
 10
37.60494831
 20
57.9845674487
 11
39.00494831
 21
57.9845674487
  0
LINE
  5
437
100
AcDbEntity
  8
0
100
AcDbLine
 62
7
  6
BYLAYER
 10
43.80494831
 20
57.9845674487
 11
45.20494831
 21
57.9845674487
  0
LINE
  5
438
100
AcDbEntity
  8
0
100
AcDbLine
 62
7
  6
BYLAYER
 10
48.60494831
 20
57.9845674487
 11
50.00494831
 21
57.9845674487
  0
LINE
  5
439
100
AcDbEntity
  8
0
100
AcDbLine
 62
7
  6
BYLAYER
 10
36.5432972276
 20
56.3419585712
 11
39.85494831
 21
54.7845674487
  0
LINE
  5
43A
100
AcDbEntity
  8
0
100
AcDbLine
 62
7
  6
BYLAYER
 10
37.464927441
 20
57.566129205
 11
39.85494831
 21
56.4421589584
  0
LINE
  5
43B
100
AcDbEntity
  8
0
100
AcDbLine
 62
7
  6
BYLAYER
 10
48.82994831
 20
35.4951780826
 11
48.7665064375
 21
36.2203220043
  0
LINE
  5
43C
100
AcDbEntity
  8
0
100
AcDbLine
 62
7
  6
BYLAYER
 10
46.3612648724
 20
76.9331318063
 11
46.6568473546
 21
73.5546086698
  0
LINE
  5
43D
100
AcDbEntity
  8
0
100
AcDbLine
 62
7
  6
BYLAYER
 10
47.15494831
 20
73.5545674487
 11
46.8593619867
 21
76.933134585
  0
LINE
  5
43E
100
AcDbEntity
  8
0
100
AcDbLine
 62
7
  6
BYLAYER
 10
47.2138790291
 20
72.4938145064
 11
47.15494831
 21
73.5545674487
  0
LINE
  5
43F
100
AcDbEntity
  8
0
100
AcDbLine
 62
7
  6
BYLAYER
 10
48.00494831
 20
32.1845674487
 11
48.00494831
 21
31.5845674487
  0
LINE
  5
440
100
AcDbEntity
  8
0
100
AcDbLine
 62
7
  6
BYLAYER
 10
48.05494831
 20
68.2045674487
 11
48.05494831
 21
69.2058544115
  0
LINE
  5
441
100
AcDbEntity
  8
0
100
AcDbLine
 62
7
  6
BYLAYER
 10
48.35494831
 20
67.2247715516
 11
48.35494831
 21
68.6261064796
  0
LINE
  5
442
100
AcDbEntity
  8
0
100
AcDbLine
 62
7
  6
BYLAYER
 10
48.40494831
 20
54.7845674487
 11
48.40494831
 21
54.6845674487
  0
LINE
  5
443
100
AcDbEntity
  8
0
100
AcDbLine
 62
7
  6
BYLAYER
 10
48.60494831
 20
58.5579703227
 11
48.60494831
 21
57.9045674487
  0
LINE
  5
444
100
AcDbEntity
  8
0
100
AcDbLine
 62
7
  6
BYLAYER
 10
48.65494831
 20
54.7845674487
 11
48.65494831
 21
55.491050217
  0
LINE
  5
445
100
AcDbEntity
  8
0
100
AcDbLine
 62
7
  6
BYLAYER
 10
48.65494831
 20
57.6845674487
 11
48.65494831
 21
57.9845674487
  0
LINE
  5
446
100
AcDbEntity
  8
0
100
AcDbLine
 62
7
  6
BYLAYER
 10
48.7160475488
 20
70.3914839826
 11
48.7160475488
 21
69.0045674487
  0
LINE
  5
447
100
AcDbEntity
  8
0
100
AcDbLine
 62
7
  6
BYLAYER
 10
48.80494831
 20
30.0845674487
 11
48.80494831
 21
31.5745423229
  0
LINE
  5
448
100
AcDbEntity
  8
0
100
AcDbLine
 62
7
  6
BYLAYER
 10
49.00494831
 20
31.5845674487
 11
49.00494831
 21
30.0845674487
  0
LINE
  5
449
100
AcDbEntity
  8
0
100
AcDbLine
 62
7
  6
BYLAYER
 10
49.35494831
 20
30.0845674487
 11
49.35494831
 21
31.1845674487
  0
LINE
  5
44A
100
AcDbEntity
  8
0
100
AcDbLine
 62
7
  6
BYLAYER
 10
49.35494831
 20
34.0046635352
 11
49.35494831
 21
36.0974505726
  0
LINE
  5
44B
100
AcDbEntity
  8
0
100
AcDbLine
 62
7
  6
BYLAYER
 10
49.52994831
 20
55.0155275636
 11
49.52994831
 21
54.8845674487
  0
LINE
  5
44C
100
AcDbEntity
  8
0
100
AcDbLine
 62
7
  6
BYLAYER
 10
49.5757816434
 20
31.9176879174
 11
49.5757816434
 21
33.9021561148
  0
LINE
  5
44D
100
AcDbEntity
  8
0
100
AcDbLine
 62
7
  6
BYLAYER
 10
49.70494831
 20
64.7514725147
 11
49.70494831
 21
65.3045674487
  0
LINE
  5
44E
100
AcDbEntity
  8
0
100
AcDbLine
 62
7
  6
BYLAYER
 10
49.7049483091
 20
66.0045674487
 11
49.7049483091
 21
66.5045674487
  0
LINE
  5
44F
100
AcDbEntity
  8
0
100
AcDbLine
 62
7
  6
BYLAYER
 10
50.20494831
 20
33.6101066717
 11
50.20494831
 21
31.6256384743
  0
LINE
  5
450
100
AcDbEntity
  8
0
100
AcDbLine
 62
7
  6
BYLAYER
 10
51.8902480549
 20
51.4083444678
 11
51.9755477998
 21
51.9010146958
  0
LINE
  5
451
100
AcDbEntity
  8
0
100
AcDbLine
 62
7
  6
BYLAYER
 10
52.0565242413
 20
66.4294410419
 11
52.1424841267
 21
66.921996519
  0
LINE
  5
452
100
AcDbEntity
  8
0
100
AcDbLine
 62
7
  6
BYLAYER
 10
47.7559294715
 20
32.7624351704
 11
47.6398290953
 21
32.5123183206
  0
LINE
  5
453
100
AcDbEntity
  8
0
100
AcDbLine
 62
7
  6
BYLAYER
 10
51.60494831
 20
44.7821318834
 11
51.45494831
 21
44.5223242622
  0
LINE
  5
454
100
AcDbEntity
  8
0
100
AcDbLine
 62
7
  6
BYLAYER
 10
47.30494831
 20
32.4201780826
 11
47.2995866166
 21
32.4137670058
  0
LINE
  5
455
100
AcDbEntity
  8
0
100
AcDbLine
 62
7
  6
BYLAYER
 10
47.30494831
 20
31.8701780826
 11
47.2991975553
 21
31.8635383717
  0
LINE
  5
456
100
AcDbEntity
  8
0
100
AcDbLine
 62
7
  6
BYLAYER
 10
46.9970851955
 20
31.6891427214
 11
47.2991951274
 21
31.8642703092
  0
LINE
  5
457
100
AcDbEntity
  8
0
100
AcDbLine
 62
7
  6
BYLAYER
 10
30.80494831
 20
59.5456685051
 11
30.00494831
 21
59.5456685051
  0
LINE
  5
458
100
AcDbEntity
  8
0
100
AcDbLine
 62
7
  6
BYLAYER
 10
9.70494831
 20
59.5579703227
 11
11.2049484697
 21
59.5579703227
  0
LINE
  5
459
100
AcDbEntity
  8
0
100
AcDbLine
 62
7
  6
BYLAYER
 10
16.6049482891
 20
59.5579703227
 11
18.10494831
 21
59.5579703227
  0
LINE
  5
45A
100
AcDbEntity
  8
0
100
AcDbLine
 62
7
  6
BYLAYER
 10
20.70494831
 20
59.5579703227
 11
22.2049484702
 21
59.5579703227
  0
LINE
  5
45B
100
AcDbEntity
  8
0
100
AcDbLine
 62
7
  6
BYLAYER
 10
27.6049483226
 20
59.5579703227
 11
29.10494831
 21
59.5579703227
  0
LINE
  5
45C
100
AcDbEntity
  8
0
100
AcDbLine
 62
7
  6
BYLAYER
 10
31.70494831
 20
59.5579703227
 11
33.2049485163
 21
59.5579703227
  0
LINE
  5
45D
100
AcDbEntity
  8
0
100
AcDbLine
 62
7
  6
BYLAYER
 10
38.6049483379
 20
59.5579703227
 11
40.10494831
 21
59.5579703227
  0
LINE
  5
45E
100
AcDbEntity
  8
0
100
AcDbLine
 62
7
  6
BYLAYER
 10
42.70494831
 20
59.5579703227
 11
44.2049485087
 21
59.5579703227
  0
LINE
  5
45F
100
AcDbEntity
  8
0
100
AcDbLine
 62
7
  6
BYLAYER
 10
49.6049483224
 20
59.5579703227
 11
51.10494831
 21
59.5579703227
  0
LINE
  5
460
100
AcDbEntity
  8
0
100
AcDbLine
 62
7
  6
BYLAYER
 10
52.80494831
 20
61.0045674487
 11
51.9009467088
 21
61.0045674487
  0
LINE
  5
461
100
AcDbEntity
  8
0
100
AcDbLine
 62
7
  6
BYLAYER
 10
8.9089499113
 20
61.0045674487
 11
8.00494831
 21
61.0045674487
  0
LINE
  5
462
100
AcDbEntity
  8
0
100
AcDbLine
 62
7
  6
BYLAYER
 10
8.20494831
 20
61.2045674487
 11
8.7089499113
 21
61.2045674487
  0
LINE
  5
463
100
AcDbEntity
  8
0
100
AcDbLine
 62
7
  6
BYLAYER
 10
52.1009467088
 20
61.2045674487
 11
52.60494831
 21
61.2045674487
  0
LINE
  5
464
100
AcDbEntity
  8
0
100
AcDbLine
 62
7
  6
BYLAYER
 10
45.4906603958
 20
55.737098124
 11
45.3982523305
 21
55.9335955003
  0
LINE
  5
465
100
AcDbEntity
  8
0
100
AcDbLine
 62
7
  6
BYLAYER
 10
50.00494831
 20
57.9845674487
 11
49.9254761425
 21
58.8929384805
  0
LINE
  5
466
100
AcDbEntity
  8
0
100
AcDbLine
 62
7
  6
BYLAYER
 10
50.35494831
 20
32.1545674487
 11
50.35494831
 21
35.8755437209
  0
LINE
  5
467
100
AcDbEntity
  8
0
100
AcDbLine
 62
7
  6
BYLAYER
 10
50.4739138273
 20
54.9637589474
 11
50.4739138273
 21
56.6213504571
  0
LINE
  5
468
100
AcDbEntity
  8
0
100
AcDbLine
 62
7
  6
BYLAYER
 10
50.85494831
 20
56.4421589584
 11
50.85494831
 21
54.7845674487
  0
LINE
  5
469
100
AcDbEntity
  8
0
100
AcDbLine
 62
7
  6
BYLAYER
 10
50.87994831
 20
58.6819504273
 11
50.87994831
 21
54.6845674487
  0
LINE
  5
46A
100
AcDbEntity
  8
0
100
AcDbLine
 62
7
  6
BYLAYER
 10
51.10494831
 20
54.3434793274
 11
51.10494831
 21
59.5579703227
  0
LINE
  5
46B
100
AcDbEntity
  8
0
100
AcDbLine
 62
7
  6
BYLAYER
 10
51.25494831
 20
31.4845674487
 11
51.25494831
 21
31.5845674487
  0
LINE
  5
46C
100
AcDbEntity
  8
0
100
AcDbLine
 62
7
  6
BYLAYER
 10
51.30494831
 20
6.9845674487
 11
51.30494831
 21
9.8845674487
  0
LINE
  5
46D
100
AcDbEntity
  8
0
100
AcDbLine
 62
7
  6
BYLAYER
 10
51.40494831
 20
68.7845674487
 11
51.40494831
 21
67.6498983239
  0
LINE
  5
46E
100
AcDbEntity
  8
0
100
AcDbLine
 62
7
  6
BYLAYER
 10
51.40494831
 20
32.1545674487
 11
51.40494831
 21
31.5845674487
  0
LINE
  5
46F
100
AcDbEntity
  8
0
100
AcDbLine
 62
7
  6
BYLAYER
 10
51.45494831
 20
50.5545674487
 11
51.45494831
 21
32.1545674487
  0
LINE
  5
470
100
AcDbEntity
  8
0
100
AcDbLine
 62
7
  6
BYLAYER
 10
51.45494831
 20
31.5845674487
 11
51.45494831
 21
31.4845674487
  0
LINE
  5
471
100
AcDbEntity
  8
0
100
AcDbLine
 62
7
  6
BYLAYER
 10
51.52994831
 20
32.0845674487
 11
51.52994831
 21
30.0845674487
  0
LINE
  5
472
100
AcDbEntity
  8
0
100
AcDbLine
 62
7
  6
BYLAYER
 10
51.55494831
 20
68.2045674487
 11
51.55494831
 21
69.0045674487
  0
LINE
  5
473
100
AcDbEntity
  8
0
100
AcDbLine
 62
7
  6
BYLAYER
 10
51.60494831
 20
49.6885420449
 11
51.60494831
 21
32.0845674487
  0
LINE
  5
474
100
AcDbEntity
  8
0
100
AcDbLine
 62
7
  6
BYLAYER
 10
51.60494831
 20
51.9435566627
 11
51.60494831
 21
52.1132725038
  0
LINE
  5
475
100
AcDbEntity
  8
0
100
AcDbLine
 62
7
  6
BYLAYER
 10
51.80494831
 20
10.0845674487
 11
51.80494831
 21
9.8845674487
  0
LINE
  5
476
100
AcDbEntity
  8
0
100
AcDbLine
 62
7
  6
BYLAYER
 10
51.9009467088
 20
52.7045674487
 11
51.9009467088
 21
65.7460071098
  0
LINE
  5
477
100
AcDbEntity
  8
0
100
AcDbLine
 62
7
  6
BYLAYER
 10
52.00494831
 20
69.0045674487
 11
52.00494831
 21
69.989472787
  0
LINE
  5
478
100
AcDbEntity
  8
0
100
AcDbLine
 62
7
  6
BYLAYER
 10
52.1009467088
 20
61.2045674487
 11
52.1009467088
 21
54.2045674487
  0
LINE
  5
479
100
AcDbEntity
  8
0
100
AcDbLine
 62
7
  6
BYLAYER
 10
52.30494831
 20
10.5845674487
 11
52.30494831
 21
50.9156742398
  0
LINE
  5
47A
100
AcDbEntity
  8
0
100
AcDbLine
 62
7
  6
BYLAYER
 10
52.30494831
 20
51.992966465
 11
52.30494831
 21
52.5045674487
  0
LINE
  5
47B
100
AcDbEntity
  8
0
100
AcDbLine
 62
7
  6
BYLAYER
 10
52.30494831
 20
65.1045674487
 11
52.30494831
 21
66.1339077556
  0
LINE
  5
47C
100
AcDbEntity
  8
0
100
AcDbLine
 62
7
  6
BYLAYER
 10
52.30494831
 20
66.843885044
 11
52.30494831
 21
69.0045674487
  0
LINE
  5
47D
100
AcDbEntity
  8
0
100
AcDbLine
 62
7
  6
BYLAYER
 10
52.60494831
 20
52.5045674487
 11
52.60494831
 21
65.1045674487
  0
LINE
  5
47E
100
AcDbEntity
  8
0
100
AcDbLine
 62
7
  6
BYLAYER
 10
52.80494831
 20
7.4845674487
 11
52.80494831
 21
71.0545674487
  0
LINE
  5
47F
100
AcDbEntity
  8
0
100
AcDbLine
 62
7
  6
BYLAYER
 10
49.35494831
 20
31.1845674487
 11
49.65494831
 21
31.4845674487
  0
LINE
  5
480
100
AcDbEntity
  8
0
100
AcDbLine
 62
7
  6
BYLAYER
 10
30.00494831
 20
63.9045674487
 11
30.80494831
 21
63.9045674487
  0
LINE
  5
481
100
AcDbEntity
  8
0
100
AcDbLine
 62
7
  6
BYLAYER
 10
52.80494831
 20
64.9045674487
 11
51.9009467088
 21
64.9045674487
  0
LINE
  5
482
100
AcDbEntity
  8
0
100
AcDbLine
 62
7
  6
BYLAYER
 10
8.9089499113
 20
64.9045674487
 11
8.00494831
 21
64.9045674487
  0
LINE
  5
483
100
AcDbEntity
  8
0
100
AcDbLine
 62
7
  6
BYLAYER
 10
47.5432972276
 20
56.3419585712
 11
50.85494831
 21
54.7845674487
  0
LINE
  5
484
100
AcDbEntity
  8
0
100
AcDbLine
 62
7
  6
BYLAYER
 10
48.464927441
 20
57.566129205
 11
50.85494831
 21
56.4421589584
  0
LINE
  5
485
100
AcDbEntity
  8
0
100
AcDbLine
 62
7
  6
BYLAYER
 10
8.20494831
 20
65.1045674487
 11
8.7089499113
 21
65.1045674487
  0
LINE
  5
486
100
AcDbEntity
  8
0
100
AcDbLine
 62
7
  6
BYLAYER
 10
52.1009467088
 20
65.1045674487
 11
52.60494831
 21
65.1045674487
  0
LINE
  5
487
100
AcDbEntity
  8
0
100
AcDbLine
 62
7
  6
BYLAYER
 10
37.66494831
 20
65.3045674487
 11
40.9009467088
 21
65.3045674487
  0
LINE
  5
488
100
AcDbEntity
  8
0
100
AcDbLine
 62
7
  6
BYLAYER
 10
41.9089499113
 20
65.3045674487
 11
49.70494831
 21
65.3045674487
  0
LINE
  5
489
100
AcDbEntity
  8
0
100
AcDbLine
 62
7
  6
BYLAYER
 10
49.70494831
 20
66.0045674487
 11
37.664951298
 21
66.0045674487
  0
LINE
  5
48A
100
AcDbEntity
  8
0
100
AcDbLine
 62
7
  6
BYLAYER
 10
52.80494831
 20
66.1339077556
 11
52.30494831
 21
66.1339077556
  0
LINE
  5
48B
100
AcDbEntity
  8
0
100
AcDbLine
 62
7
  6
BYLAYER
 10
8.50494831
 20
66.1339077475
 11
8.00494831
 21
66.1339077475
  0
LINE
  5
48C
100
AcDbEntity
  8
0
100
AcDbLine
 62
7
  6
BYLAYER
 10
37.66494831
 20
66.5045674487
 11
49.7049483098
 21
66.5045674487
  0
LINE
  5
48D
100
AcDbEntity
  8
0
100
AcDbLine
 62
7
  6
BYLAYER
 10
9.45494831
 20
67.6983826431
 11
9.20494831
 21
67.6983826431
  0
LINE
  5
48E
100
AcDbEntity
  8
0
100
AcDbLine
 62
7
  6
BYLAYER
 10
9.83494831
 20
68.0045674487
 11
9.45494831
 21
68.0045674487
  0
LINE
  5
48F
100
AcDbEntity
  8
0
100
AcDbLine
 62
7
  6
BYLAYER
 10
8.50494831
 20
68.5108807345
 11
8.00494831
 21
68.5108807345
  0
LINE
  5
490
100
AcDbEntity
  8
0
100
AcDbLine
 62
7
  6
BYLAYER
 10
8.5270874612
 20
68.7045674487
 11
9.0815548152
 21
68.7045674487
  0
LINE
  5
491
100
AcDbEntity
  8
0
100
AcDbLine
 62
7
  6
BYLAYER
 10
35.40494831
 20
68.7845674487
 11
35.65494831
 21
68.7845674487
  0
LINE
  5
492
100
AcDbEntity
  8
0
100
AcDbLine
 62
7
  6
BYLAYER
 10
51.40494831
 20
68.7845674487
 11
51.55494831
 21
68.7845674487
  0
LINE
  5
493
100
AcDbEntity
  8
0
100
AcDbLine
 62
7
  6
BYLAYER
 10
9.83494831
 20
68.9845674487
 11
11.45494831
 21
68.9845674487
  0
LINE
  5
494
100
AcDbEntity
  8
0
100
AcDbLine
 62
7
  6
BYLAYER
 10
8.2894710375
 20
69.0045674487
 11
8.3874752637
 21
69.0045674487
  0
LINE
  5
495
100
AcDbEntity
  8
0
100
AcDbLine
 62
7
  6
BYLAYER
 10
8.6770874612
 20
69.0045674487
 11
9.03494831
 21
69.0045674487
  0
LINE
  5
496
100
AcDbEntity
  8
0
100
AcDbLine
 62
7
  6
BYLAYER
 10
9.3103299577
 20
69.0045674487
 11
9.6359508226
 21
69.0045674487
  0
LINE
  5
497
100
AcDbEntity
  8
0
100
AcDbLine
 62
7
  6
BYLAYER
 10
12.0719180321
 20
69.0045674487
 11
15.737978588
 21
69.0045674487
  0
LINE
  5
498
100
AcDbEntity
  8
0
100
AcDbLine
 62
7
  6
BYLAYER
 10
23.3269749262
 20
69.0045674487
 11
26.4829216938
 21
69.0045674487
  0
LINE
  5
499
100
AcDbEntity
  8
0
100
AcDbLine
 62
7
  6
BYLAYER
 10
35.40494831
 20
69.0045674487
 11
42.05494831
 21
69.0045674487
  0
LINE
  5
49A
100
AcDbEntity
  8
0
100
AcDbLine
 62
7
  6
BYLAYER
 10
42.40494831
 20
69.0045674487
 11
48.05494831
 21
69.0045674487
  0
LINE
  5
49B
100
AcDbEntity
  8
0
100
AcDbLine
 62
7
  6
BYLAYER
 10
48.1364437677
 20
69.0045674487
 11
52.80494831
 21
69.0045674487
  0
LINE
  5
49C
100
AcDbEntity
  8
0
100
AcDbLine
 62
7
  6
BYLAYER
 10
9.03494831
 20
69.2241826909
 11
9.2290997017
 21
69.2241826909
  0
LINE
  5
49D
100
AcDbEntity
  8
0
100
AcDbLine
 62
7
  6
BYLAYER
 10
52.80494831
 20
69.98947474
 11
52.00494831
 21
69.98947474
  0
LINE
  5
49E
100
AcDbEntity
  8
0
100
AcDbLine
 62
7
  6
BYLAYER
 10
36.10494831
 20
70.4045674487
 11
10.7424724144
 21
70.4045674487
  0
LINE
  5
49F
100
AcDbEntity
  8
0
100
AcDbLine
 62
7
  6
BYLAYER
 10
37.15494831
 20
70.7545674487
 11
40.65494831
 21
70.7545674487
  0
LINE
  5
4A0
100
AcDbEntity
  8
0
100
AcDbLine
 62
7
  6
BYLAYER
 10
52.30494831
 20
71.7616742299
 11
51.80494831
 21
71.7616742299
  0
LINE
  5
4A1
100
AcDbEntity
  8
0
100
AcDbLine
 62
7
  6
BYLAYER
 10
48.05494831
 20
69.1457217219
 11
48.35494831
 21
68.6261064796
  0
LINE
  5
4A2
100
AcDbEntity
  8
0
100
AcDbLine
 62
7
  6
BYLAYER
 10
43.85494831
 20
73.5545674487
 11
46.65494831
 21
73.5545674487
  0
LINE
  5
4A3
100
AcDbEntity
  8
0
100
AcDbLine
 62
7
  6
BYLAYER
 10
49.4064390682
 20
71.3258735922
 11
49.1101885222
 21
71.6974534508
  0
LINE
  5
4A4
100
AcDbEntity
  8
0
100
AcDbLine
 62
7
  6
BYLAYER
 10
51.4150253131
 20
66.5396867936
 11
51.1300124792
 21
66.9505002361
  0
LINE
  5
4A5
100
AcDbEntity
  8
0
100
AcDbLine
 62
7
  6
BYLAYER
 10
51.30494831
 20
69.6737284101
 11
49.4917327826
 21
70.720588883
  0
ARC
  5
4A6
100
AcDbEntity
  8
0
100
AcDbCircle
 62
7
  6
BYLAYER
 10
17.30494831
 20
16.5236058335
 40
20.0
100
AcDbArc
 50
72.0913667054
 51
83.9801545774
  0
ARC
  5
4A7
100
AcDbEntity
  8
0
100
AcDbCircle
 62
7
  6
BYLAYER
 10
17.30494831
 20
16.5236058335
 40
20.0
100
AcDbArc
 50
96.0198454226
 51
107.9086332946
  0
ARC
  5
4A8
100
AcDbEntity
  8
0
100
AcDbCircle
 62
7
  6
BYLAYER
 10
17.30494831
 20
31.6951780826
 40
3.8
100
AcDbArc
 50
113.7459189409
 51
114.9
  0
ARC
  5
4A9
100
AcDbEntity
  8
0
100
AcDbCircle
 62
7
  6
BYLAYER
 10
17.30494831
 20
31.6951780826
 40
3.8
100
AcDbArc
 50
65.1
 51
66.2539658875
  0
ARC
  5
4AA
100
AcDbEntity
  8
0
100
AcDbCircle
 62
7
  6
BYLAYER
 10
12.883626004
 20
34.3945674487
 40
2.81
100
AcDbArc
 50
260.1919507275
 51
329.6080492725
  0
ARC
  5
4AB
100
AcDbEntity
  8
0
100
AcDbCircle
 62
7
  6
BYLAYER
 10
17.30494831
 20
31.6951780826
 40
2.0
100
AcDbArc
 50
65.1000327536
 51
114.8999752216
  0
CIRCLE
  5
4AC
100
AcDbEntity
  8
0
100
AcDbCircle
 62
7
  6
BYLAYER
 10
10.50494831
 20
12.8845674487
 40
1.5
  0
CIRCLE
  5
4AD
100
AcDbEntity
  8
0
100
AcDbCircle
 62
7
  6
BYLAYER
 10
10.50494831
 20
12.8845674487
 40
1.2999939271
  0
ARC
  5
4AE
100
AcDbEntity
  8
0
100
AcDbCircle
 62
7
  6
BYLAYER
 10
14.30494831
 20
35.9827154554
 40
1.0
100
AcDbArc
 50
0.0
 51
89.9999959773
  0
ARC
  5
4AF
100
AcDbEntity
  8
0
100
AcDbCircle
 62
7
  6
BYLAYER
 10
14.750868575
 20
34.8345674487
 40
0.75
100
AcDbArc
 50
32.5967632861
 51
69.9548662854
  0
ARC
  5
4B0
100
AcDbEntity
  8
0
100
AcDbCircle
 62
7
  6
BYLAYER
 10
14.750868575
 20
34.8345674487
 40
0.75
100
AcDbArc
 50
13.7312228107
 51
30.0834671129
  0
ARC
  5
4B1
100
AcDbEntity
  8
0
100
AcDbCircle
 62
7
  6
BYLAYER
 10
18.80494831
 20
35.6545674487
 40
0.5
100
AcDbArc
 50
270.0
 51
360.0
  0
ARC
  5
4B2
100
AcDbEntity
  8
0
100
AcDbCircle
 62
7
  6
BYLAYER
 10
15.80494831
 20
35.6545674487
 40
0.5
100
AcDbArc
 50
180.0
 51
270.0
  0
ARC
  5
4B3
100
AcDbEntity
  8
0
100
AcDbCircle
 62
7
  6
BYLAYER
 10
8.50494831
 20
7.4845674487
 40
0.5
100
AcDbArc
 50
180.0
 51
270.0
  0
ARC
  5
4B4
100
AcDbEntity
  8
0
100
AcDbCircle
 62
7
  6
BYLAYER
 10
19.17994831
 20
34.8951780826
 40
0.3
100
AcDbArc
 50
90.0000675533
 51
133.2654040605
  0
ARC
  5
4B5
100
AcDbEntity
  8
0
100
AcDbCircle
 62
7
  6
BYLAYER
 10
15.42994831
 20
34.8951780826
 40
0.3
100
AcDbArc
 50
46.7345959396
 51
89.9999324467
  0
ARC
  5
4B6
100
AcDbEntity
  8
0
100
AcDbCircle
 62
7
  6
BYLAYER
 10
15.42994831
 20
32.9951780826
 40
0.3
100
AcDbArc
 50
270.0001015211
 51
360.0
  0
ARC
  5
4B7
100
AcDbEntity
  8
0
100
AcDbCircle
 62
7
  6
BYLAYER
 10
19.17994831
 20
32.9951780826
 40
0.3
100
AcDbArc
 50
180.0
 51
269.9998984789
  0
ARC
  5
4B8
100
AcDbEntity
  8
0
100
AcDbCircle
 62
7
  6
BYLAYER
 10
9.00494831
 20
50.9156742398
 40
1.0
100
AcDbArc
 50
99.8226764795
 51
179.9999999995
  0
ARC
  5
4B9
100
AcDbEntity
  8
0
100
AcDbCircle
 62
7
  6
BYLAYER
 10
9.00494831
 20
50.9156742398
 40
0.5
100
AcDbArc
 50
99.8226764798
 51
179.9999999996
  0
ARC
  5
4BA
100
AcDbEntity
  8
0
100
AcDbCircle
 62
7
  6
BYLAYER
 10
8.20494831
 20
52.7045674487
 40
0.2
100
AcDbArc
 50
180.0
 51
270.0
  0
ARC
  5
4BB
100
AcDbEntity
  8
0
100
AcDbCircle
 62
7
  6
BYLAYER
 10
8.7089499113
 20
54.4045674487
 40
0.2
100
AcDbArc
 50
270.0
 51
360.0
  0
ARC
  5
4BC
100
AcDbEntity
  8
0
100
AcDbCircle
 62
7
  6
BYLAYER
 10
8.7089499113
 20
52.7045674487
 40
0.2
100
AcDbArc
 50
270.0
 51
360.0
  0
ARC
  5
4BD
100
AcDbEntity
  8
0
100
AcDbCircle
 62
7
  6
BYLAYER
 10
8.20494831
 20
54.4045674487
 40
0.2
100
AcDbArc
 50
180.0
 51
270.0
  0
ARC
  5
4BE
100
AcDbEntity
  8
0
100
AcDbCircle
 62
7
  6
BYLAYER
 10
10.1261343388
 20
58.1802552057
 40
3.4
100
AcDbArc
 50
267.1140042105
 51
323.2589780822
  0
ARC
  5
4BF
100
AcDbEntity
  8
0
100
AcDbCircle
 62
7
  6
BYLAYER
 10
9.83494831
 20
70.0045674487
 40
2.0
100
AcDbArc
 50
228.3176746067
 51
266.9927139012
  0
ARC
  5
4C0
100
AcDbEntity
  8
0
100
AcDbCircle
 62
7
  6
BYLAYER
 10
9.83494831
 20
69.9845674487
 40
1.98
100
AcDbArc
 50
270.0
 51
324.9031987724
  0
ARC
  5
4C1
100
AcDbEntity
  8
0
100
AcDbCircle
 62
7
  6
BYLAYER
 10
9.83494831
 20
69.9845674487
 40
1.83
100
AcDbArc
 50
101.0504406547
 51
224.3831788194
  0
ARC
  5
4C2
100
AcDbEntity
  8
0
100
AcDbCircle
 62
7
  6
BYLAYER
 10
9.83494831
 20
69.9845674487
 40
1.025
100
AcDbArc
 50
24.189514154
 51
218.6947399219
  0
ARC
  5
4C3
100
AcDbEntity
  8
0
100
AcDbCircle
 62
7
  6
BYLAYER
 10
11.20494831
 20
58.5579703227
 40
1.0
100
AcDbArc
 50
0.0
 51
89.9999908504
  0
ARC
  5
4C4
100
AcDbEntity
  8
0
100
AcDbCircle
 62
7
  6
BYLAYER
 10
9.83494831
 20
69.9845674487
 40
1.0
100
AcDbArc
 50
24.8345874897
 51
270.0
  0
ARC
  5
4C5
100
AcDbEntity
  8
0
100
AcDbCircle
 62
7
  6
BYLAYER
 10
8.80494831
 20
66.1339077555
 40
0.8
100
AcDbArc
 50
99.8994573788
 51
179.9999999997
  0
ARC
  5
4C6
100
AcDbEntity
  8
0
100
AcDbCircle
 62
7
  6
BYLAYER
 10
12.70494831
 20
57.9045674487
 40
0.5
100
AcDbArc
 50
180.0
 51
270.0
  0
ARC
  5
4C7
100
AcDbEntity
  8
0
100
AcDbCircle
 62
7
  6
BYLAYER
 10
8.80494831
 20
66.1339077555
 40
0.299997457
100
AcDbArc
 50
99.8984197844
 51
180.0027323793
  0
ARC
  5
4C8
100
AcDbEntity
  8
0
100
AcDbCircle
 62
7
  6
BYLAYER
 10
8.20494831
 20
64.9045674487
 40
0.2
100
AcDbArc
 50
90.0
 51
180.0
  0
ARC
  5
4C9
100
AcDbEntity
  8
0
100
AcDbCircle
 62
7
  6
BYLAYER
 10
8.7089499113
 20
64.9045674487
 40
0.2
100
AcDbArc
 50
0.0000025523
 51
90.0
  0
ARC
  5
4CA
100
AcDbEntity
  8
0
100
AcDbCircle
 62
7
  6
BYLAYER
 10
8.7089499113
 20
61.0045674487
 40
0.2
100
AcDbArc
 50
0.0
 51
90.0
  0
ARC
  5
4CB
100
AcDbEntity
  8
0
100
AcDbCircle
 62
7
  6
BYLAYER
 10
8.20494831
 20
61.0045674487
 40
0.2
100
AcDbArc
 50
90.0
 51
180.0
  0
ARC
  5
4CC
100
AcDbEntity
  8
0
100
AcDbCircle
 62
7
  6
BYLAYER
 10
13.2533859964
 20
42.8793903102
 40
16.750550029
100
AcDbArc
 50
73.1638348482
 51
73.8772515994
  0
ARC
  5
4CD
100
AcDbEntity
  8
0
100
AcDbCircle
 62
7
  6
BYLAYER
 10
13.90494831
 20
44.2045674487
 40
15.0
100
AcDbArc
 50
97.0963133419
 51
105.36867919
  0
ARC
  5
4CE
100
AcDbEntity
  8
0
100
AcDbCircle
 62
7
  6
BYLAYER
 10
13.90494831
 20
44.2045674487
 40
15.0
100
AcDbArc
 50
74.5339900466
 51
82.9036866581
  0
ARC
  5
4CF
100
AcDbEntity
  8
0
100
AcDbCircle
 62
7
  6
BYLAYER
 10
13.90494831
 20
54.9845674487
 40
1.5
100
AcDbArc
 50
64.8135088536
 51
115.1864911464
  0
ARC
  5
4D0
100
AcDbEntity
  8
0
100
AcDbCircle
 62
7
  6
BYLAYER
 10
17.6837622812
 20
58.1802552057
 40
3.4
100
AcDbArc
 50
216.7410219178
 51
272.8859957895
  0
ARC
  5
4D1
100
AcDbEntity
  8
0
100
AcDbCircle
 62
7
  6
BYLAYER
 10
16.60494831
 20
58.5579703227
 40
1.0
100
AcDbArc
 50
90.0000012021
 51
180.0
  0
ARC
  5
4D2
100
AcDbEntity
  8
0
100
AcDbCircle
 62
7
  6
BYLAYER
 10
15.10494831
 20
57.9045674487
 40
0.5
100
AcDbArc
 50
270.0
 51
360.0
  0
ARC
  5
4D3
100
AcDbEntity
  8
0
100
AcDbCircle
 62
7
  6
BYLAYER
 10
20.2121417302
 20
19.5759076398
 40
19.1549797438
100
AcDbArc
 50
118.2186453343
 51
118.7305530362
  0
ARC
  5
4D4
100
AcDbEntity
  8
0
100
AcDbCircle
 62
7
  6
BYLAYER
 10
22.7641593764
 20
32.0845674487
 40
3.0
100
AcDbArc
 50
186.0000000007
 51
189.6280016241
  0
ARC
  5
4D5
100
AcDbEntity
  8
0
100
AcDbCircle
 62
7
  6
BYLAYER
 10
21.7262706161
 20
34.3945674487
 40
2.81
100
AcDbArc
 50
210.3919507275
 51
279.8080492725
  0
ARC
  5
4D6
100
AcDbEntity
  8
0
100
AcDbCircle
 62
7
  6
BYLAYER
 10
26.883626004
 20
34.3945674487
 40
2.81
100
AcDbArc
 50
260.1919507275
 51
329.6080492725
  0
ARC
  5
4D7
100
AcDbEntity
  8
0
100
AcDbCircle
 62
7
  6
BYLAYER
 10
20.30494831
 20
35.9827154554
 40
1.0
100
AcDbArc
 50
90.0000795277
 51
180.0
  0
ARC
  5
4D8
100
AcDbEntity
  8
0
100
AcDbCircle
 62
7
  6
BYLAYER
 10
28.30494831
 20
35.9827154554
 40
1.0
100
AcDbArc
 50
0.0
 51
89.9999964924
  0
CIRCLE
  5
4D9
100
AcDbEntity
  8
0
100
AcDbCircle
 62
7
  6
BYLAYER
 10
21.30494831
 20
13.4045674487
 40
0.8
  0
ARC
  5
4DA
100
AcDbEntity
  8
0
100
AcDbCircle
 62
7
  6
BYLAYER
 10
21.30494831
 20
13.3845674487
 40
0.7
100
AcDbArc
 50
44.4153085972
 51
135.5846914028
  0
ARC
  5
4DB
100
AcDbEntity
  8
0
100
AcDbCircle
 62
7
  6
BYLAYER
 10
21.30494831
 20
13.3845674487
 40
0.7
100
AcDbArc
 50
224.4153085972
 51
315.5846914028
  0
ARC
  5
4DC
100
AcDbEntity
  8
0
100
AcDbCircle
 62
7
  6
BYLAYER
 10
29.80494831
 20
35.6545674487
 40
0.5
100
AcDbArc
 50
180.0
 51
270.0
  0
ARC
  5
4DD
100
AcDbEntity
  8
0
100
AcDbCircle
 62
7
  6
BYLAYER
 10
21.30494831
 20
13.3845674487
 40
0.5
100
AcDbArc
 50
233.1301023542
 51
306.8698976458
  0
ARC
  5
4DE
100
AcDbEntity
  8
0
100
AcDbCircle
 62
7
  6
BYLAYER
 10
21.30494831
 20
13.3845674487
 40
0.5
100
AcDbArc
 50
53.1301023542
 51
126.8698976458
  0
ARC
  5
4DF
100
AcDbEntity
  8
0
100
AcDbCircle
 62
7
  6
BYLAYER
 10
29.42994831
 20
34.8951780826
 40
0.3
100
AcDbArc
 50
46.7345959396
 51
89.9999324467
  0
ARC
  5
4E0
100
AcDbEntity
  8
0
100
AcDbCircle
 62
7
  6
BYLAYER
 10
29.42994831
 20
32.9951780826
 40
0.3
100
AcDbArc
 50
270.0001015211
 51
360.0
  0
ARC
  5
4E1
100
AcDbEntity
  8
0
100
AcDbCircle
 62
7
  6
BYLAYER
 10
30.3954630073
 20
61.9952934142
 40
21.5068650124
100
AcDbArc
 50
9.9147422314
 51
10.2018891402
  0
ARC
  5
4E2
100
AcDbEntity
  8
0
100
AcDbCircle
 62
7
  6
BYLAYER
 10
24.2533859963
 20
42.8793903099
 40
16.7505500292
100
AcDbArc
 50
73.1638348482
 51
73.8772515994
  0
ARC
  5
4E3
100
AcDbEntity
  8
0
100
AcDbCircle
 62
7
  6
BYLAYER
 10
25.5565106238
 20
42.8793903099
 40
16.7505500292
100
AcDbArc
 50
106.1227484006
 51
106.8361651518
  0
ARC
  5
4E4
100
AcDbEntity
  8
0
100
AcDbCircle
 62
7
  6
BYLAYER
 10
24.90494831
 20
44.2045674487
 40
15.0
100
AcDbArc
 50
74.5339900466
 51
82.903686658
  0
ARC
  5
4E5
100
AcDbEntity
  8
0
100
AcDbCircle
 62
7
  6
BYLAYER
 10
24.90494831
 20
44.2045674487
 40
15.0
100
AcDbArc
 50
97.096313342
 51
105.4660099534
  0
ARC
  5
4E6
100
AcDbEntity
  8
0
100
AcDbCircle
 62
7
  6
BYLAYER
 10
28.6837622812
 20
58.1802552057
 40
3.4
100
AcDbArc
 50
216.7410219178
 51
272.8859957895
  0
ARC
  5
4E7
100
AcDbEntity
  8
0
100
AcDbCircle
 62
7
  6
BYLAYER
 10
21.1261343388
 20
58.1802552057
 40
3.4
100
AcDbArc
 50
267.1140042105
 51
323.2589780822
  0
ARC
  5
4E8
100
AcDbEntity
  8
0
100
AcDbCircle
 62
7
  6
BYLAYER
 10
23.55494831
 20
74.2045674487
 40
1.8
100
AcDbArc
 50
0.0
 51
180.0
  0
ARC
  5
4E9
100
AcDbEntity
  8
0
100
AcDbCircle
 62
7
  6
BYLAYER
 10
24.90494831
 20
54.9845674487
 40
1.5
100
AcDbArc
 50
64.8135088536
 51
115.1864911464
  0
ARC
  5
4EA
100
AcDbEntity
  8
0
100
AcDbCircle
 62
7
  6
BYLAYER
 10
27.60494831
 20
58.5579703227
 40
1.0
100
AcDbArc
 50
89.9999992782
 51
180.0
  0
ARC
  5
4EB
100
AcDbEntity
  8
0
100
AcDbCircle
 62
7
  6
BYLAYER
 10
22.20494831
 20
58.5579703227
 40
1.0
100
AcDbArc
 50
0.0
 51
89.9999908216
  0
ARC
  5
4EC
100
AcDbEntity
  8
0
100
AcDbCircle
 62
7
  6
BYLAYER
 10
23.55494831
 20
74.2045674487
 40
0.8
100
AcDbArc
 50
0.0
 51
180.0
  0
ARC
  5
4ED
100
AcDbEntity
  8
0
100
AcDbCircle
 62
7
  6
BYLAYER
 10
23.70494831
 20
57.9045674487
 40
0.5
100
AcDbArc
 50
180.0
 51
270.0
  0
ARC
  5
4EE
100
AcDbEntity
  8
0
100
AcDbCircle
 62
7
  6
BYLAYER
 10
26.10494831
 20
57.9045674487
 40
0.5
100
AcDbArc
 50
270.0
 51
360.0
  0
ARC
  5
4EF
100
AcDbEntity
  8
0
100
AcDbCircle
 62
7
  6
BYLAYER
 10
30.40494831
 20
-73.3354325513
 40
127.2274247165
100
AcDbArc
 50
79.8594951831
 51
80.4080193798
  0
ARC
  5
4F0
100
AcDbEntity
  8
0
100
AcDbCircle
 62
7
  6
BYLAYER
 10
30.40494831
 20
-73.3354325513
 40
127.2274247165
100
AcDbArc
 50
99.5919806202
 51
100.1405048169
  0
ARC
  5
4F1
100
AcDbEntity
  8
0
100
AcDbCircle
 62
7
  6
BYLAYER
 10
30.40494831
 20
-57.6354325513
 40
126.44
100
AcDbArc
 50
80.1005426209
 51
80.3966681476
  0
ARC
  5
4F2
100
AcDbEntity
  8
0
100
AcDbCircle
 62
7
  6
BYLAYER
 10
30.40494831
 20
-57.6354325513
 40
126.44
100
AcDbArc
 50
88.458912054
 51
99.8994573791
  0
ARC
  5
4F3
100
AcDbEntity
  8
0
100
AcDbCircle
 62
7
  6
BYLAYER
 10
30.40494831
 20
-72.6854325513
 40
126.44
100
AcDbArc
 50
80.177323521
 51
99.822676479
  0
ARC
  5
4F4
100
AcDbEntity
  8
0
100
AcDbCircle
 62
7
  6
BYLAYER
 10
30.40494831
 20
-57.6354325513
 40
125.94
100
AcDbArc
 50
80.1005426209
 51
80.3966681476
  0
ARC
  5
4F5
100
AcDbEntity
  8
0
100
AcDbCircle
 62
7
  6
BYLAYER
 10
30.40494831
 20
-72.6854325513
 40
125.94
100
AcDbArc
 50
80.177323521
 51
99.822676479
  0
ARC
  5
4F6
100
AcDbEntity
  8
0
100
AcDbCircle
 62
7
  6
BYLAYER
 10
30.40494831
 20
-57.6354325513
 40
125.9399985583
100
AcDbArc
 50
88.4589070467
 51
99.8994549075
  0
ARC
  5
4F7
100
AcDbEntity
  8
0
100
AcDbCircle
 62
7
  6
BYLAYER
 10
30.40494831
 20
-57.6354325513
 40
125.24
100
AcDbArc
 50
95.2703702858
 51
99.8830951762
  0
ARC
  5
4F8
100
AcDbEntity
  8
0
100
AcDbCircle
 62
7
  6
BYLAYER
 10
30.40494831
 20
-57.6354325513
 40
125.24
100
AcDbArc
 50
80.1169048238
 51
80.2741281689
  0
ARC
  5
4F9
100
AcDbEntity
  8
0
100
AcDbCircle
 62
7
  6
BYLAYER
 10
30.40494831
 20
-57.6354325513
 40
125.24
100
AcDbArc
 50
90.2305752361
 51
94.8074306789
  0
ARC
  5
4FA
100
AcDbEntity
  8
0
100
AcDbCircle
 62
7
  6
BYLAYER
 10
30.40494831
 20
-57.6354325513
 40
125.24
100
AcDbArc
 50
88.4726254779
 51
89.7694247639
  0
ARC
  5
4FB
100
AcDbEntity
  8
0
100
AcDbCircle
 62
7
  6
BYLAYER
 10
30.40494831
 20
-72.6854325513
 40
125.0463903828
100
AcDbArc
 50
80.2493839347
 51
85.9875043522
  0
ARC
  5
4FC
100
AcDbEntity
  8
0
100
AcDbCircle
 62
7
  6
BYLAYER
 10
30.40494831
 20
-72.6854325513
 40
125.0463903828
100
AcDbArc
 50
86.7680031191
 51
92.4062372542
  0
ARC
  5
4FD
100
AcDbEntity
  8
0
100
AcDbCircle
 62
7
  6
BYLAYER
 10
30.40494831
 20
-72.6854325513
 40
125.0463903828
100
AcDbArc
 50
93.1861052997
 51
99.7506160653
  0
ARC
  5
4FE
100
AcDbEntity
  8
0
100
AcDbCircle
 62
7
  6
BYLAYER
 10
30.4069691273
 20
-35.3541110702
 40
109.1586785189
100
AcDbArc
 50
78.949559319
 51
101.0504406808
  0
ARC
  5
4FF
100
AcDbEntity
  8
0
100
AcDbCircle
 62
7
  6
BYLAYER
 10
30.40494831
 20
-35.3332828026
 40
109.138
100
AcDbArc
 50
88.6874219381
 51
100.6929032811
  0
ARC
  5
500
100
AcDbEntity
  8
0
100
AcDbCircle
 62
7
  6
BYLAYER
 10
30.4069691273
 20
-35.3541110702
 40
108.3586785189
100
AcDbArc
 50
78.9495603327
 51
79.9016277437
  0
ARC
  5
501
100
AcDbEntity
  8
0
100
AcDbCircle
 62
7
  6
BYLAYER
 10
30.4069691273
 20
-35.3541110702
 40
108.3586785189
100
AcDbArc
 50
84.8639073879
 51
101.0532649568
  0
ARC
  5
502
100
AcDbEntity
  8
0
100
AcDbCircle
 62
7
  6
BYLAYER
 10
31.30494831
 20
16.5236058335
 40
20.0
100
AcDbArc
 50
72.0913667054
 51
83.9801545774
  0
ARC
  5
503
100
AcDbEntity
  8
0
100
AcDbCircle
 62
7
  6
BYLAYER
 10
31.30494831
 20
16.5236058335
 40
20.0
100
AcDbArc
 50
96.0198454226
 51
107.9086332946
  0
ARC
  5
504
100
AcDbEntity
  8
0
100
AcDbCircle
 62
7
  6
BYLAYER
 10
35.2533859963
 20
42.8793903098
 40
16.7505500293
100
AcDbArc
 50
73.1638348482
 51
73.8772515994
  0
ARC
  5
505
100
AcDbEntity
  8
0
100
AcDbCircle
 62
7
  6
BYLAYER
 10
36.5565106237
 20
42.87939031
 40
16.7505500292
100
AcDbArc
 50
106.1227484006
 51
106.8361651518
  0
ARC
  5
506
100
AcDbEntity
  8
0
100
AcDbCircle
 62
7
  6
BYLAYER
 10
35.90494831
 20
44.2045674487
 40
15.0
100
AcDbArc
 50
97.096313342
 51
105.4660099534
  0
ARC
  5
507
100
AcDbEntity
  8
0
100
AcDbCircle
 62
7
  6
BYLAYER
 10
35.90494831
 20
44.2045674487
 40
15.0
100
AcDbArc
 50
74.5339900466
 51
82.903686658
  0
ARC
  5
508
100
AcDbEntity
  8
0
100
AcDbCircle
 62
7
  6
BYLAYER
 10
31.30494831
 20
31.6951780826
 40
3.8
100
AcDbArc
 50
113.7459189409
 51
114.9
  0
ARC
  5
509
100
AcDbEntity
  8
0
100
AcDbCircle
 62
7
  6
BYLAYER
 10
31.30494831
 20
31.6951780826
 40
3.8
100
AcDbArc
 50
65.1
 51
66.2539658875
  0
ARC
  5
50A
100
AcDbEntity
  8
0
100
AcDbCircle
 62
7
  6
BYLAYER
 10
35.7262706161
 20
34.3945674487
 40
2.81
100
AcDbArc
 50
210.3919507275
 51
279.8080492725
  0
ARC
  5
50B
100
AcDbEntity
  8
0
100
AcDbCircle
 62
7
  6
BYLAYER
 10
40.883626004
 20
34.3945674487
 40
2.81
100
AcDbArc
 50
260.1919507275
 51
329.6080492725
  0
ARC
  5
50C
100
AcDbEntity
  8
0
100
AcDbCircle
 62
7
  6
BYLAYER
 10
31.30494831
 20
31.6951780826
 40
2.0
100
AcDbArc
 50
65.1000327536
 51
114.8999752216
  0
ARC
  5
50D
100
AcDbEntity
  8
0
100
AcDbCircle
 62
7
  6
BYLAYER
 10
34.30494831
 20
35.9827154554
 40
1.0
100
AcDbArc
 50
90.0000795241
 51
180.0
  0
ARC
  5
50E
100
AcDbEntity
  8
0
100
AcDbCircle
 62
7
  6
BYLAYER
 10
33.8239918745
 20
34.6845674487
 40
0.75
100
AcDbArc
 50
4.9999999999
 51
90.0
  0
ARC
  5
50F
100
AcDbEntity
  8
0
100
AcDbCircle
 62
7
  6
BYLAYER
 10
32.80494831
 20
35.6545674487
 40
0.5
100
AcDbArc
 50
270.0
 51
360.0
  0
ARC
  5
510
100
AcDbEntity
  8
0
100
AcDbCircle
 62
7
  6
BYLAYER
 10
33.17994831
 20
34.8951780826
 40
0.3
100
AcDbArc
 50
90.0000675533
 51
133.2654040605
  0
ARC
  5
511
100
AcDbEntity
  8
0
100
AcDbCircle
 62
7
  6
BYLAYER
 10
33.17994831
 20
32.9951780826
 40
0.3
100
AcDbArc
 50
180.0
 51
269.9998984789
  0
ARC
  5
512
100
AcDbEntity
  8
0
100
AcDbCircle
 62
7
  6
BYLAYER
 10
36.6947838389
 20
85.0212557694
 40
18.3535346135
100
AcDbArc
 50
251.6244809796
 51
259.6722441703
  0
ARC
  5
513
100
AcDbEntity
  8
0
100
AcDbCircle
 62
7
  6
BYLAYER
 10
37.66494831
 20
69.5045674487
 40
4.2
100
AcDbArc
 50
210.3077468474
 51
270.0
  0
ARC
  5
514
100
AcDbEntity
  8
0
100
AcDbCircle
 62
7
  6
BYLAYER
 10
37.66494831
 20
69.5045674487
 40
3.4999997379
100
AcDbArc
 50
209.9293336615
 51
270.0000489142
  0
ARC
  5
515
100
AcDbEntity
  8
0
100
AcDbCircle
 62
7
  6
BYLAYER
 10
39.6837622812
 20
58.1802552057
 40
3.4
100
AcDbArc
 50
216.7410219178
 51
272.8859957895
  0
ARC
  5
516
100
AcDbEntity
  8
0
100
AcDbCircle
 62
7
  6
BYLAYER
 10
32.1261343388
 20
58.1802552057
 40
3.4
100
AcDbArc
 50
267.1140042105
 51
323.2589780822
  0
ARC
  5
517
100
AcDbEntity
  8
0
100
AcDbCircle
 62
7
  6
BYLAYER
 10
37.66494831
 20
69.5045674487
 40
3.0
100
AcDbArc
 50
209.9293272544
 51
270.0000000012
  0
ARC
  5
518
100
AcDbEntity
  8
0
100
AcDbCircle
 62
7
  6
BYLAYER
 10
40.65494831
 20
69.0045674487
 40
1.75
100
AcDbArc
 50
0.0
 51
90.0
  0
ARC
  5
519
100
AcDbEntity
  8
0
100
AcDbCircle
 62
7
  6
BYLAYER
 10
37.15494831
 20
69.0045674487
 40
1.75
100
AcDbArc
 50
90.0
 51
126.8698976458
  0
ARC
  5
51A
100
AcDbEntity
  8
0
100
AcDbCircle
 62
7
  6
BYLAYER
 10
37.15494831
 20
68.2045674487
 40
1.75
100
AcDbArc
 50
180.0
 51
226.4490522794
  0
ARC
  5
51B
100
AcDbEntity
  8
0
100
AcDbCircle
 62
7
  6
BYLAYER
 10
40.65494831
 20
68.2045674487
 40
1.75
100
AcDbArc
 50
276.472558267
 51
360.0
  0
ARC
  5
51C
100
AcDbEntity
  8
0
100
AcDbCircle
 62
7
  6
BYLAYER
 10
35.90494831
 20
54.9845674487
 40
1.5
100
AcDbArc
 50
64.8135088536
 51
115.1864911464
  0
ARC
  5
51D
100
AcDbEntity
  8
0
100
AcDbCircle
 62
7
  6
BYLAYER
 10
33.7650616459
 20
67.2593761413
 40
1.5
100
AcDbArc
 50
29.9293272481
 51
88.4589120618
  0
ARC
  5
51E
100
AcDbEntity
  8
0
100
AcDbCircle
 62
7
  6
BYLAYER
 10
33.7650616459
 20
67.2593761413
 40
1.0000002461
100
AcDbArc
 50
29.9293048011
 51
88.458281445
  0
ARC
  5
51F
100
AcDbEntity
  8
0
100
AcDbCircle
 62
7
  6
BYLAYER
 10
38.60494831
 20
58.5579703227
 40
1.0
100
AcDbArc
 50
89.9999984043
 51
180.0
  0
ARC
  5
520
100
AcDbEntity
  8
0
100
AcDbCircle
 62
7
  6
BYLAYER
 10
33.20494831
 20
58.5579703227
 40
1.0
100
AcDbArc
 50
0.0
 51
89.9999881837
  0
ARC
  5
521
100
AcDbEntity
  8
0
100
AcDbCircle
 62
7
  6
BYLAYER
 10
35.6044386113
 20
52.8510100393
 40
0.795920195
100
AcDbArc
 50
87.57909083
 51
118.3466732035
  0
ARC
  5
522
100
AcDbEntity
  8
0
100
AcDbCircle
 62
7
  6
BYLAYER
 10
39.32494831
 20
55.6345674487
 40
0.75
100
AcDbArc
 50
0.0
 51
44.5062136108
  0
ARC
  5
523
100
AcDbEntity
  8
0
100
AcDbCircle
 62
7
  6
BYLAYER
 10
34.70494831
 20
57.9045674487
 40
0.5
100
AcDbArc
 50
180.0
 51
270.0
  0
ARC
  5
524
100
AcDbEntity
  8
0
100
AcDbCircle
 62
7
  6
BYLAYER
 10
37.10494831
 20
57.9045674487
 40
0.5
100
AcDbArc
 50
270.0
 51
360.0
  0
ARC
  5
525
100
AcDbEntity
  8
0
100
AcDbCircle
 62
7
  6
BYLAYER
 10
45.30494831
 20
16.5236058335
 40
20.0
100
AcDbArc
 50
72.0913667054
 51
83.9801545774
  0
ARC
  5
526
100
AcDbEntity
  8
0
100
AcDbCircle
 62
7
  6
BYLAYER
 10
45.30494831
 20
16.5236058335
 40
20.0
100
AcDbArc
 50
96.0198454226
 51
107.9086332946
  0
ARC
  5
527
100
AcDbEntity
  8
0
100
AcDbCircle
 62
7
  6
BYLAYER
 10
47.5565106238
 20
42.8793903098
 40
16.7505500293
100
AcDbArc
 50
106.1227484006
 51
106.8361651518
  0
ARC
  5
528
100
AcDbEntity
  8
0
100
AcDbCircle
 62
7
  6
BYLAYER
 10
46.90494831
 20
44.2045674487
 40
15.0
100
AcDbArc
 50
97.0963133419
 51
105.4660099534
  0
ARC
  5
529
100
AcDbEntity
  8
0
100
AcDbCircle
 62
7
  6
BYLAYER
 10
46.90494831
 20
44.2045674487
 40
15.0
100
AcDbArc
 50
74.631335782
 51
82.9036866581
  0
ARC
  5
52A
100
AcDbEntity
  8
0
100
AcDbCircle
 62
7
  6
BYLAYER
 10
45.30494831
 20
31.6951780826
 40
3.8
100
AcDbArc
 50
113.7459189409
 51
114.9
  0
ARC
  5
52B
100
AcDbEntity
  8
0
100
AcDbCircle
 62
7
  6
BYLAYER
 10
45.30494831
 20
31.6951780826
 40
3.8
100
AcDbArc
 50
65.1
 51
66.2539658875
  0
ARC
  5
52C
100
AcDbEntity
  8
0
100
AcDbCircle
 62
7
  6
BYLAYER
 10
49.7262706161
 20
34.3945674487
 40
2.81
100
AcDbArc
 50
210.3919507275
 51
279.8080492725
  0
ARC
  5
52D
100
AcDbEntity
  8
0
100
AcDbCircle
 62
7
  6
BYLAYER
 10
45.30494831
 20
31.6951780826
 40
2.0
100
AcDbArc
 50
65.1000327536
 51
114.8999752216
  0
CIRCLE
  5
52E
100
AcDbEntity
  8
0
100
AcDbCircle
 62
7
  6
BYLAYER
 10
50.30494831
 20
12.8845674487
 40
1.5
  0
CIRCLE
  5
52F
100
AcDbEntity
  8
0
100
AcDbCircle
 62
7
  6
BYLAYER
 10
50.30494831
 20
12.8845674487
 40
1.2999939271
  0
ARC
  5
530
100
AcDbEntity
  8
0
100
AcDbCircle
 62
7
  6
BYLAYER
 10
48.30494831
 20
35.9827154554
 40
1.0
100
AcDbArc
 50
90.0000794543
 51
180.0
  0
ARC
  5
531
100
AcDbEntity
  8
0
100
AcDbCircle
 62
7
  6
BYLAYER
 10
42.30494831
 20
35.9827154554
 40
1.0
100
AcDbArc
 50
0.0
 51
89.9999965244
  0
ARC
  5
532
100
AcDbEntity
  8
0
100
AcDbCircle
 62
7
  6
BYLAYER
 10
47.0939918745
 20
34.6845674487
 40
0.75
100
AcDbArc
 50
4.9999999999
 51
78.8822808626
  0
ARC
  5
533
100
AcDbEntity
  8
0
100
AcDbCircle
 62
7
  6
BYLAYER
 10
46.80494831
 20
35.6545674487
 40
0.5
100
AcDbArc
 50
270.0
 51
360.0
  0
ARC
  5
534
100
AcDbEntity
  8
0
100
AcDbCircle
 62
7
  6
BYLAYER
 10
43.80494831
 20
35.6545674487
 40
0.5
100
AcDbArc
 50
180.0
 51
270.0
  0
ARC
  5
535
100
AcDbEntity
  8
0
100
AcDbCircle
 62
7
  6
BYLAYER
 10
52.30494831
 20
7.4845674487
 40
0.5
100
AcDbArc
 50
270.0
 51
360.0
  0
ARC
  5
536
100
AcDbEntity
  8
0
100
AcDbCircle
 62
7
  6
BYLAYER
 10
47.17994831
 20
34.8951780826
 40
0.3
100
AcDbArc
 50
90.0000675533
 51
133.2654040605
  0
ARC
  5
537
100
AcDbEntity
  8
0
100
AcDbCircle
 62
7
  6
BYLAYER
 10
43.42994831
 20
34.8951780826
 40
0.3
100
AcDbArc
 50
46.7345959396
 51
89.9999324467
  0
ARC
  5
538
100
AcDbEntity
  8
0
100
AcDbCircle
 62
7
  6
BYLAYER
 10
43.42994831
 20
32.9951780826
 40
0.3
100
AcDbArc
 50
270.0001015211
 51
360.0
  0
ARC
  5
539
100
AcDbEntity
  8
0
100
AcDbCircle
 62
7
  6
BYLAYER
 10
47.17994831
 20
32.9951780826
 40
0.3
100
AcDbArc
 50
180.0
 51
269.9998984789
  0
ARC
  5
53A
100
AcDbEntity
  8
0
100
AcDbCircle
 62
7
  6
BYLAYER
 10
43.1261343388
 20
58.1802552057
 40
3.4
100
AcDbArc
 50
267.1140042105
 51
323.2589780822
  0
ARC
  5
53B
100
AcDbEntity
  8
0
100
AcDbCircle
 62
7
  6
BYLAYER
 10
46.90494831
 20
54.9845674487
 40
1.5
100
AcDbArc
 50
64.8135088536
 51
115.1864911464
  0
ARC
  5
53C
100
AcDbEntity
  8
0
100
AcDbCircle
 62
7
  6
BYLAYER
 10
44.20494831
 20
58.5579703227
 40
1.0
100
AcDbArc
 50
0.0
 51
89.9999886188
  0
ARC
  5
53D
100
AcDbEntity
  8
0
100
AcDbCircle
 62
7
  6
BYLAYER
 10
45.70494831
 20
57.9045674487
 40
0.5
100
AcDbArc
 50
180.0
 51
270.0
  0
ARC
  5
53E
100
AcDbEntity
  8
0
100
AcDbCircle
 62
7
  6
BYLAYER
 10
45.25494831
 20
73.2634069558
 40
4.2911604929
100
AcDbArc
 50
73.0333699185
 51
106.9666300226
  0
ARC
  5
53F
100
AcDbEntity
  8
0
100
AcDbCircle
 62
7
  6
BYLAYER
 10
45.2549460943
 20
73.3068197075
 40
3.791318648
100
AcDbArc
 50
73.0340503044
 51
106.9658778078
  0
ARC
  5
540
100
AcDbEntity
  8
0
100
AcDbCircle
 62
7
  6
BYLAYER
 10
46.3612646376
 20
76.8895567136
 40
0.5
100
AcDbArc
 50
5.0
 51
73.033370812
  0
ARC
  5
541
100
AcDbEntity
  8
0
100
AcDbCircle
 62
7
  6
BYLAYER
 10
44.1486319825
 20
76.8895567136
 40
0.5
100
AcDbArc
 50
106.9666286829
 51
175.0
  0
ARC
  5
542
100
AcDbEntity
  8
0
100
AcDbCircle
 62
7
  6
BYLAYER
 10
43.8549488626
 20
73.5983576901
 40
0.0437902414
100
AcDbArc
 50
267.5137596844
 51
269.9992769963
  0
ARC
  5
543
100
AcDbEntity
  8
0
100
AcDbCircle
 62
7
  6
BYLAYER
 10
46.6549477583
 20
73.5983576533
 40
0.0437902046
100
AcDbArc
 50
270.0007219606
 51
272.4862413595
  0
ARC
  5
544
100
AcDbEntity
  8
0
100
AcDbCircle
 62
7
  6
BYLAYER
 10
51.9445570135
 20
56.817899794
 40
21.1353805983
100
AcDbArc
 50
150.8277298521
 51
151.3077825767
  0
ARC
  5
545
100
AcDbEntity
  8
0
100
AcDbCircle
 62
7
  6
BYLAYER
 10
50.182713503
 20
57.8105001547
 40
19.1131570192
100
AcDbArc
 50
149.329685068
 51
150.8514203226
  0
ARC
  5
546
100
AcDbEntity
  8
0
100
AcDbCircle
 62
7
  6
BYLAYER
 10
48.2230540172
 20
58.3478213331
 40
16.8184350341
100
AcDbArc
 50
147.4971834939
 51
149.9399641703
  0
ARC
  5
547
100
AcDbEntity
  8
0
100
AcDbCircle
 62
7
  6
BYLAYER
 10
50.6837622812
 20
58.1802552057
 40
3.4
100
AcDbArc
 50
216.7410219178
 51
272.8859957895
  0
ARC
  5
548
100
AcDbEntity
  8
0
100
AcDbCircle
 62
7
  6
BYLAYER
 10
49.60494831
 20
58.5579703227
 40
1.0
100
AcDbArc
 50
89.9999992913
 51
180.0
  0
ARC
  5
549
100
AcDbEntity
  8
0
100
AcDbCircle
 62
7
  6
BYLAYER
 10
51.80494831
 20
50.9156742398
 40
1.0
100
AcDbArc
 50
0.0
 51
80.177323521
  0
ARC
  5
54A
100
AcDbEntity
  8
0
100
AcDbCircle
 62
7
  6
BYLAYER
 10
50.27994831
 20
55.6345674487
 40
0.75
100
AcDbArc
 50
36.8698976458
 51
39.3155260021
  0
ARC
  5
54B
100
AcDbEntity
  8
0
100
AcDbCircle
 62
7
  6
BYLAYER
 10
48.10494831
 20
57.9045674487
 40
0.5
100
AcDbArc
 50
270.0
 51
360.0
  0
ARC
  5
54C
100
AcDbEntity
  8
0
100
AcDbCircle
 62
7
  6
BYLAYER
 10
51.80494831
 20
50.9156742398
 40
0.5
100
AcDbArc
 50
0.0
 51
80.177323521
  0
ARC
  5
54D
100
AcDbEntity
  8
0
100
AcDbCircle
 62
7
  6
BYLAYER
 10
52.1009467088
 20
64.9045674487
 40
0.2
100
AcDbArc
 50
90.0
 51
180.0
  0
ARC
  5
54E
100
AcDbEntity
  8
0
100
AcDbCircle
 62
7
  6
BYLAYER
 10
52.60494831
 20
64.9045674487
 40
0.2
100
AcDbArc
 50
0.0
 51
90.0
  0
ARC
  5
54F
100
AcDbEntity
  8
0
100
AcDbCircle
 62
7
  6
BYLAYER
 10
52.60494831
 20
61.0045674487
 40
0.2
100
AcDbArc
 50
0.0
 51
90.0
  0
ARC
  5
550
100
AcDbEntity
  8
0
100
AcDbCircle
 62
7
  6
BYLAYER
 10
52.1009467088
 20
61.0045674487
 40
0.2
100
AcDbArc
 50
90.0
 51
180.0
  0
ARC
  5
551
100
AcDbEntity
  8
0
100
AcDbCircle
 62
7
  6
BYLAYER
 10
52.1009467088
 20
54.4045674487
 40
0.2
100
AcDbArc
 50
180.0
 51
270.0
  0
ARC
  5
552
100
AcDbEntity
  8
0
100
AcDbCircle
 62
7
  6
BYLAYER
 10
52.60494831
 20
54.4045674487
 40
0.2
100
AcDbArc
 50
270.0
 51
360.0
  0
ARC
  5
553
100
AcDbEntity
  8
0
100
AcDbCircle
 62
7
  6
BYLAYER
 10
52.1009467088
 20
52.7045674487
 40
0.2
100
AcDbArc
 50
180.0
 51
270.0
  0
ARC
  5
554
100
AcDbEntity
  8
0
100
AcDbCircle
 62
7
  6
BYLAYER
 10
52.60494831
 20
52.7045674487
 40
0.2
100
AcDbArc
 50
270.0
 51
360.0
  0
ARC
  5
555
100
AcDbEntity
  8
0
100
AcDbCircle
 62
7
  6
BYLAYER
 10
49.4311437911
 20
81.2401419012
 40
15.6897463137
100
AcDbArc
 50
277.8760747214
 51
279.0568908471
  0
ARC
  5
556
100
AcDbEntity
  8
0
100
AcDbCircle
 62
7
  6
BYLAYER
 10
48.8343533284
 20
68.6867160197
 40
4.0589135789
100
AcDbArc
 50
309.3943547042
 51
312.5882994582
  0
ARC
  5
557
100
AcDbEntity
  8
0
100
AcDbCircle
 62
7
  6
BYLAYER
 10
49.70494831
 20
69.0045674487
 40
3.7
100
AcDbArc
 50
270.0
 51
300.131533595
  0
ARC
  5
558
100
AcDbEntity
  8
0
100
AcDbCircle
 62
7
  6
BYLAYER
 10
49.70494831
 20
69.0045674487
 40
3.0
100
AcDbArc
 50
270.0
 51
304.7520156579
  0
ARC
  5
559
100
AcDbEntity
  8
0
100
AcDbCircle
 62
7
  6
BYLAYER
 10
49.70494831
 20
69.0045674487
 40
2.5
100
AcDbArc
 50
269.9999999975
 51
304.7520156578
  0
ARC
  5
55A
100
AcDbEntity
  8
0
100
AcDbCircle
 62
7
  6
BYLAYER
 10
50.97994831
 20
69.9894747428
 40
1.825
100
AcDbArc
 50
0.0
 51
78.9495593366
  0
ARC
  5
55B
100
AcDbEntity
  8
0
100
AcDbCircle
 62
7
  6
BYLAYER
 10
49.75494831
 20
69.0045674487
 40
1.75
100
AcDbArc
 50
0.0
 51
180.0
  0
ARC
  5
55C
100
AcDbEntity
  8
0
100
AcDbCircle
 62
7
  6
BYLAYER
 10
49.80494831
 20
68.2045674487
 40
1.75
100
AcDbArc
 50
180.0
 51
263.4566726853
  0
ARC
  5
55D
100
AcDbEntity
  8
0
100
AcDbCircle
 62
7
  6
BYLAYER
 10
49.80494831
 20
68.2045674487
 40
1.75
100
AcDbArc
 50
300.9557283054
 51
360.0
  0
ARC
  5
55E
100
AcDbEntity
  8
0
100
AcDbCircle
 62
7
  6
BYLAYER
 10
50.97994831
 20
69.9894747428
 40
1.0249997281
100
AcDbArc
 50
359.9998906743
 51
78.9496665159
  0
ARC
  5
55F
100
AcDbEntity
  8
0
100
AcDbCircle
 62
7
  6
BYLAYER
 10
52.00494831
 20
66.1339077555
 40
0.8
100
AcDbArc
 50
0.0
 51
80.1005426209
  0
ARC
  5
560
100
AcDbEntity
  8
0
100
AcDbCircle
 62
7
  6
BYLAYER
 10
52.05494831
 20
71.0545674487
 40
0.75
100
AcDbArc
 50
109.4712206339
 51
125.2989872068
  0
ARC
  5
561
100
AcDbEntity
  8
0
100
AcDbCircle
 62
7
  6
BYLAYER
 10
52.05494831
 20
71.0545674487
 40
0.75
100
AcDbArc
 50
0.0
 51
70.5287793661
  0
ARC
  5
562
100
AcDbEntity
  8
0
100
AcDbCircle
 62
7
  6
BYLAYER
 10
51.4150253131
 20
66.5396867936
 40
0.5
100
AcDbArc
 50
80.3966681472
 51
124.7520156579
  0
ARC
  5
563
100
AcDbEntity
  8
0
100
AcDbCircle
 62
7
  6
BYLAYER
 10
52.00494831
 20
66.1339077555
 40
0.3
100
AcDbArc
 50
0.0000000006
 51
80.1005426205
  0
SPLINE
  5
564
100
AcDbEntity
  8
0
100
AcDbSpline
 62
7
  6
BYLAYER
 70
0
 71
3
 72
22
 73
18
 74
0
 42
0.0000001
 43
0.0000001
 44
0.0000000001
 40
0.0
 40
0.0
 40
0.0
 40
0.0
 40
0.0043762777
 40
0.0098902253
 40
0.0171456117
 40
0.0264003928
 40
0.0377681093
 40
0.0513002298
 40
0.0848553788
 40
0.1269110654
 40
0.177185047
 40
0.2352408307
 40
0.3005483703
 40
0.4504973526
 40
0.6213898789
 40
0.8069814387
 40
1.0
 40
1.0
 40
1.0
 40
1.0
 10
46.8593619885
 20
76.9331345641
 30
0.0
 10
46.8592981105
 20
76.933864693
 30
0.0
 10
46.8586141139
 20
76.9354693137
 30
0.0
 10
46.8564402793
 20
76.9374124258
 30
0.0
 10
46.8532017204
 20
76.9392091081
 30
0.0
 10
46.8488332144
 20
76.9408856675
 30
0.0
 10
46.8433269929
 20
76.9424520037
 30
0.0
 10
46.8337551682
 20
76.944528906
 30
0.0
 10
46.8189631391
 20
76.9466544409
 30
0.0
 10
46.7979642647
 20
76.9485760917
 30
0.0
 10
46.7728116484
 20
76.9499574887
 30
0.0
 10
46.7437412951
 20
76.9507878945
 30
0.0
 10
46.6979670871
 20
76.951149893
 30
0.0
 10
46.633297064
 20
76.9499966022
 30
0.0
 10
46.5485490925
 20
76.9464906179
 30
0.0
 10
46.4566866461
 20
76.9408866105
 30
0.0
 10
46.3934692943
 20
76.935930694
 30
0.0
 10
46.3612646353
 20
76.9331345638
 30
0.0
  0
SPLINE
  5
565
100
AcDbEntity
  8
0
100
AcDbSpline
 62
7
  6
BYLAYER
 70
0
 71
3
 72
24
 73
20
 74
0
 42
0.0000001
 43
0.0000001
 44
0.0000000001
 40
0.0
 40
0.0
 40
0.0
 40
0.0
 40
0.0017413516
 40
0.0054985379
 40
0.0115062456
 40
0.0197987308
 40
0.0303789313
 40
0.0432394129
 40
0.0756870893
 40
0.1168559626
 40
0.1664262091
 40
0.2239629421
 40
0.2889732891
 40
0.3609195163
 40
0.4391476737
 40
0.5229833932
 40
0.6117229239
 40
0.8009463173
 40
1.0
 40
1.0
 40
1.0
 40
1.0
 10
46.5071720655
 20
77.367794461
 30
0.0
 10
46.5069172433
 20
77.3678722588
 30
0.0
 10
46.5061232834
 20
77.3671994427
 30
0.0
 10
46.5052449926
 20
77.3658250123
 30
0.0
 10
46.50386594
 20
77.3633496638
 30
0.0
 10
46.502255253
 20
77.359931158
 30
0.0
 10
46.5002966546
 20
77.3554760259
 30
0.0
 10
46.4970370673
 20
77.3475755173
 30
0.0
 10
46.4922678111
 20
77.3352286949
 30
0.0
 10
46.4857666832
 20
77.3175384391
 30
0.0
 10
46.4781838208
 20
77.296155464
 30
0.0
 10
46.469585421
 20
77.2712640761
 30
0.0
 10
46.4600469013
 20
77.243075743
 30
0.0
 10
46.4496528111
 20
77.2118352918
 30
0.0
 10
46.4384934873
 20
77.177814186
 30
0.0
 10
46.4266679108
 20
77.1413077803
 30
0.0
 10
46.4097804328
 20
77.0885898964
 30
0.0
 10
46.387816756
 20
77.0189873271
 30
0.0
 10
46.3702160788
 20
76.9622462737
 30
0.0
 10
46.3612654053
 20
76.9331352329
 30
0.0
  0
SPLINE
  5
566
100
AcDbEntity
  8
0
100
AcDbSpline
 62
7
  6
BYLAYER
 70
0
 71
3
 72
24
 73
20
 74
0
 42
0.0000001
 43
0.0000001
 44
0.0000000001
 40
0.0
 40
0.0
 40
0.0
 40
0.0
 40
0.0017480951
 40
0.0055077152
 40
0.0115166925
 40
0.0198103669
 40
0.0303923131
 40
0.0432556137
 40
0.0757118303
 40
0.1168895686
 40
0.166468364
 40
0.2240167194
 40
0.2890321251
 40
0.3609809849
 40
0.4392132389
 40
0.5230490796
 40
0.6117844169
 40
0.800970606
 40
1.0
 40
1.0
 40
1.0
 40
1.0
 10
44.002728139
 20
77.3677952194
 30
0.0
 10
44.0029839556
 20
77.3678733059
 30
0.0
 10
44.0037815326
 20
77.3672044176
 30
0.0
 10
44.0046634381
 20
77.3658280485
 30
0.0
 10
44.0060452964
 20
77.3633545843
 30
0.0
 10
44.0076583739
 20
77.3599358685
 30
0.0
 10
44.0096188156
 20
77.3554807155
 30
0.0
 10
44.0128803185
 20
77.3475785942
 30
0.0
 10
44.0176503744
 20
77.3352286185
 30
0.0
 10
44.0241519065
 20
77.3175339861
 30
0.0
 10
44.0317359497
 20
77.2961464
 30
0.0
 10
44.0403356098
 20
77.2712509822
 30
0.0
 10
44.0498751263
 20
77.2430594402
 30
0.0
 10
44.0602692141
 20
77.211816615
 30
0.0
 10
44.0714284758
 20
77.1777938754
 30
0.0
 10
44.0832550728
 20
77.1412872503
 30
0.0
 10
44.1001430943
 20
77.0885753816
 30
0.0
 10
44.1220980089
 20
77.0189795126
 30
0.0
 10
44.1396832983
 20
76.9622427083
 30
0.0
 10
44.1486319811
 20
76.9331345107
 30
0.0
  0
SPLINE
  5
567
100
AcDbEntity
  8
0
100
AcDbSpline
 62
7
  6
BYLAYER
 70
0
 71
3
 72
22
 73
18
 74
0
 42
0.0000001
 43
0.0000001
 44
0.0000000001
 40
0.0
 40
0.0
 40
0.0
 40
0.0
 40
0.1930185475
 40
0.3786098511
 40
0.5495020859
 40
0.6994508947
 40
0.7647584053
 40
0.822814258
 40
0.8730882689
 40
0.915144122
 40
0.9486994617
 40
0.9622316245
 40
0.973599399
 40
0.9828542572
 40
0.990109717
 40
0.9956237121
 40
1.0
 40
1.0
 40
1.0
 40
1.0
 10
44.1486319825
 20
76.933134585
 30
0.0
 10
44.1164273279
 20
76.9359307248
 30
0.0
 10
44.0532100231
 20
76.9408866302
 30
0.0
 10
43.9613476742
 20
76.9464906282
 30
0.0
 10
43.8765998272
 20
76.9499966133
 30
0.0
 10
43.8119298895
 20
76.9511499134
 30
0.0
 10
43.7661557059
 20
76.9507879172
 30
0.0
 10
43.7370853416
 20
76.9499575299
 30
0.0
 10
43.7119326817
 20
76.9485761345
 30
0.0
 10
43.6909337429
 20
76.9466544937
 30
0.0
 10
43.676141644
 20
76.9445289725
 30
0.0
 10
43.6665697741
 20
76.9424520491
 30
0.0
 10
43.6610635254
 20
76.9408857017
 30
0.0
 10
43.6566949848
 20
76.9392091364
 30
0.0
 10
43.6534563905
 20
76.9374124509
 30
0.0
 10
43.6512825245
 20
76.9354693428
 30
0.0
 10
43.650598511
 20
76.9338647156
 30
0.0
 10
43.6505346334
 20
76.933134585
 30
0.0
  0
SPLINE
  5
568
100
AcDbEntity
  8
0
100
AcDbSpline
 62
7
  6
BYLAYER
 70
0
 71
3
 72
21
 73
17
 74
0
 42
0.0000001
 43
0.0000001
 44
0.0000000001
 40
0.0
 40
0.0
 40
0.0
 40
0.0
 40
0.0024847743
 40
0.0067309929
 40
0.0217919393
 40
0.0459778714
 40
0.0792132929
 40
0.1212001973
 40
0.1715929261
 40
0.2299153244
 40
0.2956082919
 40
0.3680771998
 40
0.4465991459
 40
0.6187530981
 40
0.8056856527
 40
1.0
 40
1.0
 40
1.0
 40
1.0
 10
43.3549519164
 20
73.5546085551
 30
0.0
 10
43.3549879687
 20
73.5550206348
 30
0.0
 10
43.3558435191
 20
73.5559527539
 30
0.0
 10
43.3591552534
 20
73.5573272043
 30
0.0
 10
43.3663401645
 20
73.5587960485
 30
0.0
 10
43.3782883443
 20
73.5601937836
 30
0.0
 10
43.394814874
 20
73.5613994466
 30
0.0
 10
43.4156992737
 20
73.5623582905
 30
0.0
 10
43.4407813005
 20
73.5630520936
 30
0.0
 10
43.469812794
 20
73.563467873
 30
0.0
 10
43.5025230485
 20
73.5635989827
 30
0.0
 10
43.5385954886
 20
73.5634394659
 30
0.0
 10
43.5923879892
 20
73.5628234022
 30
0.0
 10
43.6652249359
 20
73.561309939
 30
0.0
 10
43.7573107742
 20
73.5584991699
 30
0.0
 10
43.820731149
 20
73.556011575
 30
0.0
 10
43.8530492595
 20
73.5546085551
 30
0.0
  0
SPLINE
  5
569
100
AcDbEntity
  8
0
100
AcDbSpline
 62
7
  6
BYLAYER
 70
0
 71
3
 72
21
 73
17
 74
0
 42
0.0000001
 43
0.0000001
 44
0.0000000001
 40
0.0
 40
0.0
 40
0.0
 40
0.0
 40
0.1943143456
 40
0.3812468994
 40
0.5534008487
 40
0.6319227935
 40
0.7043917004
 40
0.7700846667
 40
0.8284070633
 40
0.8787997912
 40
0.920786695
 40
0.9540221171
 40
0.9782080518
 40
0.993269002
 40
0.9975152232
 40
1.0
 40
1.0
 40
1.0
 40
1.0
 10
46.6568473621
 20
73.5546085251
 30
0.0
 10
46.6891654729
 20
73.5560115492
 30
0.0
 10
46.7525858483
 20
73.5584991503
 30
0.0
 10
46.8446716864
 20
73.561309953
 30
0.0
 10
46.9175086331
 20
73.5628234474
 30
0.0
 10
46.9713011338
 20
73.5634395209
 30
0.0
 10
47.0073735741
 20
73.5635990401
 30
0.0
 10
47.0400838286
 20
73.5634679283
 30
0.0
 10
47.069115322
 20
73.563052142
 30
0.0
 10
47.0941973484
 20
73.5623583265
 30
0.0
 10
47.1150817477
 20
73.5613994651
 30
0.0
 10
47.1316082769
 20
73.5601937839
 30
0.0
 10
47.1435564564
 20
73.5587960341
 30
0.0
 10
47.1507413674
 20
73.557327181
 30
0.0
 10
47.1540531013
 20
73.5559527254
 30
0.0
 10
47.1549086513
 20
73.5550206051
 30
0.0
 10
47.1549447036
 20
73.5546085251
 30
0.0
  0
SPLINE
  5
56A
100
AcDbEntity
  8
0
100
AcDbSpline
 62
7
  6
BYLAYER
 70
0
 71
3
 72
46
 73
42
 74
0
 42
0.0000001
 43
0.0000001
 44
0.0000000001
 40
0.0
 40
0.0
 40
0.0
 40
0.0
 40
0.0028968826
 40
0.006845723
 40
0.0118683754
 40
0.0179662932
 40
0.0251342378
 40
0.0333636518
 40
0.0529456461
 40
0.0765685383
 40
0.1040410886
 40
0.1351011101
 40
0.1694547491
 40
0.2067839734
 40
0.2467541702
 40
0.3331777732
 40
0.4256332596
 40
0.5207251107
 40
0.6150127635
 40
0.6607812297
 40
0.7050623928
 40
0.7474522479
 40
0.7875765411
 40
0.8250818176
 40
0.8596349801
 40
0.8909212853
 40
0.9186439951
 40
0.9425282248
 40
0.9529629956
 40
0.9623667746
 40
0.9707238862
 40
0.9780213419
 40
0.9842501966
 40
0.9894064236
 40
0.9934948661
 40
0.9951452581
 40
0.9965401954
 40
0.9976907421
 40
0.998617623
 40
0.999361557
 40
1.0
 40
1.0
 40
1.0
 40
1.0
 10
43.6115057958
 20
31.8256205684
 30
0.0
 10
43.6143559921
 20
31.8272723108
 30
0.0
 10
43.6215614517
 20
31.8303296013
 30
0.0
 10
43.6344471581
 20
31.8343449181
 30
0.0
 10
43.6511004516
 20
31.8384321933
 30
0.0
 10
43.6714813572
 20
31.8425813788
 30
0.0
 10
43.6955649155
 20
31.8467783161
 30
0.0
 10
43.7348889407
 20
31.852777634
 30
0.0
 10
43.7929234229
 20
31.8601246953
 30
0.0
 10
43.8728677388
 20
31.8684401761
 30
0.0
 10
43.965943204
 20
31.8765377348
 30
0.0
 10
44.0712628907
 20
31.8845942595
 30
0.0
 10
44.1878136134
 20
31.8927486234
 30
0.0
 10
44.3145093702
 20
31.9010532621
 30
0.0
 10
44.500328089
 20
31.9126358889
 30
0.0
 10
44.7487786497
 20
31.9270562733
 30
0.0
 10
45.0599219753
 20
31.9429637254
 30
0.0
 10
45.380003964
 20
31.9591541412
 30
0.0
 10
45.6470287592
 20
31.9733368356
 30
0.0
 10
45.8563369204
 20
31.9847831875
 30
0.0
 10
46.0067153299
 20
31.9930385123
 30
0.0
 10
46.1506744322
 20
32.0011356744
 30
0.0
 10
46.2869134361
 20
32.0092704193
 30
0.0
 10
46.4142169217
 20
32.0175189156
 30
0.0
 10
46.5314374588
 20
32.0259104918
 30
0.0
 10
46.6374960173
 20
32.0343873833
 30
0.0
 10
46.7313800036
 20
32.0428457829
 30
0.0
 10
46.8015738847
 20
32.0499659257
 30
0.0
 10
46.8509677903
 20
32.0556567653
 30
0.0
 10
46.882774344
 20
32.0597112223
 30
0.0
 10
46.9109824136
 20
32.0637589333
 30
0.0
 10
46.9355367587
 20
32.0678146247
 30
0.0
 10
46.956394245
 20
32.0718805409
 30
0.0
 10
46.9735144866
 20
32.075962808
 30
0.0
 10
46.9853855509
 20
32.0795697533
 30
0.0
 10
46.9929250627
 20
32.0825782817
 30
0.0
 10
46.997217354
 20
32.084675448
 30
0.0
 10
47.0005721589
 20
32.0867783593
 30
0.0
 10
47.0030008637
 20
32.088903558
 30
0.0
 10
47.0045173773
 20
32.091099868
 30
0.0
 10
47.0048455577
 20
32.0926985203
 30
0.0
 10
47.0048159754
 20
32.093423929
 30
0.0
  0
SPLINE
  5
56B
100
AcDbEntity
  8
0
100
AcDbSpline
 62
7
  6
BYLAYER
 70
0
 71
3
 72
47
 73
43
 74
0
 42
0.0000001
 43
0.0000001
 44
0.0000000001
 40
0.0
 40
0.0
 40
0.0
 40
0.0
 40
0.0005622275
 40
0.0012566902
 40
0.002157041
 40
0.0032972872
 40
0.0046936682
 40
0.0063546349
 40
0.0104864922
 40
0.0157104277
 40
0.0220258136
 40
0.0294258281
 40
0.0379000733
 40
0.0579965839
 40
0.0821436476
 40
0.1101239527
 40
0.1416843823
 40
0.1765348044
 40
0.2143603462
 40
0.2548124463
 40
0.2975235275
 40
0.3420999042
 40
0.3881347502
 40
0.4352060231
 40
0.4828830856
 40
0.5783001806
 40
0.6708895885
 40
0.7150590309
 40
0.7572689366
 40
0.797129927
 40
0.8342778698
 40
0.8683708814
 40
0.8990997458
 40
0.9261873592
 40
0.9493914448
 40
0.9685093345
 40
0.9764812043
 40
0.9833726087
 40
0.9891726976
 40
0.9938731715
 40
0.9974739625
 40
1.0
 40
1.0
 40
1.0
 40
1.0
 10
47.30494831
 20
31.9201780826
 30
0.0
 10
47.30494831
 20
31.9194264512
 30
0.0
 10
47.3044416029
 20
31.9177412466
 30
0.0
 10
47.3025241459
 20
31.9155288117
 30
0.0
 10
47.2995541692
 20
31.9133678359
 30
0.0
 10
47.2954805858
 20
31.9112195598
 30
0.0
 10
47.2902903353
 20
31.9090725752
 30
0.0
 10
47.2811809347
 20
31.9059918889
 30
0.0
 10
47.2668974595
 20
31.9023333632
 30
0.0
 10
47.2463464931
 20
31.8982411543
 30
0.0
 10
47.2213493545
 20
31.8941854089
 30
0.0
 10
47.1919585566
 20
31.8901490996
 30
0.0
 10
47.1442071816
 20
31.8844475576
 30
0.0
 10
47.0740703056
 20
31.877475197
 30
0.0
 10
46.9778702184
 20
31.8691950891
 30
0.0
 10
46.8663123745
 20
31.8606787306
 30
0.0
 10
46.7404098399
 20
31.8521514751
 30
0.0
 10
46.6013127824
 20
31.8437145793
 30
0.0
 10
46.4502983314
 20
31.8354677051
 30
0.0
 10
46.2887549881
 20
31.82733598
 30
0.0
 10
46.1181743576
 20
31.8192384399
 30
0.0
 10
45.9401311732
 20
31.8109484845
 30
0.0
 10
45.7562658702
 20
31.8023732744
 30
0.0
 10
45.5682517109
 20
31.7937802675
 30
0.0
 10
45.3142750692
 20
31.7824619687
 30
0.0
 10
44.9994828093
 20
31.7689816923
 30
0.0
 10
44.6893830409
 20
31.7555021177
 30
0.0
 10
44.4504012516
 20
31.743957831
 30
0.0
 10
44.2818526767
 20
31.7353450394
 30
0.0
 10
44.1226976485
 20
31.7268497021
 30
0.0
 10
43.9744004495
 20
31.7185317403
 30
0.0
 10
43.8383205041
 20
31.7104102178
 30
0.0
 10
43.715712973
 20
31.7023373288
 30
0.0
 10
43.6077003906
 20
31.6942120174
 30
0.0
 10
43.5152804897
 20
31.6858641779
 30
0.0
 10
43.4484449885
 20
31.6784501661
 30
0.0
 10
43.403421055
 20
31.6723865541
 30
0.0
 10
43.3761173346
 20
31.6681673172
 30
0.0
 10
43.3532394647
 20
31.6640156199
 30
0.0
 10
43.3348137223
 20
31.659962502
 30
0.0
 10
43.3208930844
 20
31.6560212777
 30
0.0
 10
43.3132182959
 20
31.6529994023
 30
0.0
 10
43.3102909482
 20
31.6513157017
 30
0.0
  0
SPLINE
  5
56C
100
AcDbEntity
  8
0
100
AcDbSpline
 62
7
  6
BYLAYER
 70
0
 71
3
 72
44
 73
40
 74
0
 42
0.0000001
 43
0.0000001
 44
0.0000000001
 40
0.0
 40
0.0
 40
0.0
 40
0.0
 40
0.002602331
 40
0.0062723476
 40
0.0110341341
 40
0.016889643
 40
0.0238322812
 40
0.0318522119
 40
0.051059244
 40
0.0743447215
 40
0.1015050422
 40
0.1322953846
 40
0.1664370272
 40
0.203619836
 40
0.2435026646
 40
0.3298911071
 40
0.4224510007
 40
0.5178040753
 40
0.6124627825
 40
0.7029704499
 40
0.7456272381
 40
0.7860256187
 40
0.8237986166
 40
0.8585982633
 40
0.8901100492
 40
0.9180459506
 40
0.9421557666
 40
0.9622252389
 40
0.9706894001
 40
0.9780813882
 40
0.9843899284
 40
0.9896065293
 40
0.9937278594
 40
0.995381449
 40
0.9967686532
 40
0.9978974166
 40
0.9987832415
 40
0.999459324
 40
1.0
 40
1.0
 40
1.0
 40
1.0
 10
47.2991872443
 20
31.863584773
 30
0.0
 10
47.2961759099
 20
31.8618437248
 30
0.0
 10
47.2883464952
 20
31.8586911651
 30
0.0
 10
47.2741755925
 20
31.8546150923
 30
0.0
 10
47.2555075887
 20
31.8505186305
 30
0.0
 10
47.2323992573
 20
31.8463985801
 30
0.0
 10
47.204877842
 20
31.8422658351
 30
0.0
 10
47.1595842394
 20
31.8363783459
 30
0.0
 10
47.0924406231
 20
31.8292091067
 30
0.0
 10
46.9997021839
 20
31.8209669239
 30
0.0
 10
46.8914304532
 20
31.8126995776
 30
0.0
 10
46.7686137122
 20
31.8044040861
 30
0.0
 10
46.6323741387
 20
31.7960916254
 30
0.0
 10
46.483961269
 20
31.7877676256
 30
0.0
 10
46.2657776842
 20
31.7763528301
 30
0.0
 10
45.9736110315
 20
31.7623356452
 30
0.0
 10
45.6073340641
 20
31.7458836713
 30
0.0
 10
45.2299925438
 20
31.729416479
 30
0.0
 10
44.8553967117
 20
31.7129518722
 30
0.0
 10
44.5511953895
 20
31.6989946915
 30
0.0
 10
44.3194790882
 20
31.6876528085
 30
0.0
 10
44.1581884955
 20
31.6793192534
 30
0.0
 10
44.0074145521
 20
31.6709943067
 30
0.0
 10
43.8685377059
 20
31.6626789274
 30
0.0
 10
43.742834356
 20
31.6543793531
 30
0.0
 10
43.6314519216
 20
31.646103706
 30
0.0
 10
43.5354100658
 20
31.6378573359
 30
0.0
 10
43.465403556
 20
31.6306907124
 30
0.0
 10
43.4177427416
 20
31.6248113583
 30
0.0
 10
43.3884060207
 20
31.620665396
 30
0.0
 10
43.3634555055
 20
31.6165376056
 30
0.0
 10
43.3429456651
 20
31.6124291131
 30
0.0
 10
43.3286878628
 20
31.6088267478
 30
0.0
 10
43.3195887213
 20
31.6058367373
 30
0.0
 10
43.3144089631
 20
31.6037677111
 30
0.0
 10
43.3103441309
 20
31.6017078899
 30
0.0
 10
43.3073819196
 20
31.599642028
 30
0.0
 10
43.3054623536
 20
31.5975305087
 30
0.0
 10
43.30494831
 20
31.5959007795
 30
0.0
 10
43.30494831
 20
31.5951780826
 30
0.0
  0
SPLINE
  5
56D
100
AcDbEntity
  8
0
100
AcDbSpline
 62
7
  6
BYLAYER
 70
0
 71
3
 72
20
 73
16
 74
0
 42
0.0000001
 43
0.0000001
 44
0.0000000001
 40
0.0
 40
0.0
 40
0.0
 40
0.0
 40
0.0062183139
 40
0.0142169684
 40
0.0356956823
 40
0.0645450082
 40
0.1007107473
 40
0.1440534293
 40
0.1943440997
 40
0.2512855189
 40
0.3145470239
 40
0.4585759684
 40
0.6232732509
 40
0.805096163
 40
1.0
 40
1.0
 40
1.0
 40
1.0
 10
46.9978764671
 20
31.6896016982
 30
0.0
 10
46.9956804824
 20
31.6883287175
 30
0.0
 10
46.990389336
 20
31.6858942571
 30
0.0
 10
46.9766327975
 20
31.681069894
 30
0.0
 10
46.9534785063
 20
31.6753494145
 30
0.0
 10
46.9187804627
 20
31.6688180162
 30
0.0
 10
46.8750192427
 20
31.6623109643
 30
0.0
 10
46.8224205643
 20
31.6559180602
 30
0.0
 10
46.7612809882
 20
31.6495905376
 30
0.0
 10
46.6919747469
 20
31.6432544985
 30
0.0
 10
46.5844859447
 20
31.6343313749
 30
0.0
 10
46.4330516766
 20
31.623165224
 30
0.0
 10
46.2332526167
 20
31.6098820224
 30
0.0
 10
46.012629183
 20
31.5968568377
 30
0.0
 10
45.8590664858
 20
31.5887291009
 30
0.0
 10
45.7796173163
 20
31.5845615936
 30
0.0
  0
SPLINE
  5
56E
100
AcDbEntity
  8
0
100
AcDbSpline
 62
7
  6
BYLAYER
 70
0
 71
3
 72
44
 73
40
 74
0
 42
0.0000001
 43
0.0000001
 44
0.0000000001
 40
0.0
 40
0.0
 40
0.0
 40
0.0
 40
0.0025498219
 40
0.0061666689
 40
0.0108750027
 40
0.0166780628
 40
0.0235701902
 40
0.0315421206
 40
0.0506612933
 40
0.0738697648
 40
0.1009640169
 40
0.1316998793
 40
0.1657986044
 40
0.2029502158
 40
0.2428131249
 40
0.3291938264
 40
0.4217827002
 40
0.5171976753
 40
0.6119426537
 40
0.7025498705
 40
0.7452588935
 40
0.7857088792
 40
0.8235316987
 40
0.85837831
 40
0.8899339717
 40
0.9179100929
 40
0.9420554906
 40
0.9621551619
 40
0.9706325372
 40
0.9780363562
 40
0.9843548252
 40
0.9895786239
 40
0.9937031043
 40
0.9953567597
 40
0.9967436049
 40
0.9978724156
 40
0.9987602437
 40
0.9994432319
 40
1.0
 40
1.0
 40
1.0
 40
1.0
 10
47.2995766405
 20
32.4138633819
 30
0.0
 10
47.2966528193
 20
32.4121111447
 30
0.0
 10
47.2889815763
 20
32.4089332136
 30
0.0
 10
47.2750393343
 20
32.4048266488
 30
0.0
 10
47.2565880831
 20
32.4007173268
 30
0.0
 10
47.2336891924
 20
32.3965969088
 30
0.0
 10
47.20636715
 20
32.3924699028
 30
0.0
 10
47.1613184637
 20
32.3865852241
 30
0.0
 10
47.0944531109
 20
32.3794066604
 30
0.0
 10
47.0020132181
 20
32.371154591
 30
0.0
 10
46.8939924524
 20
32.3628826698
 30
0.0
 10
46.7713790119
 20
32.3545815243
 30
0.0
 10
46.6352942462
 20
32.3462619657
 30
0.0
 10
46.4869882316
 20
32.3379311242
 30
0.0
 10
46.2688554542
 20
32.3265053901
 30
0.0
 10
45.9766494157
 20
32.3124754997
 30
0.0
 10
45.6102138844
 20
32.2960103787
 30
0.0
 10
45.2325865763
 20
32.2795294905
 30
0.0
 10
44.8576109073
 20
32.2630507338
 30
0.0
 10
44.5530517483
 20
32.2490822814
 30
0.0
 10
44.3210333756
 20
32.2377309564
 30
0.0
 10
44.1595163718
 20
32.2293899181
 30
0.0
 10
44.0085244035
 20
32.2210579939
 30
0.0
 10
43.8694413482
 20
32.2127366689
 30
0.0
 10
43.7435464258
 20
32.2044295651
 30
0.0
 10
43.6319897345
 20
32.1961432328
 30
0.0
 10
43.5357932304
 20
32.1878957145
 30
0.0
 10
43.4656709211
 20
32.1807319037
 30
0.0
 10
43.4179314317
 20
32.1748350477
 30
0.0
 10
43.3885466789
 20
32.1706671105
 30
0.0
 10
43.3635559915
 20
32.1665251333
 30
0.0
 10
43.3430153375
 20
32.1624205788
 30
0.0
 10
43.3287323194
 20
32.1588575515
 30
0.0
 10
43.3196143473
 20
32.1559093099
 30
0.0
 10
43.3144243584
 20
32.1538647914
 30
0.0
 10
43.310349923
 20
32.1518167893
 30
0.0
 10
43.3073767976
 20
32.1497433006
 30
0.0
 10
43.3054496075
 20
32.1475875262
 30
0.0
 10
43.30494831
 20
32.1459223861
 30
0.0
 10
43.30494831
 20
32.1451780826
 30
0.0
  0
SPLINE
  5
56F
100
AcDbEntity
  8
0
100
AcDbSpline
 62
7
  6
BYLAYER
 70
0
 71
3
 72
48
 73
44
 74
0
 42
0.0000001
 43
0.0000001
 44
0.0000000001
 40
0.0
 40
0.0
 40
0.0
 40
0.0
 40
0.0029025405
 40
0.0068553692
 40
0.0118805088
 40
0.0179815662
 40
0.0251534186
 40
0.0333859667
 40
0.052975255
 40
0.076609279
 40
0.1040900335
 40
0.1351538068
 40
0.1695073752
 40
0.2068355486
 40
0.2468040961
 40
0.2890590596
 40
0.3332276135
 40
0.425679124
 40
0.520762411
 40
0.568216856
 40
0.6150407448
 40
0.660802372
 40
0.7050760828
 40
0.7474602331
 40
0.7875814321
 40
0.8250850399
 40
0.8596373201
 40
0.8909208957
 40
0.9186368302
 40
0.9425120934
 40
0.9529440854
 40
0.9623476187
 40
0.9707054847
 40
0.9780039655
 40
0.9842353218
 40
0.9893956208
 40
0.99348793
 40
0.9951398911
 40
0.9965363226
 40
0.997688385
 40
0.9986167246
 40
0.9993616078
 40
1.0
 40
1.0
 40
1.0
 40
1.0
 10
46.9983382634
 20
32.2397468913
 30
0.0
 10
46.9954825462
 20
32.238091864
 30
0.0
 10
46.9882692285
 20
32.2350257618
 30
0.0
 10
46.9753731151
 20
32.2309970339
 30
0.0
 10
46.9587117248
 20
32.2268972029
 30
0.0
 10
46.938322511
 20
32.2227346612
 30
0.0
 10
46.9142294142
 20
32.2185252548
 30
0.0
 10
46.8748903293
 20
32.2125169228
 30
0.0
 10
46.8168298062
 20
32.2051794898
 30
0.0
 10
46.7368506043
 20
32.1969087067
 30
0.0
 10
46.6437458913
 20
32.1888501406
 30
0.0
 10
46.5384140863
 20
32.1807804491
 30
0.0
 10
46.4218620991
 20
32.1726063199
 30
0.0
 10
46.2951720363
 20
32.1642694945
 30
0.0
 10
46.1594874483
 20
32.1557923905
 30
0.0
 10
46.0160139028
 20
32.1472483087
 30
0.0
 10
45.812923945
 20
32.1358539305
 30
0.0
 10
45.5497819587
 20
32.1224396517
 30
0.0
 10
45.282907274
 20
32.1088729684
 30
0.0
 10
45.067870383
 20
32.097568473
 30
0.0
 10
44.9088527449
 20
32.0890187264
 30
0.0
 10
44.7534524829
 20
32.0805598816
 30
0.0
 10
44.6030947786
 20
32.0723507898
 30
0.0
 10
44.4591544581
 20
32.0642563017
 30
0.0
 10
44.3229287496
 20
32.0561051847
 30
0.0
 10
44.1956340887
 20
32.0478259456
 30
0.0
 10
44.0784214945
 20
32.039412594
 30
0.0
 10
43.9723763961
 20
32.0309207667
 30
0.0
 10
43.8785110699
 20
32.0224945512
 30
0.0
 10
43.8083345159
 20
32.0154139333
 30
0.0
 10
43.7589529109
 20
32.0097365412
 30
0.0
 10
43.7271485315
 20
32.0056860631
 30
0.0
 10
43.6989392722
 20
32.0016345907
 30
0.0
 10
43.6743819722
 20
31.9975670699
 30
0.0
 10
43.6535183675
 20
31.9934877465
 30
0.0
 10
43.6363885915
 20
31.9893946436
 30
0.0
 10
43.6245092846
 20
31.9857772615
 30
0.0
 10
43.6169652612
 20
31.9827587719
 30
0.0
 10
43.6126703121
 20
31.9806552212
 30
0.0
 10
43.6093128241
 20
31.9785471532
 30
0.0
 10
43.6068808372
 20
31.9764192481
 30
0.0
 10
43.6053598925
 20
31.9742232089
 30
0.0
 10
43.6050278096
 20
31.9726242402
 30
0.0
 10
43.6050563101
 20
31.9718988483
 30
0.0
  0
SPLINE
  5
570
100
AcDbEntity
  8
0
100
AcDbSpline
 62
7
  6
BYLAYER
 70
0
 71
3
 72
46
 73
42
 74
0
 42
0.0000001
 43
0.0000001
 44
0.0000000001
 40
0.0
 40
0.0
 40
0.0
 40
0.0
 40
0.0028968826
 40
0.006845723
 40
0.0118683754
 40
0.0179662932
 40
0.0251342378
 40
0.0333636518
 40
0.0529456461
 40
0.0765685383
 40
0.1040410886
 40
0.1351011101
 40
0.1694547491
 40
0.2067839734
 40
0.2467541702
 40
0.3331777732
 40
0.4256332596
 40
0.5207251107
 40
0.6150127635
 40
0.6607812297
 40
0.7050623928
 40
0.7474522479
 40
0.7875765411
 40
0.8250818176
 40
0.8596349801
 40
0.8909212853
 40
0.9186439951
 40
0.9425282248
 40
0.9529629956
 40
0.9623667746
 40
0.9707238862
 40
0.9780213419
 40
0.9842501966
 40
0.9894064236
 40
0.9934948661
 40
0.9951452581
 40
0.9965401954
 40
0.9976907421
 40
0.998617623
 40
0.999361557
 40
1.0
 40
1.0
 40
1.0
 40
1.0
 10
29.6115057958
 20
31.8256205684
 30
0.0
 10
29.6143559921
 20
31.8272723108
 30
0.0
 10
29.6215614517
 20
31.8303296013
 30
0.0
 10
29.6344471581
 20
31.8343449181
 30
0.0
 10
29.6511004516
 20
31.8384321933
 30
0.0
 10
29.6714813572
 20
31.8425813788
 30
0.0
 10
29.6955649155
 20
31.8467783161
 30
0.0
 10
29.7348889407
 20
31.852777634
 30
0.0
 10
29.7929234229
 20
31.8601246953
 30
0.0
 10
29.8728677388
 20
31.8684401761
 30
0.0
 10
29.965943204
 20
31.8765377348
 30
0.0
 10
30.0712628907
 20
31.8845942595
 30
0.0
 10
30.1878136134
 20
31.8927486234
 30
0.0
 10
30.3145093702
 20
31.9010532621
 30
0.0
 10
30.500328089
 20
31.9126358889
 30
0.0
 10
30.7487786497
 20
31.9270562733
 30
0.0
 10
31.0599219753
 20
31.9429637254
 30
0.0
 10
31.380003964
 20
31.9591541412
 30
0.0
 10
31.6470287592
 20
31.9733368356
 30
0.0
 10
31.8563369204
 20
31.9847831875
 30
0.0
 10
32.0067153299
 20
31.9930385123
 30
0.0
 10
32.1506744322
 20
32.0011356744
 30
0.0
 10
32.2869134361
 20
32.0092704193
 30
0.0
 10
32.4142169217
 20
32.0175189156
 30
0.0
 10
32.5314374588
 20
32.0259104918
 30
0.0
 10
32.6374960173
 20
32.0343873833
 30
0.0
 10
32.7313800036
 20
32.0428457829
 30
0.0
 10
32.8015738847
 20
32.0499659257
 30
0.0
 10
32.8509677903
 20
32.0556567653
 30
0.0
 10
32.882774344
 20
32.0597112223
 30
0.0
 10
32.9109824136
 20
32.0637589333
 30
0.0
 10
32.9355367587
 20
32.0678146247
 30
0.0
 10
32.956394245
 20
32.0718805409
 30
0.0
 10
32.9735144866
 20
32.075962808
 30
0.0
 10
32.9853855509
 20
32.0795697533
 30
0.0
 10
32.9929250627
 20
32.0825782817
 30
0.0
 10
32.997217354
 20
32.084675448
 30
0.0
 10
33.0005721589
 20
32.0867783593
 30
0.0
 10
33.0030008637
 20
32.088903558
 30
0.0
 10
33.0045173773
 20
32.091099868
 30
0.0
 10
33.0048455577
 20
32.0926985203
 30
0.0
 10
33.0048159754
 20
32.093423929
 30
0.0
  0
SPLINE
  5
571
100
AcDbEntity
  8
0
100
AcDbSpline
 62
7
  6
BYLAYER
 70
0
 71
3
 72
47
 73
43
 74
0
 42
0.0000001
 43
0.0000001
 44
0.0000000001
 40
0.0
 40
0.0
 40
0.0
 40
0.0
 40
0.0005622275
 40
0.0012566902
 40
0.002157041
 40
0.0032972872
 40
0.0046936682
 40
0.0063546349
 40
0.0104864922
 40
0.0157104277
 40
0.0220258136
 40
0.0294258281
 40
0.0379000733
 40
0.0579965839
 40
0.0821436476
 40
0.1101239527
 40
0.1416843823
 40
0.1765348044
 40
0.2143603462
 40
0.2548124463
 40
0.2975235275
 40
0.3420999042
 40
0.3881347502
 40
0.4352060231
 40
0.4828830856
 40
0.5783001806
 40
0.6708895885
 40
0.7150590309
 40
0.7572689366
 40
0.797129927
 40
0.8342778698
 40
0.8683708814
 40
0.8990997458
 40
0.9261873592
 40
0.9493914448
 40
0.9685093345
 40
0.9764812043
 40
0.9833726087
 40
0.9891726976
 40
0.9938731715
 40
0.9974739625
 40
1.0
 40
1.0
 40
1.0
 40
1.0
 10
33.30494831
 20
31.9201780826
 30
0.0
 10
33.30494831
 20
31.9194264512
 30
0.0
 10
33.3044416029
 20
31.9177412466
 30
0.0
 10
33.3025241459
 20
31.9155288117
 30
0.0
 10
33.2995541692
 20
31.9133678359
 30
0.0
 10
33.2954805858
 20
31.9112195598
 30
0.0
 10
33.2902903353
 20
31.9090725752
 30
0.0
 10
33.2811809347
 20
31.9059918889
 30
0.0
 10
33.2668974595
 20
31.9023333632
 30
0.0
 10
33.2463464931
 20
31.8982411543
 30
0.0
 10
33.2213493545
 20
31.8941854089
 30
0.0
 10
33.1919585566
 20
31.8901490996
 30
0.0
 10
33.1442071816
 20
31.8844475576
 30
0.0
 10
33.0740703056
 20
31.877475197
 30
0.0
 10
32.9778702184
 20
31.8691950891
 30
0.0
 10
32.8663123745
 20
31.8606787306
 30
0.0
 10
32.7404098399
 20
31.8521514751
 30
0.0
 10
32.6013127824
 20
31.8437145793
 30
0.0
 10
32.4502983314
 20
31.8354677051
 30
0.0
 10
32.2887549881
 20
31.82733598
 30
0.0
 10
32.1181743576
 20
31.8192384399
 30
0.0
 10
31.9401311732
 20
31.8109484845
 30
0.0
 10
31.7562658702
 20
31.8023732744
 30
0.0
 10
31.5682517109
 20
31.7937802675
 30
0.0
 10
31.3142750692
 20
31.7824619687
 30
0.0
 10
30.9994828093
 20
31.7689816923
 30
0.0
 10
30.6893830409
 20
31.7555021177
 30
0.0
 10
30.4504012516
 20
31.743957831
 30
0.0
 10
30.2818526767
 20
31.7353450394
 30
0.0
 10
30.1226976485
 20
31.7268497021
 30
0.0
 10
29.9744004495
 20
31.7185317403
 30
0.0
 10
29.8383205041
 20
31.7104102178
 30
0.0
 10
29.715712973
 20
31.7023373288
 30
0.0
 10
29.6077003906
 20
31.6942120174
 30
0.0
 10
29.5152804897
 20
31.6858641779
 30
0.0
 10
29.4484449885
 20
31.6784501661
 30
0.0
 10
29.403421055
 20
31.6723865541
 30
0.0
 10
29.3761173346
 20
31.6681673172
 30
0.0
 10
29.3532394647
 20
31.6640156199
 30
0.0
 10
29.3348137223
 20
31.659962502
 30
0.0
 10
29.3208930844
 20
31.6560212777
 30
0.0
 10
29.3132182959
 20
31.6529994023
 30
0.0
 10
29.3102909482
 20
31.6513157017
 30
0.0
  0
SPLINE
  5
572
100
AcDbEntity
  8
0
100
AcDbSpline
 62
7
  6
BYLAYER
 70
0
 71
3
 72
44
 73
40
 74
0
 42
0.0000001
 43
0.0000001
 44
0.0000000001
 40
0.0
 40
0.0
 40
0.0
 40
0.0
 40
0.002602331
 40
0.0062723476
 40
0.0110341341
 40
0.016889643
 40
0.0238322812
 40
0.0318522119
 40
0.051059244
 40
0.0743447215
 40
0.1015050422
 40
0.1322953846
 40
0.1664370272
 40
0.203619836
 40
0.2435026646
 40
0.3298911071
 40
0.4224510007
 40
0.5178040753
 40
0.6124627825
 40
0.7029704499
 40
0.7456272381
 40
0.7860256187
 40
0.8237986166
 40
0.8585982633
 40
0.8901100492
 40
0.9180459506
 40
0.9421557666
 40
0.9622252389
 40
0.9706894001
 40
0.9780813882
 40
0.9843899284
 40
0.9896065293
 40
0.9937278594
 40
0.995381449
 40
0.9967686532
 40
0.9978974166
 40
0.9987832415
 40
0.999459324
 40
1.0
 40
1.0
 40
1.0
 40
1.0
 10
33.2991872443
 20
31.863584773
 30
0.0
 10
33.2961759099
 20
31.8618437248
 30
0.0
 10
33.2883464952
 20
31.8586911651
 30
0.0
 10
33.2741755925
 20
31.8546150923
 30
0.0
 10
33.2555075887
 20
31.8505186305
 30
0.0
 10
33.2323992573
 20
31.8463985801
 30
0.0
 10
33.204877842
 20
31.8422658351
 30
0.0
 10
33.1595842394
 20
31.8363783459
 30
0.0
 10
33.0924406231
 20
31.8292091067
 30
0.0
 10
32.9997021839
 20
31.8209669239
 30
0.0
 10
32.8914304532
 20
31.8126995776
 30
0.0
 10
32.7686137122
 20
31.8044040861
 30
0.0
 10
32.6323741387
 20
31.7960916254
 30
0.0
 10
32.483961269
 20
31.7877676256
 30
0.0
 10
32.2657776842
 20
31.7763528301
 30
0.0
 10
31.9736110315
 20
31.7623356452
 30
0.0
 10
31.6073340641
 20
31.7458836713
 30
0.0
 10
31.2299925438
 20
31.729416479
 30
0.0
 10
30.8553967117
 20
31.7129518722
 30
0.0
 10
30.5511953895
 20
31.6989946915
 30
0.0
 10
30.3194790882
 20
31.6876528085
 30
0.0
 10
30.1581884955
 20
31.6793192534
 30
0.0
 10
30.0074145521
 20
31.6709943067
 30
0.0
 10
29.8685377059
 20
31.6626789274
 30
0.0
 10
29.742834356
 20
31.6543793531
 30
0.0
 10
29.6314519216
 20
31.646103706
 30
0.0
 10
29.5354100658
 20
31.6378573359
 30
0.0
 10
29.465403556
 20
31.6306907124
 30
0.0
 10
29.4177427416
 20
31.6248113583
 30
0.0
 10
29.3884060207
 20
31.620665396
 30
0.0
 10
29.3634555055
 20
31.6165376056
 30
0.0
 10
29.3429456651
 20
31.6124291131
 30
0.0
 10
29.3286878628
 20
31.6088267478
 30
0.0
 10
29.3195887213
 20
31.6058367373
 30
0.0
 10
29.3144089631
 20
31.6037677111
 30
0.0
 10
29.3103441309
 20
31.6017078899
 30
0.0
 10
29.3073819196
 20
31.599642028
 30
0.0
 10
29.3054623536
 20
31.5975305087
 30
0.0
 10
29.30494831
 20
31.5959007795
 30
0.0
 10
29.30494831
 20
31.5951780826
 30
0.0
  0
SPLINE
  5
573
100
AcDbEntity
  8
0
100
AcDbSpline
 62
7
  6
BYLAYER
 70
0
 71
3
 72
20
 73
16
 74
0
 42
0.0000001
 43
0.0000001
 44
0.0000000001
 40
0.0
 40
0.0
 40
0.0
 40
0.0
 40
0.0062183139
 40
0.0142169684
 40
0.0356956823
 40
0.0645450082
 40
0.1007107473
 40
0.1440534293
 40
0.1943440997
 40
0.2512855189
 40
0.3145470239
 40
0.4585759684
 40
0.6232732509
 40
0.805096163
 40
1.0
 40
1.0
 40
1.0
 40
1.0
 10
32.9978764671
 20
31.6896016982
 30
0.0
 10
32.9956804824
 20
31.6883287175
 30
0.0
 10
32.990389336
 20
31.6858942571
 30
0.0
 10
32.9766327975
 20
31.681069894
 30
0.0
 10
32.9534785063
 20
31.6753494145
 30
0.0
 10
32.9187804627
 20
31.6688180162
 30
0.0
 10
32.8750192427
 20
31.6623109643
 30
0.0
 10
32.8224205643
 20
31.6559180602
 30
0.0
 10
32.7612809882
 20
31.6495905376
 30
0.0
 10
32.6919747469
 20
31.6432544985
 30
0.0
 10
32.5844859447
 20
31.6343313749
 30
0.0
 10
32.4330516766
 20
31.623165224
 30
0.0
 10
32.2332526167
 20
31.6098820224
 30
0.0
 10
32.012629183
 20
31.5968568377
 30
0.0
 10
31.8590664858
 20
31.5887291009
 30
0.0
 10
31.7796173163
 20
31.5845615936
 30
0.0
  0
SPLINE
  5
574
100
AcDbEntity
  8
0
100
AcDbSpline
 62
7
  6
BYLAYER
 70
0
 71
3
 72
44
 73
40
 74
0
 42
0.0000001
 43
0.0000001
 44
0.0000000001
 40
0.0
 40
0.0
 40
0.0
 40
0.0
 40
0.0025498219
 40
0.0061666689
 40
0.0108750027
 40
0.0166780628
 40
0.0235701902
 40
0.0315421206
 40
0.0506612933
 40
0.0738697648
 40
0.1009640169
 40
0.1316998793
 40
0.1657986044
 40
0.2029502158
 40
0.2428131249
 40
0.3291938264
 40
0.4217827002
 40
0.5171976753
 40
0.6119426537
 40
0.7025498705
 40
0.7452588935
 40
0.7857088792
 40
0.8235316987
 40
0.85837831
 40
0.8899339717
 40
0.9179100929
 40
0.9420554906
 40
0.9621551619
 40
0.9706325372
 40
0.9780363562
 40
0.9843548252
 40
0.9895786239
 40
0.9937031043
 40
0.9953567597
 40
0.9967436049
 40
0.9978724156
 40
0.9987602437
 40
0.9994432319
 40
1.0
 40
1.0
 40
1.0
 40
1.0
 10
33.2995766405
 20
32.4138633819
 30
0.0
 10
33.2966528193
 20
32.4121111447
 30
0.0
 10
33.2889815763
 20
32.4089332136
 30
0.0
 10
33.2750393343
 20
32.4048266488
 30
0.0
 10
33.2565880831
 20
32.4007173268
 30
0.0
 10
33.2336891924
 20
32.3965969088
 30
0.0
 10
33.20636715
 20
32.3924699028
 30
0.0
 10
33.1613184637
 20
32.3865852241
 30
0.0
 10
33.0944531109
 20
32.3794066604
 30
0.0
 10
33.0020132181
 20
32.371154591
 30
0.0
 10
32.8939924524
 20
32.3628826698
 30
0.0
 10
32.7713790119
 20
32.3545815243
 30
0.0
 10
32.6352942462
 20
32.3462619657
 30
0.0
 10
32.4869882316
 20
32.3379311242
 30
0.0
 10
32.2688554542
 20
32.3265053901
 30
0.0
 10
31.9766494157
 20
32.3124754997
 30
0.0
 10
31.6102138844
 20
32.2960103787
 30
0.0
 10
31.2325865763
 20
32.2795294905
 30
0.0
 10
30.8576109073
 20
32.2630507338
 30
0.0
 10
30.5530517483
 20
32.2490822814
 30
0.0
 10
30.3210333756
 20
32.2377309564
 30
0.0
 10
30.1595163718
 20
32.2293899181
 30
0.0
 10
30.0085244035
 20
32.2210579939
 30
0.0
 10
29.8694413482
 20
32.2127366689
 30
0.0
 10
29.7435464258
 20
32.2044295651
 30
0.0
 10
29.6319897345
 20
32.1961432328
 30
0.0
 10
29.5357932304
 20
32.1878957145
 30
0.0
 10
29.4656709211
 20
32.1807319037
 30
0.0
 10
29.4179314317
 20
32.1748350477
 30
0.0
 10
29.3885466789
 20
32.1706671105
 30
0.0
 10
29.3635559915
 20
32.1665251333
 30
0.0
 10
29.3430153375
 20
32.1624205788
 30
0.0
 10
29.3287323194
 20
32.1588575515
 30
0.0
 10
29.3196143473
 20
32.1559093099
 30
0.0
 10
29.3144243584
 20
32.1538647914
 30
0.0
 10
29.310349923
 20
32.1518167893
 30
0.0
 10
29.3073767976
 20
32.1497433006
 30
0.0
 10
29.3054496075
 20
32.1475875262
 30
0.0
 10
29.30494831
 20
32.1459223861
 30
0.0
 10
29.30494831
 20
32.1451780826
 30
0.0
  0
SPLINE
  5
575
100
AcDbEntity
  8
0
100
AcDbSpline
 62
7
  6
BYLAYER
 70
0
 71
3
 72
48
 73
44
 74
0
 42
0.0000001
 43
0.0000001
 44
0.0000000001
 40
0.0
 40
0.0
 40
0.0
 40
0.0
 40
0.0029025405
 40
0.0068553692
 40
0.0118805088
 40
0.0179815662
 40
0.0251534186
 40
0.0333859667
 40
0.052975255
 40
0.076609279
 40
0.1040900335
 40
0.1351538068
 40
0.1695073752
 40
0.2068355486
 40
0.2468040961
 40
0.2890590596
 40
0.3332276135
 40
0.425679124
 40
0.520762411
 40
0.568216856
 40
0.6150407448
 40
0.660802372
 40
0.7050760828
 40
0.7474602331
 40
0.7875814321
 40
0.8250850399
 40
0.8596373201
 40
0.8909208957
 40
0.9186368302
 40
0.9425120934
 40
0.9529440854
 40
0.9623476187
 40
0.9707054847
 40
0.9780039655
 40
0.9842353218
 40
0.9893956208
 40
0.99348793
 40
0.9951398911
 40
0.9965363226
 40
0.997688385
 40
0.9986167246
 40
0.9993616078
 40
1.0
 40
1.0
 40
1.0
 40
1.0
 10
32.9983382634
 20
32.2397468913
 30
0.0
 10
32.9954825462
 20
32.238091864
 30
0.0
 10
32.9882692285
 20
32.2350257618
 30
0.0
 10
32.9753731151
 20
32.2309970339
 30
0.0
 10
32.9587117248
 20
32.2268972029
 30
0.0
 10
32.938322511
 20
32.2227346612
 30
0.0
 10
32.9142294142
 20
32.2185252548
 30
0.0
 10
32.8748903293
 20
32.2125169228
 30
0.0
 10
32.8168298062
 20
32.2051794898
 30
0.0
 10
32.7368506043
 20
32.1969087067
 30
0.0
 10
32.6437458913
 20
32.1888501406
 30
0.0
 10
32.5384140863
 20
32.1807804491
 30
0.0
 10
32.4218620991
 20
32.1726063199
 30
0.0
 10
32.2951720363
 20
32.1642694945
 30
0.0
 10
32.1594874483
 20
32.1557923905
 30
0.0
 10
32.0160139028
 20
32.1472483087
 30
0.0
 10
31.812923945
 20
32.1358539305
 30
0.0
 10
31.5497819587
 20
32.1224396517
 30
0.0
 10
31.282907274
 20
32.1088729684
 30
0.0
 10
31.067870383
 20
32.097568473
 30
0.0
 10
30.9088527449
 20
32.0890187264
 30
0.0
 10
30.7534524829
 20
32.0805598816
 30
0.0
 10
30.6030947786
 20
32.0723507898
 30
0.0
 10
30.4591544581
 20
32.0642563017
 30
0.0
 10
30.3229287496
 20
32.0561051847
 30
0.0
 10
30.1956340887
 20
32.0478259456
 30
0.0
 10
30.0784214945
 20
32.039412594
 30
0.0
 10
29.9723763961
 20
32.0309207667
 30
0.0
 10
29.8785110699
 20
32.0224945512
 30
0.0
 10
29.8083345159
 20
32.0154139333
 30
0.0
 10
29.7589529109
 20
32.0097365412
 30
0.0
 10
29.7271485315
 20
32.0056860631
 30
0.0
 10
29.6989392722
 20
32.0016345907
 30
0.0
 10
29.6743819722
 20
31.9975670699
 30
0.0
 10
29.6535183675
 20
31.9934877465
 30
0.0
 10
29.6363885915
 20
31.9893946436
 30
0.0
 10
29.6245092846
 20
31.9857772615
 30
0.0
 10
29.6169652612
 20
31.9827587719
 30
0.0
 10
29.6126703121
 20
31.9806552212
 30
0.0
 10
29.6093128241
 20
31.9785471532
 30
0.0
 10
29.6068808372
 20
31.9764192481
 30
0.0
 10
29.6053598925
 20
31.9742232089
 30
0.0
 10
29.6050278096
 20
31.9726242402
 30
0.0
 10
29.6050563101
 20
31.9718988483
 30
0.0
  0
SPLINE
  5
576
100
AcDbEntity
  8
0
100
AcDbSpline
 62
7
  6
BYLAYER
 70
0
 71
3
 72
46
 73
42
 74
0
 42
0.0000001
 43
0.0000001
 44
0.0000000001
 40
0.0
 40
0.0
 40
0.0
 40
0.0
 40
0.0028968826
 40
0.006845723
 40
0.0118683754
 40
0.0179662932
 40
0.0251342378
 40
0.0333636518
 40
0.0529456461
 40
0.0765685383
 40
0.1040410886
 40
0.1351011101
 40
0.1694547491
 40
0.2067839734
 40
0.2467541702
 40
0.3331777732
 40
0.4256332596
 40
0.5207251107
 40
0.6150127635
 40
0.6607812297
 40
0.7050623928
 40
0.7474522479
 40
0.7875765411
 40
0.8250818176
 40
0.8596349801
 40
0.8909212853
 40
0.9186439951
 40
0.9425282248
 40
0.9529629956
 40
0.9623667746
 40
0.9707238862
 40
0.9780213419
 40
0.9842501966
 40
0.9894064236
 40
0.9934948661
 40
0.9951452581
 40
0.9965401954
 40
0.9976907421
 40
0.998617623
 40
0.999361557
 40
1.0
 40
1.0
 40
1.0
 40
1.0
 10
15.6115057958
 20
31.8256205684
 30
0.0
 10
15.6143559921
 20
31.8272723108
 30
0.0
 10
15.6215614517
 20
31.8303296013
 30
0.0
 10
15.6344471581
 20
31.8343449181
 30
0.0
 10
15.6511004516
 20
31.8384321933
 30
0.0
 10
15.6714813572
 20
31.8425813788
 30
0.0
 10
15.6955649155
 20
31.8467783161
 30
0.0
 10
15.7348889407
 20
31.852777634
 30
0.0
 10
15.7929234229
 20
31.8601246953
 30
0.0
 10
15.8728677388
 20
31.8684401761
 30
0.0
 10
15.965943204
 20
31.8765377348
 30
0.0
 10
16.0712628907
 20
31.8845942595
 30
0.0
 10
16.1878136134
 20
31.8927486234
 30
0.0
 10
16.3145093702
 20
31.9010532621
 30
0.0
 10
16.500328089
 20
31.9126358889
 30
0.0
 10
16.7487786497
 20
31.9270562733
 30
0.0
 10
17.0599219753
 20
31.9429637254
 30
0.0
 10
17.380003964
 20
31.9591541412
 30
0.0
 10
17.6470287592
 20
31.9733368356
 30
0.0
 10
17.8563369204
 20
31.9847831875
 30
0.0
 10
18.0067153299
 20
31.9930385123
 30
0.0
 10
18.1506744322
 20
32.0011356744
 30
0.0
 10
18.2869134361
 20
32.0092704193
 30
0.0
 10
18.4142169217
 20
32.0175189156
 30
0.0
 10
18.5314374588
 20
32.0259104918
 30
0.0
 10
18.6374960173
 20
32.0343873833
 30
0.0
 10
18.7313800036
 20
32.0428457829
 30
0.0
 10
18.8015738847
 20
32.0499659257
 30
0.0
 10
18.8509677903
 20
32.0556567653
 30
0.0
 10
18.882774344
 20
32.0597112223
 30
0.0
 10
18.9109824136
 20
32.0637589333
 30
0.0
 10
18.9355367587
 20
32.0678146247
 30
0.0
 10
18.956394245
 20
32.0718805409
 30
0.0
 10
18.9735144866
 20
32.075962808
 30
0.0
 10
18.9853855509
 20
32.0795697533
 30
0.0
 10
18.9929250627
 20
32.0825782817
 30
0.0
 10
18.997217354
 20
32.084675448
 30
0.0
 10
19.0005721589
 20
32.0867783593
 30
0.0
 10
19.0030008637
 20
32.088903558
 30
0.0
 10
19.0045173773
 20
32.091099868
 30
0.0
 10
19.0048455577
 20
32.0926985203
 30
0.0
 10
19.0048159754
 20
32.093423929
 30
0.0
  0
SPLINE
  5
577
100
AcDbEntity
  8
0
100
AcDbSpline
 62
7
  6
BYLAYER
 70
0
 71
3
 72
47
 73
43
 74
0
 42
0.0000001
 43
0.0000001
 44
0.0000000001
 40
0.0
 40
0.0
 40
0.0
 40
0.0
 40
0.0005622275
 40
0.0012566902
 40
0.002157041
 40
0.0032972872
 40
0.0046936682
 40
0.0063546349
 40
0.0104864922
 40
0.0157104277
 40
0.0220258136
 40
0.0294258281
 40
0.0379000733
 40
0.0579965839
 40
0.0821436476
 40
0.1101239527
 40
0.1416843823
 40
0.1765348044
 40
0.2143603462
 40
0.2548124463
 40
0.2975235275
 40
0.3420999042
 40
0.3881347502
 40
0.4352060231
 40
0.4828830856
 40
0.5783001806
 40
0.6708895885
 40
0.7150590309
 40
0.7572689366
 40
0.797129927
 40
0.8342778698
 40
0.8683708814
 40
0.8990997458
 40
0.9261873592
 40
0.9493914448
 40
0.9685093345
 40
0.9764812043
 40
0.9833726087
 40
0.9891726976
 40
0.9938731715
 40
0.9974739625
 40
1.0
 40
1.0
 40
1.0
 40
1.0
 10
19.30494831
 20
31.9201780826
 30
0.0
 10
19.30494831
 20
31.9194264512
 30
0.0
 10
19.3044416029
 20
31.9177412466
 30
0.0
 10
19.3025241459
 20
31.9155288117
 30
0.0
 10
19.2995541692
 20
31.9133678359
 30
0.0
 10
19.2954805858
 20
31.9112195598
 30
0.0
 10
19.2902903353
 20
31.9090725752
 30
0.0
 10
19.2811809347
 20
31.9059918889
 30
0.0
 10
19.2668974595
 20
31.9023333632
 30
0.0
 10
19.2463464931
 20
31.8982411543
 30
0.0
 10
19.2213493545
 20
31.8941854089
 30
0.0
 10
19.1919585566
 20
31.8901490996
 30
0.0
 10
19.1442071816
 20
31.8844475576
 30
0.0
 10
19.0740703056
 20
31.877475197
 30
0.0
 10
18.9778702184
 20
31.8691950891
 30
0.0
 10
18.8663123745
 20
31.8606787306
 30
0.0
 10
18.7404098399
 20
31.8521514751
 30
0.0
 10
18.6013127824
 20
31.8437145793
 30
0.0
 10
18.4502983314
 20
31.8354677051
 30
0.0
 10
18.2887549881
 20
31.82733598
 30
0.0
 10
18.1181743576
 20
31.8192384399
 30
0.0
 10
17.9401311732
 20
31.8109484845
 30
0.0
 10
17.7562658702
 20
31.8023732744
 30
0.0
 10
17.5682517109
 20
31.7937802675
 30
0.0
 10
17.3142750692
 20
31.7824619687
 30
0.0
 10
16.9994828093
 20
31.7689816923
 30
0.0
 10
16.6893830409
 20
31.7555021177
 30
0.0
 10
16.4504012516
 20
31.743957831
 30
0.0
 10
16.2818526767
 20
31.7353450394
 30
0.0
 10
16.1226976485
 20
31.7268497021
 30
0.0
 10
15.9744004495
 20
31.7185317403
 30
0.0
 10
15.8383205041
 20
31.7104102178
 30
0.0
 10
15.715712973
 20
31.7023373288
 30
0.0
 10
15.6077003906
 20
31.6942120174
 30
0.0
 10
15.5152804897
 20
31.6858641779
 30
0.0
 10
15.4484449885
 20
31.6784501661
 30
0.0
 10
15.403421055
 20
31.6723865541
 30
0.0
 10
15.3761173346
 20
31.6681673172
 30
0.0
 10
15.3532394647
 20
31.6640156199
 30
0.0
 10
15.3348137223
 20
31.659962502
 30
0.0
 10
15.3208930844
 20
31.6560212777
 30
0.0
 10
15.3132182959
 20
31.6529994023
 30
0.0
 10
15.3102909482
 20
31.6513157017
 30
0.0
  0
SPLINE
  5
578
100
AcDbEntity
  8
0
100
AcDbSpline
 62
7
  6
BYLAYER
 70
0
 71
3
 72
44
 73
40
 74
0
 42
0.0000001
 43
0.0000001
 44
0.0000000001
 40
0.0
 40
0.0
 40
0.0
 40
0.0
 40
0.002602331
 40
0.0062723476
 40
0.0110341341
 40
0.016889643
 40
0.0238322812
 40
0.0318522119
 40
0.051059244
 40
0.0743447215
 40
0.1015050422
 40
0.1322953846
 40
0.1664370272
 40
0.203619836
 40
0.2435026646
 40
0.3298911071
 40
0.4224510007
 40
0.5178040753
 40
0.6124627825
 40
0.7029704499
 40
0.7456272381
 40
0.7860256187
 40
0.8237986166
 40
0.8585982633
 40
0.8901100492
 40
0.9180459506
 40
0.9421557666
 40
0.9622252389
 40
0.9706894001
 40
0.9780813882
 40
0.9843899284
 40
0.9896065293
 40
0.9937278594
 40
0.995381449
 40
0.9967686532
 40
0.9978974166
 40
0.9987832415
 40
0.999459324
 40
1.0
 40
1.0
 40
1.0
 40
1.0
 10
19.2991872443
 20
31.863584773
 30
0.0
 10
19.2961759099
 20
31.8618437248
 30
0.0
 10
19.2883464952
 20
31.8586911651
 30
0.0
 10
19.2741755925
 20
31.8546150923
 30
0.0
 10
19.2555075887
 20
31.8505186305
 30
0.0
 10
19.2323992573
 20
31.8463985801
 30
0.0
 10
19.204877842
 20
31.8422658351
 30
0.0
 10
19.1595842394
 20
31.8363783459
 30
0.0
 10
19.0924406231
 20
31.8292091067
 30
0.0
 10
18.9997021839
 20
31.8209669239
 30
0.0
 10
18.8914304532
 20
31.8126995776
 30
0.0
 10
18.7686137122
 20
31.8044040861
 30
0.0
 10
18.6323741387
 20
31.7960916254
 30
0.0
 10
18.483961269
 20
31.7877676256
 30
0.0
 10
18.2657776842
 20
31.7763528301
 30
0.0
 10
17.9736110315
 20
31.7623356452
 30
0.0
 10
17.6073340641
 20
31.7458836713
 30
0.0
 10
17.2299925438
 20
31.729416479
 30
0.0
 10
16.8553967117
 20
31.7129518722
 30
0.0
 10
16.5511953895
 20
31.6989946915
 30
0.0
 10
16.3194790882
 20
31.6876528085
 30
0.0
 10
16.1581884955
 20
31.6793192534
 30
0.0
 10
16.0074145521
 20
31.6709943067
 30
0.0
 10
15.8685377059
 20
31.6626789274
 30
0.0
 10
15.742834356
 20
31.6543793531
 30
0.0
 10
15.6314519216
 20
31.646103706
 30
0.0
 10
15.5354100658
 20
31.6378573359
 30
0.0
 10
15.465403556
 20
31.6306907124
 30
0.0
 10
15.4177427416
 20
31.6248113583
 30
0.0
 10
15.3884060207
 20
31.620665396
 30
0.0
 10
15.3634555055
 20
31.6165376056
 30
0.0
 10
15.3429456651
 20
31.6124291131
 30
0.0
 10
15.3286878628
 20
31.6088267478
 30
0.0
 10
15.3195887213
 20
31.6058367373
 30
0.0
 10
15.3144089631
 20
31.6037677111
 30
0.0
 10
15.3103441309
 20
31.6017078899
 30
0.0
 10
15.3073819196
 20
31.599642028
 30
0.0
 10
15.3054623536
 20
31.5975305087
 30
0.0
 10
15.30494831
 20
31.5959007795
 30
0.0
 10
15.30494831
 20
31.5951780826
 30
0.0
  0
SPLINE
  5
579
100
AcDbEntity
  8
0
100
AcDbSpline
 62
7
  6
BYLAYER
 70
0
 71
3
 72
20
 73
16
 74
0
 42
0.0000001
 43
0.0000001
 44
0.0000000001
 40
0.0
 40
0.0
 40
0.0
 40
0.0
 40
0.0062183139
 40
0.0142169684
 40
0.0356956823
 40
0.0645450082
 40
0.1007107473
 40
0.1440534293
 40
0.1943440997
 40
0.2512855189
 40
0.3145470239
 40
0.4585759684
 40
0.6232732509
 40
0.805096163
 40
1.0
 40
1.0
 40
1.0
 40
1.0
 10
18.9978764671
 20
31.6896016982
 30
0.0
 10
18.9956804824
 20
31.6883287175
 30
0.0
 10
18.990389336
 20
31.6858942571
 30
0.0
 10
18.9766327975
 20
31.681069894
 30
0.0
 10
18.9534785063
 20
31.6753494145
 30
0.0
 10
18.9187804627
 20
31.6688180162
 30
0.0
 10
18.8750192427
 20
31.6623109643
 30
0.0
 10
18.8224205643
 20
31.6559180602
 30
0.0
 10
18.7612809882
 20
31.6495905376
 30
0.0
 10
18.6919747469
 20
31.6432544985
 30
0.0
 10
18.5844859447
 20
31.6343313749
 30
0.0
 10
18.4330516766
 20
31.623165224
 30
0.0
 10
18.2332526167
 20
31.6098820224
 30
0.0
 10
18.012629183
 20
31.5968568377
 30
0.0
 10
17.8590664858
 20
31.5887291009
 30
0.0
 10
17.7796173163
 20
31.5845615936
 30
0.0
  0
SPLINE
  5
57A
100
AcDbEntity
  8
0
100
AcDbSpline
 62
7
  6
BYLAYER
 70
0
 71
3
 72
44
 73
40
 74
0
 42
0.0000001
 43
0.0000001
 44
0.0000000001
 40
0.0
 40
0.0
 40
0.0
 40
0.0
 40
0.0025498219
 40
0.0061666689
 40
0.0108750027
 40
0.0166780628
 40
0.0235701902
 40
0.0315421206
 40
0.0506612933
 40
0.0738697648
 40
0.1009640169
 40
0.1316998793
 40
0.1657986044
 40
0.2029502158
 40
0.2428131249
 40
0.3291938264
 40
0.4217827002
 40
0.5171976753
 40
0.6119426537
 40
0.7025498705
 40
0.7452588935
 40
0.7857088792
 40
0.8235316987
 40
0.85837831
 40
0.8899339717
 40
0.9179100929
 40
0.9420554906
 40
0.9621551619
 40
0.9706325372
 40
0.9780363562
 40
0.9843548252
 40
0.9895786239
 40
0.9937031043
 40
0.9953567597
 40
0.9967436049
 40
0.9978724156
 40
0.9987602437
 40
0.9994432319
 40
1.0
 40
1.0
 40
1.0
 40
1.0
 10
19.2995766405
 20
32.4138633819
 30
0.0
 10
19.2966528193
 20
32.4121111447
 30
0.0
 10
19.2889815763
 20
32.4089332136
 30
0.0
 10
19.2750393343
 20
32.4048266488
 30
0.0
 10
19.2565880831
 20
32.4007173268
 30
0.0
 10
19.2336891924
 20
32.3965969088
 30
0.0
 10
19.20636715
 20
32.3924699028
 30
0.0
 10
19.1613184637
 20
32.3865852241
 30
0.0
 10
19.0944531109
 20
32.3794066604
 30
0.0
 10
19.0020132181
 20
32.371154591
 30
0.0
 10
18.8939924524
 20
32.3628826698
 30
0.0
 10
18.7713790119
 20
32.3545815243
 30
0.0
 10
18.6352942462
 20
32.3462619657
 30
0.0
 10
18.4869882316
 20
32.3379311242
 30
0.0
 10
18.2688554542
 20
32.3265053901
 30
0.0
 10
17.9766494157
 20
32.3124754997
 30
0.0
 10
17.6102138844
 20
32.2960103787
 30
0.0
 10
17.2325865763
 20
32.2795294905
 30
0.0
 10
16.8576109073
 20
32.2630507338
 30
0.0
 10
16.5530517483
 20
32.2490822814
 30
0.0
 10
16.3210333756
 20
32.2377309564
 30
0.0
 10
16.1595163718
 20
32.2293899181
 30
0.0
 10
16.0085244035
 20
32.2210579939
 30
0.0
 10
15.8694413482
 20
32.2127366689
 30
0.0
 10
15.7435464258
 20
32.2044295651
 30
0.0
 10
15.6319897345
 20
32.1961432328
 30
0.0
 10
15.5357932304
 20
32.1878957145
 30
0.0
 10
15.4656709211
 20
32.1807319037
 30
0.0
 10
15.4179314317
 20
32.1748350477
 30
0.0
 10
15.3885466789
 20
32.1706671105
 30
0.0
 10
15.3635559915
 20
32.1665251333
 30
0.0
 10
15.3430153375
 20
32.1624205788
 30
0.0
 10
15.3287323194
 20
32.1588575515
 30
0.0
 10
15.3196143473
 20
32.1559093099
 30
0.0
 10
15.3144243584
 20
32.1538647914
 30
0.0
 10
15.310349923
 20
32.1518167893
 30
0.0
 10
15.3073767976
 20
32.1497433006
 30
0.0
 10
15.3054496075
 20
32.1475875262
 30
0.0
 10
15.30494831
 20
32.1459223861
 30
0.0
 10
15.30494831
 20
32.1451780826
 30
0.0
  0
SPLINE
  5
57B
100
AcDbEntity
  8
0
100
AcDbSpline
 62
7
  6
BYLAYER
 70
0
 71
3
 72
48
 73
44
 74
0
 42
0.0000001
 43
0.0000001
 44
0.0000000001
 40
0.0
 40
0.0
 40
0.0
 40
0.0
 40
0.0029025405
 40
0.0068553692
 40
0.0118805088
 40
0.0179815662
 40
0.0251534186
 40
0.0333859667
 40
0.052975255
 40
0.076609279
 40
0.1040900335
 40
0.1351538068
 40
0.1695073752
 40
0.2068355486
 40
0.2468040961
 40
0.2890590596
 40
0.3332276135
 40
0.425679124
 40
0.520762411
 40
0.568216856
 40
0.6150407448
 40
0.660802372
 40
0.7050760828
 40
0.7474602331
 40
0.7875814321
 40
0.8250850399
 40
0.8596373201
 40
0.8909208957
 40
0.9186368302
 40
0.9425120934
 40
0.9529440854
 40
0.9623476187
 40
0.9707054847
 40
0.9780039655
 40
0.9842353218
 40
0.9893956208
 40
0.99348793
 40
0.9951398911
 40
0.9965363226
 40
0.997688385
 40
0.9986167246
 40
0.9993616078
 40
1.0
 40
1.0
 40
1.0
 40
1.0
 10
18.9983382634
 20
32.2397468913
 30
0.0
 10
18.9954825462
 20
32.238091864
 30
0.0
 10
18.9882692285
 20
32.2350257618
 30
0.0
 10
18.9753731151
 20
32.2309970339
 30
0.0
 10
18.9587117248
 20
32.2268972029
 30
0.0
 10
18.938322511
 20
32.2227346612
 30
0.0
 10
18.9142294142
 20
32.2185252548
 30
0.0
 10
18.8748903293
 20
32.2125169228
 30
0.0
 10
18.8168298062
 20
32.2051794898
 30
0.0
 10
18.7368506043
 20
32.1969087067
 30
0.0
 10
18.6437458913
 20
32.1888501406
 30
0.0
 10
18.5384140863
 20
32.1807804491
 30
0.0
 10
18.4218620991
 20
32.1726063199
 30
0.0
 10
18.2951720363
 20
32.1642694945
 30
0.0
 10
18.1594874483
 20
32.1557923905
 30
0.0
 10
18.0160139028
 20
32.1472483087
 30
0.0
 10
17.812923945
 20
32.1358539305
 30
0.0
 10
17.5497819587
 20
32.1224396517
 30
0.0
 10
17.282907274
 20
32.1088729684
 30
0.0
 10
17.067870383
 20
32.097568473
 30
0.0
 10
16.9088527449
 20
32.0890187264
 30
0.0
 10
16.7534524829
 20
32.0805598816
 30
0.0
 10
16.6030947786
 20
32.0723507898
 30
0.0
 10
16.4591544581
 20
32.0642563017
 30
0.0
 10
16.3229287496
 20
32.0561051847
 30
0.0
 10
16.1956340887
 20
32.0478259456
 30
0.0
 10
16.0784214945
 20
32.039412594
 30
0.0
 10
15.9723763961
 20
32.0309207667
 30
0.0
 10
15.8785110699
 20
32.0224945512
 30
0.0
 10
15.8083345159
 20
32.0154139333
 30
0.0
 10
15.7589529109
 20
32.0097365412
 30
0.0
 10
15.7271485315
 20
32.0056860631
 30
0.0
 10
15.6989392722
 20
32.0016345907
 30
0.0
 10
15.6743819722
 20
31.9975670699
 30
0.0
 10
15.6535183675
 20
31.9934877465
 30
0.0
 10
15.6363885915
 20
31.9893946436
 30
0.0
 10
15.6245092846
 20
31.9857772615
 30
0.0
 10
15.6169652612
 20
31.9827587719
 30
0.0
 10
15.6126703121
 20
31.9806552212
 30
0.0
 10
15.6093128241
 20
31.9785471532
 30
0.0
 10
15.6068808372
 20
31.9764192481
 30
0.0
 10
15.6053598925
 20
31.9742232089
 30
0.0
 10
15.6050278096
 20
31.9726242402
 30
0.0
 10
15.6050563101
 20
31.9718988483
 30
0.0
  0
SPLINE
  5
57C
100
AcDbEntity
  8
0
100
AcDbSpline
 62
7
  6
BYLAYER
 70
0
 71
3
 72
14
 73
10
 74
0
 42
0.0000001
 43
0.0000001
 44
0.0000000001
 40
0.0
 40
0.0
 40
0.0
 40
0.0
 40
0.3054812057
 40
0.4480607779
 40
0.5802432646
 40
0.7005357324
 40
0.8091933038
 40
0.9079018331
 40
1.0
 40
1.0
 40
1.0
 40
1.0
 10
40.5000015471
 20
72.9180468852
 30
0.0
 10
40.4891770995
 20
72.9768696303
 30
0.0
 10
40.4668855742
 20
73.0623910341
 30
0.0
 10
40.4211552926
 20
73.1666081604
 30
0.0
 10
40.3814765935
 20
73.2333001668
 30
0.0
 10
40.3362034505
 20
73.2880322242
 30
0.0
 10
40.2866447532
 20
73.3294835002
 30
0.0
 10
40.2339269936
 20
73.3563446925
 30
0.0
 10
40.1970166374
 20
73.3646598999
 30
0.0
 10
40.1790569595
 20
73.3662729557
 30
0.0
  0
SPLINE
  5
57D
100
AcDbEntity
  8
0
100
AcDbSpline
 62
7
  6
BYLAYER
 70
0
 71
3
 72
15
 73
11
 74
0
 42
0.0000001
 43
0.0000001
 44
0.0000000001
 40
0.0
 40
0.0
 40
0.0
 40
0.0
 40
0.0851875189
 40
0.1785042489
 40
0.2841784347
 40
0.4041476968
 40
0.5384986
 40
0.6849866542
 40
0.8401856932
 40
1.0
 40
1.0
 40
1.0
 40
1.0
 10
49.5467138298
 20
72.1134998719
 30
0.0
 10
49.5286949979
 20
72.116710593
 30
0.0
 10
49.4897347968
 20
72.1177368334
 30
0.0
 10
49.4299775366
 20
72.1022376684
 30
0.0
 10
49.3692848232
 20
72.0692564743
 30
0.0
 10
49.3092275071
 20
72.0199356749
 30
0.0
 10
49.2518049526
 20
71.9553932057
 30
0.0
 10
49.1983060684
 20
71.8782586026
 30
0.0
 10
49.1504289853
 20
71.7912661103
 30
0.0
 10
49.1229126555
 20
71.7293408565
 30
0.0
 10
49.1101705043
 20
71.6974563758
 30
0.0
  0
SPLINE
  5
57E
100
AcDbEntity
  8
0
100
AcDbSpline
 62
7
  6
BYLAYER
 70
0
 71
3
 72
21
 73
17
 74
0
 42
0.0000001
 43
0.0000001
 44
0.0000000001
 40
0.0
 40
0.0
 40
0.0
 40
0.0
 40
0.1249354067
 40
0.1874502397
 40
0.2499610347
 40
0.3124674004
 40
0.3749710064
 40
0.4374735295
 40
0.4687389591
 40
0.5000044794
 40
0.562510443
 40
0.6250200007
 40
0.6875332741
 40
0.7500508361
 40
0.8750056094
 40
1.0
 40
1.0
 40
1.0
 40
1.0
 10
49.4064451063
 20
71.3258923179
 30
0.0
 10
49.063560602
 20
71.0524838373
 30
0.0
 10
48.517519879
 20
70.6784077806
 30
0.0
 10
47.7321778729
 20
70.284730447
 30
0.0
 10
47.1159424399
 20
70.0497002252
 30
0.0
 10
46.4775648167
 20
69.8835642214
 30
0.0
 10
45.8240727718
 20
69.792896148
 30
0.0
 10
45.2741210092
 20
69.7841323619
 30
0.0
 10
44.8362359062
 20
69.8170414228
 30
0.0
 10
44.4011399124
 20
69.8764636067
 30
0.0
 10
43.8649810755
 20
69.9986650434
 30
0.0
 10
43.2424380763
 20
70.2163158474
 30
0.0
 10
42.645580262
 20
70.4965685749
 30
0.0
 10
41.8886550193
 20
70.9425674949
 30
0.0
 10
41.017057875
 20
71.6158168519
 30
0.0
 10
40.3986924455
 20
72.2413674787
 30
0.0
 10
40.1074244331
 20
72.5694933153
 30
0.0
  0
SPLINE
  5
57F
100
AcDbEntity
  8
0
100
AcDbSpline
 62
7
  6
BYLAYER
 70
0
 71
3
 72
14
 73
10
 74
0
 42
0.0000001
 43
0.0000001
 44
0.0000000001
 40
0.0
 40
0.0
 40
0.0
 40
0.0
 40
0.1165072546
 40
0.2399694158
 40
0.368310235
 40
0.4990467492
 40
0.6296668905
 40
0.7579443104
 40
1.0
 40
1.0
 40
1.0
 40
1.0
 10
40.4999890105
 20
72.9180040443
 30
0.0
 10
40.8370095119
 20
72.8928791385
 30
0.0
 10
41.5307365767
 20
72.835179227
 30
0.0
 10
42.5938859453
 20
72.7292373986
 30
0.0
 10
43.6960920552
 20
72.6005321214
 30
0.0
 10
44.8166204295
 20
72.4510346957
 30
0.0
 10
45.9342834997
 20
72.2826312106
 30
0.0
 10
47.3675437046
 20
72.0429040051
 30
0.0
 10
48.422797347
 20
71.8406142441
 30
0.0
 10
49.1101816087
 20
71.6974363844
 30
0.0
  0
SPLINE
  5
580
100
AcDbEntity
  8
0
100
AcDbSpline
 62
7
  6
BYLAYER
 70
0
 71
3
 72
15
 73
11
 74
0
 42
0.0000001
 43
0.0000001
 44
0.0000000001
 40
0.0
 40
0.0
 40
0.0
 40
0.0
 40
0.1255724453
 40
0.2503044392
 40
0.3743424597
 40
0.4981715849
 40
0.6224328786
 40
0.7475038801
 40
0.8734000537
 40
1.0
 40
1.0
 40
1.0
 40
1.0
 10
49.1101958193
 20
71.6974450346
 30
0.0
 10
48.7947930898
 20
71.4308661259
 30
0.0
 10
48.1258006708
 20
70.94395864
 30
0.0
 10
47.0056356863
 20
70.412564975
 30
0.0
 10
45.7949778806
 20
70.1522777259
 30
0.0
 10
44.5584448609
 20
70.2137438896
 30
0.0
 10
43.37622912
 20
70.5836186375
 30
0.0
 10
42.2975325077
 20
71.1983438927
 30
0.0
 10
41.3347607453
 20
71.9895790686
 30
0.0
 10
40.7672782675
 20
72.5988176812
 30
0.0
 10
40.4999602902
 20
72.9180145883
 30
0.0
  0
SPLINE
  5
581
100
AcDbEntity
  8
0
100
AcDbSpline
 62
7
  6
BYLAYER
 70
0
 71
3
 72
20
 73
16
 74
0
 42
0.0000001
 43
0.0000001
 44
0.0000000001
 40
0.0
 40
0.0
 40
0.0
 40
0.0
 40
0.0103639566
 40
0.0176431249
 40
0.0268130944
 40
0.0513651394
 40
0.0845608389
 40
0.1263199634
 40
0.1763430869
 40
0.2342641175
 40
0.2995509754
 40
0.4495755996
 40
0.6207924886
 40
0.8068596901
 40
1.0
 40
1.0
 40
1.0
 40
1.0
 10
41.80494831
 20
31.5745423229
 30
0.0
 10
41.80494831
 20
31.5752403355
 30
0.0
 10
41.8041998989
 20
31.5763735501
 30
0.0
 10
41.8027040482
 20
31.5773528398
 30
0.0
 10
41.800188222
 20
31.5785334673
 30
0.0
 10
41.7958274009
 20
31.5797319374
 30
0.0
 10
41.7892255182
 20
31.5809033823
 30
0.0
 10
41.780860262
 20
31.5818733341
 30
0.0
 10
41.7708079407
 20
31.5826665606
 30
0.0
 10
41.7591561551
 20
31.5832842851
 30
0.0
 10
41.7407647314
 20
31.5839310412
 30
0.0
 10
41.7147338629
 20
31.5843586824
 30
0.0
 10
41.6805671003
 20
31.5845391088
 30
0.0
 10
41.6434959245
 20
31.5845723585
 30
0.0
 10
41.6179563128
 20
31.5845674487
 30
0.0
 10
41.60494831
 20
31.5845674487
 30
0.0
  0
SPLINE
  5
582
100
AcDbEntity
  8
0
100
AcDbSpline
 62
7
  6
BYLAYER
 70
0
 71
3
 72
20
 73
16
 74
0
 42
0.0000001
 43
0.0000001
 44
0.0000000001
 40
0.0
 40
0.0
 40
0.0
 40
0.0
 40
0.0103628966
 40
0.0176403613
 40
0.0268082515
 40
0.0513563782
 40
0.0845493029
 40
0.1263056785
 40
0.1763273064
 40
0.2342491651
 40
0.2995384164
 40
0.4495717969
 40
0.6207985118
 40
0.8068627681
 40
1.0
 40
1.0
 40
1.0
 40
1.0
 10
48.80494831
 20
31.5745423229
 30
0.0
 10
48.80494831
 20
31.5752402648
 30
0.0
 10
48.8056962899
 20
31.5763734325
 30
0.0
 10
48.8071918034
 20
31.5773527324
 30
0.0
 10
48.8097070877
 20
31.5785332676
 30
0.0
 10
48.8140673766
 20
31.5797315438
 30
0.0
 10
48.8206686282
 20
31.5809028526
 30
0.0
 10
48.8290333924
 20
31.5818730239
 30
0.0
 10
48.8390854789
 20
31.5826664449
 30
0.0
 10
48.8507373927
 20
31.5832841884
 30
0.0
 10
48.8691296463
 20
31.5839308115
 30
0.0
 10
48.8951619563
 20
31.584358201
 30
0.0
 10
48.9293298038
 20
31.5845386812
 30
0.0
 10
48.9664012715
 20
31.5845720514
 30
0.0
 10
48.991940502
 20
31.5845674487
 30
0.0
 10
49.00494831
 20
31.5845674487
 30
0.0
  0
SPLINE
  5
583
100
AcDbEntity
  8
0
100
AcDbSpline
 62
7
  6
BYLAYER
 70
0
 71
3
 72
20
 73
16
 74
0
 42
0.0000001
 43
0.0000001
 44
0.0000000001
 40
0.0
 40
0.0
 40
0.0
 40
0.0
 40
0.0103639566
 40
0.0176431249
 40
0.0268130944
 40
0.0513651394
 40
0.0845608389
 40
0.1263199634
 40
0.1763430869
 40
0.2342641175
 40
0.2995509754
 40
0.4495755996
 40
0.6207924886
 40
0.8068596901
 40
1.0
 40
1.0
 40
1.0
 40
1.0
 10
27.80494831
 20
31.5745423229
 30
0.0
 10
27.80494831
 20
31.5752403355
 30
0.0
 10
27.8041998989
 20
31.5763735501
 30
0.0
 10
27.8027040482
 20
31.5773528398
 30
0.0
 10
27.800188222
 20
31.5785334673
 30
0.0
 10
27.7958274009
 20
31.5797319374
 30
0.0
 10
27.7892255182
 20
31.5809033823
 30
0.0
 10
27.780860262
 20
31.5818733341
 30
0.0
 10
27.7708079407
 20
31.5826665606
 30
0.0
 10
27.7591561551
 20
31.5832842851
 30
0.0
 10
27.7407647314
 20
31.5839310412
 30
0.0
 10
27.7147338629
 20
31.5843586824
 30
0.0
 10
27.6805671003
 20
31.5845391088
 30
0.0
 10
27.6434959245
 20
31.5845723585
 30
0.0
 10
27.6179563128
 20
31.5845674487
 30
0.0
 10
27.60494831
 20
31.5845674487
 30
0.0
  0
SPLINE
  5
584
100
AcDbEntity
  8
0
100
AcDbSpline
 62
7
  6
BYLAYER
 70
0
 71
3
 72
20
 73
16
 74
0
 42
0.0000001
 43
0.0000001
 44
0.0000000001
 40
0.0
 40
0.0
 40
0.0
 40
0.0
 40
0.0103628966
 40
0.0176403613
 40
0.0268082515
 40
0.0513563782
 40
0.0845493029
 40
0.1263056785
 40
0.1763273064
 40
0.2342491651
 40
0.2995384164
 40
0.4495717969
 40
0.6207985118
 40
0.8068627681
 40
1.0
 40
1.0
 40
1.0
 40
1.0
 10
34.80494831
 20
31.5745423229
 30
0.0
 10
34.80494831
 20
31.5752402648
 30
0.0
 10
34.8056962899
 20
31.5763734325
 30
0.0
 10
34.8071918034
 20
31.5773527324
 30
0.0
 10
34.8097070877
 20
31.5785332676
 30
0.0
 10
34.8140673766
 20
31.5797315438
 30
0.0
 10
34.8206686282
 20
31.5809028526
 30
0.0
 10
34.8290333924
 20
31.5818730239
 30
0.0
 10
34.8390854789
 20
31.5826664449
 30
0.0
 10
34.8507373927
 20
31.5832841884
 30
0.0
 10
34.8691296463
 20
31.5839308115
 30
0.0
 10
34.8951619563
 20
31.584358201
 30
0.0
 10
34.9293298038
 20
31.5845386812
 30
0.0
 10
34.9664012715
 20
31.5845720514
 30
0.0
 10
34.991940502
 20
31.5845674487
 30
0.0
 10
35.00494831
 20
31.5845674487
 30
0.0
  0
SPLINE
  5
585
100
AcDbEntity
  8
0
100
AcDbSpline
 62
7
  6
BYLAYER
 70
0
 71
3
 72
20
 73
16
 74
0
 42
0.0000001
 43
0.0000001
 44
0.0000000001
 40
0.0
 40
0.0
 40
0.0
 40
0.0
 40
0.0103639566
 40
0.0176431249
 40
0.0268130944
 40
0.0513651394
 40
0.0845608389
 40
0.1263199634
 40
0.1763430869
 40
0.2342641175
 40
0.2995509754
 40
0.4495755996
 40
0.6207924886
 40
0.8068596901
 40
1.0
 40
1.0
 40
1.0
 40
1.0
 10
13.80494831
 20
31.5745423229
 30
0.0
 10
13.80494831
 20
31.5752403355
 30
0.0
 10
13.8041998989
 20
31.5763735501
 30
0.0
 10
13.8027040482
 20
31.5773528398
 30
0.0
 10
13.800188222
 20
31.5785334673
 30
0.0
 10
13.7958274009
 20
31.5797319374
 30
0.0
 10
13.7892255182
 20
31.5809033823
 30
0.0
 10
13.780860262
 20
31.5818733341
 30
0.0
 10
13.7708079407
 20
31.5826665606
 30
0.0
 10
13.7591561551
 20
31.5832842851
 30
0.0
 10
13.7407647314
 20
31.5839310412
 30
0.0
 10
13.7147338629
 20
31.5843586824
 30
0.0
 10
13.6805671003
 20
31.5845391088
 30
0.0
 10
13.6434959245
 20
31.5845723585
 30
0.0
 10
13.6179563128
 20
31.5845674487
 30
0.0
 10
13.60494831
 20
31.5845674487
 30
0.0
  0
SPLINE
  5
586
100
AcDbEntity
  8
0
100
AcDbSpline
 62
7
  6
BYLAYER
 70
0
 71
3
 72
20
 73
16
 74
0
 42
0.0000001
 43
0.0000001
 44
0.0000000001
 40
0.0
 40
0.0
 40
0.0
 40
0.0
 40
0.0103628966
 40
0.0176403613
 40
0.0268082515
 40
0.0513563782
 40
0.0845493029
 40
0.1263056785
 40
0.1763273064
 40
0.2342491651
 40
0.2995384164
 40
0.4495717969
 40
0.6207985118
 40
0.8068627681
 40
1.0
 40
1.0
 40
1.0
 40
1.0
 10
20.80494831
 20
31.5745423229
 30
0.0
 10
20.80494831
 20
31.5752402648
 30
0.0
 10
20.8056962899
 20
31.5763734325
 30
0.0
 10
20.8071918034
 20
31.5773527324
 30
0.0
 10
20.8097070877
 20
31.5785332676
 30
0.0
 10
20.8140673766
 20
31.5797315438
 30
0.0
 10
20.8206686282
 20
31.5809028526
 30
0.0
 10
20.8290333924
 20
31.5818730239
 30
0.0
 10
20.8390854789
 20
31.5826664449
 30
0.0
 10
20.8507373927
 20
31.5832841884
 30
0.0
 10
20.8691296463
 20
31.5839308115
 30
0.0
 10
20.8951619563
 20
31.584358201
 30
0.0
 10
20.9293298038
 20
31.5845386812
 30
0.0
 10
20.9664012715
 20
31.5845720514
 30
0.0
 10
20.991940502
 20
31.5845674487
 30
0.0
 10
21.00494831
 20
31.5845674487
 30
0.0
  0
SPLINE
  5
587
100
AcDbEntity
  8
0
100
AcDbSpline
 62
7
  6
BYLAYER
 70
0
 71
3
 72
15
 73
11
 74
0
 42
0.0000001
 43
0.0000001
 44
0.0000000001
 40
0.0
 40
0.0
 40
0.0
 40
0.0
 40
0.1246838901
 40
0.2497212442
 40
0.3749016422
 40
0.5000927845
 40
0.6251962539
 40
0.7501767898
 40
0.875105037
 40
1.0
 40
1.0
 40
1.0
 40
1.0
 10
37.66494831
 20
64.6016620537
 30
0.0
 10
37.4661737812
 20
64.5796633584
 30
0.0
 10
37.0638311162
 20
64.5671009392
 30
0.0
 10
36.4650435564
 20
64.6445029982
 30
0.0
 10
35.8851134127
 20
64.8155552442
 30
0.0
 10
35.3382741542
 20
65.0732569784
 30
0.0
 10
34.8355185645
 20
65.4079684922
 30
0.0
 10
34.3845201375
 20
65.8087726045
 30
0.0
 10
33.9904554811
 20
66.2648628499
 30
0.0
 10
33.7676273658
 20
66.5992996427
 30
0.0
 10
33.6666652964
 20
66.7723240461
 30
0.0
  0
SPLINE
  5
588
100
AcDbEntity
  8
0
100
AcDbSpline
 62
7
  6
BYLAYER
 70
0
 71
3
 72
11
 73
7
 74
0
 42
0.0000001
 43
0.0000001
 44
0.0000000001
 40
0.0
 40
0.0
 40
0.0
 40
0.0
 40
0.2509069536
 40
0.501348693
 40
0.7510337681
 40
1.0
 40
1.0
 40
1.0
 40
1.0
 10
33.6666652964
 20
66.7723240461
 30
0.0
 10
33.6525273093
 20
66.7965571809
 30
0.0
 10
33.6200001713
 20
66.8426714794
 30
0.0
 10
33.5584891822
 20
66.9007630291
 30
0.0
 10
33.4856825142
 20
66.9436424713
 30
0.0
 10
33.4317706839
 20
66.9600836206
 30
0.0
 10
33.4043838445
 20
66.9650795217
 30
0.0
  0
SPLINE
  5
589
100
AcDbEntity
  8
0
100
AcDbSpline
 62
7
  6
BYLAYER
 70
0
 71
3
 72
11
 73
7
 74
0
 42
0.0000001
 43
0.0000001
 44
0.0000000001
 40
0.0
 40
0.0
 40
0.0
 40
0.0
 40
0.2470817746
 40
0.5000787178
 40
0.7531209269
 40
1.0
 40
1.0
 40
1.0
 40
1.0
 10
29.9009467088
 20
67.6035533212
 30
0.0
 10
29.1097637059
 20
67.3403179655
 30
0.0
 10
27.4694798257
 20
66.9179929111
 30
0.0
 10
24.9370179326
 20
66.6249603432
 30
0.0
 10
22.3887836653
 20
66.6850446396
 30
0.0
 10
20.7180190973
 20
66.9651510534
 30
0.0
 10
19.9089499113
 20
67.1639729665
 30
0.0
  0
SPLINE
  5
58A
100
AcDbEntity
  8
0
100
AcDbSpline
 62
7
  6
BYLAYER
 70
0
 71
3
 72
11
 73
7
 74
0
 42
0.0000001
 43
0.0000001
 44
0.0000000001
 40
0.0
 40
0.0
 40
0.0
 40
0.0
 40
0.2499907438
 40
0.4999988156
 40
0.7500104857
 40
1.0
 40
1.0
 40
1.0
 40
1.0
 10
34.0389735385
 20
67.3850611485
 30
0.0
 10
34.023882668
 20
67.4108790616
 30
0.0
 10
33.9878120905
 20
67.4594299479
 30
0.0
 10
33.9167523799
 20
67.515975976
 30
0.0
 10
33.8329778348
 20
67.5510256648
 30
0.0
 10
33.7730590911
 20
67.5592725994
 30
0.0
 10
33.7431650441
 20
67.5600701995
 30
0.0
  0
SPLINE
  5
58B
100
AcDbEntity
  8
0
100
AcDbSpline
 62
7
  6
BYLAYER
 70
0
 71
3
 72
11
 73
7
 74
0
 42
0.0000001
 43
0.0000001
 44
0.0000000001
 40
0.0
 40
0.0
 40
0.0
 40
0.0
 40
0.2491590915
 40
0.4986832153
 40
0.748891411
 40
1.0
 40
1.0
 40
1.0
 40
1.0
 10
51.4103605827
 20
65.5500033988
 30
0.0
 10
51.2882334354
 20
65.4497437862
 30
0.0
 10
51.0316678218
 20
65.2633220654
 30
0.0
 10
50.6151303616
 20
65.0326639405
 30
0.0
 10
50.1713038338
 20
64.8566399578
 30
0.0
 10
49.8617368004
 20
64.7793405479
 30
0.0
 10
49.70494831
 20
64.7514725147
 30
0.0
  0
SPLINE
  5
58C
100
AcDbEntity
  8
0
100
AcDbSpline
 62
7
  6
BYLAYER
 70
0
 71
3
 72
12
 73
8
 74
0
 42
0.0000001
 43
0.0000001
 44
0.0000000001
 40
0.0
 40
0.0
 40
0.0
 40
0.0
 40
0.2472775353
 40
0.5001528488
 40
0.6271279968
 40
0.7533218554
 40
1.0
 40
1.0
 40
1.0
 40
1.0
 10
18.9009467088
 20
67.0750944589
 30
0.0
 10
18.1262384385
 20
66.7479156295
 30
0.0
 10
16.515459417
 20
66.185268025
 30
0.0
 10
14.4213422281
 20
65.7472132978
 30
0.0
 10
12.708134437
 20
65.569734893
 30
0.0
 10
11.0081625497
 20
65.5151752008
 30
0.0
 10
9.7374141082
 20
65.6139405334
 30
0.0
 10
8.9089499113
 20
65.7460071098
 30
0.0
  0
SPLINE
  5
58D
100
AcDbEntity
  8
0
100
AcDbSpline
 62
7
  6
BYLAYER
 70
0
 71
3
 72
11
 73
7
 74
0
 42
0.0000001
 43
0.0000001
 44
0.0000000001
 40
0.0
 40
0.0
 40
0.0
 40
0.0
 40
0.2633562466
 40
0.5194682142
 40
0.7656625831
 40
1.0
 40
1.0
 40
1.0
 40
1.0
 10
27.466721282
 20
53.5615619664
 30
0.0
 10
27.429878172
 20
53.5875276825
 30
0.0
 10
27.3528539666
 20
53.632885247
 30
0.0
 10
27.2299345802
 20
53.6799962074
 30
0.0
 10
27.1058891033
 20
53.7052524491
 30
0.0
 10
27.0233915101
 20
53.7093469381
 30
0.0
 10
26.9832991537
 20
53.7082615835
 30
0.0
  0
SPLINE
  5
58E
100
AcDbEntity
  8
0
100
AcDbSpline
 62
7
  6
BYLAYER
 70
0
 71
3
 72
15
 73
11
 74
0
 42
0.0000001
 43
0.0000001
 44
0.0000000001
 40
0.0
 40
0.0
 40
0.0
 40
0.0
 40
0.1204492237
 40
0.2448426829
 40
0.3718575913
 40
0.5001322446
 40
0.6283077102
 40
0.7550966097
 40
0.8793435683
 40
1.0
 40
1.0
 40
1.0
 40
1.0
 10
51.45494831
 20
50.210940462
 30
0.0
 10
50.9560859736
 20
50.1708751289
 30
0.0
 10
49.9393556419
 20
50.1203632567
 30
0.0
 10
48.3936520618
 20
50.1271817425
 30
0.0
 10
46.817764148
 20
50.2129189093
 30
0.0
 10
45.2321029903
 20
50.3744826013
 30
0.0
 10
43.6564334366
 20
50.6082130421
 30
0.0
 10
42.109403367
 20
50.9099792168
 30
0.0
 10
40.6083492472
 20
51.275527462
 30
0.0
 10
39.6319137343
 20
51.5637156999
 30
0.0
 10
39.15494831
 20
51.718102703
 30
0.0
  0
SPLINE
  5
58F
100
AcDbEntity
  8
0
100
AcDbSpline
 62
7
  6
BYLAYER
 70
0
 71
3
 72
15
 73
11
 74
0
 42
0.0000001
 43
0.0000001
 44
0.0000000001
 40
0.0
 40
0.0
 40
0.0
 40
0.0
 40
0.1204761189
 40
0.2447828331
 40
0.3717209527
 40
0.5000078813
 40
0.628288684
 40
0.7552129294
 40
0.8795108271
 40
1.0
 40
1.0
 40
1.0
 40
1.0
 10
37.45494831
 20
51.8278185653
 30
0.0
 10
36.967127672
 20
51.7329691485
 30
0.0
 10
35.9702879434
 20
51.568605843
 30
0.0
 10
34.4459041211
 20
51.3977656422
 30
0.0
 10
32.8828348751
 20
51.2995580642
 30
0.0
 10
31.3005234194
 20
51.2746919384
 30
0.0
 10
29.7188211992
 20
51.3232805801
 30
0.0
 10
28.1575100171
 20
51.4447356717
 30
0.0
 10
26.6358399204
 20
51.637893608
 30
0.0
 10
25.6414437907
 20
51.816489734
 30
0.0
 10
25.15494831
 20
51.9181807164
 30
0.0
  0
SPLINE
  5
590
100
AcDbEntity
  8
0
100
AcDbSpline
 62
7
  6
BYLAYER
 70
0
 71
3
 72
15
 73
11
 74
0
 42
0.0000001
 43
0.0000001
 44
0.0000000001
 40
0.0
 40
0.0
 40
0.0
 40
0.0
 40
0.1206288432
 40
0.2448807119
 40
0.3716896789
 40
0.4998842921
 40
0.6281664734
 40
0.7551747827
 40
0.8795551842
 40
1.0
 40
1.0
 40
1.0
 40
1.0
 10
23.45494831
 20
51.8335344954
 30
0.0
 10
22.9768364401
 20
51.6859198738
 30
0.0
 10
21.9982023444
 20
51.4118058576
 30
0.0
 10
20.4945576814
 20
51.0684401165
 30
0.0
 10
18.9456424856
 20
50.7899337967
 30
0.0
 10
17.3690745166
 20
50.5801880483
 30
0.0
 10
15.7837027566
 20
50.4429060219
 30
0.0
 10
14.2093677558
 20
50.3812582721
 30
0.0
 10
12.6664131132
 20
50.3978217366
 30
0.0
 10
11.6523201967
 20
50.4633850773
 30
0.0
 10
11.15494831
 20
50.5107018777
 30
0.0
  0
SPLINE
  5
591
100
AcDbEntity
  8
0
100
AcDbSpline
 62
7
  6
BYLAYER
 70
0
 71
3
 72
9
 73
5
 74
0
 42
0.0000001
 43
0.0000001
 44
0.0000000001
 40
0.0
 40
0.0
 40
0.0
 40
0.0
 40
0.3080129523
 40
1.0
 40
1.0
 40
1.0
 40
1.0
 10
21.80494831
 20
13.8744653972
 30
0.0
 10
21.7841067859
 20
13.865957077
 30
0.0
 10
21.7166621331
 20
13.8377303954
 30
0.0
 10
21.6501936657
 20
13.8071901265
 30
0.0
 10
21.60494831
 20
13.7845674487
 30
0.0
  0
SPLINE
  5
592
100
AcDbEntity
  8
0
100
AcDbSpline
 62
7
  6
BYLAYER
 70
0
 71
3
 72
9
 73
5
 74
0
 42
0.0000001
 43
0.0000001
 44
0.0000000001
 40
0.0
 40
0.0
 40
0.0
 40
0.0
 40
0.3080704643
 40
1.0
 40
1.0
 40
1.0
 40
1.0
 10
21.80494831
 20
12.8946695001
 30
0.0
 10
21.784113088
 20
12.9032028085
 30
0.0
 10
21.7166810555
 20
12.93145882
 30
0.0
 10
21.6501896308
 20
12.9619467883
 30
0.0
 10
21.60494831
 20
12.9845674487
 30
0.0
  0
SPLINE
  5
593
100
AcDbEntity
  8
0
100
AcDbSpline
 62
7
  6
BYLAYER
 70
0
 71
3
 72
9
 73
5
 74
0
 42
0.0000001
 43
0.0000001
 44
0.0000000001
 40
0.0
 40
0.0
 40
0.0
 40
0.0
 40
0.3080704643
 40
1.0
 40
1.0
 40
1.0
 40
1.0
 10
20.80494831
 20
13.8744653972
 30
0.0
 10
20.825783532
 20
13.8659320888
 30
0.0
 10
20.8932155646
 20
13.8376760773
 30
0.0
 10
20.9597069893
 20
13.807188109
 30
0.0
 10
21.00494831
 20
13.7845674487
 30
0.0
  0
SPLINE
  5
594
100
AcDbEntity
  8
0
100
AcDbSpline
 62
7
  6
BYLAYER
 70
0
 71
3
 72
9
 73
5
 74
0
 42
0.0000001
 43
0.0000001
 44
0.0000000001
 40
0.0
 40
0.0
 40
0.0
 40
0.0
 40
0.3080129523
 40
1.0
 40
1.0
 40
1.0
 40
1.0
 10
20.80494831
 20
12.8946695001
 30
0.0
 10
20.8257898342
 20
12.9031778203
 30
0.0
 10
20.893234487
 20
12.931404502
 30
0.0
 10
20.9597029544
 20
12.9619447708
 30
0.0
 10
21.00494831
 20
12.9845674487
 30
0.0
  0
ELLIPSE
  5
595
100
AcDbEntity
  8
0
100
AcDbEllipse
 62
7
  6
BYLAYER
 10
24.90494831
 20
38.9045674487
 30
0.0
 11
16.0
 21
-0.0
 31
0.0
 40
1.0
 41
1.2532358975
 42
1.3051841772
  0
ELLIPSE
  5
596
100
AcDbEntity
  8
0
100
AcDbEllipse
 62
7
  6
BYLAYER
 10
35.90494831
 20
80.5045674487
 30
0.0
 11
-0.0
 21
16.0
 31
0.0
 40
1.0
 41
-3.0313696036
 42
-2.8240322243
  0
ELLIPSE
  5
597
100
AcDbEntity
  8
0
100
AcDbEllipse
 62
7
  6
BYLAYER
 10
13.90494831
 20
38.9045674487
 30
0.0
 11
16.0
 21
-0.0
 31
0.0
 40
1.0
 41
1.8364084764
 42
1.8883567561
  0
ELLIPSE
  5
598
100
AcDbEntity
  8
0
100
AcDbEllipse
 62
7
  6
BYLAYER
 10
35.90494831
 20
38.9045674487
 30
0.0
 11
-0.0
 21
16.0
 31
0.0
 40
1.0
 41
-0.3175604293
 42
-0.2656121496
  0
ELLIPSE
  5
599
100
AcDbEntity
  8
0
100
AcDbEllipse
 62
7
  6
BYLAYER
 10
13.90494831
 20
38.9045674487
 30
0.0
 11
16.0
 21
-0.0
 31
0.0
 40
1.0
 41
1.2532358975
 42
1.3051841772
  0
ELLIPSE
  5
59A
100
AcDbEntity
  8
0
100
AcDbEllipse
 62
7
  6
BYLAYER
 10
46.90494831
 20
80.5045674487
 30
0.0
 11
-0.0
 21
16.0
 31
0.0
 40
1.0
 41
-3.4591530829
 42
-2.9656868854
  0
ELLIPSE
  5
59B
100
AcDbEntity
  8
0
100
AcDbEllipse
 62
7
  6
BYLAYER
 10
46.90494831
 20
38.9045674487
 30
0.0
 11
16.0
 21
-0.0
 31
0.0
 40
1.0
 41
1.8364084764
 42
1.8883567561
  0
ELLIPSE
  5
59C
100
AcDbEntity
  8
0
100
AcDbEllipse
 62
7
  6
BYLAYER
 10
24.90494831
 20
38.9045674487
 30
0.0
 11
16.0
 21
-0.0
 31
0.0
 40
1.0
 41
1.8364084764
 42
1.8883567561
  0
ELLIPSE
  5
59D
100
AcDbEntity
  8
0
100
AcDbEllipse
 62
7
  6
BYLAYER
 10
46.90494831
 20
38.9045674487
 30
0.0
 11
-0.0
 21
16.0
 31
0.0
 40
1.0
 41
-0.3175604293
 42
-0.2656121496
  0
ELLIPSE
  5
59E
100
AcDbEntity
  8
0
100
AcDbEllipse
 62
7
  6
BYLAYER
 10
35.90494831
 20
38.9045674487
 30
0.0
 11
16.0
 21
0.0
 31
0.0
 40
1.0
 41
1.8364084764
 42
1.8883567561
  0
ENDSEC
  0
SECTION
  2
OBJECTS
  0
DICTIONARY
  5
C
100
AcDbDictionary
280
0
281
1
  3
ACAD_GROUP
350
D
  3
ACAD_MLINESTYLE
350
17
  3
ACAD_LAYOUT
350
1A
  3
ACAD_PLOTSETTINGS
350
19
  3
ACAD_PLOTSTYLENAME
350
E
  0
DICTIONARY
  5
D
102
{ACAD_REACTORS
330
C
102
}
100
AcDbDictionary
280
0
281
1
  0
ACDBDICTIONARYWDFLT
  5
E
102
{ACAD_REACTORS
330
C
102
}
100
AcDbDictionary
281
1
  3
Normal
350
F
100
AcDbDictionaryWithDefault
340
F
  0
DICTIONARY
  5
17
102
{ACAD_REACTORS
330
C
102
}
100
AcDbDictionary
280
0
281
1
  3
Standard
350
18
  0
DICTIONARY
  5
19
102
{ACAD_REACTORS
330
C
102
}
100
AcDbDictionary
281
1
  0
DICTIONARY
  5
1A
102
{ACAD_REACTORS
330
C
102
}
100
AcDbDictionary
281
1
  3
Model
350
59F
  3
Layout1
350
5A0
  0
ACDBPLACEHOLDER
  5
F
102
{ACAD_REACTORS
330
E
102
}
  0
MLINESTYLE
  5
18
102
{ACAD_REACTORS
330
17
102
}
100
AcDbMlineStyle
  2
STANDARD
 70
0
  3

 62
256
 51
90.0
 52
90.0
 71
2
 49
0.5
 62
256
  6
BYLAYER
 49
-0.5
 62
256
  6
BYLAYER
  0
LAYOUT
  5
59F
102
{ACAD_REACTORS
330
1A
102
}
100
AcDbPlotSettings
  1

  2
none_device
  4

  6

 40
0.0
 41
0.0
 42
0.0
 43
0.0
 44
210.0
 45
297.0
 46
0.0
 47
0.0
 48
0.0
 49
0.0
140
0.0
141
0.0
142
1.0
143
1.0
 70
1024
 72
1
 73
0
 74
0
  7

 75
0
147
1.0
148
0.0
149
0.0
100
AcDbLayout
  1
Model
 70
0
 71
0
 10
0.0
 20
0.0
 11
210.0
 21
297.0
 12
0.0
 22
0.0
 32
0.0
 14
0.0
 24
0.0
 34
0.0
 15
0.0
 25
0.0
 35
0.0
146
0.0
 13
0.0
 23
0.0
 33
0.0
 16
1.0
 26
0.0
 36
0.0
 17
0.0
 27
1.0
 37
0.0
 76
0
330
210
345
0
346
0
  0
LAYOUT
  5
5A0
102
{ACAD_REACTORS
330
1A
102
}
100
AcDbPlotSettings
  1

  2
none_device
  4

  6

 40
0.0
 41
0.0
 42
0.0
 43
0.0
 44
210.0
 45
297.0
 46
0.0
 47
0.0
 48
0.0
 49
0.0
140
0.0
141
0.0
142
1.0
143
1.0
 70
0
 72
1
 73
0
 74
0
  7

 75
0
147
1.0
148
0.0
149
0.0
100
AcDbLayout
  1
Layout1
 70
0
 71
1
 10
0.0
 20
0.0
 11
210.0
 21
297.0
 12
0.0
 22
0.0
 32
0.0
 14
0.0
 24
0.0
 34
0.0
 15
0.0
 25
0.0
 35
0.0
146
0.0
 13
0.0
 23
0.0
 33
0.0
 16
1.0
 26
0.0
 36
0.0
 17
0.0
 27
1.0
 37
0.0
 76
0
330
211
345
0
346
0
  0
ENDSEC
  0
EOF
