999
DXF file: C:\Users\sesa63760\Dev\_Creo\CAD\MCADUE0003026_3D-CAD\drw0001_2.dxf
999
Pro/ENGINEER 2019471 by Parametric Technology Corporation
  0
SECTION
  2
HEADER
  9
$ACADVER
  1
AC1024
  9
$DWGCODEPAGE
  3
ANSI_1252
  9
$EXTMAX
 10
314.6387623762
 20
444.9891067892
 30
0.0
  9
$EXTMIN
 10
0.0
 20
0.0
 30
0.0
  9
$LIMMIN
 10
0.0
 20
0.0
  9
$LIMMAX
 10
314.6387623762
 20
444.9891067892
  9
$VIEWCTR
 10
157.3193811881
 20
222.4945533946
  9
$VIEWSIZE
 40
444.9891067892
  9
$CLAYER
  8
0
  9
$LTSCALE
 40
29.0066973314
  9
$CELTYPE
  6
BYLAYER
  9
$DIMSCALE
 40
1.0
  9
$DIMASZ
 40
3.7456995521
  9
$DIMEXO
 40
1.0
  9
$DIMDLI
 40
20.0409908835
  9
$DIMEXE
 40
1.0
  9
$DIMCEN
 40
4.7465504724
  9
$DIMLFAC
 40
1.0
  9
$DIMBLK
  1
_FILLED
  9
$DIMALT
 70
0
  9
$DIMALTF
 40
0.0393700787
  9
$DIMTXT
 40
5.2439793729
  9
$DIMTOL
 70
1
  9
$DIMLIM
 70
0
  9
$DIMTFAC
 40
1.0
  9
$DIMTP
 40
0.01
  9
$DIMTM
 40
0.01
  9
$DIMGAP
 40
0.625
  9
$DIMDSEP
 70
46
  9
$AUNITS
 70
0
  9
$PDMODE
 70
3
  9
$PDSIZE
 40
0.3125
  9
$HANDSEED
  5
26B
  9
$TILEMODE
 70
1
  9
$MEASUREMENT
 70
1
  9
$INSUNITS
 70
4
  0
ENDSEC
  0
SECTION
  2
CLASSES
  0
CLASS
  1
ACDBDICTIONARYWDFLT
  2
AcDbDictionaryWithDefault
  3
AutoCAD 2000
 90
0
 91
1
280
0
281
0
  0
CLASS
  1
ACDBPLACEHOLDER
  2
AcDbPlaceHolder
  3
AutoCAD 2000
 90
0
 91
1
280
0
281
0
  0
CLASS
  1
LAYOUT
  2
AcDbLayout
  3
AutoCAD 2000
 90
0
 91
0
280
0
281
0
  0
ENDSEC
  0
SECTION
  2
TABLES
  0
TABLE
  2
VPORT
  5
8
100
AcDbSymbolTable
 70
2
  0
VPORT
  5
1F4
100
AcDbSymbolTableRecord
100
AcDbViewportTableRecord
  2
*ACTIVE
 70
0
 10
0.0
 20
0.0
 11
1.0
 21
1.0
 12
157.3193811881
 22
222.4945533946
 13
0.0
 23
0.0
 14
1.0
 24
1.0
 15
0.0
 25
0.0
 16
0.0
 26
0.0
 36
1.0
 17
0.0
 27
0.0
 37
0.0
 40
444.9891067892
 41
0.7070707071
 42
50.0
 43
0.0
 44
0.0
 50
0.0
 51
0.0
 71
0
 72
100
 73
1
 74
1
 75
0
 76
0
 77
0
 78
0
  0
ENDTAB
  0
TABLE
  2
LTYPE
  5
5
100
AcDbSymbolTable
 70
6
  0
LTYPE
  5
14
100
AcDbSymbolTableRecord
100
AcDbLinetypeTableRecord
  2
BYBLOCK
 70
0
  3

 72
65
 73
0
 40
0.0
  0
LTYPE
  5
15
100
AcDbSymbolTableRecord
100
AcDbLinetypeTableRecord
  2
BYLAYER
 70
0
  3

 72
65
 73
0
 40
0.0
  0
LTYPE
  5
16
100
AcDbSymbolTableRecord
100
AcDbLinetypeTableRecord
  2
CONTINUOUS
 70
64
  3
Solid line
 72
65
 73
0
 40
0.0
  0
LTYPE
  5
1F5
100
AcDbSymbolTableRecord
100
AcDbLinetypeTableRecord
  2
CENTER
 70
64
  3
____ _ ____ _ ____ _ ____ _ ____ _ ____ _ ____
 72
65
 73
4
 40
0.6
 49
0.375
 74
0
 49
-0.075
 74
0
 49
0.075
 74
0
 49
-0.075
 74
0
  0
LTYPE
  5
1F6
100
AcDbSymbolTableRecord
100
AcDbLinetypeTableRecord
  2
HIDDEN
 70
64
  3
- - - - - - - - - - - - - - - - - - - -
 72
65
 73
2
 40
0.2
 49
0.1
 74
0
 49
-0.1
 74
0
  0
LTYPE
  5
1F7
100
AcDbSymbolTableRecord
100
AcDbLinetypeTableRecord
  2
PHANTOM
 70
64
  3
_____ _ _ _____ _ _ _____ _ _ _____
 72
65
 73
6
 40
0.8
 49
0.45
 74
0
 49
-0.05
 74
0
 49
0.1
 74
0
 49
-0.05
 74
0
 49
0.1
 74
0
 49
-0.05
 74
0
  0
LTYPE
  5
1F8
100
AcDbSymbolTableRecord
100
AcDbLinetypeTableRecord
  2
DOT
 70
64
  3
. . . . . . . . . . . . . . . . . . . .
 72
65
 73
2
 40
0.2
 49
0.1
 74
0
 49
-0.1
 74
0
  0
LTYPE
  5
1F9
100
AcDbSymbolTableRecord
100
AcDbLinetypeTableRecord
  2
DASHED
 70
64
  3
- - - - - - - - - - - - - - - - - - - -
 72
65
 73
2
 40
0.2
 49
0.1
 74
0
 49
-0.1
 74
0
  0
ENDTAB
  0
TABLE
  2
LAYER
  5
2
100
AcDbSymbolTable
 70
36
  0
LAYER
  5
10
100
AcDbSymbolTableRecord
100
AcDbLayerTableRecord
  2
0
 70
0
 62
7
  6
CONTINUOUS
370
-3
390
F
  0
LAYER
  5
1FA
100
AcDbSymbolTableRecord
100
AcDbLayerTableRecord
  2
DEFAULT_1
 70
0
 62
7
  6
CENTER
370
-3
390
F
  0
LAYER
  5
1FB
100
AcDbSymbolTableRecord
100
AcDbLayerTableRecord
  2
DEFAULT_2
 70
0
 62
8
  6
HIDDEN
370
-3
390
F
  0
LAYER
  5
1FC
100
AcDbSymbolTableRecord
100
AcDbLayerTableRecord
  2
DEFAULT_3
 70
0
 62
7
  6
PHANTOM
370
-3
390
F
  0
LAYER
  5
1FD
100
AcDbSymbolTableRecord
100
AcDbLayerTableRecord
  2
00_COMPONENTS
 70
0
 62
7
  6
CONTINUOUS
370
-3
390
F
  0
LAYER
  5
1FE
100
AcDbSymbolTableRecord
100
AcDbLayerTableRecord
  2
01_1_DEFAULT_DATUMS
 70
0
 62
7
  6
CONTINUOUS
370
-3
390
F
  0
LAYER
  5
1FF
100
AcDbSymbolTableRecord
100
AcDbLayerTableRecord
  2
01_PLANES
 70
0
 62
7
  6
CONTINUOUS
370
-3
390
F
  0
LAYER
  5
200
100
AcDbSymbolTableRecord
100
AcDbLayerTableRecord
  2
02_COORD_SYS
 70
0
 62
7
  6
CONTINUOUS
370
-3
390
F
  0
LAYER
  5
201
100
AcDbSymbolTableRecord
100
AcDbLayerTableRecord
  2
03_AXES
 70
0
 62
7
  6
CONTINUOUS
370
-3
390
F
  0
LAYER
  5
202
100
AcDbSymbolTableRecord
100
AcDbLayerTableRecord
  2
04_POINTS
 70
0
 62
7
  6
CONTINUOUS
370
-3
390
F
  0
LAYER
  5
203
100
AcDbSymbolTableRecord
100
AcDbLayerTableRecord
  2
05_CURVES
 70
0
 62
7
  6
CONTINUOUS
370
-3
390
F
  0
LAYER
  5
204
100
AcDbSymbolTableRecord
100
AcDbLayerTableRecord
  2
06_SURFS
 70
0
 62
7
  6
CONTINUOUS
370
-3
390
F
  0
LAYER
  5
205
100
AcDbSymbolTableRecord
100
AcDbLayerTableRecord
  2
07_COSMETICS
 70
0
 62
7
  6
CONTINUOUS
370
-3
390
F
  0
LAYER
  5
206
100
AcDbSymbolTableRecord
100
AcDbLayerTableRecord
  2
10_NOTES
 70
0
 62
7
  6
CONTINUOUS
370
-3
390
F
  0
LAYER
  5
207
100
AcDbSymbolTableRecord
100
AcDbLayerTableRecord
  2
11_NOTES_PUB
 70
0
 62
7
  6
CONTINUOUS
370
-3
390
F
  0
LAYER
  5
208
100
AcDbSymbolTableRecord
100
AcDbLayerTableRecord
  2
13_REF_GTOL
 70
0
 62
7
  6
CONTINUOUS
370
-3
390
F
  0
LAYER
  5
209
100
AcDbSymbolTableRecord
100
AcDbLayerTableRecord
  2
16_MISC
 70
0
 62
7
  6
CONTINUOUS
370
-3
390
F
  0
LAYER
  5
20A
100
AcDbSymbolTableRecord
100
AcDbLayerTableRecord
  2
17_NO_PRINT
 70
0
 62
7
  6
CONTINUOUS
370
-3
390
F
  0
LAYER
  5
20B
100
AcDbSymbolTableRecord
100
AcDbLayerTableRecord
  2
18_DATUM_CAMS_JOINTS
 70
0
 62
7
  6
CONTINUOUS
370
-3
390
F
  0
LAYER
  5
20C
100
AcDbSymbolTableRecord
100
AcDbLayerTableRecord
  2
19_DATUM_FUNCTIONAL
 70
0
 62
7
  6
CONTINUOUS
370
-3
390
F
  0
LAYER
  5
20D
100
AcDbSymbolTableRecord
100
AcDbLayerTableRecord
  2
20_DATUM_KINEMATIC_SCHEME
 70
0
 62
7
  6
CONTINUOUS
370
-3
390
F
  0
ENDTAB
  0
TABLE
  2
STYLE
  5
3
100
AcDbSymbolTable
 70
1
  0
STYLE
  5
11
100
AcDbSymbolTableRecord
100
AcDbTextStyleTableRecord
  2
STANDARD
 70
0
 40
0.0
 41
0.8
 50
0.0
 71
0
 42
0.2
  3
txt
  4

  0
STYLE
  5
20E
100
AcDbSymbolTableRecord
100
AcDbTextStyleTableRecord
  2
TEXTSTYLE_1
 70
0
 40
0.0
 41
0.8
 50
0.0
 71
0
 42
0.2
  3
gdt
  4

  0
ENDTAB
  0
TABLE
  2
VIEW
  5
6
100
AcDbSymbolTable
 70
0
  0
ENDTAB
  0
TABLE
  2
UCS
  5
7
100
AcDbSymbolTable
 70
0
  0
ENDTAB
  0
TABLE
  2
APPID
  5
9
100
AcDbSymbolTable
 70
1
  0
APPID
  5
20F
100
AcDbSymbolTableRecord
100
AcDbRegAppTableRecord
  2
ACAD
 70
0
  0
ENDTAB
  0
TABLE
  2
BLOCK_RECORD
  5
1
100
AcDbSymbolTable
 70
0
  0
BLOCK_RECORD
  5
210
100
AcDbSymbolTableRecord
100
AcDbBlockTableRecord
  2
*Model_Space
  0
BLOCK_RECORD
  5
211
100
AcDbSymbolTableRecord
100
AcDbBlockTableRecord
  2
*Paper_Space
  0
BLOCK_RECORD
  5
212
100
AcDbSymbolTableRecord
100
AcDbBlockTableRecord
  2
_FILLED
  0
ENDTAB
  0
TABLE
  2
DIMSTYLE
  5
A
100
AcDbSymbolTable
 70
1
100
AcDbDimStyleTable
 71
0
  0
DIMSTYLE
105
213
100
AcDbSymbolTableRecord
100
AcDbDimStyleTableRecord
  2
STANDARD
 70
0
  3

  4

 40
1.0
 41
3.7456995521
 42
1.0
 43
0.38
 44
1.0
 45
0.0
 46
0.0
 47
0.01
 48
0.01
140
5.2439793729
141
0.09
142
0.0
143
25.4
144
1.0
145
0.0
146
1.0
147
0.625
 71
1
 72
0
 73
0
 74
0
 75
0
 76
0
 77
1
 78
8
 79
2
170
0
171
1
172
0
173
0
174
0
175
0
176
0
177
0
178
0
270
2
179
2
271
2
272
2
273
2
274
2
275
0
280
0
281
0
282
0
283
1
284
8
285
0
286
0
287
3
288
0
340
11
278
46
341
212
342
212
343
212
344
212
  0
ENDTAB
  0
ENDSEC
  0
SECTION
  2
BLOCKS
  0
BLOCK
  5
20
100
AcDbEntity
  8
0
100
AcDbBlockBegin
  2
*Model_Space
 70
0
 10
0.0
 20
0.0
 30
0.0
  3
*Model_Space
  1

  0
ENDBLK
  5
21
100
AcDbEntity
  8
0
100
AcDbBlockEnd
  0
BLOCK
  5
1C
100
AcDbEntity
  8
0
100
AcDbBlockBegin
  2
*Paper_Space
 70
0
 10
0.0
 20
0.0
 30
0.0
  3
*Paper_Space
  1

  0
ENDBLK
  5
1D
100
AcDbEntity
  8
0
100
AcDbBlockEnd
  0
BLOCK
  5
214
100
AcDbEntity
  8
0
100
AcDbBlockBegin
  2
_FILLED
 70
64
 10
0.0
 20
0.0
  3
_FILLED
  1

  0
SOLID
  5
215
100
AcDbEntity
  8
0
  6
BYBLOCK
 62
0
100
AcDbTrace
 10
0.0
 20
0.0
 11
-1.0
 21
0.25
 12
-1.0
 22
-0.25
 13
-1.0
 23
-0.25
  0
ENDBLK
  5
216
100
AcDbEntity
  8
0
  6
BYBLOCK
 62
0
100
AcDbBlockEnd
  0
ENDSEC
  0
SECTION
  2
ENTITIES
  0
LINE
  5
217
100
AcDbEntity
  8
0
100
AcDbLine
 62
7
  6
CONTINUOUS
 10
275.9980304258
 20
72.0775599263
 11
262.9980304258
 21
72.0775599263
  0
LINE
  5
218
100
AcDbEntity
  8
0
100
AcDbLine
 62
7
  6
CONTINUOUS
 10
34.4980304258
 20
72.2775599263
 11
284.4980304258
 21
72.2775599263
  0
LINE
  5
219
100
AcDbEntity
  8
0
100
AcDbLine
 62
7
  6
CONTINUOUS
 10
282.2980304258
 20
74.4775599263
 11
36.6980304258
 21
74.4775599263
  0
LINE
  5
21A
100
AcDbEntity
  8
0
100
AcDbLine
 62
7
  6
CONTINUOUS
 10
54.2614139084
 20
89.8513659181
 11
58.7477065953
 21
89.8513659181
  0
LINE
  5
21B
100
AcDbEntity
  8
0
100
AcDbLine
 62
7
  6
CONTINUOUS
 10
260.2614139084
 20
89.8513659181
 11
264.7477065953
 21
89.8513659181
  0
LINE
  5
21C
100
AcDbEntity
  8
0
100
AcDbLine
 62
7
  6
CONTINUOUS
 10
263.9242244339
 20
92.8513659181
 11
257.817644579
 21
92.8513659181
  0
LINE
  5
21D
100
AcDbEntity
  8
0
100
AcDbLine
 62
7
  6
CONTINUOUS
 10
61.1820531108
 20
92.8513659181
 11
55.0718364176
 21
92.8513659181
  0
LINE
  5
21E
100
AcDbEntity
  8
0
100
AcDbLine
 62
7
  6
CONTINUOUS
 10
34.4980304258
 20
372.2775599263
 11
34.4980304258
 21
72.2775599263
  0
LINE
  5
21F
100
AcDbEntity
  8
0
100
AcDbLine
 62
7
  6
CONTINUOUS
 10
36.6980304258
 20
74.4775599263
 11
36.6980304258
 21
370.0775599263
  0
LINE
  5
220
100
AcDbEntity
  8
0
100
AcDbLine
 62
7
  6
CONTINUOUS
 10
52.0718364176
 20
352.4928775725
 11
52.0718364176
 21
348.0793983902
  0
LINE
  5
221
100
AcDbEntity
  8
0
100
AcDbLine
 62
7
  6
CONTINUOUS
 10
52.0718364176
 20
96.4866110086
 11
52.0718364176
 21
92.0793983902
  0
LINE
  5
222
100
AcDbEntity
  8
0
100
AcDbLine
 62
7
  6
CONTINUOUS
 10
55.0718364176
 20
351.7037539345
 11
55.0718364176
 21
345.3728192458
  0
LINE
  5
223
100
AcDbEntity
  8
0
100
AcDbLine
 62
7
  6
CONTINUOUS
 10
55.0718364176
 20
99.1793573915
 11
55.0718364176
 21
92.8513659181
  0
LINE
  5
224
100
AcDbEntity
  8
0
100
AcDbLine
 62
7
  6
CONTINUOUS
 10
257.972574064
 20
96.1836629644
 11
257.9725739815
 21
92.8513659181
  0
LINE
  5
225
100
AcDbEntity
  8
0
100
AcDbLine
 62
7
  6
CONTINUOUS
 10
257.9725741963
 20
348.3808526462
 11
257.9725741963
 21
351.7037539345
  0
LINE
  5
226
100
AcDbEntity
  8
0
100
AcDbLine
 62
7
  6
CONTINUOUS
 10
262.9980304258
 20
72.2775599263
 11
262.9980304258
 21
72.0775599263
  0
LINE
  5
227
100
AcDbEntity
  8
0
100
AcDbLine
 62
7
  6
CONTINUOUS
 10
263.9242244339
 20
351.7037539345
 11
263.9242244339
 21
345.3843373233
  0
LINE
  5
228
100
AcDbEntity
  8
0
100
AcDbLine
 62
7
  6
CONTINUOUS
 10
263.9242244339
 20
99.1793573915
 11
263.9242244339
 21
92.8513659181
  0
LINE
  5
229
100
AcDbEntity
  8
0
100
AcDbLine
 62
7
  6
CONTINUOUS
 10
266.924224434
 20
92.06224228
 11
266.924224434
 21
96.4866110085
  0
LINE
  5
22A
100
AcDbEntity
  8
0
100
AcDbLine
 62
7
  6
CONTINUOUS
 10
266.924224434
 20
348.06224228
 11
266.924224434
 21
352.4757214624
  0
LINE
  5
22B
100
AcDbEntity
  8
0
100
AcDbLine
 62
7
  6
CONTINUOUS
 10
275.9980304258
 20
72.0775599263
 11
275.9980304258
 21
72.2775599263
  0
LINE
  5
22C
100
AcDbEntity
  8
0
100
AcDbLine
 62
7
  6
CONTINUOUS
 10
282.2980304258
 20
370.0775599263
 11
282.2980304258
 21
74.4775599263
  0
LINE
  5
22D
100
AcDbEntity
  8
0
100
AcDbLine
 62
7
  6
CONTINUOUS
 10
284.4980304258
 20
72.2775599263
 11
284.4980304258
 21
372.2775599263
  0
LINE
  5
22E
100
AcDbEntity
  8
0
100
AcDbLine
 62
7
  6
CONTINUOUS
 10
263.9242244339
 20
351.7037539345
 11
257.8140077407
 21
351.7037539345
  0
LINE
  5
22F
100
AcDbEntity
  8
0
100
AcDbLine
 62
7
  6
CONTINUOUS
 10
61.1784162725
 20
351.7037539345
 11
55.0718364176
 21
351.7037539345
  0
LINE
  5
230
100
AcDbEntity
  8
0
100
AcDbLine
 62
7
  6
CONTINUOUS
 10
264.7346469432
 20
354.7037539345
 11
260.2483542563
 21
354.7037539345
  0
LINE
  5
231
100
AcDbEntity
  8
0
100
AcDbLine
 62
7
  6
CONTINUOUS
 10
58.7346469432
 20
354.7037539345
 11
54.2483542562
 21
354.7037539345
  0
LINE
  5
232
100
AcDbEntity
  8
0
100
AcDbLine
 62
7
  6
CONTINUOUS
 10
36.6980304258
 20
370.0775599263
 11
282.2980304258
 21
370.0775599263
  0
LINE
  5
233
100
AcDbEntity
  8
0
100
AcDbLine
 62
7
  6
CONTINUOUS
 10
284.4980304258
 20
372.2775599263
 11
34.4980304258
 21
372.2775599263
  0
ARC
  5
234
100
AcDbEntity
  8
0
100
AcDbCircle
 62
7
  6
CONTINUOUS
 10
269.4980304258
 20
92.7025599263
 40
21.625
100
AcDbArc
 50
252.5076754749
 51
287.4923245251
  0
ARC
  5
235
100
AcDbEntity
  8
0
100
AcDbCircle
 62
7
  6
CONTINUOUS
 10
32.7170506491
 20
78.2469657291
 40
5.4441669725
100
AcDbArc
 50
304.3455582865
 51
306.6222733112
  0
ARC
  5
236
100
AcDbEntity
  8
0
100
AcDbCircle
 62
7
  6
CONTINUOUS
 10
286.2790102024
 20
366.3081541236
 40
5.4441669724
100
AcDbArc
 50
124.3455582865
 51
126.6222733112
  0
ARC
  5
237
100
AcDbEntity
  8
0
100
AcDbCircle
 62
7
  6
CONTINUOUS
 10
286.2789940542
 20
78.2469433815
 40
5.4441394037
100
AcDbArc
 50
233.3777227863
 51
235.6545374353
  0
ARC
  5
238
100
AcDbEntity
  8
0
100
AcDbCircle
 62
7
  6
CONTINUOUS
 10
32.7170667973
 20
366.308176471
 40
5.4441394037
100
AcDbArc
 50
53.3777227863
 51
55.6545374353
  0
CIRCLE
  5
239
100
AcDbEntity
  8
0
100
AcDbCircle
 62
7
  6
CONTINUOUS
 10
262.4980304258
 20
350.2775599263
 40
5.15
  0
CIRCLE
  5
23A
100
AcDbEntity
  8
0
100
AcDbCircle
 62
7
  6
CONTINUOUS
 10
56.4980304258
 20
350.2775599263
 40
5.15
  0
CIRCLE
  5
23B
100
AcDbEntity
  8
0
100
AcDbCircle
 62
7
  6
CONTINUOUS
 10
56.4980304258
 20
94.2775599263
 40
5.15
  0
CIRCLE
  5
23C
100
AcDbEntity
  8
0
100
AcDbCircle
 62
7
  6
CONTINUOUS
 10
262.4980304258
 20
94.2775599263
 40
5.15
  0
ARC
  5
23D
100
AcDbEntity
  8
0
100
AcDbCircle
 62
7
  6
CONTINUOUS
 10
34.0326342236
 20
76.1755302282
 40
2.9887404261
100
AcDbArc
 50
296.2700868828
 51
299.3414020771
  0
ARC
  5
23E
100
AcDbEntity
  8
0
100
AcDbCircle
 62
7
  6
CONTINUOUS
 10
284.963426628
 20
368.3795896242
 40
2.9887404262
100
AcDbArc
 50
116.2700868829
 51
119.341402077
  0
ARC
  5
23F
100
AcDbEntity
  8
0
100
AcDbCircle
 62
7
  6
CONTINUOUS
 10
61.9725741406
 20
99.2775599263
 40
2.500056807
100
AcDbArc
 50
209.4837123448
 51
243.841236289
  0
ARC
  5
240
100
AcDbEntity
  8
0
100
AcDbCircle
 62
7
  6
CONTINUOUS
 10
257.9725741406
 20
99.2775599263
 40
2.500056807
100
AcDbArc
 50
269.9999678036
 51
348.672702757
  0
ARC
  5
241
100
AcDbEntity
  8
0
100
AcDbCircle
 62
7
  6
CONTINUOUS
 10
257.9725741406
 20
345.2775599263
 40
2.500056807
100
AcDbArc
 50
11.3783720352
 51
90.0000474198
  0
ARC
  5
242
100
AcDbEntity
  8
0
100
AcDbCircle
 62
7
  6
CONTINUOUS
 10
61.9725741406
 20
345.2775599263
 40
2.500056807
100
AcDbArc
 50
116.0976186606
 51
150.5389819544
  0
SPLINE
  5
243
100
AcDbEntity
  8
0
100
AcDbSpline
 62
7
  6
CONTINUOUS
 70
0
 71
3
 72
9
 73
5
 74
0
 42
0.0000001
 43
0.0000001
 44
0.0000000001
 40
0.0
 40
0.0
 40
0.0
 40
0.0
 40
0.2537182309
 40
1.0
 40
1.0
 40
1.0
 40
1.0
 10
282.2980304258
 20
74.4775599263
 30
0.0
 10
282.3588876067
 20
74.4254176156
 30
0.0
 10
282.5987793707
 20
74.2200101375
 30
0.0
 10
282.8420588858
 20
74.0180142552
 30
0.0
 10
283.0313636086
 20
73.8775555141
 30
0.0
  0
SPLINE
  5
244
100
AcDbEntity
  8
0
100
AcDbSpline
 62
7
  6
CONTINUOUS
 70
0
 71
3
 72
8
 73
4
 74
0
 42
0.0000001
 43
0.0000001
 44
0.0000000001
 40
0.0
 40
0.0
 40
0.0
 40
0.0
 40
1.0
 40
1.0
 40
1.0
 40
1.0
 10
283.2075120984
 20
73.7519848231
 30
0.0
 10
283.3020891285
 20
73.6874752104
 30
0.0
 10
283.3990664163
 20
73.626219305
 30
0.0
 10
283.4989065095
 20
73.5701991251
 30
0.0
  0
SPLINE
  5
245
100
AcDbEntity
  8
0
100
AcDbSpline
 62
7
  6
CONTINUOUS
 70
0
 71
3
 72
8
 73
4
 74
0
 42
0.0000001
 43
0.0000001
 44
0.0000000001
 40
0.0
 40
0.0
 40
0.0
 40
0.0
 40
1.0
 40
1.0
 40
1.0
 40
1.0
 10
283.4989065095
 20
73.5701991251
 30
0.0
 10
283.5851582683
 20
73.5218033465
 30
0.0
 10
283.6737588255
 20
73.4772128522
 30
0.0
 10
283.7646972429
 20
73.4383319891
 30
0.0
  0
SPLINE
  5
246
100
AcDbEntity
  8
0
100
AcDbSpline
 62
7
  6
CONTINUOUS
 70
0
 71
3
 72
9
 73
5
 74
0
 42
0.0000001
 43
0.0000001
 44
0.0000000001
 40
0.0
 40
0.0
 40
0.0
 40
0.0
 40
0.2604094136
 40
1.0
 40
1.0
 40
1.0
 40
1.0
 10
283.7646972429
 20
73.4383319891
 30
0.0
 10
283.8248392744
 20
73.4126181691
 30
0.0
 10
284.0595326266
 20
73.3233590923
 30
0.0
 10
284.3122634502
 20
73.2775599263
 30
0.0
 10
284.4980304258
 20
73.2775599263
 30
0.0
  0
SPLINE
  5
247
100
AcDbEntity
  8
0
100
AcDbSpline
 62
7
  6
CONTINUOUS
 70
0
 71
3
 72
9
 73
5
 74
0
 42
0.0000001
 43
0.0000001
 44
0.0000000001
 40
0.0
 40
0.0
 40
0.0
 40
0.0
 40
0.2409053429
 40
1.0
 40
1.0
 40
1.0
 40
1.0
 10
34.4980304258
 20
73.2775599263
 30
0.0
 10
34.5694483405
 20
73.2775599263
 30
0.0
 10
34.8660090681
 20
73.2975875648
 30
0.0
 10
35.1535855194
 20
73.3960305778
 30
0.0
 10
35.3554599734
 20
73.4954740031
 30
0.0
  0
SPLINE
  5
248
100
AcDbEntity
  8
0
100
AcDbSpline
 62
7
  6
CONTINUOUS
 70
0
 71
3
 72
8
 73
4
 74
0
 42
0.0000001
 43
0.0000001
 44
0.0000000001
 40
0.0
 40
0.0
 40
0.0
 40
0.0
 40
1.0
 40
1.0
 40
1.0
 40
1.0
 10
35.497154342
 20
73.5701991251
 30
0.0
 10
35.5969968665
 20
73.6262206692
 30
0.0
 10
35.6939764473
 20
73.6874781917
 30
0.0
 10
35.7885556683
 20
73.7519895398
 30
0.0
  0
SPLINE
  5
249
100
AcDbEntity
  8
0
100
AcDbSpline
 62
7
  6
CONTINUOUS
 70
0
 71
3
 72
9
 73
5
 74
0
 42
0.0000001
 43
0.0000001
 44
0.0000000001
 40
0.0
 40
0.0
 40
0.0
 40
0.0
 40
0.2442982105
 40
1.0
 40
1.0
 40
1.0
 40
1.0
 10
35.9646972429
 20
73.8775555141
 30
0.0
 10
36.026671592
 20
73.9235387254
 30
0.0
 10
36.2768514951
 20
74.1165086875
 30
0.0
 10
36.5167530194
 20
74.3222418077
 30
0.0
 10
36.6980304258
 20
74.4775599263
 30
0.0
  0
SPLINE
  5
24A
100
AcDbEntity
  8
0
100
AcDbSpline
 62
7
  6
CONTINUOUS
 70
0
 71
3
 72
9
 73
5
 74
0
 42
0.0000001
 43
0.0000001
 44
0.0000000001
 40
0.0
 40
0.0
 40
0.0
 40
0.0
 40
0.5375360894
 40
1.0
 40
1.0
 40
1.0
 40
1.0
 10
282.2980304258
 20
370.0775599263
 30
0.0
 10
282.4773458709
 20
370.1917156841
 30
0.0
 10
282.8104537064
 20
370.4036114319
 30
0.0
 10
283.1259097655
 20
370.6472595001
 30
0.0
 10
283.2520496518
 20
370.7796770952
 30
0.0
  0
SPLINE
  5
24B
100
AcDbEntity
  8
0
100
AcDbSpline
 62
7
  6
CONTINUOUS
 70
0
 71
3
 72
9
 73
5
 74
0
 42
0.0000001
 43
0.0000001
 44
0.0000000001
 40
0.0
 40
0.0
 40
0.0
 40
0.0
 40
0.4624634046
 40
1.0
 40
1.0
 40
1.0
 40
1.0
 10
283.2520538445
 20
73.7754383578
 30
0.0
 10
283.1259139576
 20
73.9078569633
 30
0.0
 10
282.8104564664
 20
74.1515066703
 30
0.0
 10
282.4773469536
 20
74.3634034792
 30
0.0
 10
282.2980304258
 20
74.4775599263
 30
0.0
  0
SPLINE
  5
24C
100
AcDbEntity
  8
0
100
AcDbSpline
 62
7
  6
CONTINUOUS
 70
0
 71
3
 72
9
 73
5
 74
0
 42
0.0000001
 43
0.0000001
 44
0.0000000001
 40
0.0
 40
0.0
 40
0.0
 40
0.0
 40
0.2537182309
 40
1.0
 40
1.0
 40
1.0
 40
1.0
 10
36.6980304258
 20
370.0775599263
 30
0.0
 10
36.6371732448
 20
370.129702237
 30
0.0
 10
36.3972814808
 20
370.335109715
 30
0.0
 10
36.1540019657
 20
370.5371055973
 30
0.0
 10
35.9646972429
 20
370.6775643384
 30
0.0
  0
SPLINE
  5
24D
100
AcDbEntity
  8
0
100
AcDbSpline
 62
7
  6
CONTINUOUS
 70
0
 71
3
 72
8
 73
4
 74
0
 42
0.0000001
 43
0.0000001
 44
0.0000000001
 40
0.0
 40
0.0
 40
0.0
 40
0.0
 40
1.0
 40
1.0
 40
1.0
 40
1.0
 10
35.7885487531
 20
370.8031350295
 30
0.0
 10
35.693971723
 20
370.8676446422
 30
0.0
 10
35.5969944352
 20
370.9289005475
 30
0.0
 10
35.497154342
 20
370.9849207275
 30
0.0
  0
SPLINE
  5
24E
100
AcDbEntity
  8
0
100
AcDbSpline
 62
7
  6
CONTINUOUS
 70
0
 71
3
 72
8
 73
4
 74
0
 42
0.0000001
 43
0.0000001
 44
0.0000000001
 40
0.0
 40
0.0
 40
0.0
 40
0.0
 40
1.0
 40
1.0
 40
1.0
 40
1.0
 10
35.497154342
 20
370.9849207275
 30
0.0
 10
35.4109025833
 20
371.0333165061
 30
0.0
 10
35.322302026
 20
371.0779070003
 30
0.0
 10
35.2313636086
 20
371.1167878635
 30
0.0
  0
SPLINE
  5
24F
100
AcDbEntity
  8
0
100
AcDbSpline
 62
7
  6
CONTINUOUS
 70
0
 71
3
 72
9
 73
5
 74
0
 42
0.0000001
 43
0.0000001
 44
0.0000000001
 40
0.0
 40
0.0
 40
0.0
 40
0.0
 40
0.2604094136
 40
1.0
 40
1.0
 40
1.0
 40
1.0
 10
35.2313636086
 20
371.1167878635
 30
0.0
 10
35.1712215771
 20
371.1425016835
 30
0.0
 10
34.9365282249
 20
371.2317607603
 30
0.0
 10
34.6837974014
 20
371.2775599263
 30
0.0
 10
34.4980304258
 20
371.2775599263
 30
0.0
  0
SPLINE
  5
250
100
AcDbEntity
  8
0
100
AcDbSpline
 62
7
  6
CONTINUOUS
 70
0
 71
3
 72
9
 73
5
 74
0
 42
0.0000001
 43
0.0000001
 44
0.0000000001
 40
0.0
 40
0.0
 40
0.0
 40
0.0
 40
0.2409053429
 40
1.0
 40
1.0
 40
1.0
 40
1.0
 10
284.4980304258
 20
371.2775599263
 30
0.0
 10
284.4266125111
 20
371.2775599263
 30
0.0
 10
284.1300517834
 20
371.2575322877
 30
0.0
 10
283.8424753321
 20
371.1590892747
 30
0.0
 10
283.6406008781
 20
371.0596458495
 30
0.0
  0
SPLINE
  5
251
100
AcDbEntity
  8
0
100
AcDbSpline
 62
7
  6
CONTINUOUS
 70
0
 71
3
 72
8
 73
4
 74
0
 42
0.0000001
 43
0.0000001
 44
0.0000000001
 40
0.0
 40
0.0
 40
0.0
 40
0.0
 40
1.0
 40
1.0
 40
1.0
 40
1.0
 10
283.4989065095
 20
370.9849207275
 30
0.0
 10
283.399063985
 20
370.9288991833
 30
0.0
 10
283.3020844043
 20
370.8676416609
 30
0.0
 10
283.2075051832
 20
370.8031303127
 30
0.0
  0
SPLINE
  5
252
100
AcDbEntity
  8
0
100
AcDbSpline
 62
7
  6
CONTINUOUS
 70
0
 71
3
 72
9
 73
5
 74
0
 42
0.0000001
 43
0.0000001
 44
0.0000000001
 40
0.0
 40
0.0
 40
0.0
 40
0.0
 40
0.2442982105
 40
1.0
 40
1.0
 40
1.0
 40
1.0
 10
283.0313636086
 20
370.6775643384
 30
0.0
 10
282.9693892595
 20
370.6315811272
 30
0.0
 10
282.7192093564
 20
370.438611165
 30
0.0
 10
282.4793078321
 20
370.2328780448
 30
0.0
 10
282.2980304258
 20
370.0775599263
 30
0.0
  0
SPLINE
  5
253
100
AcDbEntity
  8
0
100
AcDbSpline
 62
7
  6
CONTINUOUS
 70
0
 71
3
 72
9
 73
5
 74
0
 42
0.0000001
 43
0.0000001
 44
0.0000000001
 40
0.0
 40
0.0
 40
0.0
 40
0.0
 40
0.5375360894
 40
1.0
 40
1.0
 40
1.0
 40
1.0
 10
36.6980304258
 20
74.4775599263
 30
0.0
 10
36.5187149806
 20
74.3634041684
 30
0.0
 10
36.1856071451
 20
74.1515084206
 30
0.0
 10
35.870151086
 20
73.9078603525
 30
0.0
 10
35.7440111997
 20
73.7754427573
 30
0.0
  0
SPLINE
  5
254
100
AcDbEntity
  8
0
100
AcDbSpline
 62
7
  6
CONTINUOUS
 70
0
 71
3
 72
9
 73
5
 74
0
 42
0.0000001
 43
0.0000001
 44
0.0000000001
 40
0.0
 40
0.0
 40
0.0
 40
0.0
 40
0.4624634046
 40
1.0
 40
1.0
 40
1.0
 40
1.0
 10
35.7440070071
 20
370.7796814948
 30
0.0
 10
35.8701468939
 20
370.6472628892
 30
0.0
 10
36.1856043852
 20
370.4036131822
 30
0.0
 10
36.5187138979
 20
370.1917163734
 30
0.0
 10
36.6980304258
 20
370.0775599263
 30
0.0
  0
SPLINE
  5
255
100
AcDbEntity
  8
0
100
AcDbSpline
 62
7
  6
CONTINUOUS
 70
0
 71
3
 72
9
 73
5
 74
0
 42
0.0000001
 43
0.0000001
 44
0.0000000001
 40
0.0
 40
0.0
 40
0.0
 40
0.0
 40
0.269123217
 40
1.0
 40
1.0
 40
1.0
 40
1.0
 10
282.2980304258
 20
74.4775599263
 30
0.0
 10
282.4317846725
 20
74.4311141455
 30
0.0
 10
282.9283744124
 20
74.2579987617
 30
0.0
 10
283.4246440601
 20
74.0791731665
 30
0.0
 10
283.7729369207
 20
73.9162318031
 30
0.0
  0
SPLINE
  5
256
100
AcDbEntity
  8
0
100
AcDbSpline
 62
7
  6
CONTINUOUS
 70
0
 71
3
 72
10
 73
6
 74
0
 42
0.0000001
 43
0.0000001
 44
0.0000000001
 40
0.0
 40
0.0
 40
0.0
 40
0.0
 40
0.3467832337
 40
0.6272453615
 40
1.0
 40
1.0
 40
1.0
 40
1.0
 10
283.7729369207
 20
73.9162318031
 30
0.0
 10
283.87724219
 20
73.8674348144
 30
0.0
 10
284.0646530566
 20
73.7711233495
 30
0.0
 10
284.3367084588
 20
73.5952853213
 30
0.0
 10
284.4980304258
 20
73.4013394387
 30
0.0
 10
284.4980304258
 20
73.2775599263
 30
0.0
  0
SPLINE
  5
257
100
AcDbEntity
  8
0
100
AcDbSpline
 62
7
  6
CONTINUOUS
 70
0
 71
3
 72
10
 73
6
 74
0
 42
0.0000001
 43
0.0000001
 44
0.0000000001
 40
0.0
 40
0.0
 40
0.0
 40
0.0
 40
0.3727549818
 40
0.6532169491
 40
1.0
 40
1.0
 40
1.0
 40
1.0
 10
284.4980304258
 20
371.2775599263
 30
0.0
 10
284.4980304258
 20
371.1537811046
 30
0.0
 10
284.3367101497
 20
370.9598361104
 30
0.0
 10
284.064656756
 20
370.783998673
 30
0.0
 10
283.8772473692
 20
370.6876876209
 30
0.0
 10
283.7729428946
 20
370.6388908436
 30
0.0
  0
SPLINE
  5
258
100
AcDbEntity
  8
0
100
AcDbSpline
 62
7
  6
CONTINUOUS
 70
0
 71
3
 72
9
 73
5
 74
0
 42
0.0000001
 43
0.0000001
 44
0.0000000001
 40
0.0
 40
0.0
 40
0.0
 40
0.0
 40
0.2230001671
 40
1.0
 40
1.0
 40
1.0
 40
1.0
 10
283.7729428946
 20
370.6388908436
 30
0.0
 10
283.6666562629
 20
370.5891667536
 30
0.0
 10
283.1826253422
 20
370.3820666088
 30
0.0
 10
282.6842645533
 20
370.2116786259
 30
0.0
 10
282.2980304258
 20
370.0775599263
 30
0.0
  0
SPLINE
  5
259
100
AcDbEntity
  8
0
100
AcDbSpline
 62
7
  6
CONTINUOUS
 70
0
 71
3
 72
9
 73
5
 74
0
 42
0.0000001
 43
0.0000001
 44
0.0000000001
 40
0.0
 40
0.0
 40
0.0
 40
0.0
 40
0.2631045129
 40
1.0
 40
1.0
 40
1.0
 40
1.0
 10
282.2980304258
 20
370.0775599263
 30
0.0
 10
282.378609862
 20
370.2041338087
 30
0.0
 10
282.6851266168
 20
370.6846941938
 30
0.0
 10
283.0022109062
 20
371.1612210943
 30
0.0
 10
283.2702209388
 20
371.4849146965
 30
0.0
  0
SPLINE
  5
25A
100
AcDbEntity
  8
0
100
AcDbSpline
 62
7
  6
CONTINUOUS
 70
0
 71
3
 72
9
 73
5
 74
0
 42
0.0000001
 43
0.0000001
 44
0.0000000001
 40
0.0
 40
0.0
 40
0.0
 40
0.0
 40
0.2843472475
 40
1.0
 40
1.0
 40
1.0
 40
1.0
 10
283.2702209388
 20
371.4849146965
 30
0.0
 10
283.3340697039
 20
371.562029111
 30
0.0
 10
283.5654990534
 20
371.8256724525
 30
0.0
 10
283.8385609097
 20
372.065436516
 30
0.0
 10
284.0661263028
 20
372.1736295712
 30
0.0
  0
SPLINE
  5
25B
100
AcDbEntity
  8
0
100
AcDbSpline
 62
7
  6
CONTINUOUS
 70
0
 71
3
 72
9
 73
5
 74
0
 42
0.0000001
 43
0.0000001
 44
0.0000000001
 40
0.0
 40
0.0
 40
0.0
 40
0.0
 40
0.2627287964
 40
1.0
 40
1.0
 40
1.0
 40
1.0
 10
284.0661263028
 20
372.1736295712
 30
0.0
 10
284.1014209308
 20
372.1904099506
 30
0.0
 10
284.2384534507
 20
372.248180838
 30
0.0
 10
284.3883622499
 20
372.2775599263
 30
0.0
 10
284.4980304258
 20
372.2775599263
 30
0.0
  0
SPLINE
  5
25C
100
AcDbEntity
  8
0
100
AcDbSpline
 62
7
  6
CONTINUOUS
 70
0
 71
3
 72
9
 73
5
 74
0
 42
0.0000001
 43
0.0000001
 44
0.0000000001
 40
0.0
 40
0.0
 40
0.0
 40
0.0
 40
0.2416760732
 40
1.0
 40
1.0
 40
1.0
 40
1.0
 10
34.4980304258
 20
372.2775599263
 30
0.0
 10
34.5339917092
 20
372.2775599263
 30
0.0
 10
34.6828093444
 20
372.268412765
 30
0.0
 10
34.8280245258
 20
372.2220811118
 30
0.0
 10
34.9299316122
 20
372.1736310019
 30
0.0
  0
SPLINE
  5
25D
100
AcDbEntity
  8
0
100
AcDbSpline
 62
7
  6
CONTINUOUS
 70
0
 71
3
 72
9
 73
5
 74
0
 42
0.0000001
 43
0.0000001
 44
0.0000000001
 40
0.0
 40
0.0
 40
0.0
 40
0.0
 40
0.2178006484
 40
1.0
 40
1.0
 40
1.0
 40
1.0
 10
34.9299316122
 20
372.1736310019
 30
0.0
 10
34.9992790824
 20
372.1406608458
 30
0.0
 10
35.3037583185
 20
371.9596825275
 30
0.0
 10
35.5499678337
 20
371.6973267123
 30
0.0
 10
35.7258365178
 20
371.4849187948
 30
0.0
  0
SPLINE
  5
25E
100
AcDbEntity
  8
0
100
AcDbSpline
 62
7
  6
CONTINUOUS
 70
0
 71
3
 72
9
 73
5
 74
0
 42
0.0000001
 43
0.0000001
 44
0.0000000001
 40
0.0
 40
0.0
 40
0.0
 40
0.0
 40
0.2315594451
 40
1.0
 40
1.0
 40
1.0
 40
1.0
 10
35.7258365178
 20
371.4849187948
 30
0.0
 10
35.810075796
 20
371.3831776022
 30
0.0
 10
36.1578097995
 20
370.9304686364
 30
0.0
 10
36.4626270595
 20
370.4473306659
 30
0.0
 10
36.6980304258
 20
370.0775599263
 30
0.0
  0
SPLINE
  5
25F
100
AcDbEntity
  8
0
100
AcDbSpline
 62
7
  6
CONTINUOUS
 70
0
 71
3
 72
9
 73
5
 74
0
 42
0.0000001
 43
0.0000001
 44
0.0000000001
 40
0.0
 40
0.0
 40
0.0
 40
0.0
 40
0.2631045129
 40
1.0
 40
1.0
 40
1.0
 40
1.0
 10
36.6980304258
 20
74.4775599263
 30
0.0
 10
36.6174509896
 20
74.3509860439
 30
0.0
 10
36.3109342347
 20
73.8704256587
 30
0.0
 10
35.9938499453
 20
73.3938987583
 30
0.0
 10
35.7258399127
 20
73.0702051561
 30
0.0
  0
SPLINE
  5
260
100
AcDbEntity
  8
0
100
AcDbSpline
 62
7
  6
CONTINUOUS
 70
0
 71
3
 72
9
 73
5
 74
0
 42
0.0000001
 43
0.0000001
 44
0.0000000001
 40
0.0
 40
0.0
 40
0.0
 40
0.0
 40
0.2843472475
 40
1.0
 40
1.0
 40
1.0
 40
1.0
 10
35.7258399127
 20
73.0702051561
 30
0.0
 10
35.6619911476
 20
72.9930907415
 30
0.0
 10
35.4305617981
 20
72.7294474001
 30
0.0
 10
35.1574999418
 20
72.4896833366
 30
0.0
 10
34.9299345488
 20
72.3814902814
 30
0.0
  0
SPLINE
  5
261
100
AcDbEntity
  8
0
100
AcDbSpline
 62
7
  6
CONTINUOUS
 70
0
 71
3
 72
9
 73
5
 74
0
 42
0.0000001
 43
0.0000001
 44
0.0000000001
 40
0.0
 40
0.0
 40
0.0
 40
0.0
 40
0.2627287964
 40
1.0
 40
1.0
 40
1.0
 40
1.0
 10
34.9299345488
 20
72.3814902814
 30
0.0
 10
34.8946399207
 20
72.3647099019
 30
0.0
 10
34.7576074008
 20
72.3069390146
 30
0.0
 10
34.6076986016
 20
72.2775599263
 30
0.0
 10
34.4980304258
 20
72.2775599263
 30
0.0
  0
SPLINE
  5
262
100
AcDbEntity
  8
0
100
AcDbSpline
 62
7
  6
CONTINUOUS
 70
0
 71
3
 72
9
 73
5
 74
0
 42
0.0000001
 43
0.0000001
 44
0.0000000001
 40
0.0
 40
0.0
 40
0.0
 40
0.0
 40
0.2416760732
 40
1.0
 40
1.0
 40
1.0
 40
1.0
 10
284.4980304258
 20
72.2775599263
 30
0.0
 10
284.4620691423
 20
72.2775599263
 30
0.0
 10
284.3132515072
 20
72.2867070876
 30
0.0
 10
284.1680363257
 20
72.3330387408
 30
0.0
 10
284.0661292393
 20
72.3814888506
 30
0.0
  0
SPLINE
  5
263
100
AcDbEntity
  8
0
100
AcDbSpline
 62
7
  6
CONTINUOUS
 70
0
 71
3
 72
9
 73
5
 74
0
 42
0.0000001
 43
0.0000001
 44
0.0000000001
 40
0.0
 40
0.0
 40
0.0
 40
0.0
 40
0.2178006484
 40
1.0
 40
1.0
 40
1.0
 40
1.0
 10
284.0661292393
 20
72.3814888506
 30
0.0
 10
283.9967817691
 20
72.4144590068
 30
0.0
 10
283.6923025331
 20
72.595437325
 30
0.0
 10
283.4460930178
 20
72.8577931402
 30
0.0
 10
283.2702243338
 20
73.0702010577
 30
0.0
  0
SPLINE
  5
264
100
AcDbEntity
  8
0
100
AcDbSpline
 62
7
  6
CONTINUOUS
 70
0
 71
3
 72
9
 73
5
 74
0
 42
0.0000001
 43
0.0000001
 44
0.0000000001
 40
0.0
 40
0.0
 40
0.0
 40
0.0
 40
0.2315594451
 40
1.0
 40
1.0
 40
1.0
 40
1.0
 10
283.2702243338
 20
73.0702010577
 30
0.0
 10
283.1859850555
 20
73.1719422504
 30
0.0
 10
282.838251052
 20
73.6246512162
 30
0.0
 10
282.533433792
 20
74.1077891867
 30
0.0
 10
282.2980304258
 20
74.4775599263
 30
0.0
  0
SPLINE
  5
265
100
AcDbEntity
  8
0
100
AcDbSpline
 62
7
  6
CONTINUOUS
 70
0
 71
3
 72
10
 73
6
 74
0
 42
0.0000001
 43
0.0000001
 44
0.0000000001
 40
0.0
 40
0.0
 40
0.0
 40
0.0
 40
0.3727549818
 40
0.6532169491
 40
1.0
 40
1.0
 40
1.0
 40
1.0
 10
34.4980304258
 20
73.2775599263
 30
0.0
 10
34.4980304258
 20
73.4013387479
 30
0.0
 10
34.6593507018
 20
73.5952837422
 30
0.0
 10
34.9314040955
 20
73.7711211795
 30
0.0
 10
35.1188134823
 20
73.8674322317
 30
0.0
 10
35.223117957
 20
73.9162290089
 30
0.0
  0
SPLINE
  5
266
100
AcDbEntity
  8
0
100
AcDbSpline
 62
7
  6
CONTINUOUS
 70
0
 71
3
 72
9
 73
5
 74
0
 42
0.0000001
 43
0.0000001
 44
0.0000000001
 40
0.0
 40
0.0
 40
0.0
 40
0.0
 40
0.2230001671
 40
1.0
 40
1.0
 40
1.0
 40
1.0
 10
35.223117957
 20
73.9162290089
 30
0.0
 10
35.3294045886
 20
73.9659530989
 30
0.0
 10
35.8134355094
 20
74.1730532438
 30
0.0
 10
36.3117962982
 20
74.3434412267
 30
0.0
 10
36.6980304258
 20
74.4775599263
 30
0.0
  0
SPLINE
  5
267
100
AcDbEntity
  8
0
100
AcDbSpline
 62
7
  6
CONTINUOUS
 70
0
 71
3
 72
9
 73
5
 74
0
 42
0.0000001
 43
0.0000001
 44
0.0000000001
 40
0.0
 40
0.0
 40
0.0
 40
0.0
 40
0.269123217
 40
1.0
 40
1.0
 40
1.0
 40
1.0
 10
36.6980304258
 20
370.0775599263
 30
0.0
 10
36.5642761791
 20
370.124005707
 30
0.0
 10
36.0676864391
 20
370.2971210908
 30
0.0
 10
35.5714167914
 20
370.4759466861
 30
0.0
 10
35.2231239308
 20
370.6388880494
 30
0.0
  0
SPLINE
  5
268
100
AcDbEntity
  8
0
100
AcDbSpline
 62
7
  6
CONTINUOUS
 70
0
 71
3
 72
10
 73
6
 74
0
 42
0.0000001
 43
0.0000001
 44
0.0000000001
 40
0.0
 40
0.0
 40
0.0
 40
0.0
 40
0.3467832337
 40
0.6272453615
 40
1.0
 40
1.0
 40
1.0
 40
1.0
 10
35.2231239308
 20
370.6388880494
 30
0.0
 10
35.1188186615
 20
370.6876850381
 30
0.0
 10
34.9314077949
 20
370.7839965031
 30
0.0
 10
34.6593523927
 20
370.9598345312
 30
0.0
 10
34.4980304258
 20
371.1537804138
 30
0.0
 10
34.4980304258
 20
371.2775599263
 30
0.0
  0
ENDSEC
  0
SECTION
  2
OBJECTS
  0
DICTIONARY
  5
C
100
AcDbDictionary
280
0
281
1
  3
ACAD_GROUP
350
D
  3
ACAD_MLINESTYLE
350
17
  3
ACAD_LAYOUT
350
1A
  3
ACAD_PLOTSETTINGS
350
19
  3
ACAD_PLOTSTYLENAME
350
E
  0
DICTIONARY
  5
D
102
{ACAD_REACTORS
330
C
102
}
100
AcDbDictionary
280
0
281
1
  0
ACDBDICTIONARYWDFLT
  5
E
102
{ACAD_REACTORS
330
C
102
}
100
AcDbDictionary
281
1
  3
Normal
350
F
100
AcDbDictionaryWithDefault
340
F
  0
DICTIONARY
  5
17
102
{ACAD_REACTORS
330
C
102
}
100
AcDbDictionary
280
0
281
1
  3
Standard
350
18
  0
DICTIONARY
  5
19
102
{ACAD_REACTORS
330
C
102
}
100
AcDbDictionary
281
1
  0
DICTIONARY
  5
1A
102
{ACAD_REACTORS
330
C
102
}
100
AcDbDictionary
281
1
  3
Model
350
269
  3
Layout1
350
26A
  0
ACDBPLACEHOLDER
  5
F
102
{ACAD_REACTORS
330
E
102
}
  0
MLINESTYLE
  5
18
102
{ACAD_REACTORS
330
17
102
}
100
AcDbMlineStyle
  2
STANDARD
 70
0
  3

 62
256
 51
90.0
 52
90.0
 71
2
 49
0.5
 62
256
  6
BYLAYER
 49
-0.5
 62
256
  6
BYLAYER
  0
LAYOUT
  5
269
102
{ACAD_REACTORS
330
1A
102
}
100
AcDbPlotSettings
  1

  2
none_device
  4

  6

 40
0.0
 41
0.0
 42
0.0
 43
0.0
 44
210.0
 45
297.0
 46
0.0
 47
0.0
 48
0.0
 49
0.0
140
0.0
141
0.0
142
1.0
143
1.0
 70
1024
 72
1
 73
0
 74
0
  7

 75
0
147
1.0
148
0.0
149
0.0
100
AcDbLayout
  1
Model
 70
0
 71
0
 10
0.0
 20
0.0
 11
210.0
 21
297.0
 12
0.0
 22
0.0
 32
0.0
 14
0.0
 24
0.0
 34
0.0
 15
0.0
 25
0.0
 35
0.0
146
0.0
 13
0.0
 23
0.0
 33
0.0
 16
1.0
 26
0.0
 36
0.0
 17
0.0
 27
1.0
 37
0.0
 76
0
330
210
345
0
346
0
  0
LAYOUT
  5
26A
102
{ACAD_REACTORS
330
1A
102
}
100
AcDbPlotSettings
  1

  2
none_device
  4

  6

 40
0.0
 41
0.0
 42
0.0
 43
0.0
 44
210.0
 45
297.0
 46
0.0
 47
0.0
 48
0.0
 49
0.0
140
0.0
141
0.0
142
1.0
143
1.0
 70
0
 72
1
 73
0
 74
0
  7

 75
0
147
1.0
148
0.0
149
0.0
100
AcDbLayout
  1
Layout1
 70
0
 71
1
 10
0.0
 20
0.0
 11
210.0
 21
297.0
 12
0.0
 22
0.0
 32
0.0
 14
0.0
 24
0.0
 34
0.0
 15
0.0
 25
0.0
 35
0.0
146
0.0
 13
0.0
 23
0.0
 33
0.0
 16
1.0
 26
0.0
 36
0.0
 17
0.0
 27
1.0
 37
0.0
 76
0
330
211
345
0
346
0
  0
ENDSEC
  0
EOF
