999
DXF file: C:\Users\sesa63760\Dev\_Creo\CAD\MCADUE0003167_3D-CAD\drw0001_4.dxf
999
Pro/ENGINEER 2019471 by Parametric Technology Corporation
  0
SECTION
  2
HEADER
  9
$ACADVER
  1
AC1024
  9
$DWGCODEPAGE
  3
ANSI_1252
  9
$EXTMAX
 10
995.9944270289
 20
1408.6206896552
 30
0.0
  9
$EXTMIN
 10
0.0
 20
0.0
 30
0.0
  9
$LIMMIN
 10
0.0
 20
0.0
  9
$LIMMAX
 10
995.9944270289
 20
1408.6206896552
  9
$VIEWCTR
 10
497.9972135145
 20
704.3103448276
  9
$VIEWSIZE
 40
1408.6206896552
  9
$CLAYER
  8
0
  9
$LTSCALE
 40
91.8212005109
  9
$CELTYPE
  6
BYLAYER
  9
$DIMSCALE
 40
1.0
  9
$DIMASZ
 40
11.8570765122
  9
$DIMEXO
 40
1.0
  9
$DIMDLI
 40
63.4401021711
  9
$DIMEXE
 40
1.0
  9
$DIMCEN
 40
15.0252873563
  9
$DIMLFAC
 40
1.0
  9
$DIMBLK
  1
_FILLED
  9
$DIMALT
 70
0
  9
$DIMALTF
 40
0.0393700787
  9
$DIMTXT
 40
16.5999071171
  9
$DIMTOL
 70
1
  9
$DIMLIM
 70
0
  9
$DIMTFAC
 40
1.0
  9
$DIMTP
 40
0.01
  9
$DIMTM
 40
0.01
  9
$DIMGAP
 40
0.625
  9
$DIMDSEP
 70
46
  9
$AUNITS
 70
0
  9
$PDMODE
 70
3
  9
$PDSIZE
 40
0.3125
  9
$HANDSEED
  5
4E0
  9
$TILEMODE
 70
1
  9
$MEASUREMENT
 70
1
  9
$INSUNITS
 70
4
  0
ENDSEC
  0
SECTION
  2
CLASSES
  0
CLASS
  1
ACDBDICTIONARYWDFLT
  2
AcDbDictionaryWithDefault
  3
AutoCAD 2000
 90
0
 91
1
280
0
281
0
  0
CLASS
  1
ACDBPLACEHOLDER
  2
AcDbPlaceHolder
  3
AutoCAD 2000
 90
0
 91
1
280
0
281
0
  0
CLASS
  1
LAYOUT
  2
AcDbLayout
  3
AutoCAD 2000
 90
0
 91
0
280
0
281
0
  0
ENDSEC
  0
SECTION
  2
TABLES
  0
TABLE
  2
VPORT
  5
8
100
AcDbSymbolTable
 70
2
  0
VPORT
  5
1F4
100
AcDbSymbolTableRecord
100
AcDbViewportTableRecord
  2
*ACTIVE
 70
0
 10
0.0
 20
0.0
 11
1.0
 21
1.0
 12
497.9972135145
 22
704.3103448276
 13
0.0
 23
0.0
 14
1.0
 24
1.0
 15
0.0
 25
0.0
 16
0.0
 26
0.0
 36
1.0
 17
0.0
 27
0.0
 37
0.0
 40
1408.6206896552
 41
0.7070707071
 42
50.0
 43
0.0
 44
0.0
 50
0.0
 51
0.0
 71
0
 72
100
 73
1
 74
1
 75
0
 76
0
 77
0
 78
0
  0
ENDTAB
  0
TABLE
  2
LTYPE
  5
5
100
AcDbSymbolTable
 70
6
  0
LTYPE
  5
14
100
AcDbSymbolTableRecord
100
AcDbLinetypeTableRecord
  2
BYBLOCK
 70
0
  3

 72
65
 73
0
 40
0.0
  0
LTYPE
  5
15
100
AcDbSymbolTableRecord
100
AcDbLinetypeTableRecord
  2
BYLAYER
 70
0
  3

 72
65
 73
0
 40
0.0
  0
LTYPE
  5
16
100
AcDbSymbolTableRecord
100
AcDbLinetypeTableRecord
  2
CONTINUOUS
 70
64
  3
Solid line
 72
65
 73
0
 40
0.0
  0
LTYPE
  5
1F5
100
AcDbSymbolTableRecord
100
AcDbLinetypeTableRecord
  2
CENTER
 70
64
  3
____ _ ____ _ ____ _ ____ _ ____ _ ____ _ ____
 72
65
 73
4
 40
0.6
 49
0.375
 74
0
 49
-0.075
 74
0
 49
0.075
 74
0
 49
-0.075
 74
0
  0
LTYPE
  5
1F6
100
AcDbSymbolTableRecord
100
AcDbLinetypeTableRecord
  2
HIDDEN
 70
64
  3
- - - - - - - - - - - - - - - - - - - -
 72
65
 73
2
 40
0.2
 49
0.1
 74
0
 49
-0.1
 74
0
  0
LTYPE
  5
1F7
100
AcDbSymbolTableRecord
100
AcDbLinetypeTableRecord
  2
PHANTOM
 70
64
  3
_____ _ _ _____ _ _ _____ _ _ _____
 72
65
 73
6
 40
0.8
 49
0.45
 74
0
 49
-0.05
 74
0
 49
0.1
 74
0
 49
-0.05
 74
0
 49
0.1
 74
0
 49
-0.05
 74
0
  0
LTYPE
  5
1F8
100
AcDbSymbolTableRecord
100
AcDbLinetypeTableRecord
  2
DOT
 70
64
  3
. . . . . . . . . . . . . . . . . . . .
 72
65
 73
2
 40
0.2
 49
0.1
 74
0
 49
-0.1
 74
0
  0
LTYPE
  5
1F9
100
AcDbSymbolTableRecord
100
AcDbLinetypeTableRecord
  2
DASHED
 70
64
  3
- - - - - - - - - - - - - - - - - - - -
 72
65
 73
2
 40
0.2
 49
0.1
 74
0
 49
-0.1
 74
0
  0
ENDTAB
  0
TABLE
  2
LAYER
  5
2
100
AcDbSymbolTable
 70
36
  0
LAYER
  5
10
100
AcDbSymbolTableRecord
100
AcDbLayerTableRecord
  2
0
 70
0
 62
7
  6
CONTINUOUS
370
-3
390
F
  0
LAYER
  5
1FA
100
AcDbSymbolTableRecord
100
AcDbLayerTableRecord
  2
DEFAULT_1
 70
0
 62
7
  6
CENTER
370
-3
390
F
  0
LAYER
  5
1FB
100
AcDbSymbolTableRecord
100
AcDbLayerTableRecord
  2
DEFAULT_2
 70
0
 62
8
  6
HIDDEN
370
-3
390
F
  0
LAYER
  5
1FC
100
AcDbSymbolTableRecord
100
AcDbLayerTableRecord
  2
DEFAULT_3
 70
0
 62
7
  6
PHANTOM
370
-3
390
F
  0
LAYER
  5
1FD
100
AcDbSymbolTableRecord
100
AcDbLayerTableRecord
  2
00_COMPONENTS
 70
0
 62
7
  6
CONTINUOUS
370
-3
390
F
  0
LAYER
  5
1FE
100
AcDbSymbolTableRecord
100
AcDbLayerTableRecord
  2
01_1_DEFAULT_DATUMS
 70
0
 62
7
  6
CONTINUOUS
370
-3
390
F
  0
LAYER
  5
1FF
100
AcDbSymbolTableRecord
100
AcDbLayerTableRecord
  2
01_PLANES
 70
0
 62
7
  6
CONTINUOUS
370
-3
390
F
  0
LAYER
  5
200
100
AcDbSymbolTableRecord
100
AcDbLayerTableRecord
  2
02_COORD_SYS
 70
0
 62
7
  6
CONTINUOUS
370
-3
390
F
  0
LAYER
  5
201
100
AcDbSymbolTableRecord
100
AcDbLayerTableRecord
  2
03_AXES
 70
0
 62
7
  6
CONTINUOUS
370
-3
390
F
  0
LAYER
  5
202
100
AcDbSymbolTableRecord
100
AcDbLayerTableRecord
  2
04_POINTS
 70
0
 62
7
  6
CONTINUOUS
370
-3
390
F
  0
LAYER
  5
203
100
AcDbSymbolTableRecord
100
AcDbLayerTableRecord
  2
05_CURVES
 70
0
 62
7
  6
CONTINUOUS
370
-3
390
F
  0
LAYER
  5
204
100
AcDbSymbolTableRecord
100
AcDbLayerTableRecord
  2
06_SURFS
 70
0
 62
7
  6
CONTINUOUS
370
-3
390
F
  0
LAYER
  5
205
100
AcDbSymbolTableRecord
100
AcDbLayerTableRecord
  2
07_COSMETICS
 70
0
 62
7
  6
CONTINUOUS
370
-3
390
F
  0
LAYER
  5
206
100
AcDbSymbolTableRecord
100
AcDbLayerTableRecord
  2
10_NOTES
 70
0
 62
7
  6
CONTINUOUS
370
-3
390
F
  0
LAYER
  5
207
100
AcDbSymbolTableRecord
100
AcDbLayerTableRecord
  2
11_NOTES_PUB
 70
0
 62
7
  6
CONTINUOUS
370
-3
390
F
  0
LAYER
  5
208
100
AcDbSymbolTableRecord
100
AcDbLayerTableRecord
  2
13_REF_GTOL
 70
0
 62
7
  6
CONTINUOUS
370
-3
390
F
  0
LAYER
  5
209
100
AcDbSymbolTableRecord
100
AcDbLayerTableRecord
  2
16_MISC
 70
0
 62
7
  6
CONTINUOUS
370
-3
390
F
  0
LAYER
  5
20A
100
AcDbSymbolTableRecord
100
AcDbLayerTableRecord
  2
17_NO_PRINT
 70
0
 62
7
  6
CONTINUOUS
370
-3
390
F
  0
LAYER
  5
20B
100
AcDbSymbolTableRecord
100
AcDbLayerTableRecord
  2
18_DATUM_CAMS_JOINTS
 70
0
 62
7
  6
CONTINUOUS
370
-3
390
F
  0
LAYER
  5
20C
100
AcDbSymbolTableRecord
100
AcDbLayerTableRecord
  2
19_DATUM_FUNCTIONAL
 70
0
 62
7
  6
CONTINUOUS
370
-3
390
F
  0
LAYER
  5
20D
100
AcDbSymbolTableRecord
100
AcDbLayerTableRecord
  2
20_DATUM_KINEMATIC_SCHEME
 70
0
 62
7
  6
CONTINUOUS
370
-3
390
F
  0
ENDTAB
  0
TABLE
  2
STYLE
  5
3
100
AcDbSymbolTable
 70
1
  0
STYLE
  5
11
100
AcDbSymbolTableRecord
100
AcDbTextStyleTableRecord
  2
STANDARD
 70
0
 40
0.0
 41
0.8
 50
0.0
 71
0
 42
0.2
  3
txt
  4

  0
STYLE
  5
20E
100
AcDbSymbolTableRecord
100
AcDbTextStyleTableRecord
  2
TEXTSTYLE_1
 70
0
 40
0.0
 41
0.8
 50
0.0
 71
0
 42
0.2
  3
gdt
  4

  0
ENDTAB
  0
TABLE
  2
VIEW
  5
6
100
AcDbSymbolTable
 70
0
  0
ENDTAB
  0
TABLE
  2
UCS
  5
7
100
AcDbSymbolTable
 70
0
  0
ENDTAB
  0
TABLE
  2
APPID
  5
9
100
AcDbSymbolTable
 70
1
  0
APPID
  5
20F
100
AcDbSymbolTableRecord
100
AcDbRegAppTableRecord
  2
ACAD
 70
0
  0
ENDTAB
  0
TABLE
  2
BLOCK_RECORD
  5
1
100
AcDbSymbolTable
 70
0
  0
BLOCK_RECORD
  5
210
100
AcDbSymbolTableRecord
100
AcDbBlockTableRecord
  2
*Model_Space
  0
BLOCK_RECORD
  5
211
100
AcDbSymbolTableRecord
100
AcDbBlockTableRecord
  2
*Paper_Space
  0
BLOCK_RECORD
  5
212
100
AcDbSymbolTableRecord
100
AcDbBlockTableRecord
  2
_FILLED
  0
ENDTAB
  0
TABLE
  2
DIMSTYLE
  5
A
100
AcDbSymbolTable
 70
1
100
AcDbDimStyleTable
 71
0
  0
DIMSTYLE
105
213
100
AcDbSymbolTableRecord
100
AcDbDimStyleTableRecord
  2
STANDARD
 70
0
  3

  4

 40
1.0
 41
11.8570765122
 42
1.0
 43
0.38
 44
1.0
 45
0.0
 46
0.0
 47
0.01
 48
0.01
140
16.5999071171
141
0.09
142
0.0
143
25.4
144
1.0
145
0.0
146
1.0
147
0.625
 71
1
 72
0
 73
0
 74
0
 75
0
 76
0
 77
1
 78
8
 79
2
170
0
171
1
172
0
173
0
174
0
175
0
176
0
177
0
178
0
270
2
179
2
271
2
272
2
273
2
274
2
275
0
280
0
281
0
282
0
283
1
284
8
285
0
286
0
287
3
288
0
340
11
278
46
341
212
342
212
343
212
344
212
  0
ENDTAB
  0
ENDSEC
  0
SECTION
  2
BLOCKS
  0
BLOCK
  5
20
100
AcDbEntity
  8
0
100
AcDbBlockBegin
  2
*Model_Space
 70
0
 10
0.0
 20
0.0
 30
0.0
  3
*Model_Space
  1

  0
ENDBLK
  5
21
100
AcDbEntity
  8
0
100
AcDbBlockEnd
  0
BLOCK
  5
1C
100
AcDbEntity
  8
0
100
AcDbBlockBegin
  2
*Paper_Space
 70
0
 10
0.0
 20
0.0
 30
0.0
  3
*Paper_Space
  1

  0
ENDBLK
  5
1D
100
AcDbEntity
  8
0
100
AcDbBlockEnd
  0
BLOCK
  5
214
100
AcDbEntity
  8
0
100
AcDbBlockBegin
  2
_FILLED
 70
64
 10
0.0
 20
0.0
  3
_FILLED
  1

  0
SOLID
  5
215
100
AcDbEntity
  8
0
  6
BYBLOCK
 62
0
100
AcDbTrace
 10
0.0
 20
0.0
 11
-1.0
 21
0.25
 12
-1.0
 22
-0.25
 13
-1.0
 23
-0.25
  0
ENDBLK
  5
216
100
AcDbEntity
  8
0
  6
BYBLOCK
 62
0
100
AcDbBlockEnd
  0
ENDSEC
  0
SECTION
  2
ENTITIES
  0
LINE
  5
217
100
AcDbEntity
  8
0
100
AcDbLine
 62
7
  6
CONTINUOUS
 10
110.9282479972
 20
745.5
 11
110.9282479972
 21
654.5
  0
LINE
  5
218
100
AcDbEntity
  8
0
100
AcDbLine
 62
7
  6
CONTINUOUS
 10
111.2282479972
 20
750.0
 11
111.2282479972
 21
650.0
  0
LINE
  5
219
100
AcDbEntity
  8
0
100
AcDbLine
 62
7
  6
CONTINUOUS
 10
114.1951579047
 20
690.0
 11
114.1951579047
 21
710.0
  0
LINE
  5
21A
100
AcDbEntity
  8
0
100
AcDbLine
 62
7
  6
CONTINUOUS
 10
116.7282479972
 20
650.0
 11
116.7282479972
 21
690.0
  0
LINE
  5
21B
100
AcDbEntity
  8
0
100
AcDbLine
 62
7
  6
CONTINUOUS
 10
116.7282479972
 20
710.0
 11
116.7282479972
 21
750.0
  0
LINE
  5
21C
100
AcDbEntity
  8
0
100
AcDbLine
 62
7
  6
CONTINUOUS
 10
118.0282479972
 20
750.0
 11
118.0282479972
 21
708.9091704795
  0
LINE
  5
21D
100
AcDbEntity
  8
0
100
AcDbLine
 62
7
  6
CONTINUOUS
 10
118.0282479972
 20
691.0908295205
 11
118.0282479972
 21
650.0
  0
LINE
  5
21E
100
AcDbEntity
  8
0
100
AcDbLine
 62
7
  6
CONTINUOUS
 10
119.3282479972
 20
750.0
 11
119.3282479972
 21
707.8183409589
  0
LINE
  5
21F
100
AcDbEntity
  8
0
100
AcDbLine
 62
7
  6
CONTINUOUS
 10
119.3282479972
 20
692.1816590411
 11
119.3282479972
 21
650.0
  0
LINE
  5
220
100
AcDbEntity
  8
0
100
AcDbLine
 62
7
  6
CONTINUOUS
 10
120.6282479972
 20
750.0
 11
120.6282479972
 21
706.7275114384
  0
LINE
  5
221
100
AcDbEntity
  8
0
100
AcDbLine
 62
7
  6
CONTINUOUS
 10
120.6282479972
 20
693.2724885616
 11
120.6282479972
 21
650.0
  0
LINE
  5
222
100
AcDbEntity
  8
0
100
AcDbLine
 62
7
  6
CONTINUOUS
 10
121.9282479972
 20
750.0
 11
121.9282479972
 21
705.6366819179
  0
LINE
  5
223
100
AcDbEntity
  8
0
100
AcDbLine
 62
7
  6
CONTINUOUS
 10
121.9282479972
 20
694.3633180821
 11
121.9282479972
 21
650.0
  0
LINE
  5
224
100
AcDbEntity
  8
0
100
AcDbLine
 62
7
  6
CONTINUOUS
 10
123.2282479972
 20
750.0
 11
123.2282479972
 21
704.5458523973
  0
LINE
  5
225
100
AcDbEntity
  8
0
100
AcDbLine
 62
7
  6
CONTINUOUS
 10
123.2282479972
 20
695.4541476027
 11
123.2282479972
 21
650.0
  0
LINE
  5
226
100
AcDbEntity
  8
0
100
AcDbLine
 62
7
  6
CONTINUOUS
 10
124.5282479972
 20
750.0
 11
124.5282479972
 21
703.4550228768
  0
LINE
  5
227
100
AcDbEntity
  8
0
100
AcDbLine
 62
7
  6
CONTINUOUS
 10
124.5282479972
 20
696.5449771232
 11
124.5282479972
 21
650.0
  0
LINE
  5
228
100
AcDbEntity
  8
0
100
AcDbLine
 62
7
  6
CONTINUOUS
 10
125.8282479972
 20
750.0
 11
125.8282479972
 21
702.3641933563
  0
LINE
  5
229
100
AcDbEntity
  8
0
100
AcDbLine
 62
7
  6
CONTINUOUS
 10
125.8282479972
 20
697.6358066437
 11
125.8282479972
 21
650.0
  0
LINE
  5
22A
100
AcDbEntity
  8
0
100
AcDbLine
 62
7
  6
CONTINUOUS
 10
127.1282479972
 20
750.0
 11
127.1282479972
 21
701.2733638358
  0
LINE
  5
22B
100
AcDbEntity
  8
0
100
AcDbLine
 62
7
  6
CONTINUOUS
 10
127.1282479972
 20
698.7266361642
 11
127.1282479972
 21
650.0
  0
LINE
  5
22C
100
AcDbEntity
  8
0
100
AcDbLine
 62
7
  6
CONTINUOUS
 10
128.4282479972
 20
750.0
 11
128.4282479972
 21
700.1825343152
  0
LINE
  5
22D
100
AcDbEntity
  8
0
100
AcDbLine
 62
7
  6
CONTINUOUS
 10
128.4282479972
 20
699.8174656848
 11
128.4282479972
 21
650.0
  0
LINE
  5
22E
100
AcDbEntity
  8
0
100
AcDbLine
 62
7
  6
CONTINUOUS
 10
129.7282479972
 20
750.0
 11
129.7282479972
 21
650.0
  0
LINE
  5
22F
100
AcDbEntity
  8
0
100
AcDbLine
 62
7
  6
CONTINUOUS
 10
131.0282479972
 20
750.0
 11
131.0282479972
 21
650.0
  0
LINE
  5
230
100
AcDbEntity
  8
0
100
AcDbLine
 62
7
  6
CONTINUOUS
 10
132.3282479972
 20
750.0
 11
132.3282479972
 21
650.0
  0
LINE
  5
231
100
AcDbEntity
  8
0
100
AcDbLine
 62
7
  6
CONTINUOUS
 10
133.6282479972
 20
750.0
 11
133.6282479972
 21
650.0
  0
LINE
  5
232
100
AcDbEntity
  8
0
100
AcDbLine
 62
7
  6
CONTINUOUS
 10
134.9282479972
 20
750.0
 11
134.9282479972
 21
650.0
  0
LINE
  5
233
100
AcDbEntity
  8
0
100
AcDbLine
 62
7
  6
CONTINUOUS
 10
136.2282479972
 20
750.0
 11
136.2282479972
 21
650.0
  0
LINE
  5
234
100
AcDbEntity
  8
0
100
AcDbLine
 62
7
  6
CONTINUOUS
 10
137.5282479972
 20
750.0
 11
137.5282479972
 21
650.0
  0
LINE
  5
235
100
AcDbEntity
  8
0
100
AcDbLine
 62
7
  6
CONTINUOUS
 10
138.8282479972
 20
750.0
 11
138.8282479972
 21
650.0
  0
LINE
  5
236
100
AcDbEntity
  8
0
100
AcDbLine
 62
7
  6
CONTINUOUS
 10
140.1282479972
 20
750.0
 11
140.1282479972
 21
650.0
  0
LINE
  5
237
100
AcDbEntity
  8
0
100
AcDbLine
 62
7
  6
CONTINUOUS
 10
141.4282479972
 20
750.0
 11
141.4282479972
 21
650.0
  0
LINE
  5
238
100
AcDbEntity
  8
0
100
AcDbLine
 62
7
  6
CONTINUOUS
 10
142.7282479972
 20
750.0
 11
142.7282479972
 21
650.0
  0
LINE
  5
239
100
AcDbEntity
  8
0
100
AcDbLine
 62
7
  6
CONTINUOUS
 10
144.0282479972
 20
750.0
 11
144.0282479972
 21
650.0
  0
LINE
  5
23A
100
AcDbEntity
  8
0
100
AcDbLine
 62
7
  6
CONTINUOUS
 10
145.3282479972
 20
750.0
 11
145.3282479972
 21
650.0
  0
LINE
  5
23B
100
AcDbEntity
  8
0
100
AcDbLine
 62
7
  6
CONTINUOUS
 10
146.6282479972
 20
750.0
 11
146.6282479972
 21
650.0
  0
LINE
  5
23C
100
AcDbEntity
  8
0
100
AcDbLine
 62
7
  6
CONTINUOUS
 10
147.9282479972
 20
750.0
 11
147.9282479972
 21
650.0
  0
LINE
  5
23D
100
AcDbEntity
  8
0
100
AcDbLine
 62
7
  6
CONTINUOUS
 10
149.2282479972
 20
750.0
 11
149.2282479972
 21
650.0
  0
LINE
  5
23E
100
AcDbEntity
  8
0
100
AcDbLine
 62
7
  6
CONTINUOUS
 10
150.5282479972
 20
750.0
 11
150.5282479972
 21
650.0
  0
LINE
  5
23F
100
AcDbEntity
  8
0
100
AcDbLine
 62
7
  6
CONTINUOUS
 10
151.8282479972
 20
750.0
 11
151.8282479972
 21
650.0
  0
LINE
  5
240
100
AcDbEntity
  8
0
100
AcDbLine
 62
7
  6
CONTINUOUS
 10
153.1282479972
 20
750.0
 11
153.1282479972
 21
650.0
  0
LINE
  5
241
100
AcDbEntity
  8
0
100
AcDbLine
 62
7
  6
CONTINUOUS
 10
154.4282479972
 20
750.0
 11
154.4282479972
 21
650.0
  0
LINE
  5
242
100
AcDbEntity
  8
0
100
AcDbLine
 62
7
  6
CONTINUOUS
 10
161.8456930985
 20
664.4627833217
 11
161.8456930985
 21
665.550162077
  0
LINE
  5
243
100
AcDbEntity
  8
0
100
AcDbLine
 62
7
  6
CONTINUOUS
 10
161.8456930985
 20
675.6990296245
 11
161.8456930985
 21
677.873786509
  0
LINE
  5
244
100
AcDbEntity
  8
0
100
AcDbLine
 62
7
  6
CONTINUOUS
 10
161.8456930985
 20
698.8964409828
 11
161.8456930985
 21
699.4401283264
  0
LINE
  5
245
100
AcDbEntity
  8
0
100
AcDbLine
 62
7
  6
CONTINUOUS
 10
161.8456930985
 20
705.058252573
 11
161.8456930985
 21
707.233011961
  0
LINE
  5
246
100
AcDbEntity
  8
0
100
AcDbLine
 62
7
  6
CONTINUOUS
 10
164.9265988936
 20
682.9482196569
 11
164.9265988936
 21
685.1229765415
  0
LINE
  5
247
100
AcDbEntity
  8
0
100
AcDbLine
 62
7
  6
CONTINUOUS
 10
164.9265988936
 20
697.6278305054
 11
164.9265988936
 21
699.8025898933
  0
LINE
  5
248
100
AcDbEntity
  8
0
100
AcDbLine
 62
7
  6
CONTINUOUS
 10
164.9265988936
 20
715.5695779324
 11
164.9265988936
 21
717.7443373203
  0
LINE
  5
249
100
AcDbEntity
  8
0
100
AcDbLine
 62
7
  6
CONTINUOUS
 10
164.9265988936
 20
723.0
 11
164.9265988936
 21
738.5857622623
  0
LINE
  5
24A
100
AcDbEntity
  8
0
100
AcDbLine
 62
7
  6
CONTINUOUS
 10
168.5511945357
 20
714.6634290218
 11
168.7324240675
 21
710.1326844692
  0
LINE
  5
24B
100
AcDbEntity
  8
0
100
AcDbLine
 62
7
  6
CONTINUOUS
 10
166.3764376512
 20
686.7540460825
 11
166.3764376512
 21
686.2103562355
  0
LINE
  5
24C
100
AcDbEntity
  8
0
100
AcDbLine
 62
7
  6
CONTINUOUS
 10
167.4638160934
 20
692.5533986092
 11
167.4638160934
 21
694.9093862772
  0
LINE
  5
24D
100
AcDbEntity
  8
0
100
AcDbLine
 62
7
  6
CONTINUOUS
 10
167.4638160934
 20
710.1326844692
 11
167.4638160934
 21
712.6699004173
  0
LINE
  5
24E
100
AcDbEntity
  8
0
100
AcDbLine
 62
7
  6
CONTINUOUS
 10
168.5511945357
 20
696.9029123783
 11
168.5511945357
 21
692.3721678257
  0
LINE
  5
24F
100
AcDbEntity
  8
0
100
AcDbLine
 62
7
  6
CONTINUOUS
 10
169.638572978
 20
664.6440128535
 11
169.638572978
 21
665.1877023876
  0
LINE
  5
250
100
AcDbEntity
  8
0
100
AcDbLine
 62
7
  6
CONTINUOUS
 10
170.182262825
 20
694.1844656467
 11
170.182262825
 21
694.5469247103
  0
LINE
  5
251
100
AcDbEntity
  8
0
100
AcDbLine
 62
7
  6
CONTINUOUS
 10
170.182262825
 20
711.9449822903
 11
170.182262825
 21
712.4886746407
  0
LINE
  5
252
100
AcDbEntity
  8
0
100
AcDbLine
 62
7
  6
CONTINUOUS
 10
170.3634923568
 20
682.0420707464
 11
170.3634923568
 21
682.9482196569
  0
LINE
  5
253
100
AcDbEntity
  8
0
100
AcDbLine
 62
7
  6
CONTINUOUS
 10
171.4508707991
 20
738.5857622623
 11
171.4508707991
 21
723.0
  0
LINE
  5
254
100
AcDbEntity
  8
0
100
AcDbLine
 62
7
  6
CONTINUOUS
 10
171.4508707991
 20
717.7443373203
 11
171.4508707991
 21
715.5695779324
  0
LINE
  5
255
100
AcDbEntity
  8
0
100
AcDbLine
 62
7
  6
CONTINUOUS
 10
171.4508707991
 20
707.233011961
 11
171.4508707991
 21
705.058252573
  0
LINE
  5
256
100
AcDbEntity
  8
0
100
AcDbLine
 62
7
  6
CONTINUOUS
 10
171.4508707991
 20
699.8025898933
 11
171.4508707991
 21
697.6278305054
  0
LINE
  5
257
100
AcDbEntity
  8
0
100
AcDbLine
 62
7
  6
CONTINUOUS
 10
171.4508707991
 20
689.4724928141
 11
171.4508707991
 21
687.4789642096
  0
LINE
  5
258
100
AcDbEntity
  8
0
100
AcDbLine
 62
7
  6
CONTINUOUS
 10
171.4508707991
 20
677.873786509
 11
171.4508707991
 21
675.6990296245
  0
LINE
  5
259
100
AcDbEntity
  8
0
100
AcDbLine
 62
7
  6
CONTINUOUS
 10
172.3570197096
 20
684.0355993509
 11
172.3570197096
 21
681.8608424664
  0
LINE
  5
25A
100
AcDbEntity
  8
0
100
AcDbLine
 62
7
  6
CONTINUOUS
 10
172.3570197096
 20
687.4789642096
 11
172.3570197096
 21
690.7411007881
  0
LINE
  5
25B
100
AcDbEntity
  8
0
100
AcDbLine
 62
7
  6
CONTINUOUS
 10
172.3570197096
 20
692.3721678257
 11
172.3570197096
 21
693.2783167362
  0
LINE
  5
25C
100
AcDbEntity
  8
0
100
AcDbLine
 62
7
  6
CONTINUOUS
 10
172.9007089307
 20
713.9385108948
 11
172.9007089307
 21
714.4821982384
  0
LINE
  5
25D
100
AcDbEntity
  8
0
100
AcDbLine
 62
7
  6
CONTINUOUS
 10
173.2631686201
 20
690.7411007881
 11
173.2631686201
 21
688.3851131201
  0
LINE
  5
25E
100
AcDbEntity
  8
0
100
AcDbLine
 62
7
  6
CONTINUOUS
 10
173.2631686201
 20
682.40452981
 11
173.2631686201
 21
683.8543685675
  0
LINE
  5
25F
100
AcDbEntity
  8
0
100
AcDbLine
 62
7
  6
CONTINUOUS
 10
173.6256283095
 20
714.4821982384
 11
173.6256283095
 21
713.5760493279
  0
LINE
  5
260
100
AcDbEntity
  8
0
100
AcDbLine
 62
7
  6
CONTINUOUS
 10
173.9880879989
 20
676.9676375985
 11
173.9880879989
 21
678.2362455726
  0
LINE
  5
261
100
AcDbEntity
  8
0
100
AcDbLine
 62
7
  6
CONTINUOUS
 10
174.1693175306
 20
685.4854381084
 11
174.1693175306
 21
683.6731402874
  0
LINE
  5
262
100
AcDbEntity
  8
0
100
AcDbLine
 62
7
  6
CONTINUOUS
 10
174.3505476882
 20
706.145632267
 11
174.3505476882
 21
707.233011961
  0
LINE
  5
263
100
AcDbEntity
  8
0
100
AcDbLine
 62
7
  6
CONTINUOUS
 10
174.3505476882
 20
709.045309782
 11
174.3505476882
 21
709.9514586926
  0
LINE
  5
264
100
AcDbEntity
  8
0
100
AcDbLine
 62
7
  6
CONTINUOUS
 10
174.3505476882
 20
713.5760493279
 11
174.3505476882
 21
714.4821982384
  0
LINE
  5
265
100
AcDbEntity
  8
0
100
AcDbLine
 62
7
  6
CONTINUOUS
 10
174.7130067518
 20
683.3106787205
 11
174.7130067518
 21
685.1229765415
  0
LINE
  5
266
100
AcDbEntity
  8
0
100
AcDbLine
 62
7
  6
CONTINUOUS
 10
174.7130067518
 20
688.3851131201
 11
174.7130067518
 21
690.5598700047
  0
LINE
  5
267
100
AcDbEntity
  8
0
100
AcDbLine
 62
7
  6
CONTINUOUS
 10
175.0754664412
 20
718.1067938805
 11
175.0754664412
 21
717.7443373203
  0
LINE
  5
268
100
AcDbEntity
  8
0
100
AcDbLine
 62
7
  6
CONTINUOUS
 10
175.0754664412
 20
707.233011961
 11
175.0754664412
 21
706.145632267
  0
LINE
  5
269
100
AcDbEntity
  8
0
100
AcDbLine
 62
7
  6
CONTINUOUS
 10
175.0754664412
 20
696.9029123783
 11
175.0754664412
 21
696.3592225313
  0
LINE
  5
26A
100
AcDbEntity
  8
0
100
AcDbLine
 62
7
  6
CONTINUOUS
 10
175.6191556623
 20
690.5598700047
 11
175.6191556623
 21
688.3851131201
  0
LINE
  5
26B
100
AcDbEntity
  8
0
100
AcDbLine
 62
7
  6
CONTINUOUS
 10
175.6191556623
 20
684.9417482615
 11
175.6191556623
 21
683.3106787205
  0
LINE
  5
26C
100
AcDbEntity
  8
0
100
AcDbLine
 62
7
  6
CONTINUOUS
 10
175.6191556623
 20
676.4239477515
 11
175.6191556623
 21
677.873786509
  0
LINE
  5
26D
100
AcDbEntity
  8
0
100
AcDbLine
 62
7
  6
CONTINUOUS
 10
175.6191556623
 20
695.8155351877
 11
175.6191556623
 21
697.4466022253
  0
LINE
  5
26E
100
AcDbEntity
  8
0
100
AcDbLine
 62
7
  6
CONTINUOUS
 10
176.3440750411
 20
698.3527511358
 11
176.3440750411
 21
695.8156532502
  0
LINE
  5
26F
100
AcDbEntity
  8
0
100
AcDbLine
 62
7
  6
CONTINUOUS
 10
176.3440750411
 20
682.9482196569
 11
176.3440750411
 21
684.3980584145
  0
LINE
  5
270
100
AcDbEntity
  8
0
100
AcDbLine
 62
7
  6
CONTINUOUS
 10
177.2502236387
 20
688.3851131201
 11
177.2502236387
 21
690.7411007881
  0
LINE
  5
271
100
AcDbEntity
  8
0
100
AcDbLine
 62
7
  6
CONTINUOUS
 10
177.2502236387
 20
696.5404533148
 11
177.2502236387
 21
696.9029123783
  0
LINE
  5
272
100
AcDbEntity
  8
0
100
AcDbLine
 62
7
  6
CONTINUOUS
 10
177.612683328
 20
677.5113274455
 11
177.612683328
 21
678.0550160408
  0
LINE
  5
273
100
AcDbEntity
  8
0
100
AcDbLine
 62
7
  6
CONTINUOUS
 10
177.9751427045
 20
714.4821982384
 11
177.9751427045
 21
713.5760493279
  0
LINE
  5
274
100
AcDbEntity
  8
0
100
AcDbLine
 62
7
  6
CONTINUOUS
 10
177.9751427045
 20
709.9514586926
 11
177.9751427045
 21
709.045309782
  0
LINE
  5
275
100
AcDbEntity
  8
0
100
AcDbLine
 62
7
  6
CONTINUOUS
 10
177.9751427045
 20
693.2783167362
 11
177.9751427045
 21
692.3721678257
  0
LINE
  5
276
100
AcDbEntity
  8
0
100
AcDbLine
 62
7
  6
CONTINUOUS
 10
177.9751427045
 20
690.7411007881
 11
177.9751427045
 21
687.4789642096
  0
LINE
  5
277
100
AcDbEntity
  8
0
100
AcDbLine
 62
7
  6
CONTINUOUS
 10
179.4249809926
 20
679.6860843301
 11
179.4249809926
 21
678.2362455726
  0
LINE
  5
278
100
AcDbEntity
  8
0
100
AcDbLine
 62
7
  6
CONTINUOUS
 10
184.7032981982
 20
750.0
 11
184.7032981982
 21
650.0
  0
LINE
  5
279
100
AcDbEntity
  8
0
100
AcDbLine
 62
7
  6
CONTINUOUS
 10
190.6282479972
 20
650.0
 11
190.6282479972
 21
750.0
  0
LINE
  5
27A
100
AcDbEntity
  8
0
100
AcDbLine
 62
7
  6
CONTINUOUS
 10
190.9282479972
 20
651.0
 11
190.9282479972
 21
749.0
  0
LINE
  5
27B
100
AcDbEntity
  8
0
100
AcDbLine
 62
7
  6
CONTINUOUS
 10
191.5282479972
 20
650.0
 11
191.5282479972
 21
652.0
  0
LINE
  5
27C
100
AcDbEntity
  8
0
100
AcDbLine
 62
7
  6
CONTINUOUS
 10
191.5282479972
 20
748.060637163
 11
191.5282479972
 21
750.0
  0
LINE
  5
27D
100
AcDbEntity
  8
0
100
AcDbLine
 62
7
  6
CONTINUOUS
 10
174.8942369094
 20
678.0550160408
 11
174.7130067518
 21
676.4239477515
  0
LINE
  5
27E
100
AcDbEntity
  8
0
100
AcDbLine
 62
7
  6
CONTINUOUS
 10
164.7453693619
 20
672.6181225777
 11
165.1078284254
 21
674.9741102457
  0
LINE
  5
27F
100
AcDbEntity
  8
0
100
AcDbLine
 62
7
  6
CONTINUOUS
 10
166.5576671829
 20
705.058252573
 11
166.3764376512
 21
703.970872879
  0
LINE
  5
280
100
AcDbEntity
  8
0
100
AcDbLine
 62
7
  6
CONTINUOUS
 10
173.4443987777
 20
678.4174751043
 11
173.2631686201
 21
677.330096662
  0
LINE
  5
281
100
AcDbEntity
  8
0
100
AcDbLine
 62
7
  6
CONTINUOUS
 10
174.1693175306
 20
718.2880246639
 11
174.3505476882
 21
719.1941735745
  0
LINE
  5
282
100
AcDbEntity
  8
0
100
AcDbLine
 62
7
  6
CONTINUOUS
 10
174.1693175306
 20
701.9773467779
 11
174.3505476882
 21
702.883493185
  0
LINE
  5
283
100
AcDbEntity
  8
0
100
AcDbLine
 62
7
  6
CONTINUOUS
 10
164.7453693619
 20
703.4271855354
 11
165.1078284254
 21
705.058252573
  0
LINE
  5
284
100
AcDbEntity
  8
0
100
AcDbLine
 62
7
  6
CONTINUOUS
 10
167.2825865617
 20
720.2815532684
 11
166.9201262464
 21
719.1941735745
  0
LINE
  5
285
100
AcDbEntity
  8
0
100
AcDbLine
 62
7
  6
CONTINUOUS
 10
175.4379261305
 20
719.1941735745
 11
175.0754664412
 21
718.1067938805
  0
LINE
  5
286
100
AcDbEntity
  8
0
100
AcDbLine
 62
7
  6
CONTINUOUS
 10
175.0754664411
 20
705.2394833565
 11
174.8942369094
 21
704.6957910061
  0
LINE
  5
287
100
AcDbEntity
  8
0
100
AcDbLine
 62
7
  6
CONTINUOUS
 10
175.4379261305
 20
702.883493185
 11
175.0754664412
 21
701.7961159945
  0
LINE
  5
288
100
AcDbEntity
  8
0
100
AcDbLine
 62
7
  6
CONTINUOUS
 10
163.6579909196
 20
665.0064725429
 11
164.0204499831
 21
664.1003236324
  0
LINE
  5
289
100
AcDbEntity
  8
0
100
AcDbLine
 62
7
  6
CONTINUOUS
 10
171.0884117355
 20
705.058252573
 11
171.6321009567
 21
703.4271855354
  0
LINE
  5
28A
100
AcDbEntity
  8
0
100
AcDbLine
 62
7
  6
CONTINUOUS
 10
177.2502236387
 20
696.9029123783
 11
176.8877642622
 21
698.1715203524
  0
LINE
  5
28B
100
AcDbEntity
  8
0
100
AcDbLine
 62
7
  6
CONTINUOUS
 10
169.4573434463
 20
682.2233015299
 11
170.0010332932
 21
680.0485433936
  0
LINE
  5
28C
100
AcDbEntity
  8
0
100
AcDbLine
 62
7
  6
CONTINUOUS
 10
177.7939131727
 20
698.1715203524
 11
178.1563725492
 21
696.7216840982
  0
LINE
  5
28D
100
AcDbEntity
  8
0
100
AcDbLine
 62
7
  6
CONTINUOUS
 10
170.0010332932
 20
673.5242714882
 11
169.638572978
 21
675.1553397775
  0
LINE
  5
28E
100
AcDbEntity
  8
0
100
AcDbLine
 62
7
  6
CONTINUOUS
 10
177.2502236386
 20
706.5080888271
 11
177.0689941069
 21
707.4142377377
  0
LINE
  5
28F
100
AcDbEntity
  8
0
100
AcDbLine
 62
7
  6
CONTINUOUS
 10
177.2502236387
 20
718.2880246639
 11
177.0689941069
 21
719.1941735745
  0
LINE
  5
290
100
AcDbEntity
  8
0
100
AcDbLine
 62
7
  6
CONTINUOUS
 10
177.9751427045
 20
707.4142377377
 11
178.1563725492
 21
706.3268630505
  0
LINE
  5
291
100
AcDbEntity
  8
0
100
AcDbLine
 62
7
  6
CONTINUOUS
 10
177.2502236386
 20
701.7961159944
 11
177.0689941069
 21
703.0647239685
  0
LINE
  5
292
100
AcDbEntity
  8
0
100
AcDbLine
 62
7
  6
CONTINUOUS
 10
177.9751427045
 20
703.0647239685
 11
178.1563725492
 21
701.7961159945
  0
LINE
  5
293
100
AcDbEntity
  8
0
100
AcDbLine
 62
7
  6
CONTINUOUS
 10
177.9751427045
 20
719.1941735745
 11
178.1563725492
 21
717.9255681038
  0
LINE
  5
294
100
AcDbEntity
  8
0
100
AcDbLine
 62
7
  6
CONTINUOUS
 10
193.9282479972
 20
653.0
 11
193.9282479972
 21
747.0
  0
LINE
  5
295
100
AcDbEntity
  8
0
100
AcDbLine
 62
7
  6
CONTINUOUS
 10
166.9201262464
 20
674.9741102457
 11
166.3764376512
 21
673.3430419564
  0
LINE
  5
296
100
AcDbEntity
  8
0
100
AcDbLine
 62
7
  6
CONTINUOUS
 10
175.4379261305
 20
711.4012949467
 11
175.0754664412
 21
710.6763768196
  0
LINE
  5
297
100
AcDbEntity
  8
0
100
AcDbLine
 62
7
  6
CONTINUOUS
 10
176.5253045728
 20
700.8899670839
 11
177.2502236386
 21
701.7961159944
  0
LINE
  5
298
100
AcDbEntity
  8
0
100
AcDbLine
 62
7
  6
CONTINUOUS
 10
161.8456930985
 20
699.4401283264
 11
162.2081521621
 21
699.8025898933
  0
LINE
  5
299
100
AcDbEntity
  8
0
100
AcDbLine
 62
7
  6
CONTINUOUS
 10
164.2016795149
 20
697.9902920723
 11
163.6579909196
 21
697.4466022253
  0
LINE
  5
29A
100
AcDbEntity
  8
0
100
AcDbLine
 62
7
  6
CONTINUOUS
 10
176.8877642622
 20
706.145632267
 11
177.2502236386
 21
706.5080888271
  0
LINE
  5
29B
100
AcDbEntity
  8
0
100
AcDbLine
 62
7
  6
CONTINUOUS
 10
128.6457839232
 20
700.0
 11
128.4282479972
 21
699.8174656848
  0
LINE
  5
29C
100
AcDbEntity
  8
0
100
AcDbLine
 62
7
  6
CONTINUOUS
 10
127.1282479972
 20
698.7266361642
 11
125.8282479972
 21
697.6358066437
  0
LINE
  5
29D
100
AcDbEntity
  8
0
100
AcDbLine
 62
7
  6
CONTINUOUS
 10
124.5282479972
 20
696.5449771232
 11
123.2282479972
 21
695.4541476027
  0
LINE
  5
29E
100
AcDbEntity
  8
0
100
AcDbLine
 62
7
  6
CONTINUOUS
 10
121.9282479972
 20
694.3633180821
 11
120.6282479972
 21
693.2724885616
  0
LINE
  5
29F
100
AcDbEntity
  8
0
100
AcDbLine
 62
7
  6
CONTINUOUS
 10
119.3282479972
 20
692.1816590411
 11
118.0282479972
 21
691.0908295205
  0
LINE
  5
2A0
100
AcDbEntity
  8
0
100
AcDbLine
 62
7
  6
CONTINUOUS
 10
118.0282479972
 20
708.9091704795
 11
119.3282479972
 21
707.8183409589
  0
LINE
  5
2A1
100
AcDbEntity
  8
0
100
AcDbLine
 62
7
  6
CONTINUOUS
 10
120.6282479972
 20
706.7275114384
 11
121.9282479972
 21
705.6366819179
  0
LINE
  5
2A2
100
AcDbEntity
  8
0
100
AcDbLine
 62
7
  6
CONTINUOUS
 10
123.2282479972
 20
704.5458523973
 11
124.5282479972
 21
703.4550228768
  0
LINE
  5
2A3
100
AcDbEntity
  8
0
100
AcDbLine
 62
7
  6
CONTINUOUS
 10
125.8282479972
 20
702.3641933563
 11
127.1282479972
 21
701.2733638358
  0
LINE
  5
2A4
100
AcDbEntity
  8
0
100
AcDbLine
 62
7
  6
CONTINUOUS
 10
128.4282479972
 20
700.1825343152
 11
128.6457839232
 21
700.0
  0
LINE
  5
2A5
100
AcDbEntity
  8
0
100
AcDbLine
 62
7
  6
CONTINUOUS
 10
175.9816153517
 20
676.061488688
 11
175.6191556623
 21
676.4239477515
  0
LINE
  5
2A6
100
AcDbEntity
  8
0
100
AcDbLine
 62
7
  6
CONTINUOUS
 10
166.3764376512
 20
686.2103562355
 11
167.4638160934
 21
685.1229765415
  0
LINE
  5
2A7
100
AcDbEntity
  8
0
100
AcDbLine
 62
7
  6
CONTINUOUS
 10
175.6191556623
 20
683.3106787205
 11
175.9816153517
 21
682.9482196569
  0
LINE
  5
2A8
100
AcDbEntity
  8
0
100
AcDbLine
 62
7
  6
CONTINUOUS
 10
175.0754664412
 20
696.3592225313
 11
175.6191556623
 21
695.8155351877
  0
LINE
  5
2A9
100
AcDbEntity
  8
0
100
AcDbLine
 62
7
  6
CONTINUOUS
 10
175.6191556623
 20
697.4466022253
 11
175.0754664412
 21
696.9029123783
  0
LINE
  5
2AA
100
AcDbEntity
  8
0
100
AcDbLine
 62
7
  6
CONTINUOUS
 10
174.8942369094
 20
704.6957910061
 11
173.4443987777
 21
706.145632267
  0
LINE
  5
2AB
100
AcDbEntity
  8
0
100
AcDbLine
 62
7
  6
CONTINUOUS
 10
173.2631686201
 20
713.5760493279
 11
172.9007089307
 21
713.9385108948
  0
LINE
  5
2AC
100
AcDbEntity
  8
0
100
AcDbLine
 62
7
  6
CONTINUOUS
 10
174.1693175306
 20
683.6731402874
 11
174.7130067518
 21
683.3106787205
  0
LINE
  5
2AD
100
AcDbEntity
  8
0
100
AcDbLine
 62
7
  6
CONTINUOUS
 10
174.7130067518
 20
711.9449822903
 11
175.4379261305
 21
711.4012949467
  0
LINE
  5
2AE
100
AcDbEntity
  8
0
100
AcDbLine
 62
7
  6
CONTINUOUS
 10
175.0754664412
 20
681.8608424664
 11
173.2631686201
 21
682.40452981
  0
LINE
  5
2AF
100
AcDbEntity
  8
0
100
AcDbLine
 62
7
  6
CONTINUOUS
 10
173.9880879989
 20
678.2362455726
 11
173.4443987777
 21
678.4174751043
  0
LINE
  5
2B0
100
AcDbEntity
  8
0
100
AcDbLine
 62
7
  6
CONTINUOUS
 10
173.2631686201
 20
683.8543685675
 11
172.3570197096
 21
684.0355993509
  0
LINE
  5
2B1
100
AcDbEntity
  8
0
100
AcDbLine
 62
7
  6
CONTINUOUS
 10
174.7130067518
 20
685.1229765415
 11
175.6191556623
 21
684.9417482615
  0
LINE
  5
2B2
100
AcDbEntity
  8
0
100
AcDbLine
 62
7
  6
CONTINUOUS
 10
175.6191556623
 20
677.873786509
 11
174.8942369094
 21
678.0550160408
  0
LINE
  5
2B3
100
AcDbEntity
  8
0
100
AcDbLine
 62
7
  6
CONTINUOUS
 10
166.7388967147
 20
668.2686081827
 11
168.5511945357
 21
668.8122980297
  0
LINE
  5
2B4
100
AcDbEntity
  8
0
100
AcDbLine
 62
7
  6
CONTINUOUS
 10
856.9298971008
 20
682.2556626797
 11
855.661287875
 21
682.0744318962
  0
LINE
  5
2B5
100
AcDbEntity
  8
0
100
AcDbLine
 62
7
  6
CONTINUOUS
 10
170.5447218885
 20
661.7443365902
 11
168.5511945357
 21
661.9255662784
  0
LINE
  5
2B6
100
AcDbEntity
  8
0
100
AcDbLine
 62
7
  6
CONTINUOUS
 10
162.7518420091
 20
668.4498383403
 11
164.5641398301
 21
668.2686081827
  0
LINE
  5
2B7
100
AcDbEntity
  8
0
100
AcDbLine
 62
7
  6
CONTINUOUS
 10
190.6282479972
 20
650.0
 11
111.2282479972
 21
650.0
  0
LINE
  5
2B8
100
AcDbEntity
  8
0
100
AcDbLine
 62
7
  6
CONTINUOUS
 10
191.5282479972
 20
650.0
 11
830.3282479972
 21
650.0
  0
LINE
  5
2B9
100
AcDbEntity
  8
0
100
AcDbLine
 62
7
  6
CONTINUOUS
 10
831.2282479972
 20
650.0
 11
910.6282479972
 21
650.0
  0
LINE
  5
2BA
100
AcDbEntity
  8
0
100
AcDbLine
 62
7
  6
CONTINUOUS
 10
831.2282479972
 20
651.0
 11
830.9282479972
 21
651.0
  0
LINE
  5
2BB
100
AcDbEntity
  8
0
100
AcDbLine
 62
7
  6
CONTINUOUS
 10
190.6282479972
 20
651.0
 11
190.9282479972
 21
651.0
  0
LINE
  5
2BC
100
AcDbEntity
  8
0
100
AcDbLine
 62
7
  6
CONTINUOUS
 10
830.9282479972
 20
652.0
 11
829.3736039514
 21
652.0
  0
LINE
  5
2BD
100
AcDbEntity
  8
0
100
AcDbLine
 62
7
  6
CONTINUOUS
 10
192.482892043
 20
652.0
 11
191.0375360888
 21
652.0
  0
LINE
  5
2BE
100
AcDbEntity
  8
0
100
AcDbLine
 62
7
  6
CONTINUOUS
 10
831.3842987689
 20
652.8
 11
830.9282479972
 21
652.8
  0
LINE
  5
2BF
100
AcDbEntity
  8
0
100
AcDbLine
 62
7
  6
CONTINUOUS
 10
828.6787381392
 20
653.0
 11
193.1777578552
 21
653.0
  0
LINE
  5
2C0
100
AcDbEntity
  8
0
100
AcDbLine
 62
7
  6
CONTINUOUS
 10
856.9298971008
 20
661.4142377377
 11
850.4056251954
 21
661.4142377377
  0
LINE
  5
2C1
100
AcDbEntity
  8
0
100
AcDbLine
 62
7
  6
CONTINUOUS
 10
165.1078284254
 20
661.5631067455
 11
164.2016795149
 21
661.5631067455
  0
LINE
  5
2C2
100
AcDbEntity
  8
0
100
AcDbLine
 62
7
  6
CONTINUOUS
 10
164.0204499831
 20
664.1003236324
 11
164.3829102983
 21
664.1003236324
  0
LINE
  5
2C3
100
AcDbEntity
  8
0
100
AcDbLine
 62
7
  6
CONTINUOUS
 10
168.5511945357
 20
668.8122980297
 11
169.0948843827
 21
668.8122980297
  0
LINE
  5
2C4
100
AcDbEntity
  8
0
100
AcDbLine
 62
7
  6
CONTINUOUS
 10
168.5511945357
 20
669.1747570932
 11
167.6450456252
 21
669.1747570932
  0
LINE
  5
2C5
100
AcDbEntity
  8
0
100
AcDbLine
 62
7
  6
CONTINUOUS
 10
165.1078284254
 20
674.9741102457
 11
166.9201262464
 21
674.9741102457
  0
LINE
  5
2C6
100
AcDbEntity
  8
0
100
AcDbLine
 62
7
  6
CONTINUOUS
 10
169.638572978
 20
675.1553397775
 11
170.9071815779
 21
675.1553397775
  0
LINE
  5
2C7
100
AcDbEntity
  8
0
100
AcDbLine
 62
7
  6
CONTINUOUS
 10
171.4508707991
 20
675.6990296245
 11
161.8456930985
 21
675.6990296245
  0
LINE
  5
2C8
100
AcDbEntity
  8
0
100
AcDbLine
 62
7
  6
CONTINUOUS
 10
176.8877642622
 20
676.061488688
 11
175.9816153517
 21
676.061488688
  0
LINE
  5
2C9
100
AcDbEntity
  8
0
100
AcDbLine
 62
7
  6
CONTINUOUS
 10
850.4056251954
 20
677.0
 11
856.9298971008
 21
677.0
  0
LINE
  5
2CA
100
AcDbEntity
  8
0
100
AcDbLine
 62
7
  6
CONTINUOUS
 10
161.8456930985
 20
677.873786509
 11
165.651370939
 21
677.873786509
  0
LINE
  5
2CB
100
AcDbEntity
  8
0
100
AcDbLine
 62
7
  6
CONTINUOUS
 10
167.4638160934
 20
677.873786509
 11
171.4508707991
 21
677.873786509
  0
LINE
  5
2CC
100
AcDbEntity
  8
0
100
AcDbLine
 62
7
  6
CONTINUOUS
 10
170.0010332932
 20
680.0485433936
 11
167.6450456252
 21
680.0485433936
  0
LINE
  5
2CD
100
AcDbEntity
  8
0
100
AcDbLine
 62
7
  6
CONTINUOUS
 10
847.5059483062
 20
680.8058264256
 11
846.4185698639
 21
680.8058264256
  0
LINE
  5
2CE
100
AcDbEntity
  8
0
100
AcDbLine
 62
7
  6
CONTINUOUS
 10
844.7875018875
 20
680.8058264256
 11
843.8813532899
 21
680.8058264256
  0
LINE
  5
2CF
100
AcDbEntity
  8
0
100
AcDbLine
 62
7
  6
CONTINUOUS
 10
166.9201262464
 20
682.2233015299
 11
169.4573434463
 21
682.2233015299
  0
LINE
  5
2D0
100
AcDbEntity
  8
0
100
AcDbLine
 62
7
  6
CONTINUOUS
 10
852.7616116117
 20
682.2556626797
 11
850.4056251954
 21
682.2556626797
  0
LINE
  5
2D1
100
AcDbEntity
  8
0
100
AcDbLine
 62
7
  6
CONTINUOUS
 10
169.4573434463
 20
682.9482196569
 11
164.9265988936
 21
682.9482196569
  0
LINE
  5
2D2
100
AcDbEntity
  8
0
100
AcDbLine
 62
7
  6
CONTINUOUS
 10
175.9816153517
 20
682.9482196569
 11
176.3440750411
 21
682.9482196569
  0
LINE
  5
2D3
100
AcDbEntity
  8
0
100
AcDbLine
 62
7
  6
CONTINUOUS
 10
850.4056251954
 20
684.4304220676
 11
856.9298971008
 21
684.4304220676
  0
LINE
  5
2D4
100
AcDbEntity
  8
0
100
AcDbLine
 62
7
  6
CONTINUOUS
 10
164.9265988936
 20
685.1229765415
 11
165.6515182724
 21
685.1229765415
  0
LINE
  5
2D5
100
AcDbEntity
  8
0
100
AcDbLine
 62
7
  6
CONTINUOUS
 10
167.4638160934
 20
685.1229765415
 11
170.3634923568
 21
685.1229765415
  0
LINE
  5
2D6
100
AcDbEntity
  8
0
100
AcDbLine
 62
7
  6
CONTINUOUS
 10
853.848990054
 20
685.3365709782
 11
853.3053014587
 21
685.3365709782
  0
LINE
  5
2D7
100
AcDbEntity
  8
0
100
AcDbLine
 62
7
  6
CONTINUOUS
 10
852.5803820799
 20
685.3365709782
 11
851.3117741059
 21
685.3365709782
  0
LINE
  5
2D8
100
AcDbEntity
  8
0
100
AcDbLine
 62
7
  6
CONTINUOUS
 10
172.9007089307
 20
685.4854381084
 11
174.1693175306
 21
685.4854381084
  0
LINE
  5
2D9
100
AcDbEntity
  8
0
100
AcDbLine
 62
7
  6
CONTINUOUS
 10
848.9557870637
 20
685.5178017616
 11
848.2308676849
 21
685.5178017616
  0
LINE
  5
2DA
100
AcDbEntity
  8
0
100
AcDbLine
 62
7
  6
CONTINUOUS
 10
847.5059483062
 20
685.5178017616
 11
843.8813532899
 21
685.5178017616
  0
LINE
  5
2DB
100
AcDbEntity
  8
0
100
AcDbLine
 62
7
  6
CONTINUOUS
 10
843.8813532899
 20
686.4239506722
 11
847.5059483062
 21
686.4239506722
  0
LINE
  5
2DC
100
AcDbEntity
  8
0
100
AcDbLine
 62
7
  6
CONTINUOUS
 10
848.2308676849
 20
686.4239506722
 11
848.5933273743
 21
686.4239506722
  0
LINE
  5
2DD
100
AcDbEntity
  8
0
100
AcDbLine
 62
7
  6
CONTINUOUS
 10
177.9751427045
 20
687.4789642096
 11
172.3570197096
 21
687.4789642096
  0
LINE
  5
2DE
100
AcDbEntity
  8
0
100
AcDbLine
 62
7
  6
CONTINUOUS
 10
171.4508707991
 20
687.4789642096
 11
168.0075059405
 21
687.4789642096
  0
LINE
  5
2DF
100
AcDbEntity
  8
0
100
AcDbLine
 62
7
  6
CONTINUOUS
 10
173.2631686201
 20
688.3851131201
 11
174.7130067518
 21
688.3851131201
  0
LINE
  5
2E0
100
AcDbEntity
  8
0
100
AcDbLine
 62
7
  6
CONTINUOUS
 10
175.6191556623
 20
688.3851131201
 11
177.2502236387
 21
688.3851131201
  0
LINE
  5
2E1
100
AcDbEntity
  8
0
100
AcDbLine
 62
7
  6
CONTINUOUS
 10
166.7388967147
 20
689.4724928141
 11
171.4508707991
 21
689.4724928141
  0
LINE
  5
2E2
100
AcDbEntity
  8
0
100
AcDbLine
 62
7
  6
CONTINUOUS
 10
114.1951579047
 20
690.0
 11
116.7282479972
 21
690.0
  0
LINE
  5
2E3
100
AcDbEntity
  8
0
100
AcDbLine
 62
7
  6
CONTINUOUS
 10
905.1282479972
 20
690.0
 11
907.6613380898
 21
690.0
  0
LINE
  5
2E4
100
AcDbEntity
  8
0
100
AcDbLine
 62
7
  6
CONTINUOUS
 10
847.5059483062
 20
690.0485413074
 11
847.1434892427
 21
690.0485413074
  0
LINE
  5
2E5
100
AcDbEntity
  8
0
100
AcDbLine
 62
7
  6
CONTINUOUS
 10
845.5124209534
 20
690.0485413074
 11
843.8813532899
 21
690.0485413074
  0
LINE
  5
2E6
100
AcDbEntity
  8
0
100
AcDbLine
 62
7
  6
CONTINUOUS
 10
168.7324240675
 20
690.1974109411
 11
168.0075059404
 21
690.1974109411
  0
LINE
  5
2E7
100
AcDbEntity
  8
0
100
AcDbLine
 62
7
  6
CONTINUOUS
 10
174.7130067518
 20
690.5598700047
 11
175.6191556623
 21
690.5598700047
  0
LINE
  5
2E8
100
AcDbEntity
  8
0
100
AcDbLine
 62
7
  6
CONTINUOUS
 10
172.3570197096
 20
690.7411007881
 11
173.2631686201
 21
690.7411007881
  0
LINE
  5
2E9
100
AcDbEntity
  8
0
100
AcDbLine
 62
7
  6
CONTINUOUS
 10
177.2502236387
 20
690.7411007881
 11
177.9751427045
 21
690.7411007881
  0
LINE
  5
2EA
100
AcDbEntity
  8
0
100
AcDbLine
 62
7
  6
CONTINUOUS
 10
843.8813532899
 20
690.954690218
 11
847.5059483062
 21
690.954690218
  0
LINE
  5
2EB
100
AcDbEntity
  8
0
100
AcDbLine
 62
7
  6
CONTINUOUS
 10
853.3053014587
 20
692.042069912
 11
854.0302208375
 21
692.042069912
  0
LINE
  5
2EC
100
AcDbEntity
  8
0
100
AcDbLine
 62
7
  6
CONTINUOUS
 10
177.9751427045
 20
692.3721678257
 11
172.3570197096
 21
692.3721678257
  0
LINE
  5
2ED
100
AcDbEntity
  8
0
100
AcDbLine
 62
7
  6
CONTINUOUS
 10
844.7875018875
 20
692.5857622623
 11
843.8813532899
 21
692.5857622623
  0
LINE
  5
2EE
100
AcDbEntity
  8
0
100
AcDbLine
 62
7
  6
CONTINUOUS
 10
860.0108028959
 20
692.766988039
 11
850.4056251954
 21
692.766988039
  0
LINE
  5
2EF
100
AcDbEntity
  8
0
100
AcDbLine
 62
7
  6
CONTINUOUS
 10
847.5059483062
 20
692.766988039
 11
846.7810295533
 21
692.766988039
  0
LINE
  5
2F0
100
AcDbEntity
  8
0
100
AcDbLine
 62
7
  6
CONTINUOUS
 10
172.3570197096
 20
693.2783167362
 11
177.9751427045
 21
693.2783167362
  0
LINE
  5
2F1
100
AcDbEntity
  8
0
100
AcDbLine
 62
7
  6
CONTINUOUS
 10
848.4120972167
 20
693.854367733
 11
847.5059483062
 21
693.854367733
  0
LINE
  5
2F2
100
AcDbEntity
  8
0
100
AcDbLine
 62
7
  6
CONTINUOUS
 10
846.7810295533
 20
693.854367733
 11
844.9687317322
 21
693.854367733
  0
LINE
  5
2F3
100
AcDbEntity
  8
0
100
AcDbLine
 62
7
  6
CONTINUOUS
 10
845.1499615769
 20
694.7605166435
 11
846.7810295533
 21
694.7605166435
  0
LINE
  5
2F4
100
AcDbEntity
  8
0
100
AcDbLine
 62
7
  6
CONTINUOUS
 10
850.4056251954
 20
694.941747427
 11
850.7680842589
 21
694.941747427
  0
LINE
  5
2F5
100
AcDbEntity
  8
0
100
AcDbLine
 62
7
  6
CONTINUOUS
 10
852.3991525482
 20
694.941747427
 11
855.2988288115
 21
694.941747427
  0
LINE
  5
2F6
100
AcDbEntity
  8
0
100
AcDbLine
 62
7
  6
CONTINUOUS
 10
856.748667569
 20
694.941747427
 11
860.0108028959
 21
694.941747427
  0
LINE
  5
2F7
100
AcDbEntity
  8
0
100
AcDbLine
 62
7
  6
CONTINUOUS
 10
167.826275157
 20
696.9029123783
 11
168.5511945357
 21
696.9029123783
  0
LINE
  5
2F8
100
AcDbEntity
  8
0
100
AcDbLine
 62
7
  6
CONTINUOUS
 10
169.2761139145
 20
696.9029123783
 11
170.5447218885
 21
696.9029123783
  0
LINE
  5
2F9
100
AcDbEntity
  8
0
100
AcDbLine
 62
7
  6
CONTINUOUS
 10
844.7875018875
 20
696.9352760315
 11
843.8813532899
 21
696.9352760315
  0
LINE
  5
2FA
100
AcDbEntity
  8
0
100
AcDbLine
 62
7
  6
CONTINUOUS
 10
847.5059483062
 20
697.116506815
 11
846.4185698639
 21
697.116506815
  0
LINE
  5
2FB
100
AcDbEntity
  8
0
100
AcDbLine
 62
7
  6
CONTINUOUS
 10
163.6579909196
 20
697.4466022253
 11
163.2955306044
 21
697.4466022253
  0
LINE
  5
2FC
100
AcDbEntity
  8
0
100
AcDbLine
 62
7
  6
CONTINUOUS
 10
171.4508707991
 20
697.6278305054
 11
164.9265988936
 21
697.6278305054
  0
LINE
  5
2FD
100
AcDbEntity
  8
0
100
AcDbLine
 62
7
  6
CONTINUOUS
 10
176.8877642622
 20
698.1715203524
 11
177.7939131727
 21
698.1715203524
  0
LINE
  5
2FE
100
AcDbEntity
  8
0
100
AcDbLine
 62
7
  6
CONTINUOUS
 10
845.6936507981
 20
699.1100329161
 11
845.3311914216
 21
699.1100329161
  0
LINE
  5
2FF
100
AcDbEntity
  8
0
100
AcDbLine
 62
7
  6
CONTINUOUS
 10
853.4865309905
 20
699.6537227631
 11
853.848990054
 21
699.6537227631
  0
LINE
  5
300
100
AcDbEntity
  8
0
100
AcDbLine
 62
7
  6
CONTINUOUS
 10
162.2081521621
 20
699.8025898933
 11
163.1143010726
 21
699.8025898933
  0
LINE
  5
301
100
AcDbEntity
  8
0
100
AcDbLine
 62
7
  6
CONTINUOUS
 10
164.9265988936
 20
699.8025898933
 11
171.4508707991
 21
699.8025898933
  0
LINE
  5
302
100
AcDbEntity
  8
0
100
AcDbLine
 62
7
  6
CONTINUOUS
 10
176.5253045728
 20
699.9838181734
 11
175.8003858199
 21
699.9838181734
  0
LINE
  5
303
100
AcDbEntity
  8
0
100
AcDbLine
 62
7
  6
CONTINUOUS
 10
845.3311914216
 20
700.0161818266
 11
846.0561101745
 21
700.0161818266
  0
LINE
  5
304
100
AcDbEntity
  8
0
100
AcDbLine
 62
7
  6
CONTINUOUS
 10
859.6483438324
 20
700.1974101067
 11
858.7421949218
 21
700.1974101067
  0
LINE
  5
305
100
AcDbEntity
  8
0
100
AcDbLine
 62
7
  6
CONTINUOUS
 10
856.9298971008
 20
700.1974101067
 11
850.4056251954
 21
700.1974101067
  0
LINE
  5
306
100
AcDbEntity
  8
0
100
AcDbLine
 62
7
  6
CONTINUOUS
 10
168.369965004
 20
700.3462772369
 11
168.0075059404
 21
700.3462772369
  0
LINE
  5
307
100
AcDbEntity
  8
0
100
AcDbLine
 62
7
  6
CONTINUOUS
 10
176.1628451964
 20
700.8899670839
 11
176.5253045728
 21
700.8899670839
  0
LINE
  5
308
100
AcDbEntity
  8
0
100
AcDbLine
 62
7
  6
CONTINUOUS
 10
844.9687317322
 20
701.8284796476
 11
844.0625828217
 21
701.8284796476
  0
LINE
  5
309
100
AcDbEntity
  8
0
100
AcDbLine
 62
7
  6
CONTINUOUS
 10
850.4056251954
 20
702.3721694946
 11
856.9298971008
 21
702.3721694946
  0
LINE
  5
30A
100
AcDbEntity
  8
0
100
AcDbLine
 62
7
  6
CONTINUOUS
 10
858.1985050748
 20
702.5533977747
 11
858.5609653901
 21
702.5533977747
  0
LINE
  5
30B
100
AcDbEntity
  8
0
100
AcDbLine
 62
7
  6
CONTINUOUS
 10
174.3505476882
 20
702.883493185
 11
175.4379261305
 21
702.883493185
  0
LINE
  5
30C
100
AcDbEntity
  8
0
100
AcDbLine
 62
7
  6
CONTINUOUS
 10
177.0689941069
 20
703.0647239685
 11
177.9751427045
 21
703.0647239685
  0
LINE
  5
30D
100
AcDbEntity
  8
0
100
AcDbLine
 62
7
  6
CONTINUOUS
 10
854.0302208375
 20
703.0970876217
 11
853.3053014587
 21
703.0970876217
  0
LINE
  5
30E
100
AcDbEntity
  8
0
100
AcDbLine
 62
7
  6
CONTINUOUS
 10
852.5803820799
 20
703.0970876217
 11
851.3117741059
 21
703.0970876217
  0
LINE
  5
30F
100
AcDbEntity
  8
0
100
AcDbLine
 62
7
  6
CONTINUOUS
 10
171.4508707991
 20
705.058252573
 11
171.0884117355
 21
705.058252573
  0
LINE
  5
310
100
AcDbEntity
  8
0
100
AcDbLine
 62
7
  6
CONTINUOUS
 10
169.4573434463
 20
705.058252573
 11
166.5576671829
 21
705.058252573
  0
LINE
  5
311
100
AcDbEntity
  8
0
100
AcDbLine
 62
7
  6
CONTINUOUS
 10
165.1078284254
 20
705.058252573
 11
161.8456930985
 21
705.058252573
  0
LINE
  5
312
100
AcDbEntity
  8
0
100
AcDbLine
 62
7
  6
CONTINUOUS
 10
176.7065344175
 20
705.2394833565
 11
175.0754664411
 21
705.2394833565
  0
LINE
  5
313
100
AcDbEntity
  8
0
100
AcDbLine
 62
7
  6
CONTINUOUS
 10
173.4443987777
 20
706.145632267
 11
174.3505476882
 21
706.145632267
  0
LINE
  5
314
100
AcDbEntity
  8
0
100
AcDbLine
 62
7
  6
CONTINUOUS
 10
175.0754664412
 20
706.145632267
 11
176.8877642622
 21
706.145632267
  0
LINE
  5
315
100
AcDbEntity
  8
0
100
AcDbLine
 62
7
  6
CONTINUOUS
 10
849.4994762848
 20
706.7216832638
 11
843.8813532899
 21
706.7216832638
  0
LINE
  5
316
100
AcDbEntity
  8
0
100
AcDbLine
 62
7
  6
CONTINUOUS
 10
161.8456930985
 20
707.233011961
 11
171.4508707991
 21
707.233011961
  0
LINE
  5
317
100
AcDbEntity
  8
0
100
AcDbLine
 62
7
  6
CONTINUOUS
 10
174.3505476882
 20
707.233011961
 11
175.0754664412
 21
707.233011961
  0
LINE
  5
318
100
AcDbEntity
  8
0
100
AcDbLine
 62
7
  6
CONTINUOUS
 10
177.0689941069
 20
707.4142377377
 11
177.9751427045
 21
707.4142377377
  0
LINE
  5
319
100
AcDbEntity
  8
0
100
AcDbLine
 62
7
  6
CONTINUOUS
 10
843.8813532899
 20
707.6278321743
 11
849.4994762848
 21
707.6278321743
  0
LINE
  5
31A
100
AcDbEntity
  8
0
100
AcDbLine
 62
7
  6
CONTINUOUS
 10
168.5511945357
 20
707.957930088
 11
167.8262751569
 21
707.957930088
  0
LINE
  5
31B
100
AcDbEntity
  8
0
100
AcDbLine
 62
7
  6
CONTINUOUS
 10
177.9751427045
 20
709.045309782
 11
174.3505476882
 21
709.045309782
  0
LINE
  5
31C
100
AcDbEntity
  8
0
100
AcDbLine
 62
7
  6
CONTINUOUS
 10
849.4994762848
 20
709.2588992119
 11
848.5933273743
 21
709.2588992119
  0
LINE
  5
31D
100
AcDbEntity
  8
0
100
AcDbLine
 62
7
  6
CONTINUOUS
 10
844.6062723558
 20
709.2588992119
 11
843.8813532899
 21
709.2588992119
  0
LINE
  5
31E
100
AcDbEntity
  8
0
100
AcDbLine
 62
7
  6
CONTINUOUS
 10
847.1434892427
 20
709.4401299953
 11
846.2373403321
 21
709.4401299953
  0
LINE
  5
31F
100
AcDbEntity
  8
0
100
AcDbLine
 62
7
  6
CONTINUOUS
 10
853.1240719269
 20
709.8025890589
 11
853.848990054
 21
709.8025890589
  0
LINE
  5
320
100
AcDbEntity
  8
0
100
AcDbLine
 62
7
  6
CONTINUOUS
 10
174.3505476882
 20
709.9514586926
 11
174.7130067518
 21
709.9514586926
  0
LINE
  5
321
100
AcDbEntity
  8
0
100
AcDbLine
 62
7
  6
CONTINUOUS
 10
176.3440750411
 20
709.9514586926
 11
177.9751427045
 21
709.9514586926
  0
LINE
  5
322
100
AcDbEntity
  8
0
100
AcDbLine
 62
7
  6
CONTINUOUS
 10
907.6613380898
 20
710.0
 11
905.1282479972
 21
710.0
  0
LINE
  5
323
100
AcDbEntity
  8
0
100
AcDbLine
 62
7
  6
CONTINUOUS
 10
116.7282479972
 20
710.0
 11
114.1951579047
 21
710.0
  0
LINE
  5
324
100
AcDbEntity
  8
0
100
AcDbLine
 62
7
  6
CONTINUOUS
 10
855.1175992797
 20
710.5275071859
 11
850.4056251954
 21
710.5275071859
  0
LINE
  5
325
100
AcDbEntity
  8
0
100
AcDbLine
 62
7
  6
CONTINUOUS
 10
848.5933273743
 20
711.6148868799
 11
847.1434892427
 21
711.6148868799
  0
LINE
  5
326
100
AcDbEntity
  8
0
100
AcDbLine
 62
7
  6
CONTINUOUS
 10
846.2373403321
 20
711.6148868799
 11
844.6062723558
 21
711.6148868799
  0
LINE
  5
327
100
AcDbEntity
  8
0
100
AcDbLine
 62
7
  6
CONTINUOUS
 10
843.8813532899
 20
712.5210357904
 11
849.4994762848
 21
712.5210357904
  0
LINE
  5
328
100
AcDbEntity
  8
0
100
AcDbLine
 62
7
  6
CONTINUOUS
 10
850.4056251954
 20
712.5210357904
 11
853.8489900539
 21
712.5210357904
  0
LINE
  5
329
100
AcDbEntity
  8
0
100
AcDbLine
 62
7
  6
CONTINUOUS
 10
177.9751427045
 20
713.5760493279
 11
174.3505476882
 21
713.5760493279
  0
LINE
  5
32A
100
AcDbEntity
  8
0
100
AcDbLine
 62
7
  6
CONTINUOUS
 10
173.6256283095
 20
713.5760493279
 11
173.2631686201
 21
713.5760493279
  0
LINE
  5
32B
100
AcDbEntity
  8
0
100
AcDbLine
 62
7
  6
CONTINUOUS
 10
172.9007089307
 20
714.4821982384
 11
173.6256283095
 21
714.4821982384
  0
LINE
  5
32C
100
AcDbEntity
  8
0
100
AcDbLine
 62
7
  6
CONTINUOUS
 10
174.3505476882
 20
714.4821982384
 11
177.9751427045
 21
714.4821982384
  0
LINE
  5
32D
100
AcDbEntity
  8
0
100
AcDbLine
 62
7
  6
CONTINUOUS
 10
848.9557870637
 20
714.5145618916
 11
847.6871784638
 21
714.5145618916
  0
LINE
  5
32E
100
AcDbEntity
  8
0
100
AcDbLine
 62
7
  6
CONTINUOUS
 10
168.0075059404
 20
714.6634290218
 11
168.5511945357
 21
714.6634290218
  0
LINE
  5
32F
100
AcDbEntity
  8
0
100
AcDbLine
 62
7
  6
CONTINUOUS
 10
169.2761139145
 20
714.6634290218
 11
170.5447218885
 21
714.6634290218
  0
LINE
  5
330
100
AcDbEntity
  8
0
100
AcDbLine
 62
7
  6
CONTINUOUS
 10
856.9298971008
 20
714.8770234585
 11
856.204977722
 21
714.8770234585
  0
LINE
  5
331
100
AcDbEntity
  8
0
100
AcDbLine
 62
7
  6
CONTINUOUS
 10
854.392679901
 20
714.8770234585
 11
851.4930036377
 21
714.8770234585
  0
LINE
  5
332
100
AcDbEntity
  8
0
100
AcDbLine
 62
7
  6
CONTINUOUS
 10
171.4508707991
 20
715.5695779324
 11
164.9265988936
 21
715.5695779324
  0
LINE
  5
333
100
AcDbEntity
  8
0
100
AcDbLine
 62
7
  6
CONTINUOUS
 10
845.8748806428
 20
717.0517803431
 11
845.5124209534
 21
717.0517803431
  0
LINE
  5
334
100
AcDbEntity
  8
0
100
AcDbLine
 62
7
  6
CONTINUOUS
 10
852.3991525482
 20
717.0517803431
 11
856.9298971008
 21
717.0517803431
  0
LINE
  5
335
100
AcDbEntity
  8
0
100
AcDbLine
 62
7
  6
CONTINUOUS
 10
169.0948843827
 20
717.7443373203
 11
171.4508707991
 21
717.7443373203
  0
LINE
  5
336
100
AcDbEntity
  8
0
100
AcDbLine
 62
7
  6
CONTINUOUS
 10
854.936369748
 20
717.7766984701
 11
852.3991525482
 21
717.7766984701
  0
LINE
  5
337
100
AcDbEntity
  8
0
100
AcDbLine
 62
7
  6
CONTINUOUS
 10
174.3505476882
 20
719.1941735745
 11
175.4379261305
 21
719.1941735745
  0
LINE
  5
338
100
AcDbEntity
  8
0
100
AcDbLine
 62
7
  6
CONTINUOUS
 10
177.0689941069
 20
719.1941735745
 11
177.9751427045
 21
719.1941735745
  0
LINE
  5
339
100
AcDbEntity
  8
0
100
AcDbLine
 62
7
  6
CONTINUOUS
 10
851.8554627012
 20
719.9514566064
 11
854.2114503692
 21
719.9514566064
  0
LINE
  5
33A
100
AcDbEntity
  8
0
100
AcDbLine
 62
7
  6
CONTINUOUS
 10
860.0108028959
 20
722.126213491
 11
856.2051250554
 21
722.126213491
  0
LINE
  5
33B
100
AcDbEntity
  8
0
100
AcDbLine
 62
7
  6
CONTINUOUS
 10
854.392679901
 20
722.126213491
 11
850.4056251954
 21
722.126213491
  0
LINE
  5
33C
100
AcDbEntity
  8
0
100
AcDbLine
 62
7
  6
CONTINUOUS
 10
171.4508707991
 20
723.0
 11
164.9265988936
 21
723.0
  0
LINE
  5
33D
100
AcDbEntity
  8
0
100
AcDbLine
 62
7
  6
CONTINUOUS
 10
844.9687317322
 20
723.938511312
 11
845.8748806428
 21
723.938511312
  0
LINE
  5
33E
100
AcDbEntity
  8
0
100
AcDbLine
 62
7
  6
CONTINUOUS
 10
850.4056251954
 20
724.3009703755
 11
860.0108028959
 21
724.3009703755
  0
LINE
  5
33F
100
AcDbEntity
  8
0
100
AcDbLine
 62
7
  6
CONTINUOUS
 10
852.2179230164
 20
724.8446602225
 11
850.9493144165
 21
724.8446602225
  0
LINE
  5
340
100
AcDbEntity
  8
0
100
AcDbLine
 62
7
  6
CONTINUOUS
 10
856.748667569
 20
725.0258897543
 11
854.936369748
 21
725.0258897543
  0
LINE
  5
341
100
AcDbEntity
  8
0
100
AcDbLine
 62
7
  6
CONTINUOUS
 10
853.3053014587
 20
730.8252429068
 11
854.2114503692
 21
730.8252429068
  0
LINE
  5
342
100
AcDbEntity
  8
0
100
AcDbLine
 62
7
  6
CONTINUOUS
 10
853.3053014587
 20
731.1877019703
 11
852.7616116117
 21
731.1877019703
  0
LINE
  5
343
100
AcDbEntity
  8
0
100
AcDbLine
 62
7
  6
CONTINUOUS
 10
857.8360460113
 20
735.8996763676
 11
857.4735856961
 21
735.8996763676
  0
LINE
  5
344
100
AcDbEntity
  8
0
100
AcDbLine
 62
7
  6
CONTINUOUS
 10
856.748667569
 20
738.4368932545
 11
857.6548164795
 21
738.4368932545
  0
LINE
  5
345
100
AcDbEntity
  8
0
100
AcDbLine
 62
7
  6
CONTINUOUS
 10
164.9265988936
 20
738.5857622623
 11
171.4508707991
 21
738.5857622623
  0
LINE
  5
346
100
AcDbEntity
  8
0
100
AcDbLine
 62
7
  6
CONTINUOUS
 10
193.1777578552
 20
747.0
 11
828.6787381392
 21
747.0
  0
LINE
  5
347
100
AcDbEntity
  8
0
100
AcDbLine
 62
7
  6
CONTINUOUS
 10
190.4721972256
 20
747.2
 11
190.9282479972
 21
747.2
  0
LINE
  5
348
100
AcDbEntity
  8
0
100
AcDbLine
 62
7
  6
CONTINUOUS
 10
190.9282479972
 20
748.0
 11
192.482892043
 21
748.0
  0
LINE
  5
349
100
AcDbEntity
  8
0
100
AcDbLine
 62
7
  6
CONTINUOUS
 10
829.3736039514
 20
748.0
 11
830.8189599056
 21
748.0
  0
LINE
  5
34A
100
AcDbEntity
  8
0
100
AcDbLine
 62
7
  6
CONTINUOUS
 10
831.2282479972
 20
749.0
 11
830.9282479972
 21
749.0
  0
LINE
  5
34B
100
AcDbEntity
  8
0
100
AcDbLine
 62
7
  6
CONTINUOUS
 10
190.6282479972
 20
749.0
 11
190.9282479972
 21
749.0
  0
LINE
  5
34C
100
AcDbEntity
  8
0
100
AcDbLine
 62
7
  6
CONTINUOUS
 10
830.3282479972
 20
750.0
 11
191.5282479972
 21
750.0
  0
LINE
  5
34D
100
AcDbEntity
  8
0
100
AcDbLine
 62
7
  6
CONTINUOUS
 10
111.2282479972
 20
750.0
 11
190.6282479972
 21
750.0
  0
LINE
  5
34E
100
AcDbEntity
  8
0
100
AcDbLine
 62
7
  6
CONTINUOUS
 10
831.2282479972
 20
750.0
 11
910.6282479972
 21
750.0
  0
LINE
  5
34F
100
AcDbEntity
  8
0
100
AcDbLine
 62
7
  6
CONTINUOUS
 10
855.1175992797
 20
731.7313918173
 11
853.3053014587
 21
731.1877019703
  0
LINE
  5
350
100
AcDbEntity
  8
0
100
AcDbLine
 62
7
  6
CONTINUOUS
 10
164.9265988936
 20
717.7443373203
 11
166.1952081194
 21
717.9255681038
  0
LINE
  5
351
100
AcDbEntity
  8
0
100
AcDbLine
 62
7
  6
CONTINUOUS
 10
851.3117741059
 20
738.2556634098
 11
853.3053014587
 21
738.0744337216
  0
LINE
  5
352
100
AcDbEntity
  8
0
100
AcDbLine
 62
7
  6
CONTINUOUS
 10
859.1046539854
 20
731.5501616597
 11
857.2923561643
 21
731.7313918173
  0
LINE
  5
353
100
AcDbEntity
  8
0
100
AcDbLine
 62
7
  6
CONTINUOUS
 10
847.1434892427
 20
714.8770234585
 11
846.2373403321
 21
715.0582517386
  0
LINE
  5
354
100
AcDbEntity
  8
0
100
AcDbLine
 62
7
  6
CONTINUOUS
 10
848.5933273743
 20
716.1456314325
 11
849.4994762848
 21
715.9644006491
  0
LINE
  5
355
100
AcDbEntity
  8
0
100
AcDbLine
 62
7
  6
CONTINUOUS
 10
846.2373403321
 20
722.126213491
 11
846.962259085
 21
721.9449839592
  0
LINE
  5
356
100
AcDbEntity
  8
0
100
AcDbLine
 62
7
  6
CONTINUOUS
 10
846.7810295533
 20
718.1391575337
 11
848.5933273743
 21
717.5954701901
  0
LINE
  5
357
100
AcDbEntity
  8
0
100
AcDbLine
 62
7
  6
CONTINUOUS
 10
847.8684079956
 20
721.7637544274
 11
848.4120972167
 21
721.5825248957
  0
LINE
  5
358
100
AcDbEntity
  8
0
100
AcDbLine
 62
7
  6
CONTINUOUS
 10
847.6871784638
 20
716.3268597126
 11
847.1434892427
 21
716.6893212795
  0
LINE
  5
359
100
AcDbEntity
  8
0
100
AcDbLine
 62
7
  6
CONTINUOUS
 10
847.1434892427
 20
688.0550177097
 11
846.4185698639
 21
688.5987050533
  0
LINE
  5
35A
100
AcDbEntity
  8
0
100
AcDbLine
 62
7
  6
CONTINUOUS
 10
846.2373403321
 20
702.5533977747
 11
846.7810295533
 21
703.0970876217
  0
LINE
  5
35B
100
AcDbEntity
  8
0
100
AcDbLine
 62
7
  6
CONTINUOUS
 10
844.9687317322
 20
693.854367733
 11
844.6062723558
 21
693.4919111729
  0
LINE
  5
35C
100
AcDbEntity
  8
0
100
AcDbLine
 62
7
  6
CONTINUOUS
 10
857.6548164795
 20
702.0097079277
 11
858.1985050748
 21
702.5533977747
  0
LINE
  5
35D
100
AcDbEntity
  8
0
100
AcDbLine
 62
7
  6
CONTINUOUS
 10
848.5933273743
 20
686.4239506722
 11
848.9557870637
 21
686.0614891052
  0
LINE
  5
35E
100
AcDbEntity
  8
0
100
AcDbLine
 62
7
  6
CONTINUOUS
 10
846.962259085
 20
695.3042089939
 11
848.4120972167
 21
693.854367733
  0
LINE
  5
35F
100
AcDbEntity
  8
0
100
AcDbLine
 62
7
  6
CONTINUOUS
 10
846.7810295533
 20
703.6407774687
 11
846.2373403321
 21
704.1844648123
  0
LINE
  5
360
100
AcDbEntity
  8
0
100
AcDbLine
 62
7
  6
CONTINUOUS
 10
845.3311914216
 20
699.1100329161
 11
844.6062723558
 21
698.2038840056
  0
LINE
  5
361
100
AcDbEntity
  8
0
100
AcDbLine
 62
7
  6
CONTINUOUS
 10
860.0108028959
 20
700.5598716736
 11
859.6483438324
 21
700.1974101067
  0
LINE
  5
362
100
AcDbEntity
  8
0
100
AcDbLine
 62
7
  6
CONTINUOUS
 10
893.2107120713
 20
700.0
 11
893.4282479972
 21
700.1825343152
  0
LINE
  5
363
100
AcDbEntity
  8
0
100
AcDbLine
 62
7
  6
CONTINUOUS
 10
894.7282479972
 20
701.2733638358
 11
896.0282479972
 21
702.3641933563
  0
LINE
  5
364
100
AcDbEntity
  8
0
100
AcDbLine
 62
7
  6
CONTINUOUS
 10
897.3282479972
 20
703.4550228768
 11
898.6282479972
 21
704.5458523973
  0
LINE
  5
365
100
AcDbEntity
  8
0
100
AcDbLine
 62
7
  6
CONTINUOUS
 10
899.9282479972
 20
705.6366819179
 11
901.2282479972
 21
706.7275114384
  0
LINE
  5
366
100
AcDbEntity
  8
0
100
AcDbLine
 62
7
  6
CONTINUOUS
 10
902.5282479972
 20
707.8183409589
 11
903.8282479972
 21
708.9091704795
  0
LINE
  5
367
100
AcDbEntity
  8
0
100
AcDbLine
 62
7
  6
CONTINUOUS
 10
903.8282479972
 20
691.0908295205
 11
902.5282479972
 21
692.1816590411
  0
LINE
  5
368
100
AcDbEntity
  8
0
100
AcDbLine
 62
7
  6
CONTINUOUS
 10
901.2282479972
 20
693.2724885616
 11
899.9282479972
 21
694.3633180821
  0
LINE
  5
369
100
AcDbEntity
  8
0
100
AcDbLine
 62
7
  6
CONTINUOUS
 10
898.6282479972
 20
695.4541476027
 11
897.3282479972
 21
696.5449771232
  0
LINE
  5
36A
100
AcDbEntity
  8
0
100
AcDbLine
 62
7
  6
CONTINUOUS
 10
896.0282479972
 20
697.6358066437
 11
894.7282479972
 21
698.7266361642
  0
LINE
  5
36B
100
AcDbEntity
  8
0
100
AcDbLine
 62
7
  6
CONTINUOUS
 10
893.4282479972
 20
699.8174656848
 11
893.2107120713
 21
700.0
  0
LINE
  5
36C
100
AcDbEntity
  8
0
100
AcDbLine
 62
7
  6
CONTINUOUS
 10
846.2373403321
 20
716.6893212795
 11
845.8748806428
 21
717.0517803431
  0
LINE
  5
36D
100
AcDbEntity
  8
0
100
AcDbLine
 62
7
  6
CONTINUOUS
 10
855.4800583433
 20
713.7896437645
 11
854.392679901
 21
714.8770234585
  0
LINE
  5
36E
100
AcDbEntity
  8
0
100
AcDbLine
 62
7
  6
CONTINUOUS
 10
845.8748806428
 20
723.938511312
 11
846.2373403321
 21
723.5760522485
  0
LINE
  5
36F
100
AcDbEntity
  8
0
100
AcDbLine
 62
7
  6
CONTINUOUS
 10
827.9282479972
 20
747.0
 11
827.9282479972
 21
653.0
  0
LINE
  5
370
100
AcDbEntity
  8
0
100
AcDbLine
 62
7
  6
CONTINUOUS
 10
830.3282479972
 20
650.0
 11
830.3282479972
 21
651.9393628371
  0
LINE
  5
371
100
AcDbEntity
  8
0
100
AcDbLine
 62
7
  6
CONTINUOUS
 10
830.3282479972
 20
748.0
 11
830.3282479972
 21
750.0
  0
LINE
  5
372
100
AcDbEntity
  8
0
100
AcDbLine
 62
7
  6
CONTINUOUS
 10
830.9282479972
 20
651.0
 11
830.9282479972
 21
749.0
  0
LINE
  5
373
100
AcDbEntity
  8
0
100
AcDbLine
 62
7
  6
CONTINUOUS
 10
831.2282479972
 20
750.0
 11
831.2282479972
 21
650.0
  0
LINE
  5
374
100
AcDbEntity
  8
0
100
AcDbLine
 62
7
  6
CONTINUOUS
 10
854.936369748
 20
725.0258897543
 11
855.4800583433
 21
726.6569580436
  0
LINE
  5
375
100
AcDbEntity
  8
0
100
AcDbLine
 62
7
  6
CONTINUOUS
 10
846.4185698639
 20
697.116506815
 11
846.7810295533
 21
698.2038840055
  0
LINE
  5
376
100
AcDbEntity
  8
0
100
AcDbLine
 62
7
  6
CONTINUOUS
 10
846.7810295533
 20
694.7605166435
 11
846.962259085
 21
695.3042089939
  0
LINE
  5
377
100
AcDbEntity
  8
0
100
AcDbLine
 62
7
  6
CONTINUOUS
 10
846.4185698639
 20
680.8058264256
 11
846.7810295533
 21
681.8932061195
  0
LINE
  5
378
100
AcDbEntity
  8
0
100
AcDbLine
 62
7
  6
CONTINUOUS
 10
846.4185698639
 20
688.5987050533
 11
846.7810295533
 21
689.3236231804
  0
LINE
  5
379
100
AcDbEntity
  8
0
100
AcDbLine
 62
7
  6
CONTINUOUS
 10
850.7680842589
 20
694.941747427
 11
850.2243950378
 21
696.5728144646
  0
LINE
  5
37A
100
AcDbEntity
  8
0
100
AcDbLine
 62
7
  6
CONTINUOUS
 10
844.6062723558
 20
703.0970876217
 11
844.9687317322
 21
701.8284796476
  0
LINE
  5
37B
100
AcDbEntity
  8
0
100
AcDbLine
 62
7
  6
CONTINUOUS
 10
844.0625828217
 20
701.8284796476
 11
843.7001234453
 21
703.2783159018
  0
LINE
  5
37C
100
AcDbEntity
  8
0
100
AcDbLine
 62
7
  6
CONTINUOUS
 10
844.6062723558
 20
681.7119753361
 11
844.7875018875
 21
680.8058264256
  0
LINE
  5
37D
100
AcDbEntity
  8
0
100
AcDbLine
 62
7
  6
CONTINUOUS
 10
844.6062723558
 20
693.4919111729
 11
844.7875018875
 21
692.5857622623
  0
LINE
  5
37E
100
AcDbEntity
  8
0
100
AcDbLine
 62
7
  6
CONTINUOUS
 10
853.3053014587
 20
685.3365709782
 11
853.1240719269
 21
689.8673155308
  0
LINE
  5
37F
100
AcDbEntity
  8
0
100
AcDbLine
 62
7
  6
CONTINUOUS
 10
837.1531977962
 20
650.0
 11
837.1531977962
 21
750.0
  0
LINE
  5
380
100
AcDbEntity
  8
0
100
AcDbLine
 62
7
  6
CONTINUOUS
 10
842.4315150018
 20
720.3139156699
 11
842.4315150018
 21
721.7637544274
  0
LINE
  5
381
100
AcDbEntity
  8
0
100
AcDbLine
 62
7
  6
CONTINUOUS
 10
843.8813532899
 20
685.5178017616
 11
843.8813532899
 21
686.4239506722
  0
LINE
  5
382
100
AcDbEntity
  8
0
100
AcDbLine
 62
7
  6
CONTINUOUS
 10
843.8813532899
 20
690.0485413074
 11
843.8813532899
 21
690.954690218
  0
LINE
  5
383
100
AcDbEntity
  8
0
100
AcDbLine
 62
7
  6
CONTINUOUS
 10
843.8813532899
 20
706.7216832638
 11
843.8813532899
 21
707.6278321743
  0
LINE
  5
384
100
AcDbEntity
  8
0
100
AcDbLine
 62
7
  6
CONTINUOUS
 10
843.8813532899
 20
709.2588992119
 11
843.8813532899
 21
712.5210357904
  0
LINE
  5
385
100
AcDbEntity
  8
0
100
AcDbLine
 62
7
  6
CONTINUOUS
 10
844.2438126664
 20
722.4886725545
 11
844.2438126664
 21
721.9449839592
  0
LINE
  5
386
100
AcDbEntity
  8
0
100
AcDbLine
 62
7
  6
CONTINUOUS
 10
844.6062723558
 20
711.6148868799
 11
844.6062723558
 21
709.2588992119
  0
LINE
  5
387
100
AcDbEntity
  8
0
100
AcDbLine
 62
7
  6
CONTINUOUS
 10
844.6062723558
 20
703.4595466852
 11
844.6062723558
 21
703.0970876217
  0
LINE
  5
388
100
AcDbEntity
  8
0
100
AcDbLine
 62
7
  6
CONTINUOUS
 10
845.5124209534
 20
717.0517803431
 11
845.5124209534
 21
715.6019415855
  0
LINE
  5
389
100
AcDbEntity
  8
0
100
AcDbLine
 62
7
  6
CONTINUOUS
 10
845.5124209534
 20
701.6472488642
 11
845.5124209534
 21
704.1843467498
  0
LINE
  5
38A
100
AcDbEntity
  8
0
100
AcDbLine
 62
7
  6
CONTINUOUS
 10
846.2373403321
 20
723.5760522485
 11
846.2373403321
 21
722.126213491
  0
LINE
  5
38B
100
AcDbEntity
  8
0
100
AcDbLine
 62
7
  6
CONTINUOUS
 10
846.2373403321
 20
704.1844648123
 11
846.2373403321
 21
702.5533977747
  0
LINE
  5
38C
100
AcDbEntity
  8
0
100
AcDbLine
 62
7
  6
CONTINUOUS
 10
846.2373403321
 20
709.4401299953
 11
846.2373403321
 21
711.6148868799
  0
LINE
  5
38D
100
AcDbEntity
  8
0
100
AcDbLine
 62
7
  6
CONTINUOUS
 10
846.2373403321
 20
715.0582517386
 11
846.2373403321
 21
716.6893212795
  0
LINE
  5
38E
100
AcDbEntity
  8
0
100
AcDbLine
 62
7
  6
CONTINUOUS
 10
846.7810295533
 20
681.8932061195
 11
846.7810295533
 21
682.2556626797
  0
LINE
  5
38F
100
AcDbEntity
  8
0
100
AcDbLine
 62
7
  6
CONTINUOUS
 10
846.7810295533
 20
692.766988039
 11
846.7810295533
 21
693.854367733
  0
LINE
  5
390
100
AcDbEntity
  8
0
100
AcDbLine
 62
7
  6
CONTINUOUS
 10
846.7810295533
 20
703.0970876217
 11
846.7810295533
 21
703.6407774687
  0
LINE
  5
391
100
AcDbEntity
  8
0
100
AcDbLine
 62
7
  6
CONTINUOUS
 10
847.1434892427
 20
716.6893212795
 11
847.1434892427
 21
714.8770234585
  0
LINE
  5
392
100
AcDbEntity
  8
0
100
AcDbLine
 62
7
  6
CONTINUOUS
 10
847.1434892427
 20
711.6148868799
 11
847.1434892427
 21
709.4401299953
  0
LINE
  5
393
100
AcDbEntity
  8
0
100
AcDbLine
 62
7
  6
CONTINUOUS
 10
847.5059483062
 20
693.854367733
 11
847.5059483062
 21
692.766988039
  0
LINE
  5
394
100
AcDbEntity
  8
0
100
AcDbLine
 62
7
  6
CONTINUOUS
 10
847.5059483062
 20
690.954690218
 11
847.5059483062
 21
690.0485413074
  0
LINE
  5
395
100
AcDbEntity
  8
0
100
AcDbLine
 62
7
  6
CONTINUOUS
 10
847.5059483062
 20
686.4239506722
 11
847.5059483062
 21
685.5178017616
  0
LINE
  5
396
100
AcDbEntity
  8
0
100
AcDbLine
 62
7
  6
CONTINUOUS
 10
847.6871784638
 20
714.5145618916
 11
847.6871784638
 21
716.3268597126
  0
LINE
  5
397
100
AcDbEntity
  8
0
100
AcDbLine
 62
7
  6
CONTINUOUS
 10
847.8684079956
 20
723.0323624015
 11
847.8684079956
 21
721.7637544274
  0
LINE
  5
398
100
AcDbEntity
  8
0
100
AcDbLine
 62
7
  6
CONTINUOUS
 10
848.2308676849
 20
685.5178017616
 11
848.2308676849
 21
686.4239506722
  0
LINE
  5
399
100
AcDbEntity
  8
0
100
AcDbLine
 62
7
  6
CONTINUOUS
 10
848.5933273743
 20
717.5954701901
 11
848.5933273743
 21
716.1456314325
  0
LINE
  5
39A
100
AcDbEntity
  8
0
100
AcDbLine
 62
7
  6
CONTINUOUS
 10
848.5933273743
 20
709.2588992119
 11
848.5933273743
 21
711.6148868799
  0
LINE
  5
39B
100
AcDbEntity
  8
0
100
AcDbLine
 62
7
  6
CONTINUOUS
 10
848.9557870637
 20
686.0614891052
 11
848.9557870637
 21
685.5178017616
  0
LINE
  5
39C
100
AcDbEntity
  8
0
100
AcDbLine
 62
7
  6
CONTINUOUS
 10
849.4994762848
 20
712.5210357904
 11
849.4994762848
 21
709.2588992119
  0
LINE
  5
39D
100
AcDbEntity
  8
0
100
AcDbLine
 62
7
  6
CONTINUOUS
 10
849.4994762848
 20
707.6278321743
 11
849.4994762848
 21
706.7216832638
  0
LINE
  5
39E
100
AcDbEntity
  8
0
100
AcDbLine
 62
7
  6
CONTINUOUS
 10
849.4994762848
 20
715.9644006491
 11
849.4994762848
 21
718.1391575336
  0
LINE
  5
39F
100
AcDbEntity
  8
0
100
AcDbLine
 62
7
  6
CONTINUOUS
 10
850.4056251954
 20
661.4142377377
 11
850.4056251954
 21
677.0
  0
LINE
  5
3A0
100
AcDbEntity
  8
0
100
AcDbLine
 62
7
  6
CONTINUOUS
 10
850.4056251954
 20
682.2556626797
 11
850.4056251954
 21
684.4304220676
  0
LINE
  5
3A1
100
AcDbEntity
  8
0
100
AcDbLine
 62
7
  6
CONTINUOUS
 10
850.4056251954
 20
692.766988039
 11
850.4056251954
 21
694.941747427
  0
LINE
  5
3A2
100
AcDbEntity
  8
0
100
AcDbLine
 62
7
  6
CONTINUOUS
 10
850.4056251954
 20
700.1974101067
 11
850.4056251954
 21
702.3721694946
  0
LINE
  5
3A3
100
AcDbEntity
  8
0
100
AcDbLine
 62
7
  6
CONTINUOUS
 10
850.4056251954
 20
710.5275071859
 11
850.4056251954
 21
712.5210357904
  0
LINE
  5
3A4
100
AcDbEntity
  8
0
100
AcDbLine
 62
7
  6
CONTINUOUS
 10
850.4056251954
 20
722.126213491
 11
850.4056251954
 21
724.3009703755
  0
LINE
  5
3A5
100
AcDbEntity
  8
0
100
AcDbLine
 62
7
  6
CONTINUOUS
 10
851.4930036377
 20
717.9579292536
 11
851.4930036377
 21
717.0517803431
  0
LINE
  5
3A6
100
AcDbEntity
  8
0
100
AcDbLine
 62
7
  6
CONTINUOUS
 10
851.6742331694
 20
705.8155343533
 11
851.6742331694
 21
705.4530752897
  0
LINE
  5
3A7
100
AcDbEntity
  8
0
100
AcDbLine
 62
7
  6
CONTINUOUS
 10
851.6742331694
 20
688.0550177097
 11
851.6742331694
 21
687.5113253593
  0
LINE
  5
3A8
100
AcDbEntity
  8
0
100
AcDbLine
 62
7
  6
CONTINUOUS
 10
852.2179230164
 20
735.3559871465
 11
852.2179230164
 21
734.8122976124
  0
LINE
  5
3A9
100
AcDbEntity
  8
0
100
AcDbLine
 62
7
  6
CONTINUOUS
 10
853.3053014587
 20
703.0970876217
 11
853.3053014587
 21
707.6278321743
  0
LINE
  5
3AA
100
AcDbEntity
  8
0
100
AcDbLine
 62
7
  6
CONTINUOUS
 10
854.392679901
 20
707.4466013908
 11
854.392679901
 21
705.0906137228
  0
LINE
  5
3AB
100
AcDbEntity
  8
0
100
AcDbLine
 62
7
  6
CONTINUOUS
 10
854.392679901
 20
689.8673155308
 11
854.392679901
 21
687.3300995827
  0
LINE
  5
3AC
100
AcDbEntity
  8
0
100
AcDbLine
 62
7
  6
CONTINUOUS
 10
855.4800583433
 20
713.2459539175
 11
855.4800583433
 21
713.7896437645
  0
LINE
  5
3AD
100
AcDbEntity
  8
0
100
AcDbLine
 62
7
  6
CONTINUOUS
 10
856.9298971008
 20
717.0517803431
 11
856.9298971008
 21
714.8770234585
  0
LINE
  5
3AE
100
AcDbEntity
  8
0
100
AcDbLine
 62
7
  6
CONTINUOUS
 10
856.9298971008
 20
702.3721694946
 11
856.9298971008
 21
700.1974101067
  0
LINE
  5
3AF
100
AcDbEntity
  8
0
100
AcDbLine
 62
7
  6
CONTINUOUS
 10
856.9298971008
 20
684.4304220676
 11
856.9298971008
 21
682.2556626797
  0
LINE
  5
3B0
100
AcDbEntity
  8
0
100
AcDbLine
 62
7
  6
CONTINUOUS
 10
856.9298971008
 20
677.0
 11
856.9298971008
 21
661.4142377377
  0
LINE
  5
3B1
100
AcDbEntity
  8
0
100
AcDbLine
 62
7
  6
CONTINUOUS
 10
860.0108028959
 20
735.5372166783
 11
860.0108028959
 21
734.4498379231
  0
LINE
  5
3B2
100
AcDbEntity
  8
0
100
AcDbLine
 62
7
  6
CONTINUOUS
 10
860.0108028959
 20
724.3009703755
 11
860.0108028959
 21
722.126213491
  0
LINE
  5
3B3
100
AcDbEntity
  8
0
100
AcDbLine
 62
7
  6
CONTINUOUS
 10
860.0108028959
 20
701.1035590172
 11
860.0108028959
 21
700.5598716736
  0
LINE
  5
3B4
100
AcDbEntity
  8
0
100
AcDbLine
 62
7
  6
CONTINUOUS
 10
860.0108028959
 20
694.941747427
 11
860.0108028959
 21
692.766988039
  0
LINE
  5
3B5
100
AcDbEntity
  8
0
100
AcDbLine
 62
7
  6
CONTINUOUS
 10
846.962259085
 20
721.9449839592
 11
847.1434892427
 21
723.5760522485
  0
LINE
  5
3B6
100
AcDbEntity
  8
0
100
AcDbLine
 62
7
  6
CONTINUOUS
 10
857.1111266326
 20
727.3818774223
 11
856.748667569
 21
725.0258897543
  0
LINE
  5
3B7
100
AcDbEntity
  8
0
100
AcDbLine
 62
7
  6
CONTINUOUS
 10
848.4120972167
 20
721.5825248957
 11
848.5933273743
 21
722.669903338
  0
LINE
  5
3B8
100
AcDbEntity
  8
0
100
AcDbLine
 62
7
  6
CONTINUOUS
 10
855.2988288115
 20
694.941747427
 11
855.4800583433
 21
696.029127121
  0
LINE
  5
3B9
100
AcDbEntity
  8
0
100
AcDbLine
 62
7
  6
CONTINUOUS
 10
847.6871784638
 20
698.0226532221
 11
847.5059483062
 21
697.116506815
  0
LINE
  5
3BA
100
AcDbEntity
  8
0
100
AcDbLine
 62
7
  6
CONTINUOUS
 10
847.6871784638
 20
681.7119753361
 11
847.5059483062
 21
680.8058264256
  0
LINE
  5
3BB
100
AcDbEntity
  8
0
100
AcDbLine
 62
7
  6
CONTINUOUS
 10
857.1111266326
 20
696.5728144646
 11
856.748667569
 21
694.941747427
  0
LINE
  5
3BC
100
AcDbEntity
  8
0
100
AcDbLine
 62
7
  6
CONTINUOUS
 10
854.5739094328
 20
679.7184467316
 11
854.936369748
 21
680.8058264256
  0
LINE
  5
3BD
100
AcDbEntity
  8
0
100
AcDbLine
 62
7
  6
CONTINUOUS
 10
858.1985050748
 20
734.9935274571
 11
857.8360460113
 21
735.8996763676
  0
LINE
  5
3BE
100
AcDbEntity
  8
0
100
AcDbLine
 62
7
  6
CONTINUOUS
 10
852.3991525482
 20
717.7766984701
 11
851.8554627012
 21
719.9514566064
  0
LINE
  5
3BF
100
AcDbEntity
  8
0
100
AcDbLine
 62
7
  6
CONTINUOUS
 10
851.8554627012
 20
726.4757285118
 11
852.2179230164
 21
724.8446602225
  0
LINE
  5
3C0
100
AcDbEntity
  8
0
100
AcDbLine
 62
7
  6
CONTINUOUS
 10
843.8813532899
 20
692.5857622623
 11
843.7001234453
 21
693.6731369495
  0
LINE
  5
3C1
100
AcDbEntity
  8
0
100
AcDbLine
 62
7
  6
CONTINUOUS
 10
843.8813532899
 20
680.8058264256
 11
843.7001234453
 21
682.0744318962
  0
LINE
  5
3C2
100
AcDbEntity
  8
0
100
AcDbLine
 62
7
  6
CONTINUOUS
 10
843.8813532899
 20
696.9352760315
 11
843.7001234453
 21
698.2038840055
  0
LINE
  5
3C3
100
AcDbEntity
  8
0
100
AcDbLine
 62
7
  6
CONTINUOUS
 10
844.6062723558
 20
698.2038840056
 11
844.7875018875
 21
696.9352760315
  0
LINE
  5
3C4
100
AcDbEntity
  8
0
100
AcDbLine
 62
7
  6
CONTINUOUS
 10
867.4282479972
 20
650.0
 11
867.4282479972
 21
750.0
  0
LINE
  5
3C5
100
AcDbEntity
  8
0
100
AcDbLine
 62
7
  6
CONTINUOUS
 10
868.7282479972
 20
650.0
 11
868.7282479972
 21
750.0
  0
LINE
  5
3C6
100
AcDbEntity
  8
0
100
AcDbLine
 62
7
  6
CONTINUOUS
 10
870.0282479972
 20
650.0
 11
870.0282479972
 21
750.0
  0
LINE
  5
3C7
100
AcDbEntity
  8
0
100
AcDbLine
 62
7
  6
CONTINUOUS
 10
871.3282479972
 20
650.0
 11
871.3282479972
 21
750.0
  0
LINE
  5
3C8
100
AcDbEntity
  8
0
100
AcDbLine
 62
7
  6
CONTINUOUS
 10
872.6282479972
 20
650.0
 11
872.6282479972
 21
750.0
  0
LINE
  5
3C9
100
AcDbEntity
  8
0
100
AcDbLine
 62
7
  6
CONTINUOUS
 10
873.9282479972
 20
650.0
 11
873.9282479972
 21
750.0
  0
LINE
  5
3CA
100
AcDbEntity
  8
0
100
AcDbLine
 62
7
  6
CONTINUOUS
 10
875.2282479972
 20
650.0
 11
875.2282479972
 21
750.0
  0
LINE
  5
3CB
100
AcDbEntity
  8
0
100
AcDbLine
 62
7
  6
CONTINUOUS
 10
876.5282479972
 20
650.0
 11
876.5282479972
 21
750.0
  0
LINE
  5
3CC
100
AcDbEntity
  8
0
100
AcDbLine
 62
7
  6
CONTINUOUS
 10
877.8282479972
 20
650.0
 11
877.8282479972
 21
750.0
  0
LINE
  5
3CD
100
AcDbEntity
  8
0
100
AcDbLine
 62
7
  6
CONTINUOUS
 10
879.1282479972
 20
650.0
 11
879.1282479972
 21
750.0
  0
LINE
  5
3CE
100
AcDbEntity
  8
0
100
AcDbLine
 62
7
  6
CONTINUOUS
 10
880.4282479972
 20
650.0
 11
880.4282479972
 21
750.0
  0
LINE
  5
3CF
100
AcDbEntity
  8
0
100
AcDbLine
 62
7
  6
CONTINUOUS
 10
881.7282479972
 20
650.0
 11
881.7282479972
 21
750.0
  0
LINE
  5
3D0
100
AcDbEntity
  8
0
100
AcDbLine
 62
7
  6
CONTINUOUS
 10
883.0282479972
 20
650.0
 11
883.0282479972
 21
750.0
  0
LINE
  5
3D1
100
AcDbEntity
  8
0
100
AcDbLine
 62
7
  6
CONTINUOUS
 10
884.3282479972
 20
650.0
 11
884.3282479972
 21
750.0
  0
LINE
  5
3D2
100
AcDbEntity
  8
0
100
AcDbLine
 62
7
  6
CONTINUOUS
 10
885.6282479972
 20
650.0
 11
885.6282479972
 21
750.0
  0
LINE
  5
3D3
100
AcDbEntity
  8
0
100
AcDbLine
 62
7
  6
CONTINUOUS
 10
886.9282479972
 20
650.0
 11
886.9282479972
 21
750.0
  0
LINE
  5
3D4
100
AcDbEntity
  8
0
100
AcDbLine
 62
7
  6
CONTINUOUS
 10
888.2282479972
 20
650.0
 11
888.2282479972
 21
750.0
  0
LINE
  5
3D5
100
AcDbEntity
  8
0
100
AcDbLine
 62
7
  6
CONTINUOUS
 10
889.5282479972
 20
650.0
 11
889.5282479972
 21
750.0
  0
LINE
  5
3D6
100
AcDbEntity
  8
0
100
AcDbLine
 62
7
  6
CONTINUOUS
 10
890.8282479972
 20
650.0
 11
890.8282479972
 21
750.0
  0
LINE
  5
3D7
100
AcDbEntity
  8
0
100
AcDbLine
 62
7
  6
CONTINUOUS
 10
892.1282479972
 20
650.0
 11
892.1282479972
 21
750.0
  0
LINE
  5
3D8
100
AcDbEntity
  8
0
100
AcDbLine
 62
7
  6
CONTINUOUS
 10
893.4282479972
 20
650.0
 11
893.4282479972
 21
699.8174656848
  0
LINE
  5
3D9
100
AcDbEntity
  8
0
100
AcDbLine
 62
7
  6
CONTINUOUS
 10
893.4282479972
 20
700.1825343152
 11
893.4282479972
 21
750.0
  0
LINE
  5
3DA
100
AcDbEntity
  8
0
100
AcDbLine
 62
7
  6
CONTINUOUS
 10
894.7282479972
 20
650.0
 11
894.7282479972
 21
698.7266361642
  0
LINE
  5
3DB
100
AcDbEntity
  8
0
100
AcDbLine
 62
7
  6
CONTINUOUS
 10
894.7282479972
 20
701.2733638358
 11
894.7282479972
 21
750.0
  0
LINE
  5
3DC
100
AcDbEntity
  8
0
100
AcDbLine
 62
7
  6
CONTINUOUS
 10
896.0282479972
 20
650.0
 11
896.0282479972
 21
697.6358066437
  0
LINE
  5
3DD
100
AcDbEntity
  8
0
100
AcDbLine
 62
7
  6
CONTINUOUS
 10
896.0282479972
 20
702.3641933563
 11
896.0282479972
 21
750.0
  0
LINE
  5
3DE
100
AcDbEntity
  8
0
100
AcDbLine
 62
7
  6
CONTINUOUS
 10
897.3282479972
 20
650.0
 11
897.3282479972
 21
696.5449771232
  0
LINE
  5
3DF
100
AcDbEntity
  8
0
100
AcDbLine
 62
7
  6
CONTINUOUS
 10
897.3282479972
 20
703.4550228768
 11
897.3282479972
 21
750.0
  0
LINE
  5
3E0
100
AcDbEntity
  8
0
100
AcDbLine
 62
7
  6
CONTINUOUS
 10
898.6282479972
 20
650.0
 11
898.6282479972
 21
695.4541476027
  0
LINE
  5
3E1
100
AcDbEntity
  8
0
100
AcDbLine
 62
7
  6
CONTINUOUS
 10
898.6282479972
 20
704.5458523973
 11
898.6282479972
 21
750.0
  0
LINE
  5
3E2
100
AcDbEntity
  8
0
100
AcDbLine
 62
7
  6
CONTINUOUS
 10
899.9282479972
 20
650.0
 11
899.9282479972
 21
694.3633180821
  0
LINE
  5
3E3
100
AcDbEntity
  8
0
100
AcDbLine
 62
7
  6
CONTINUOUS
 10
899.9282479972
 20
705.6366819179
 11
899.9282479972
 21
750.0
  0
LINE
  5
3E4
100
AcDbEntity
  8
0
100
AcDbLine
 62
7
  6
CONTINUOUS
 10
901.2282479972
 20
650.0
 11
901.2282479972
 21
693.2724885616
  0
LINE
  5
3E5
100
AcDbEntity
  8
0
100
AcDbLine
 62
7
  6
CONTINUOUS
 10
901.2282479972
 20
706.7275114384
 11
901.2282479972
 21
750.0
  0
LINE
  5
3E6
100
AcDbEntity
  8
0
100
AcDbLine
 62
7
  6
CONTINUOUS
 10
902.5282479972
 20
650.0
 11
902.5282479972
 21
692.1816590411
  0
LINE
  5
3E7
100
AcDbEntity
  8
0
100
AcDbLine
 62
7
  6
CONTINUOUS
 10
902.5282479972
 20
707.8183409589
 11
902.5282479972
 21
750.0
  0
LINE
  5
3E8
100
AcDbEntity
  8
0
100
AcDbLine
 62
7
  6
CONTINUOUS
 10
903.8282479972
 20
650.0
 11
903.8282479972
 21
691.0908295205
  0
LINE
  5
3E9
100
AcDbEntity
  8
0
100
AcDbLine
 62
7
  6
CONTINUOUS
 10
903.8282479972
 20
708.9091704795
 11
903.8282479972
 21
750.0
  0
LINE
  5
3EA
100
AcDbEntity
  8
0
100
AcDbLine
 62
7
  6
CONTINUOUS
 10
905.1282479972
 20
750.0
 11
905.1282479972
 21
710.0
  0
LINE
  5
3EB
100
AcDbEntity
  8
0
100
AcDbLine
 62
7
  6
CONTINUOUS
 10
905.1282479972
 20
690.0
 11
905.1282479972
 21
650.0
  0
LINE
  5
3EC
100
AcDbEntity
  8
0
100
AcDbLine
 62
7
  6
CONTINUOUS
 10
907.6613380898
 20
710.0
 11
907.6613380898
 21
690.0
  0
LINE
  5
3ED
100
AcDbEntity
  8
0
100
AcDbLine
 62
7
  6
CONTINUOUS
 10
910.6282479972
 20
650.0
 11
910.6282479972
 21
750.0
  0
LINE
  5
3EE
100
AcDbEntity
  8
0
100
AcDbLine
 62
7
  6
CONTINUOUS
 10
910.9282479972
 20
654.5
 11
910.9282479972
 21
745.5
  0
ARC
  5
3EF
100
AcDbEntity
  8
0
100
AcDbCircle
 62
7
  6
CONTINUOUS
 10
196.0799004545
 20
757.3089176165
 40
10.6928917763
100
AcDbArc
 50
248.3507199918
 51
248.8949941619
  0
ARC
  5
3F0
100
AcDbEntity
  8
0
100
AcDbCircle
 62
7
  6
CONTINUOUS
 10
115.4282479972
 20
745.5
 40
4.5
100
AcDbArc
 50
165.0629061007
 51
180.0
  0
ARC
  5
3F1
100
AcDbEntity
  8
0
100
AcDbCircle
 62
7
  6
CONTINUOUS
 10
115.4282479972
 20
654.5
 40
4.5
100
AcDbArc
 50
180.0
 51
194.937704459
  0
ARC
  5
3F2
100
AcDbEntity
  8
0
100
AcDbCircle
 62
7
  6
CONTINUOUS
 10
186.4282479972
 20
745.5
 40
4.5
100
AcDbArc
 50
0.0
 51
14.937704459
  0
ARC
  5
3F3
100
AcDbEntity
  8
0
100
AcDbCircle
 62
7
  6
CONTINUOUS
 10
906.4282479972
 20
654.5
 40
4.5
100
AcDbArc
 50
345.0629061007
 51
360.0
  0
ARC
  5
3F4
100
AcDbEntity
  8
0
100
AcDbCircle
 62
7
  6
CONTINUOUS
 10
906.4282479972
 20
745.5
 40
4.5
100
AcDbArc
 50
0.0
 51
14.9377044591
  0
ARC
  5
3F5
100
AcDbEntity
  8
0
100
AcDbCircle
 62
7
  6
CONTINUOUS
 10
835.4282479972
 20
654.5
 40
4.5
100
AcDbArc
 50
180.0
 51
194.937704459
  0
ARC
  5
3F6
100
AcDbEntity
  8
0
100
AcDbCircle
 62
7
  6
CONTINUOUS
 10
172.3133897507
 20
682.9492597545
 40
2.8560464938
100
AcDbArc
 50
172.4005740369
 51
180.0208656276
  0
ARC
  5
3F7
100
AcDbEntity
  8
0
100
AcDbCircle
 62
7
  6
CONTINUOUS
 10
849.5431062437
 20
717.0507402455
 40
2.8560464938
100
AcDbArc
 50
352.4005740369
 51
0.0208656277
  0
SPLINE
  5
3F8
100
AcDbEntity
  8
0
100
AcDbSpline
 62
7
  6
CONTINUOUS
 70
0
 71
3
 72
8
 73
4
 74
0
 42
0.0000001
 43
0.0000001
 44
0.0000000001
 40
0.0
 40
0.0
 40
0.0
 40
0.0
 40
1.0
 40
1.0
 40
1.0
 40
1.0
 10
176.920719758
 20
677.7052004546
 30
0.0
 10
177.1070369875
 20
677.5758188277
 30
0.0
 10
177.3379573934
 20
677.5113274455
 30
0.0
 10
177.612683328
 20
677.5113274455
 30
0.0
  0
SPLINE
  5
3F9
100
AcDbEntity
  8
0
100
AcDbSpline
 62
7
  6
CONTINUOUS
 70
0
 71
3
 72
8
 73
4
 74
0
 42
0.0000001
 43
0.0000001
 44
0.0000000001
 40
0.0
 40
0.0
 40
0.0
 40
0.0
 40
1.0
 40
1.0
 40
1.0
 40
1.0
 10
177.612683328
 20
678.0550160408
 30
0.0
 10
177.612683328
 20
680.5922332406
 30
0.0
 10
176.7744956484
 20
681.8608424664
 30
0.0
 10
175.0754664412
 20
681.8608424664
 30
0.0
  0
SPLINE
  5
3FA
100
AcDbEntity
  8
0
100
AcDbSpline
 62
7
  6
CONTINUOUS
 70
0
 71
3
 72
8
 73
4
 74
0
 42
0.0000001
 43
0.0000001
 44
0.0000000001
 40
0.0
 40
0.0
 40
0.0
 40
0.0
 40
1.0
 40
1.0
 40
1.0
 40
1.0
 10
172.3570197096
 20
681.8608424664
 30
0.0
 10
172.3570197096
 20
681.7222054067
 30
0.0
 10
172.3745086285
 20
681.588311115
 30
0.0
 10
172.4094525596
 20
681.4591765428
 30
0.0
  0
SPLINE
  5
3FB
100
AcDbEntity
  8
0
100
AcDbSpline
 62
7
  6
CONTINUOUS
 70
0
 71
3
 72
8
 73
4
 74
0
 42
0.0000001
 43
0.0000001
 44
0.0000000001
 40
0.0
 40
0.0
 40
0.0
 40
0.0
 40
1.0
 40
1.0
 40
1.0
 40
1.0
 10
172.4094525596
 20
681.4591765428
 30
0.0
 10
172.6799909299
 20
680.4594076092
 30
0.0
 10
173.9967766566
 20
679.7449346066
 30
0.0
 10
176.3440750411
 20
679.3236240149
 30
0.0
  0
SPLINE
  5
3FC
100
AcDbEntity
  8
0
100
AcDbSpline
 62
7
  6
CONTINUOUS
 70
0
 71
3
 72
8
 73
4
 74
0
 42
0.0000001
 43
0.0000001
 44
0.0000000001
 40
0.0
 40
0.0
 40
0.0
 40
0.0
 40
1.0
 40
1.0
 40
1.0
 40
1.0
 10
176.3440750411
 20
679.3236240149
 30
0.0
 10
176.3440750411
 20
678.5088890647
 30
0.0
 10
176.5385838981
 20
677.9705616312
 30
0.0
 10
176.920719758
 20
677.7052004546
 30
0.0
  0
SPLINE
  5
3FD
100
AcDbEntity
  8
0
100
AcDbSpline
 62
7
  6
CONTINUOUS
 70
0
 71
3
 72
8
 73
4
 74
0
 42
0.0000001
 43
0.0000001
 44
0.0000000001
 40
0.0
 40
0.0
 40
0.0
 40
0.0
 40
1.0
 40
1.0
 40
1.0
 40
1.0
 10
167.4638160934
 20
712.6699004173
 30
0.0
 10
167.0447211761
 20
712.6699004173
 30
0.0
 10
166.7275687096
 20
712.5622952619
 30
0.0
 10
166.5151902089
 20
712.3499163096
 30
0.0
  0
SPLINE
  5
3FE
100
AcDbEntity
  8
0
100
AcDbSpline
 62
7
  6
CONTINUOUS
 70
0
 71
3
 72
8
 73
4
 74
0
 42
0.0000001
 43
0.0000001
 44
0.0000000001
 40
0.0
 40
0.0
 40
0.0
 40
0.0
 40
1.0
 40
1.0
 40
1.0
 40
1.0
 10
166.5151902089
 20
712.3499163096
 30
0.0
 10
166.3028126418
 20
712.1375382907
 30
0.0
 10
166.1952081194
 20
711.820387396
 30
0.0
 10
166.1952081194
 20
711.4012949467
 30
0.0
  0
SPLINE
  5
3FF
100
AcDbEntity
  8
0
100
AcDbSpline
 62
7
  6
CONTINUOUS
 70
0
 71
3
 72
8
 73
4
 74
0
 42
0.0000001
 43
0.0000001
 44
0.0000000001
 40
0.0
 40
0.0
 40
0.0
 40
0.0
 40
1.0
 40
1.0
 40
1.0
 40
1.0
 10
166.1952081194
 20
711.4012949467
 30
0.0
 10
166.1952081194
 20
710.766989708
 30
0.0
 10
166.6256281009
 20
710.3478963375
 30
0.0
 10
167.4638160934
 20
710.1326844692
 30
0.0
  0
SPLINE
  5
400
100
AcDbEntity
  8
0
100
AcDbSpline
 62
7
  6
CONTINUOUS
 70
0
 71
3
 72
8
 73
4
 74
0
 42
0.0000001
 43
0.0000001
 44
0.0000000001
 40
0.0
 40
0.0
 40
0.0
 40
0.0
 40
1.0
 40
1.0
 40
1.0
 40
1.0
 10
166.421896824
 20
692.9185008276
 30
0.0
 10
166.629351293
 20
692.6750993486
 30
0.0
 10
166.9781267646
 20
692.5533986092
 30
0.0
 10
167.4638160934
 20
692.5533986092
 30
0.0
  0
SPLINE
  5
401
100
AcDbEntity
  8
0
100
AcDbSpline
 62
7
  6
CONTINUOUS
 70
0
 71
3
 72
8
 73
4
 74
0
 42
0.0000001
 43
0.0000001
 44
0.0000000001
 40
0.0
 40
0.0
 40
0.0
 40
0.0
 40
1.0
 40
1.0
 40
1.0
 40
1.0
 10
167.4638160934
 20
694.9093862772
 30
0.0
 10
166.6256281009
 20
694.9093862772
 30
0.0
 10
166.1952081194
 20
694.478965044
 30
0.0
 10
166.1952081194
 20
693.6407757998
 30
0.0
  0
SPLINE
  5
402
100
AcDbEntity
  8
0
100
AcDbSpline
 62
7
  6
CONTINUOUS
 70
0
 71
3
 72
8
 73
4
 74
0
 42
0.0000001
 43
0.0000001
 44
0.0000000001
 40
0.0
 40
0.0
 40
0.0
 40
0.0
 40
1.0
 40
1.0
 40
1.0
 40
1.0
 10
166.1952081194
 20
693.6407757998
 30
0.0
 10
166.1952081194
 20
693.3359126027
 30
0.0
 10
166.2713326284
 20
693.0951542787
 30
0.0
 10
166.421896824
 20
692.9185008276
 30
0.0
  0
SPLINE
  5
403
100
AcDbEntity
  8
0
100
AcDbSpline
 62
7
  6
CONTINUOUS
 70
0
 71
3
 72
8
 73
4
 74
0
 42
0.0000001
 43
0.0000001
 44
0.0000000001
 40
0.0
 40
0.0
 40
0.0
 40
0.0
 40
1.0
 40
1.0
 40
1.0
 40
1.0
 10
168.369965004
 20
702.5210366249
 30
0.0
 10
169.4573434463
 20
702.5210366249
 30
0.0
 10
170.0010332932
 20
702.9967617989
 30
0.0
 10
170.0010332932
 20
703.970872879
 30
0.0
  0
SPLINE
  5
404
100
AcDbEntity
  8
0
100
AcDbSpline
 62
7
  6
CONTINUOUS
 70
0
 71
3
 72
8
 73
4
 74
0
 42
0.0000001
 43
0.0000001
 44
0.0000000001
 40
0.0
 40
0.0
 40
0.0
 40
0.0
 40
1.0
 40
1.0
 40
1.0
 40
1.0
 10
170.0010332932
 20
703.970872879
 30
0.0
 10
170.0010332932
 20
704.5938527584
 30
0.0
 10
169.8198025098
 20
704.9563093185
 30
0.0
 10
169.4573434463
 20
705.058252573
 30
0.0
  0
SPLINE
  5
405
100
AcDbEntity
  8
0
100
AcDbSpline
 62
7
  6
CONTINUOUS
 70
0
 71
3
 72
8
 73
4
 74
0
 42
0.0000001
 43
0.0000001
 44
0.0000000001
 40
0.0
 40
0.0
 40
0.0
 40
0.0
 40
1.0
 40
1.0
 40
1.0
 40
1.0
 10
166.3764376512
 20
703.970872879
 30
0.0
 10
166.3764376512
 20
702.9967617989
 30
0.0
 10
167.044722723
 20
702.5210366249
 30
0.0
 10
168.369965004
 20
702.5210366249
 30
0.0
  0
SPLINE
  5
406
100
AcDbEntity
  8
0
100
AcDbSpline
 62
7
  6
CONTINUOUS
 70
0
 71
3
 72
8
 73
4
 74
0
 42
0.0000001
 43
0.0000001
 44
0.0000000001
 40
0.0
 40
0.0
 40
0.0
 40
0.0
 40
1.0
 40
1.0
 40
1.0
 40
1.0
 10
174.8972734554
 20
716.4986746443
 30
0.0
 10
174.4586124621
 20
716.8520788633
 30
0.0
 10
174.2152275928
 20
717.4485288699
 30
0.0
 10
174.1693175306
 20
718.2880246639
 30
0.0
  0
SPLINE
  5
407
100
AcDbEntity
  8
0
100
AcDbSpline
 62
7
  6
CONTINUOUS
 70
0
 71
3
 72
8
 73
4
 74
0
 42
0.0000001
 43
0.0000001
 44
0.0000000001
 40
0.0
 40
0.0
 40
0.0
 40
0.0
 40
1.0
 40
1.0
 40
1.0
 40
1.0
 10
175.0754664412
 20
717.7443373203
 30
0.0
 10
175.0754664412
 20
717.5064747334
 30
0.0
 10
175.4379261305
 20
717.2686071396
 30
0.0
 10
176.1628451964
 20
717.0194191933
 30
0.0
  0
SPLINE
  5
408
100
AcDbEntity
  8
0
100
AcDbSpline
 62
7
  6
CONTINUOUS
 70
0
 71
3
 72
8
 73
4
 74
0
 42
0.0000001
 43
0.0000001
 44
0.0000000001
 40
0.0
 40
0.0
 40
0.0
 40
0.0
 40
1.0
 40
1.0
 40
1.0
 40
1.0
 10
176.1628451964
 20
717.0194191933
 30
0.0
 10
176.8877642622
 20
717.0194191933
 30
0.0
 10
177.2502236386
 20
717.4385125637
 30
0.0
 10
177.2502236387
 20
718.2880246639
 30
0.0
  0
SPLINE
  5
409
100
AcDbEntity
  8
0
100
AcDbSpline
 62
7
  6
CONTINUOUS
 70
0
 71
3
 72
8
 73
4
 74
0
 42
0.0000001
 43
0.0000001
 44
0.0000000001
 40
0.0
 40
0.0
 40
0.0
 40
0.0
 40
1.0
 40
1.0
 40
1.0
 40
1.0
 10
178.1563725492
 20
717.9255681038
 30
0.0
 10
178.1563725492
 20
716.9171411864
 30
0.0
 10
177.4989783361
 20
716.3167531363
 30
0.0
 10
176.1615134867
 20
716.113067308
 30
0.0
  0
SPLINE
  5
40A
100
AcDbEntity
  8
0
100
AcDbSpline
 62
7
  6
CONTINUOUS
 70
0
 71
3
 72
8
 73
4
 74
0
 42
0.0000001
 43
0.0000001
 44
0.0000000001
 40
0.0
 40
0.0
 40
0.0
 40
0.0
 40
1.0
 40
1.0
 40
1.0
 40
1.0
 10
176.1615222998
 20
716.1132705552
 30
0.0
 10
175.6376231663
 20
716.1134864193
 30
0.0
 10
175.2159259495
 20
716.241954449
 30
0.0
 10
174.8972734554
 20
716.4986746443
 30
0.0
  0
SPLINE
  5
40B
100
AcDbEntity
  8
0
100
AcDbSpline
 62
7
  6
CONTINUOUS
 70
0
 71
3
 72
8
 73
4
 74
0
 42
0.0000001
 43
0.0000001
 44
0.0000000001
 40
0.0
 40
0.0
 40
0.0
 40
0.0
 40
1.0
 40
1.0
 40
1.0
 40
1.0
 10
174.1693175306
 20
711.2200641632
 30
0.0
 10
174.3505476882
 20
711.6957943439
 30
0.0
 10
174.53177722
 20
711.9449822903
 30
0.0
 10
174.7130067518
 20
711.9449822903
 30
0.0
  0
SPLINE
  5
40C
100
AcDbEntity
  8
0
100
AcDbSpline
 62
7
  6
CONTINUOUS
 70
0
 71
3
 72
8
 73
4
 74
0
 42
0.0000001
 43
0.0000001
 44
0.0000000001
 40
0.0
 40
0.0
 40
0.0
 40
0.0
 40
1.0
 40
1.0
 40
1.0
 40
1.0
 10
175.0754664412
 20
710.6763768196
 30
0.0
 10
175.2793498209
 20
710.1893212795
 30
0.0
 10
175.6984438171
 20
709.9514586926
 30
0.0
 10
176.3440750411
 20
709.9514586926
 30
0.0
  0
SPLINE
  5
40D
100
AcDbEntity
  8
0
100
AcDbSpline
 62
7
  6
CONTINUOUS
 70
0
 71
3
 72
8
 73
4
 74
0
 42
0.0000001
 43
0.0000001
 44
0.0000000001
 40
0.0
 40
0.0
 40
0.0
 40
0.0
 40
1.0
 40
1.0
 40
1.0
 40
1.0
 10
174.7130067518
 20
709.9514586926
 30
0.0
 10
174.3505476882
 20
710.3932027817
 30
0.0
 10
174.1693175306
 20
710.8122961521
 30
0.0
 10
174.1693175306
 20
711.2200641632
 30
0.0
  0
SPLINE
  5
40E
100
AcDbEntity
  8
0
100
AcDbSpline
 62
7
  6
CONTINUOUS
 70
0
 71
3
 72
8
 73
4
 74
0
 42
0.0000001
 43
0.0000001
 44
0.0000000001
 40
0.0
 40
0.0
 40
0.0
 40
0.0
 40
1.0
 40
1.0
 40
1.0
 40
1.0
 10
175.0754664412
 20
701.7961159945
 30
0.0
 10
175.0754664412
 20
701.1844664812
 30
0.0
 10
175.4379261305
 20
700.8899670839
 30
0.0
 10
176.1628451964
 20
700.8899670839
 30
0.0
  0
SPLINE
  5
40F
100
AcDbEntity
  8
0
100
AcDbSpline
 62
7
  6
CONTINUOUS
 70
0
 71
3
 72
8
 73
4
 74
0
 42
0.0000001
 43
0.0000001
 44
0.0000000001
 40
0.0
 40
0.0
 40
0.0
 40
0.0
 40
1.0
 40
1.0
 40
1.0
 40
1.0
 10
178.1563725492
 20
701.7961159945
 30
0.0
 10
177.9977965524
 20
700.5841423273
 30
0.0
 10
177.4541073313
 20
699.9838181734
 30
0.0
 10
176.5253045728
 20
699.9838181734
 30
0.0
  0
SPLINE
  5
410
100
AcDbEntity
  8
0
100
AcDbSpline
 62
7
  6
CONTINUOUS
 70
0
 71
3
 72
8
 73
4
 74
0
 42
0.0000001
 43
0.0000001
 44
0.0000000001
 40
0.0
 40
0.0
 40
0.0
 40
0.0
 40
1.0
 40
1.0
 40
1.0
 40
1.0
 10
175.8003858199
 20
699.9838181734
 30
0.0
 10
174.7130067518
 20
699.9838181734
 30
0.0
 10
174.1693175306
 20
700.6407766342
 30
0.0
 10
174.1693175306
 20
701.9773467779
 30
0.0
  0
SPLINE
  5
411
100
AcDbEntity
  8
0
100
AcDbSpline
 62
7
  6
CONTINUOUS
 70
0
 71
3
 72
8
 73
4
 74
0
 42
0.0000001
 43
0.0000001
 44
0.0000000001
 40
0.0
 40
0.0
 40
0.0
 40
0.0
 40
1.0
 40
1.0
 40
1.0
 40
1.0
 10
174.7594599504
 20
695.3628243942
 30
0.0
 10
174.3666374695
 20
695.7225552536
 30
0.0
 10
174.1693175306
 20
696.2963280422
 30
0.0
 10
174.1693175306
 20
697.0841431618
 30
0.0
  0
SPLINE
  5
412
100
AcDbEntity
  8
0
100
AcDbSpline
 62
7
  6
CONTINUOUS
 70
0
 71
3
 72
8
 73
4
 74
0
 42
0.0000001
 43
0.0000001
 44
0.0000000001
 40
0.0
 40
0.0
 40
0.0
 40
0.0
 40
1.0
 40
1.0
 40
1.0
 40
1.0
 10
174.1693175306
 20
697.0841431618
 30
0.0
 10
174.4638163021
 20
697.9223299026
 30
0.0
 10
175.188735055
 20
698.3527511358
 30
0.0
 10
176.3440750411
 20
698.3527511358
 30
0.0
  0
SPLINE
  5
413
100
AcDbEntity
  8
0
100
AcDbSpline
 62
7
  6
CONTINUOUS
 70
0
 71
3
 72
8
 73
4
 74
0
 42
0.0000001
 43
0.0000001
 44
0.0000000001
 40
0.0
 40
0.0
 40
0.0
 40
0.0
 40
1.0
 40
1.0
 40
1.0
 40
1.0
 10
176.344116349
 20
695.8155520484
 30
0.0
 10
176.8991063605
 20
696.0420847798
 30
0.0
 10
177.2049173798
 20
696.2912690473
 30
0.0
 10
177.2502236387
 20
696.5404533148
 30
0.0
  0
SPLINE
  5
414
100
AcDbEntity
  8
0
100
AcDbSpline
 62
7
  6
CONTINUOUS
 70
0
 71
3
 72
8
 73
4
 74
0
 42
0.0000001
 43
0.0000001
 44
0.0000000001
 40
0.0
 40
0.0
 40
0.0
 40
0.0
 40
1.0
 40
1.0
 40
1.0
 40
1.0
 10
178.1563725492
 20
696.7216840982
 30
0.0
 10
177.8845279386
 20
695.5097079277
 30
0.0
 10
177.2728774866
 20
694.9093862772
 30
0.0
 10
176.1628451964
 20
694.9093862772
 30
0.0
  0
SPLINE
  5
415
100
AcDbEntity
  8
0
100
AcDbSpline
 62
7
  6
CONTINUOUS
 70
0
 71
3
 72
8
 73
4
 74
0
 42
0.0000001
 43
0.0000001
 44
0.0000000001
 40
0.0
 40
0.0
 40
0.0
 40
0.0
 40
1.0
 40
1.0
 40
1.0
 40
1.0
 10
164.2016795149
 20
661.5631067455
 30
0.0
 10
163.8224933384
 20
661.5631067455
 30
0.0
 10
163.4867019146
 20
661.64329274
 30
0.0
 10
163.1948497574
 20
661.8039369784
 30
0.0
  0
SPLINE
  5
416
100
AcDbEntity
  8
0
100
AcDbSpline
 62
7
  6
CONTINUOUS
 70
0
 71
3
 72
8
 73
4
 74
0
 42
0.0000001
 43
0.0000001
 44
0.0000000001
 40
0.0
 40
0.0
 40
0.0
 40
0.0
 40
1.0
 40
1.0
 40
1.0
 40
1.0
 10
166.9201262464
 20
662.6504855007
 30
0.0
 10
166.2631690373
 20
661.9255662784
 30
0.0
 10
165.6515182724
 20
661.5631067455
 30
0.0
 10
165.1078284254
 20
661.5631067455
 30
0.0
  0
SPLINE
  5
417
100
AcDbEntity
  8
0
100
AcDbSpline
 62
7
  6
CONTINUOUS
 70
0
 71
3
 72
8
 73
4
 74
0
 42
0.0000001
 43
0.0000001
 44
0.0000000001
 40
0.0
 40
0.0
 40
0.0
 40
0.0
 40
1.0
 40
1.0
 40
1.0
 40
1.0
 10
168.9136535993
 20
666.2750808299
 30
0.0
 10
168.5511945357
 20
666.2750808299
 30
0.0
 10
167.8942373266
 20
665.0631068498
 30
0.0
 10
166.9201262464
 20
662.6504855007
 30
0.0
  0
SPLINE
  5
418
100
AcDbEntity
  8
0
100
AcDbSpline
 62
7
  6
CONTINUOUS
 70
0
 71
3
 72
8
 73
4
 74
0
 42
0.0000001
 43
0.0000001
 44
0.0000000001
 40
0.0
 40
0.0
 40
0.0
 40
0.0
 40
1.0
 40
1.0
 40
1.0
 40
1.0
 10
169.638572978
 20
665.1877023876
 30
0.0
 10
169.638572978
 20
665.7880259156
 30
0.0
 10
169.4007091393
 20
666.150485605
 30
0.0
 10
168.9136535993
 20
666.2750808299
 30
0.0
  0
SPLINE
  5
419
100
AcDbEntity
  8
0
100
AcDbSpline
 62
7
  6
CONTINUOUS
 70
0
 71
3
 72
8
 73
4
 74
0
 42
0.0000001
 43
0.0000001
 44
0.0000000001
 40
0.0
 40
0.0
 40
0.0
 40
0.0
 40
1.0
 40
1.0
 40
1.0
 40
1.0
 10
168.5511945357
 20
661.9255662784
 30
0.0
 10
169.2761139145
 20
663.0129448771
 30
0.0
 10
169.638572978
 20
663.9190937877
 30
0.0
 10
169.638572978
 20
664.6440128535
 30
0.0
  0
SPLINE
  5
41A
100
AcDbEntity
  8
0
100
AcDbSpline
 62
7
  6
CONTINUOUS
 70
0
 71
3
 72
8
 73
4
 74
0
 42
0.0000001
 43
0.0000001
 44
0.0000000001
 40
0.0
 40
0.0
 40
0.0
 40
0.0
 40
1.0
 40
1.0
 40
1.0
 40
1.0
 10
171.6321009567
 20
665.0064725429
 30
0.0
 10
171.6321009567
 20
663.6812296361
 30
0.0
 10
171.2696412673
 20
662.5938511938
 30
0.0
 10
170.5447218885
 20
661.7443365902
 30
0.0
  0
SPLINE
  5
41B
100
AcDbEntity
  8
0
100
AcDbSpline
 62
7
  6
CONTINUOUS
 70
0
 71
3
 72
8
 73
4
 74
0
 42
0.0000001
 43
0.0000001
 44
0.0000000001
 40
0.0
 40
0.0
 40
0.0
 40
0.0
 40
1.0
 40
1.0
 40
1.0
 40
1.0
 10
169.0948843827
 20
668.8122980297
 30
0.0
 10
170.5447218885
 20
668.8122980297
 30
0.0
 10
171.3829098811
 20
667.6003237367
 30
0.0
 10
171.6321009567
 20
665.0064725429
 30
0.0
  0
SPLINE
  5
41C
100
AcDbEntity
  8
0
100
AcDbSpline
 62
7
  6
CONTINUOUS
 70
0
 71
3
 72
8
 73
4
 74
0
 42
0.0000001
 43
0.0000001
 44
0.0000000001
 40
0.0
 40
0.0
 40
0.0
 40
0.0
 40
1.0
 40
1.0
 40
1.0
 40
1.0
 10
164.3829102983
 20
664.1003236324
 30
0.0
 10
164.6321007481
 20
664.1003236323
 30
0.0
 10
165.4136544337
 20
665.4822005331
 30
0.0
 10
166.7388967147
 20
668.2686081827
 30
0.0
  0
SPLINE
  5
41D
100
AcDbEntity
  8
0
100
AcDbSpline
 62
7
  6
CONTINUOUS
 70
0
 71
3
 72
8
 73
4
 74
0
 42
0.0000001
 43
0.0000001
 44
0.0000000001
 40
0.0
 40
0.0
 40
0.0
 40
0.0
 40
1.0
 40
1.0
 40
1.0
 40
1.0
 10
164.5641398301
 20
668.2686081827
 30
0.0
 10
163.9638156762
 20
667.0000002086
 30
0.0
 10
163.6579909196
 20
665.9126211405
 30
0.0
 10
163.6579909196
 20
665.0064725429
 30
0.0
  0
SPLINE
  5
41E
100
AcDbEntity
  8
0
100
AcDbSpline
 62
7
  6
CONTINUOUS
 70
0
 71
3
 72
8
 73
4
 74
0
 42
0.0000001
 43
0.0000001
 44
0.0000000001
 40
0.0
 40
0.0
 40
0.0
 40
0.0
 40
1.0
 40
1.0
 40
1.0
 40
1.0
 10
161.8456930985
 20
665.550162077
 30
0.0
 10
161.8456930985
 20
667.3441379744
 30
0.0
 10
162.2761143317
 20
668.3025892675
 30
0.0
 10
162.7518420091
 20
668.4498383403
 30
0.0
  0
SPLINE
  5
41F
100
AcDbEntity
  8
0
100
AcDbSpline
 62
7
  6
CONTINUOUS
 70
0
 71
3
 72
8
 73
4
 74
0
 42
0.0000001
 43
0.0000001
 44
0.0000000001
 40
0.0
 40
0.0
 40
0.0
 40
0.0
 40
1.0
 40
1.0
 40
1.0
 40
1.0
 10
163.1948497574
 20
661.8039369784
 30
0.0
 10
162.4754068134
 20
662.199940095
 30
0.0
 10
162.0229690594
 20
663.0848628131
 30
0.0
 10
161.8456930985
 20
664.4627833217
 30
0.0
  0
SPLINE
  5
420
100
AcDbEntity
  8
0
100
AcDbSpline
 62
7
  6
CONTINUOUS
 70
0
 71
3
 72
8
 73
4
 74
0
 42
0.0000001
 43
0.0000001
 44
0.0000000001
 40
0.0
 40
0.0
 40
0.0
 40
0.0
 40
1.0
 40
1.0
 40
1.0
 40
1.0
 10
166.7885503022
 20
678.4295888419
 30
0.0
 10
166.972119817
 20
678.2107568798
 30
0.0
 10
167.1972085259
 20
678.0244776872
 30
0.0
 10
167.4638160934
 20
677.873786509
 30
0.0
  0
SPLINE
  5
421
100
AcDbEntity
  8
0
100
AcDbSpline
 62
7
  6
CONTINUOUS
 70
0
 71
3
 72
8
 73
4
 74
0
 42
0.0000001
 43
0.0000001
 44
0.0000000001
 40
0.0
 40
0.0
 40
0.0
 40
0.0
 40
1.0
 40
1.0
 40
1.0
 40
1.0
 10
166.3764376512
 20
679.1423944831
 30
0.0
 10
166.4759960388
 20
678.8769048381
 30
0.0
 10
166.6133670197
 20
678.6384236339
 30
0.0
 10
166.7885503022
 20
678.4295888419
 30
0.0
  0
SPLINE
  5
422
100
AcDbEntity
  8
0
100
AcDbSpline
 62
7
  6
CONTINUOUS
 70
0
 71
3
 72
8
 73
4
 74
0
 42
0.0000001
 43
0.0000001
 44
0.0000000001
 40
0.0
 40
0.0
 40
0.0
 40
0.0
 40
1.0
 40
1.0
 40
1.0
 40
1.0
 10
167.6450456252
 20
680.0485433936
 30
0.0
 10
166.9767605534
 20
680.0485433936
 30
0.0
 10
166.5576671829
 20
679.742718637
 30
0.0
 10
166.3764376512
 20
679.1423944831
 30
0.0
  0
SPLINE
  5
423
100
AcDbEntity
  8
0
100
AcDbSpline
 62
7
  6
CONTINUOUS
 70
0
 71
3
 72
8
 73
4
 74
0
 42
0.0000001
 43
0.0000001
 44
0.0000000001
 40
0.0
 40
0.0
 40
0.0
 40
0.0
 40
1.0
 40
1.0
 40
1.0
 40
1.0
 10
164.7453693619
 20
679.6860843301
 30
0.0
 10
164.9492533674
 20
681.3737869263
 30
0.0
 10
165.6741714945
 20
682.2233015299
 30
0.0
 10
166.9201262464
 20
682.2233015299
 30
0.0
  0
SPLINE
  5
424
100
AcDbEntity
  8
0
100
AcDbSpline
 62
7
  6
CONTINUOUS
 70
0
 71
3
 72
8
 73
4
 74
0
 42
0.0000001
 43
0.0000001
 44
0.0000000001
 40
0.0
 40
0.0
 40
0.0
 40
0.0
 40
1.0
 40
1.0
 40
1.0
 40
1.0
 10
165.6514503409
 20
677.873859951
 30
0.0
 10
165.232391854
 20
678.3269258372
 30
0.0
 10
164.9265891016
 20
678.9272248709
 30
0.0
 10
164.7453693619
 20
679.6860843301
 30
0.0
  0
SPLINE
  5
425
100
AcDbEntity
  8
0
100
AcDbSpline
 62
7
  6
CONTINUOUS
 70
0
 71
3
 72
8
 73
4
 74
0
 42
0.0000001
 43
0.0000001
 44
0.0000000001
 40
0.0
 40
0.0
 40
0.0
 40
0.0
 40
1.0
 40
1.0
 40
1.0
 40
1.0
 10
163.2955306044
 20
697.4466022253
 30
0.0
 10
162.3327486386
 20
697.4466022253
 30
0.0
 10
161.8456930985
 20
697.9223299026
 30
0.0
 10
161.8456930985
 20
698.8964409828
 30
0.0
  0
SPLINE
  5
426
100
AcDbEntity
  8
0
100
AcDbSpline
 62
7
  6
CONTINUOUS
 70
0
 71
3
 72
8
 73
4
 74
0
 42
0.0000001
 43
0.0000001
 44
0.0000000001
 40
0.0
 40
0.0
 40
0.0
 40
0.0
 40
1.0
 40
1.0
 40
1.0
 40
1.0
 10
163.1143010726
 20
699.8025898933
 30
0.0
 10
163.8392204513
 20
699.4401283264
 30
0.0
 10
164.2016795149
 20
698.8964409828
 30
0.0
 10
164.2016795149
 20
697.9902920723
 30
0.0
  0
SPLINE
  5
427
100
AcDbEntity
  8
0
100
AcDbSpline
 62
7
  6
CONTINUOUS
 70
0
 71
3
 72
8
 73
4
 74
0
 42
0.0000001
 43
0.0000001
 44
0.0000000001
 40
0.0
 40
0.0
 40
0.0
 40
0.0
 40
1.0
 40
1.0
 40
1.0
 40
1.0
 10
168.0075059404
 20
700.3462772369
 30
0.0
 10
165.8327478042
 20
700.674757719
 30
0.0
 10
164.7453693619
 20
701.7055006027
 30
0.0
 10
164.7453693619
 20
703.4271855354
 30
0.0
  0
SPLINE
  5
428
100
AcDbEntity
  8
0
100
AcDbSpline
 62
7
  6
CONTINUOUS
 70
0
 71
3
 72
8
 73
4
 74
0
 42
0.0000001
 43
0.0000001
 44
0.0000000001
 40
0.0
 40
0.0
 40
0.0
 40
0.0
 40
1.0
 40
1.0
 40
1.0
 40
1.0
 10
171.2092123911
 20
701.8367516484
 30
0.0
 10
170.7081182463
 20
701.0543023366
 30
0.0
 10
169.7617023413
 20
700.5564885736
 30
0.0
 10
168.369965004
 20
700.3462772369
 30
0.0
  0
SPLINE
  5
429
100
AcDbEntity
  8
0
100
AcDbSpline
 62
7
  6
CONTINUOUS
 70
0
 71
3
 72
8
 73
4
 74
0
 42
0.0000001
 43
0.0000001
 44
0.0000000001
 40
0.0
 40
0.0
 40
0.0
 40
0.0
 40
1.0
 40
1.0
 40
1.0
 40
1.0
 10
171.6321009567
 20
703.4271855354
 30
0.0
 10
171.6321009567
 20
702.8072941967
 30
0.0
 10
171.491138082
 20
702.2769734414
 30
0.0
 10
171.2092123911
 20
701.8367516484
 30
0.0
  0
SPLINE
  5
42A
100
AcDbEntity
  8
0
100
AcDbSpline
 62
7
  6
CONTINUOUS
 70
0
 71
3
 72
8
 73
4
 74
0
 42
0.0000001
 43
0.0000001
 44
0.0000000001
 40
0.0
 40
0.0
 40
0.0
 40
0.0
 40
1.0
 40
1.0
 40
1.0
 40
1.0
 10
167.6450456252
 20
669.1747570932
 30
0.0
 10
165.7194791904
 20
669.7071197033
 30
0.0
 10
164.7453693619
 20
670.8511324525
 30
0.0
 10
164.7453693619
 20
672.6181225777
 30
0.0
  0
SPLINE
  5
42B
100
AcDbEntity
  8
0
100
AcDbSpline
 62
7
  6
CONTINUOUS
 70
0
 71
3
 72
8
 73
4
 74
0
 42
0.0000001
 43
0.0000001
 44
0.0000000001
 40
0.0
 40
0.0
 40
0.0
 40
0.0
 40
1.0
 40
1.0
 40
1.0
 40
1.0
 10
171.6321009567
 20
672.7993533611
 30
0.0
 10
171.3715832701
 20
670.3754047751
 30
0.0
 10
170.3408391347
 20
669.1747570932
 30
0.0
 10
168.5511945357
 20
669.1747570932
 30
0.0
  0
SPLINE
  5
42C
100
AcDbEntity
  8
0
100
AcDbSpline
 62
7
  6
CONTINUOUS
 70
0
 71
3
 72
8
 73
4
 74
0
 42
0.0000001
 43
0.0000001
 44
0.0000000001
 40
0.0
 40
0.0
 40
0.0
 40
0.0
 40
1.0
 40
1.0
 40
1.0
 40
1.0
 10
170.9071815779
 20
675.1553397775
 30
0.0
 10
171.2469874194
 20
675.1553397775
 30
0.0
 10
171.4848518839
 20
674.3624594808
 30
0.0
 10
171.6321009567
 20
672.7993533611
 30
0.0
  0
SPLINE
  5
42D
100
AcDbEntity
  8
0
100
AcDbSpline
 62
7
  6
CONTINUOUS
 70
0
 71
3
 72
8
 73
4
 74
0
 42
0.0000001
 43
0.0000001
 44
0.0000000001
 40
0.0
 40
0.0
 40
0.0
 40
0.0
 40
1.0
 40
1.0
 40
1.0
 40
1.0
 10
168.1887354722
 20
671.3495146036
 30
0.0
 10
169.2421328297
 20
671.3495146036
 30
0.0
 10
169.8424569836
 20
672.0744339824
 30
0.0
 10
170.0010332932
 20
673.5242714882
 30
0.0
  0
SPLINE
  5
42E
100
AcDbEntity
  8
0
100
AcDbSpline
 62
7
  6
CONTINUOUS
 70
0
 71
3
 72
8
 73
4
 74
0
 42
0.0000001
 43
0.0000001
 44
0.0000000001
 40
0.0
 40
0.0
 40
0.0
 40
0.0
 40
1.0
 40
1.0
 40
1.0
 40
1.0
 10
166.3764376512
 20
673.3430419564
 30
0.0
 10
166.7049168816
 20
672.0064730644
 30
0.0
 10
167.3052397838
 20
671.3495146036
 30
0.0
 10
168.1887354722
 20
671.3495146036
 30
0.0
  0
SPLINE
  5
42F
100
AcDbEntity
  8
0
100
AcDbSpline
 62
7
  6
CONTINUOUS
 70
0
 71
3
 72
8
 73
4
 74
0
 42
0.0000001
 43
0.0000001
 44
0.0000000001
 40
0.0
 40
0.0
 40
0.0
 40
0.0
 40
1.0
 40
1.0
 40
1.0
 40
1.0
 10
165.6515182724
 20
685.1229765415
 30
0.0
 10
165.0511941185
 20
685.949837923
 30
0.0
 10
164.7453693619
 20
686.6181217432
 30
0.0
 10
164.7453693619
 20
687.116505146
 30
0.0
  0
SPLINE
  5
430
100
AcDbEntity
  8
0
100
AcDbSpline
 62
7
  6
CONTINUOUS
 70
0
 71
3
 72
8
 73
4
 74
0
 42
0.0000001
 43
0.0000001
 44
0.0000000001
 40
0.0
 40
0.0
 40
0.0
 40
0.0
 40
1.0
 40
1.0
 40
1.0
 40
1.0
 10
170.3634923568
 20
685.1229765415
 30
0.0
 10
169.862534423
 20
684.5558548254
 30
0.0
 10
169.5666527043
 20
683.9571837269
 30
0.0
 10
169.4824282981
 20
683.3269617913
 30
0.0
  0
SPLINE
  5
431
100
AcDbEntity
  8
0
100
AcDbSpline
 62
7
  6
CONTINUOUS
 70
0
 71
3
 72
8
 73
4
 74
0
 42
0.0000001
 43
0.0000001
 44
0.0000000001
 40
0.0
 40
0.0
 40
0.0
 40
0.0
 40
1.0
 40
1.0
 40
1.0
 40
1.0
 10
166.4552328659
 20
686.9178779386
 30
0.0
 10
166.4234136234
 20
686.8666608438
 30
0.0
 10
166.3971485534
 20
686.8120365477
 30
0.0
 10
166.3764376512
 20
686.7540460825
 30
0.0
  0
SPLINE
  5
432
100
AcDbEntity
  8
0
100
AcDbSpline
 62
7
  6
CONTINUOUS
 70
0
 71
3
 72
8
 73
4
 74
0
 42
0.0000001
 43
0.0000001
 44
0.0000000001
 40
0.0
 40
0.0
 40
0.0
 40
0.0
 40
1.0
 40
1.0
 40
1.0
 40
1.0
 10
168.0075059405
 20
687.4789642096
 30
0.0
 10
167.2018681613
 20
687.4789642096
 30
0.0
 10
166.684444368
 20
687.2868228391
 30
0.0
 10
166.4552328659
 20
686.9178779386
 30
0.0
  0
SPLINE
  5
433
100
AcDbEntity
  8
0
100
AcDbSpline
 62
7
  6
CONTINUOUS
 70
0
 71
3
 72
8
 73
4
 74
0
 42
0.0000001
 43
0.0000001
 44
0.0000000001
 40
0.0
 40
0.0
 40
0.0
 40
0.0
 40
1.0
 40
1.0
 40
1.0
 40
1.0
 10
164.7453693619
 20
687.116505146
 30
0.0
 10
165.0398675075
 20
688.6796125174
 30
0.0
 10
165.7081525793
 20
689.4724928141
 30
0.0
 10
166.7388967147
 20
689.4724928141
 30
0.0
  0
SPLINE
  5
434
100
AcDbEntity
  8
0
100
AcDbSpline
 62
7
  6
CONTINUOUS
 70
0
 71
3
 72
8
 73
4
 74
0
 42
0.0000001
 43
0.0000001
 44
0.0000000001
 40
0.0
 40
0.0
 40
0.0
 40
0.0
 40
1.0
 40
1.0
 40
1.0
 40
1.0
 10
168.0075059404
 20
690.1974109411
 30
0.0
 10
165.8327478042
 20
690.5145635605
 30
0.0
 10
164.7453693619
 20
691.6019407511
 30
0.0
 10
164.7453693619
 20
693.4595475197
 30
0.0
  0
SPLINE
  5
435
100
AcDbEntity
  8
0
100
AcDbSpline
 62
7
  6
CONTINUOUS
 70
0
 71
3
 72
8
 73
4
 74
0
 42
0.0000001
 43
0.0000001
 44
0.0000000001
 40
0.0
 40
0.0
 40
0.0
 40
0.0
 40
1.0
 40
1.0
 40
1.0
 40
1.0
 10
171.6321009567
 20
693.8220065832
 30
0.0
 10
171.2922951152
 20
691.3980592489
 30
0.0
 10
170.329511272
 20
690.1974109411
 30
0.0
 10
168.7324240675
 20
690.1974109411
 30
0.0
  0
SPLINE
  5
436
100
AcDbEntity
  8
0
100
AcDbSpline
 62
7
  6
CONTINUOUS
 70
0
 71
3
 72
8
 73
4
 74
0
 42
0.0000001
 43
0.0000001
 44
0.0000000001
 40
0.0
 40
0.0
 40
0.0
 40
0.0
 40
1.0
 40
1.0
 40
1.0
 40
1.0
 10
170.5447218885
 20
696.9029123783
 30
0.0
 10
171.2696412673
 20
696.2346285582
 30
0.0
 10
171.6321009567
 20
695.2038831711
 30
0.0
 10
171.6321009567
 20
693.8220065832
 30
0.0
  0
SPLINE
  5
437
100
AcDbEntity
  8
0
100
AcDbSpline
 62
7
  6
CONTINUOUS
 70
0
 71
3
 72
8
 73
4
 74
0
 42
0.0000001
 43
0.0000001
 44
0.0000000001
 40
0.0
 40
0.0
 40
0.0
 40
0.0
 40
1.0
 40
1.0
 40
1.0
 40
1.0
 10
170.182262825
 20
694.5469247103
 30
0.0
 10
170.182262825
 20
695.2491921186
 30
0.0
 10
169.8877646794
 20
695.9741102457
 30
0.0
 10
169.2761139145
 20
696.9029123783
 30
0.0
  0
SPLINE
  5
438
100
AcDbEntity
  8
0
100
AcDbSpline
 62
7
  6
CONTINUOUS
 70
0
 71
3
 72
8
 73
4
 74
0
 42
0.0000001
 43
0.0000001
 44
0.0000000001
 40
0.0
 40
0.0
 40
0.0
 40
0.0
 40
1.0
 40
1.0
 40
1.0
 40
1.0
 10
168.5511945357
 20
692.3721678257
 30
0.0
 10
169.638572978
 20
692.6213582754
 30
0.0
 10
170.182262825
 20
693.2216824293
 30
0.0
 10
170.182262825
 20
694.1844656467
 30
0.0
  0
SPLINE
  5
439
100
AcDbEntity
  8
0
100
AcDbSpline
 62
7
  6
CONTINUOUS
 70
0
 71
3
 72
8
 73
4
 74
0
 42
0.0000001
 43
0.0000001
 44
0.0000000001
 40
0.0
 40
0.0
 40
0.0
 40
0.0
 40
1.0
 40
1.0
 40
1.0
 40
1.0
 10
164.7453693619
 20
693.4595475197
 30
0.0
 10
165.0398675075
 20
695.7475730181
 30
0.0
 10
166.0706116428
 20
696.9029123783
 30
0.0
 10
167.826275157
 20
696.9029123783
 30
0.0
  0
SPLINE
  5
43A
100
AcDbEntity
  8
0
100
AcDbSpline
 62
7
  6
CONTINUOUS
 70
0
 71
3
 72
8
 73
4
 74
0
 42
0.0000001
 43
0.0000001
 44
0.0000000001
 40
0.0
 40
0.0
 40
0.0
 40
0.0
 40
1.0
 40
1.0
 40
1.0
 40
1.0
 10
167.8262751569
 20
707.957930088
 30
0.0
 10
167.2155452047
 20
707.957930088
 30
0.0
 10
166.6925366581
 20
708.0963652015
 30
0.0
 10
166.2577263032
 20
708.3737123729
 30
0.0
  0
SPLINE
  5
43B
100
AcDbEntity
  8
0
100
AcDbSpline
 62
7
  6
CONTINUOUS
 70
0
 71
3
 72
8
 73
4
 74
0
 42
0.0000001
 43
0.0000001
 44
0.0000000001
 40
0.0
 40
0.0
 40
0.0
 40
0.0
 40
1.0
 40
1.0
 40
1.0
 40
1.0
 10
171.6321009567
 20
711.5825257301
 30
0.0
 10
171.3715832701
 20
709.1585783958
 30
0.0
 10
170.3408391347
 20
707.957930088
 30
0.0
 10
168.5511945357
 20
707.957930088
 30
0.0
  0
SPLINE
  5
43C
100
AcDbEntity
  8
0
100
AcDbSpline
 62
7
  6
CONTINUOUS
 70
0
 71
3
 72
8
 73
4
 74
0
 42
0.0000001
 43
0.0000001
 44
0.0000000001
 40
0.0
 40
0.0
 40
0.0
 40
0.0
 40
1.0
 40
1.0
 40
1.0
 40
1.0
 10
170.5447218885
 20
714.6634290218
 30
0.0
 10
171.2696412673
 20
713.9951477051
 30
0.0
 10
171.6321009567
 20
712.9643998146
 30
0.0
 10
171.6321009567
 20
711.5825257301
 30
0.0
  0
SPLINE
  5
43D
100
AcDbEntity
  8
0
100
AcDbSpline
 62
7
  6
CONTINUOUS
 70
0
 71
3
 72
8
 73
4
 74
0
 42
0.0000001
 43
0.0000001
 44
0.0000000001
 40
0.0
 40
0.0
 40
0.0
 40
0.0
 40
1.0
 40
1.0
 40
1.0
 40
1.0
 10
170.182262825
 20
712.4886746407
 30
0.0
 10
170.182262825
 20
712.9417490959
 30
0.0
 10
169.8877646794
 20
713.6100304127
 30
0.0
 10
169.2761139145
 20
714.6634290218
 30
0.0
  0
SPLINE
  5
43E
100
AcDbEntity
  8
0
100
AcDbSpline
 62
7
  6
CONTINUOUS
 70
0
 71
3
 72
8
 73
4
 74
0
 42
0.0000001
 43
0.0000001
 44
0.0000000001
 40
0.0
 40
0.0
 40
0.0
 40
0.0
 40
1.0
 40
1.0
 40
1.0
 40
1.0
 10
168.7324240675
 20
710.1326844692
 30
0.0
 10
169.706533896
 20
710.449839592
 30
0.0
 10
170.182262825
 20
711.0614891052
 30
0.0
 10
170.182262825
 20
711.9449822903
 30
0.0
  0
SPLINE
  5
43F
100
AcDbEntity
  8
0
100
AcDbSpline
 62
7
  6
CONTINUOUS
 70
0
 71
3
 72
8
 73
4
 74
0
 42
0.0000001
 43
0.0000001
 44
0.0000000001
 40
0.0
 40
0.0
 40
0.0
 40
0.0
 40
1.0
 40
1.0
 40
1.0
 40
1.0
 10
164.7453693619
 20
711.4012949467
 30
0.0
 10
165.0851752033
 20
713.5760493278
 30
0.0
 10
166.1725536456
 20
714.6634290218
 30
0.0
 10
168.0075059404
 20
714.6634290218
 30
0.0
  0
SPLINE
  5
440
100
AcDbEntity
  8
0
100
AcDbSpline
 62
7
  6
CONTINUOUS
 70
0
 71
3
 72
8
 73
4
 74
0
 42
0.0000001
 43
0.0000001
 44
0.0000000001
 40
0.0
 40
0.0
 40
0.0
 40
0.0
 40
1.0
 40
1.0
 40
1.0
 40
1.0
 10
166.2577263032
 20
708.3737123729
 30
0.0
 10
165.442588669
 20
708.8936542616
 30
0.0
 10
164.9374225703
 20
709.9018009874
 30
0.0
 10
164.7453693619
 20
711.4012949467
 30
0.0
  0
SPLINE
  5
441
100
AcDbEntity
  8
0
100
AcDbSpline
 62
7
  6
CONTINUOUS
 70
0
 71
3
 72
8
 73
4
 74
0
 42
0.0000001
 43
0.0000001
 44
0.0000000001
 40
0.0
 40
0.0
 40
0.0
 40
0.0
 40
1.0
 40
1.0
 40
1.0
 40
1.0
 10
166.1952081194
 20
717.9255681038
 30
0.0
 10
166.090520485
 20
717.9255681038
 30
0.0
 10
165.9902801484
 20
717.9402998107
 30
0.0
 10
165.8945306558
 20
717.969806761
 30
0.0
  0
SPLINE
  5
442
100
AcDbEntity
  8
0
100
AcDbSpline
 62
7
  6
CONTINUOUS
 70
0
 71
3
 72
8
 73
4
 74
0
 42
0.0000001
 43
0.0000001
 44
0.0000000001
 40
0.0
 40
0.0
 40
0.0
 40
0.0
 40
1.0
 40
1.0
 40
1.0
 40
1.0
 10
166.9201262464
 20
719.1941735745
 30
0.0
 10
167.124010252
 20
718.2200624943
 30
0.0
 10
167.8489296308
 20
717.7443373203
 30
0.0
 10
169.0948843827
 20
717.7443373203
 30
0.0
  0
SPLINE
  5
443
100
AcDbEntity
  8
0
100
AcDbSpline
 62
7
  6
CONTINUOUS
 70
0
 71
3
 72
8
 73
4
 74
0
 42
0.0000001
 43
0.0000001
 44
0.0000000001
 40
0.0
 40
0.0
 40
0.0
 40
0.0
 40
1.0
 40
1.0
 40
1.0
 40
1.0
 10
165.4702887406
 20
721.0064713955
 30
0.0
 10
166.6822624078
 20
720.791264534
 30
0.0
 10
167.2825865617
 20
720.5533969402
 30
0.0
 10
167.2825865617
 20
720.2815532684
 30
0.0
  0
SPLINE
  5
444
100
AcDbEntity
  8
0
100
AcDbSpline
 62
7
  6
CONTINUOUS
 70
0
 71
3
 72
8
 73
4
 74
0
 42
0.0000001
 43
0.0000001
 44
0.0000000001
 40
0.0
 40
0.0
 40
0.0
 40
0.0
 40
1.0
 40
1.0
 40
1.0
 40
1.0
 10
164.7453693619
 20
719.7378659248
 30
0.0
 10
165.0398675075
 20
720.5760526657
 30
0.0
 10
165.2777313461
 20
721.0064713955
 30
0.0
 10
165.4702887406
 20
721.0064713955
 30
0.0
  0
SPLINE
  5
445
100
AcDbEntity
  8
0
100
AcDbSpline
 62
7
  6
CONTINUOUS
 70
0
 71
3
 72
8
 73
4
 74
0
 42
0.0000001
 43
0.0000001
 44
0.0000000001
 40
0.0
 40
0.0
 40
0.0
 40
0.0
 40
1.0
 40
1.0
 40
1.0
 40
1.0
 10
165.8945306558
 20
717.969806761
 30
0.0
 10
165.3790526919
 20
718.1286606854
 30
0.0
 10
164.9937340301
 20
718.7157493435
 30
0.0
 10
164.7453693619
 20
719.7378659248
 30
0.0
  0
SPLINE
  5
446
100
AcDbEntity
  8
0
100
AcDbSpline
 62
7
  6
CONTINUOUS
 70
0
 71
3
 72
8
 73
4
 74
0
 42
0.0000001
 43
0.0000001
 44
0.0000000001
 40
0.0
 40
0.0
 40
0.0
 40
0.0
 40
1.0
 40
1.0
 40
1.0
 40
1.0
 10
173.2631686201
 20
677.330096662
 30
0.0
 10
171.3376021852
 20
678.8932040334
 30
0.0
 10
170.3634923568
 20
680.4676380157
 30
0.0
 10
170.3634923568
 20
682.0420707464
 30
0.0
  0
SPLINE
  5
447
100
AcDbEntity
  8
0
100
AcDbSpline
 62
7
  6
CONTINUOUS
 70
0
 71
3
 72
8
 73
4
 74
0
 42
0.0000001
 43
0.0000001
 44
0.0000000001
 40
0.0
 40
0.0
 40
0.0
 40
0.0
 40
1.0
 40
1.0
 40
1.0
 40
1.0
 10
174.7130067518
 20
676.4239477515
 30
0.0
 10
174.2372790744
 20
676.605178535
 30
0.0
 10
173.9880879989
 20
676.7864080667
 30
0.0
 10
173.9880879989
 20
676.9676375985
 30
0.0
  0
SPLINE
  5
448
100
AcDbEntity
  8
0
100
AcDbSpline
 62
7
  6
CONTINUOUS
 70
0
 71
3
 72
8
 73
4
 74
0
 42
0.0000001
 43
0.0000001
 44
0.0000000001
 40
0.0
 40
0.0
 40
0.0
 40
0.0
 40
1.0
 40
1.0
 40
1.0
 40
1.0
 10
179.4249809926
 20
678.2362455726
 30
0.0
 10
179.4249809926
 20
676.9902908206
 30
0.0
 10
178.586793313
 20
676.2653726935
 30
0.0
 10
176.8877642622
 20
676.061488688
 30
0.0
  0
SPLINE
  5
449
100
AcDbEntity
  8
0
100
AcDbSpline
 62
7
  6
CONTINUOUS
 70
0
 71
3
 72
8
 73
4
 74
0
 42
0.0000001
 43
0.0000001
 44
0.0000000001
 40
0.0
 40
0.0
 40
0.0
 40
0.0
 40
1.0
 40
1.0
 40
1.0
 40
1.0
 10
176.3440750411
 20
684.3980584145
 30
0.0
 10
178.4055636247
 20
682.8576042652
 30
0.0
 10
179.4249809926
 20
681.2944993973
 30
0.0
 10
179.4249809926
 20
679.6860843301
 30
0.0
  0
SPLINE
  5
44A
100
AcDbEntity
  8
0
100
AcDbSpline
 62
7
  6
CONTINUOUS
 70
0
 71
3
 72
8
 73
4
 74
0
 42
0.0000001
 43
0.0000001
 44
0.0000000001
 40
0.0
 40
0.0
 40
0.0
 40
0.0
 40
1.0
 40
1.0
 40
1.0
 40
1.0
 10
170.3634923568
 20
682.9482196569
 30
0.0
 10
170.3634923568
 20
684.6359235048
 30
0.0
 10
171.2130069604
 20
685.4854381084
 30
0.0
 10
172.9007089307
 20
685.4854381084
 30
0.0
  0
SPLINE
  5
44B
100
AcDbEntity
  8
0
100
AcDbSpline
 62
7
  6
CONTINUOUS
 70
0
 71
3
 72
8
 73
4
 74
0
 42
0.0000001
 43
0.0000001
 44
0.0000000001
 40
0.0
 40
0.0
 40
0.0
 40
0.0
 40
1.0
 40
1.0
 40
1.0
 40
1.0
 10
178.1563725492
 20
706.3268630505
 30
0.0
 10
177.9071817865
 20
705.6019399166
 30
0.0
 10
177.4314534833
 20
705.2394833565
 30
0.0
 10
176.7065344175
 20
705.2394833565
 30
0.0
  0
SPLINE
  5
44C
100
AcDbEntity
  8
0
100
AcDbSpline
 62
7
  6
CONTINUOUS
 70
0
 71
3
 72
8
 73
4
 74
0
 42
0.0000001
 43
0.0000001
 44
0.0000000001
 40
0.0
 40
0.0
 40
0.0
 40
0.0
 40
1.0
 40
1.0
 40
1.0
 40
1.0
 10
176.1628451964
 20
694.9093862772
 30
0.0
 10
175.5577145095
 20
694.9093862772
 30
0.0
 10
175.0895599464
 20
695.0605322368
 30
0.0
 10
174.7594599504
 20
695.3628243942
 30
0.0
  0
SPLINE
  5
44D
100
AcDbEntity
  8
0
100
AcDbSpline
 62
7
  6
CONTINUOUS
 70
0
 71
3
 72
8
 73
4
 74
0
 42
0.0000001
 43
0.0000001
 44
0.0000000001
 40
0.0
 40
0.0
 40
0.0
 40
0.0
 40
1.0
 40
1.0
 40
1.0
 40
1.0
 10
844.9357762364
 20
722.2947995454
 30
0.0
 10
844.7494590069
 20
722.4241811723
 30
0.0
 10
844.518538601
 20
722.4886725545
 30
0.0
 10
844.2438126664
 20
722.4886725545
 30
0.0
  0
SPLINE
  5
44E
100
AcDbEntity
  8
0
100
AcDbSpline
 62
7
  6
CONTINUOUS
 70
0
 71
3
 72
8
 73
4
 74
0
 42
0.0000001
 43
0.0000001
 44
0.0000000001
 40
0.0
 40
0.0
 40
0.0
 40
0.0
 40
1.0
 40
1.0
 40
1.0
 40
1.0
 10
844.2438126664
 20
721.9449839592
 30
0.0
 10
844.2438126664
 20
719.4077667594
 30
0.0
 10
845.082000346
 20
718.1391575337
 30
0.0
 10
846.7810295533
 20
718.1391575337
 30
0.0
  0
SPLINE
  5
44F
100
AcDbEntity
  8
0
100
AcDbSpline
 62
7
  6
CONTINUOUS
 70
0
 71
3
 72
8
 73
4
 74
0
 42
0.0000001
 43
0.0000001
 44
0.0000000001
 40
0.0
 40
0.0
 40
0.0
 40
0.0
 40
1.0
 40
1.0
 40
1.0
 40
1.0
 10
849.4994762848
 20
718.1391575336
 30
0.0
 10
849.4994762848
 20
718.2777945933
 30
0.0
 10
849.4819873659
 20
718.411688885
 30
0.0
 10
849.4470434348
 20
718.5408234572
 30
0.0
  0
SPLINE
  5
450
100
AcDbEntity
  8
0
100
AcDbSpline
 62
7
  6
CONTINUOUS
 70
0
 71
3
 72
8
 73
4
 74
0
 42
0.0000001
 43
0.0000001
 44
0.0000000001
 40
0.0
 40
0.0
 40
0.0
 40
0.0
 40
1.0
 40
1.0
 40
1.0
 40
1.0
 10
849.4470434348
 20
718.5408234572
 30
0.0
 10
849.1765050645
 20
719.5405923908
 30
0.0
 10
847.8597193378
 20
720.2550653934
 30
0.0
 10
845.5124209534
 20
720.6763759851
 30
0.0
  0
SPLINE
  5
451
100
AcDbEntity
  8
0
100
AcDbSpline
 62
7
  6
CONTINUOUS
 70
0
 71
3
 72
8
 73
4
 74
0
 42
0.0000001
 43
0.0000001
 44
0.0000000001
 40
0.0
 40
0.0
 40
0.0
 40
0.0
 40
1.0
 40
1.0
 40
1.0
 40
1.0
 10
845.5124209534
 20
720.6763759852
 30
0.0
 10
845.5124209534
 20
721.4911109353
 30
0.0
 10
845.3179120963
 20
722.0294383688
 30
0.0
 10
844.9357762364
 20
722.2947995454
 30
0.0
  0
SPLINE
  5
452
100
AcDbEntity
  8
0
100
AcDbSpline
 62
7
  6
CONTINUOUS
 70
0
 71
3
 72
8
 73
4
 74
0
 42
0.0000001
 43
0.0000001
 44
0.0000000001
 40
0.0
 40
0.0
 40
0.0
 40
0.0
 40
1.0
 40
1.0
 40
1.0
 40
1.0
 10
854.392679901
 20
687.3300995827
 30
0.0
 10
854.8117748183
 20
687.3300995827
 30
0.0
 10
855.1289272848
 20
687.4377047381
 30
0.0
 10
855.3413057855
 20
687.6500836904
 30
0.0
  0
SPLINE
  5
453
100
AcDbEntity
  8
0
100
AcDbSpline
 62
7
  6
CONTINUOUS
 70
0
 71
3
 72
8
 73
4
 74
0
 42
0.0000001
 43
0.0000001
 44
0.0000000001
 40
0.0
 40
0.0
 40
0.0
 40
0.0
 40
1.0
 40
1.0
 40
1.0
 40
1.0
 10
855.3413057855
 20
687.6500836904
 30
0.0
 10
855.5536833526
 20
687.8624617093
 30
0.0
 10
855.661287875
 20
688.179612604
 30
0.0
 10
855.661287875
 20
688.5987050533
 30
0.0
  0
SPLINE
  5
454
100
AcDbEntity
  8
0
100
AcDbSpline
 62
7
  6
CONTINUOUS
 70
0
 71
3
 72
8
 73
4
 74
0
 42
0.0000001
 43
0.0000001
 44
0.0000000001
 40
0.0
 40
0.0
 40
0.0
 40
0.0
 40
1.0
 40
1.0
 40
1.0
 40
1.0
 10
855.661287875
 20
688.5987050533
 30
0.0
 10
855.661287875
 20
689.233010292
 30
0.0
 10
855.2308678936
 20
689.6521036625
 30
0.0
 10
854.392679901
 20
689.8673155308
 30
0.0
  0
SPLINE
  5
455
100
AcDbEntity
  8
0
100
AcDbSpline
 62
7
  6
CONTINUOUS
 70
0
 71
3
 72
8
 73
4
 74
0
 42
0.0000001
 43
0.0000001
 44
0.0000000001
 40
0.0
 40
0.0
 40
0.0
 40
0.0
 40
1.0
 40
1.0
 40
1.0
 40
1.0
 10
855.4345991704
 20
707.0814991724
 30
0.0
 10
855.2271447014
 20
707.3249006514
 30
0.0
 10
854.8783692298
 20
707.4466013908
 30
0.0
 10
854.392679901
 20
707.4466013908
 30
0.0
  0
SPLINE
  5
456
100
AcDbEntity
  8
0
100
AcDbSpline
 62
7
  6
CONTINUOUS
 70
0
 71
3
 72
8
 73
4
 74
0
 42
0.0000001
 43
0.0000001
 44
0.0000000001
 40
0.0
 40
0.0
 40
0.0
 40
0.0
 40
1.0
 40
1.0
 40
1.0
 40
1.0
 10
854.392679901
 20
705.0906137228
 30
0.0
 10
855.2308678936
 20
705.0906137228
 30
0.0
 10
855.661287875
 20
705.521034956
 30
0.0
 10
855.661287875
 20
706.3592242003
 30
0.0
  0
SPLINE
  5
457
100
AcDbEntity
  8
0
100
AcDbSpline
 62
7
  6
CONTINUOUS
 70
0
 71
3
 72
8
 73
4
 74
0
 42
0.0000001
 43
0.0000001
 44
0.0000000001
 40
0.0
 40
0.0
 40
0.0
 40
0.0
 40
1.0
 40
1.0
 40
1.0
 40
1.0
 10
855.661287875
 20
706.3592242003
 30
0.0
 10
855.661287875
 20
706.6640873973
 30
0.0
 10
855.5851633661
 20
706.9048457213
 30
0.0
 10
855.4345991704
 20
707.0814991724
 30
0.0
  0
SPLINE
  5
458
100
AcDbEntity
  8
0
100
AcDbSpline
 62
7
  6
CONTINUOUS
 70
0
 71
3
 72
8
 73
4
 74
0
 42
0.0000001
 43
0.0000001
 44
0.0000000001
 40
0.0
 40
0.0
 40
0.0
 40
0.0
 40
1.0
 40
1.0
 40
1.0
 40
1.0
 10
853.4865309905
 20
697.4789633751
 30
0.0
 10
852.3991525482
 20
697.4789633751
 30
0.0
 10
851.8554627012
 20
697.0032382011
 30
0.0
 10
851.8554627012
 20
696.029127121
 30
0.0
  0
SPLINE
  5
459
100
AcDbEntity
  8
0
100
AcDbSpline
 62
7
  6
CONTINUOUS
 70
0
 71
3
 72
8
 73
4
 74
0
 42
0.0000001
 43
0.0000001
 44
0.0000000001
 40
0.0
 40
0.0
 40
0.0
 40
0.0
 40
1.0
 40
1.0
 40
1.0
 40
1.0
 10
851.8554627012
 20
696.029127121
 30
0.0
 10
851.8554627012
 20
695.4061472416
 30
0.0
 10
852.0366934846
 20
695.0436906815
 30
0.0
 10
852.3991525482
 20
694.941747427
 30
0.0
  0
SPLINE
  5
45A
100
AcDbEntity
  8
0
100
AcDbSpline
 62
7
  6
CONTINUOUS
 70
0
 71
3
 72
8
 73
4
 74
0
 42
0.0000001
 43
0.0000001
 44
0.0000000001
 40
0.0
 40
0.0
 40
0.0
 40
0.0
 40
1.0
 40
1.0
 40
1.0
 40
1.0
 10
855.4800583433
 20
696.029127121
 30
0.0
 10
855.4800583433
 20
697.0032382011
 30
0.0
 10
854.8117732714
 20
697.4789633751
 30
0.0
 10
853.4865309905
 20
697.4789633751
 30
0.0
  0
SPLINE
  5
45B
100
AcDbEntity
  8
0
100
AcDbSpline
 62
7
  6
CONTINUOUS
 70
0
 71
3
 72
8
 73
4
 74
0
 42
0.0000001
 43
0.0000001
 44
0.0000000001
 40
0.0
 40
0.0
 40
0.0
 40
0.0
 40
1.0
 40
1.0
 40
1.0
 40
1.0
 10
846.9592225391
 20
683.5013253557
 30
0.0
 10
847.3978835323
 20
683.1479211367
 30
0.0
 10
847.6412684017
 20
682.5514711301
 30
0.0
 10
847.6871784638
 20
681.7119753361
 30
0.0
  0
SPLINE
  5
45C
100
AcDbEntity
  8
0
100
AcDbSpline
 62
7
  6
CONTINUOUS
 70
0
 71
3
 72
8
 73
4
 74
0
 42
0.0000001
 43
0.0000001
 44
0.0000000001
 40
0.0
 40
0.0
 40
0.0
 40
0.0
 40
1.0
 40
1.0
 40
1.0
 40
1.0
 10
846.7810295533
 20
682.2556626797
 30
0.0
 10
846.7810295533
 20
682.4935252666
 30
0.0
 10
846.4185698639
 20
682.7313928604
 30
0.0
 10
845.6936507981
 20
682.9805808067
 30
0.0
  0
SPLINE
  5
45D
100
AcDbEntity
  8
0
100
AcDbSpline
 62
7
  6
CONTINUOUS
 70
0
 71
3
 72
8
 73
4
 74
0
 42
0.0000001
 43
0.0000001
 44
0.0000000001
 40
0.0
 40
0.0
 40
0.0
 40
0.0
 40
1.0
 40
1.0
 40
1.0
 40
1.0
 10
845.6936507981
 20
682.9805808067
 30
0.0
 10
844.9687317322
 20
682.9805808067
 30
0.0
 10
844.6062723558
 20
682.5614874363
 30
0.0
 10
844.6062723558
 20
681.7119753361
 30
0.0
  0
SPLINE
  5
45E
100
AcDbEntity
  8
0
100
AcDbSpline
 62
7
  6
CONTINUOUS
 70
0
 71
3
 72
8
 73
4
 74
0
 42
0.0000001
 43
0.0000001
 44
0.0000000001
 40
0.0
 40
0.0
 40
0.0
 40
0.0
 40
1.0
 40
1.0
 40
1.0
 40
1.0
 10
843.7001234453
 20
682.0744318962
 30
0.0
 10
843.7001234453
 20
683.0828588136
 30
0.0
 10
844.3575176584
 20
683.6832468637
 30
0.0
 10
845.6949825077
 20
683.886932692
 30
0.0
  0
SPLINE
  5
45F
100
AcDbEntity
  8
0
100
AcDbSpline
 62
7
  6
CONTINUOUS
 70
0
 71
3
 72
8
 73
4
 74
0
 42
0.0000001
 43
0.0000001
 44
0.0000000001
 40
0.0
 40
0.0
 40
0.0
 40
0.0
 40
1.0
 40
1.0
 40
1.0
 40
1.0
 10
845.6949736946
 20
683.8867294448
 30
0.0
 10
846.2188728282
 20
683.8865135807
 30
0.0
 10
846.640570045
 20
683.758045551
 30
0.0
 10
846.9592225391
 20
683.5013253557
 30
0.0
  0
SPLINE
  5
460
100
AcDbEntity
  8
0
100
AcDbSpline
 62
7
  6
CONTINUOUS
 70
0
 71
3
 72
8
 73
4
 74
0
 42
0.0000001
 43
0.0000001
 44
0.0000000001
 40
0.0
 40
0.0
 40
0.0
 40
0.0
 40
1.0
 40
1.0
 40
1.0
 40
1.0
 10
847.6871784638
 20
688.7799358368
 30
0.0
 10
847.5059483062
 20
688.3042056561
 30
0.0
 10
847.3247187744
 20
688.0550177097
 30
0.0
 10
847.1434892427
 20
688.0550177097
 30
0.0
  0
SPLINE
  5
461
100
AcDbEntity
  8
0
100
AcDbSpline
 62
7
  6
CONTINUOUS
 70
0
 71
3
 72
8
 73
4
 74
0
 42
0.0000001
 43
0.0000001
 44
0.0000000001
 40
0.0
 40
0.0
 40
0.0
 40
0.0
 40
1.0
 40
1.0
 40
1.0
 40
1.0
 10
846.7810295533
 20
689.3236231804
 30
0.0
 10
846.5771461736
 20
689.8106787205
 30
0.0
 10
846.1580521773
 20
690.0485413075
 30
0.0
 10
845.5124209534
 20
690.0485413074
 30
0.0
  0
SPLINE
  5
462
100
AcDbEntity
  8
0
100
AcDbSpline
 62
7
  6
CONTINUOUS
 70
0
 71
3
 72
8
 73
4
 74
0
 42
0.0000001
 43
0.0000001
 44
0.0000000001
 40
0.0
 40
0.0
 40
0.0
 40
0.0
 40
1.0
 40
1.0
 40
1.0
 40
1.0
 10
847.1434892427
 20
690.0485413075
 30
0.0
 10
847.5059483062
 20
689.6067972183
 30
0.0
 10
847.6871784638
 20
689.1877038479
 30
0.0
 10
847.6871784638
 20
688.7799358368
 30
0.0
  0
SPLINE
  5
463
100
AcDbEntity
  8
0
100
AcDbSpline
 62
7
  6
CONTINUOUS
 70
0
 71
3
 72
8
 73
4
 74
0
 42
0.0000001
 43
0.0000001
 44
0.0000000001
 40
0.0
 40
0.0
 40
0.0
 40
0.0
 40
1.0
 40
1.0
 40
1.0
 40
1.0
 10
846.7810295533
 20
698.2038840055
 30
0.0
 10
846.7810295533
 20
698.8155335188
 30
0.0
 10
846.4185698639
 20
699.1100329161
 30
0.0
 10
845.6936507981
 20
699.1100329161
 30
0.0
  0
SPLINE
  5
464
100
AcDbEntity
  8
0
100
AcDbSpline
 62
7
  6
CONTINUOUS
 70
0
 71
3
 72
8
 73
4
 74
0
 42
0.0000001
 43
0.0000001
 44
0.0000000001
 40
0.0
 40
0.0
 40
0.0
 40
0.0
 40
1.0
 40
1.0
 40
1.0
 40
1.0
 10
843.7001234453
 20
698.2038840055
 30
0.0
 10
843.858699442
 20
699.4158576727
 30
0.0
 10
844.4023886632
 20
700.0161818266
 30
0.0
 10
845.3311914216
 20
700.0161818266
 30
0.0
  0
SPLINE
  5
465
100
AcDbEntity
  8
0
100
AcDbSpline
 62
7
  6
CONTINUOUS
 70
0
 71
3
 72
8
 73
4
 74
0
 42
0.0000001
 43
0.0000001
 44
0.0000000001
 40
0.0
 40
0.0
 40
0.0
 40
0.0
 40
1.0
 40
1.0
 40
1.0
 40
1.0
 10
846.0561101745
 20
700.0161818266
 30
0.0
 10
847.1434892427
 20
700.0161818266
 30
0.0
 10
847.6871784638
 20
699.3592233658
 30
0.0
 10
847.6871784638
 20
698.0226532221
 30
0.0
  0
SPLINE
  5
466
100
AcDbEntity
  8
0
100
AcDbSpline
 62
7
  6
CONTINUOUS
 70
0
 71
3
 72
8
 73
4
 74
0
 42
0.0000001
 43
0.0000001
 44
0.0000000001
 40
0.0
 40
0.0
 40
0.0
 40
0.0
 40
1.0
 40
1.0
 40
1.0
 40
1.0
 10
847.0970360441
 20
704.6371756058
 30
0.0
 10
847.4898585249
 20
704.2774447464
 30
0.0
 10
847.6871784638
 20
703.7036719578
 30
0.0
 10
847.6871784638
 20
702.9158568382
 30
0.0
  0
SPLINE
  5
467
100
AcDbEntity
  8
0
100
AcDbSpline
 62
7
  6
CONTINUOUS
 70
0
 71
3
 72
8
 73
4
 74
0
 42
0.0000001
 43
0.0000001
 44
0.0000000001
 40
0.0
 40
0.0
 40
0.0
 40
0.0
 40
1.0
 40
1.0
 40
1.0
 40
1.0
 10
847.6871784638
 20
702.9158568382
 30
0.0
 10
847.3926796924
 20
702.0776700974
 30
0.0
 10
846.6677609395
 20
701.6472488642
 30
0.0
 10
845.5124209534
 20
701.6472488642
 30
0.0
  0
SPLINE
  5
468
100
AcDbEntity
  8
0
100
AcDbSpline
 62
7
  6
CONTINUOUS
 70
0
 71
3
 72
8
 73
4
 74
0
 42
0.0000001
 43
0.0000001
 44
0.0000000001
 40
0.0
 40
0.0
 40
0.0
 40
0.0
 40
1.0
 40
1.0
 40
1.0
 40
1.0
 10
845.5123796454
 20
704.1844479516
 30
0.0
 10
844.9573896339
 20
703.9579152202
 30
0.0
 10
844.6515786147
 20
703.7087309527
 30
0.0
 10
844.6062723558
 20
703.4595466852
 30
0.0
  0
SPLINE
  5
469
100
AcDbEntity
  8
0
100
AcDbSpline
 62
7
  6
CONTINUOUS
 70
0
 71
3
 72
8
 73
4
 74
0
 42
0.0000001
 43
0.0000001
 44
0.0000000001
 40
0.0
 40
0.0
 40
0.0
 40
0.0
 40
1.0
 40
1.0
 40
1.0
 40
1.0
 10
843.7001234453
 20
703.2783159018
 30
0.0
 10
843.9719680558
 20
704.4902920723
 30
0.0
 10
844.5836185078
 20
705.0906137228
 30
0.0
 10
845.6936507981
 20
705.0906137228
 30
0.0
  0
SPLINE
  5
46A
100
AcDbEntity
  8
0
100
AcDbSpline
 62
7
  6
CONTINUOUS
 70
0
 71
3
 72
8
 73
4
 74
0
 42
0.0000001
 43
0.0000001
 44
0.0000000001
 40
0.0
 40
0.0
 40
0.0
 40
0.0
 40
1.0
 40
1.0
 40
1.0
 40
1.0
 10
857.6548164795
 20
738.4368932545
 30
0.0
 10
858.034002656
 20
738.4368932545
 30
0.0
 10
858.3697940798
 20
738.35670726
 30
0.0
 10
858.661646237
 20
738.1960630216
 30
0.0
  0
SPLINE
  5
46B
100
AcDbEntity
  8
0
100
AcDbSpline
 62
7
  6
CONTINUOUS
 70
0
 71
3
 72
8
 73
4
 74
0
 42
0.0000001
 43
0.0000001
 44
0.0000000001
 40
0.0
 40
0.0
 40
0.0
 40
0.0
 40
1.0
 40
1.0
 40
1.0
 40
1.0
 10
854.936369748
 20
737.3495144993
 30
0.0
 10
855.5933269571
 20
738.0744337216
 30
0.0
 10
856.204977722
 20
738.4368932545
 30
0.0
 10
856.748667569
 20
738.4368932545
 30
0.0
  0
SPLINE
  5
46C
100
AcDbEntity
  8
0
100
AcDbSpline
 62
7
  6
CONTINUOUS
 70
0
 71
3
 72
8
 73
4
 74
0
 42
0.0000001
 43
0.0000001
 44
0.0000000001
 40
0.0
 40
0.0
 40
0.0
 40
0.0
 40
1.0
 40
1.0
 40
1.0
 40
1.0
 10
852.9428423952
 20
733.7249191701
 30
0.0
 10
853.3053014587
 20
733.7249191701
 30
0.0
 10
853.9622586678
 20
734.9368931502
 30
0.0
 10
854.936369748
 20
737.3495144993
 30
0.0
  0
SPLINE
  5
46D
100
AcDbEntity
  8
0
100
AcDbSpline
 62
7
  6
CONTINUOUS
 70
0
 71
3
 72
8
 73
4
 74
0
 42
0.0000001
 43
0.0000001
 44
0.0000000001
 40
0.0
 40
0.0
 40
0.0
 40
0.0
 40
1.0
 40
1.0
 40
1.0
 40
1.0
 10
852.2179230164
 20
734.8122976124
 30
0.0
 10
852.2179230164
 20
734.2119740844
 30
0.0
 10
852.4557868551
 20
733.849514395
 30
0.0
 10
852.9428423952
 20
733.7249191701
 30
0.0
  0
SPLINE
  5
46E
100
AcDbEntity
  8
0
100
AcDbSpline
 62
7
  6
CONTINUOUS
 70
0
 71
3
 72
8
 73
4
 74
0
 42
0.0000001
 43
0.0000001
 44
0.0000000001
 40
0.0
 40
0.0
 40
0.0
 40
0.0
 40
1.0
 40
1.0
 40
1.0
 40
1.0
 10
853.3053014587
 20
738.0744337216
 30
0.0
 10
852.5803820799
 20
736.9870551229
 30
0.0
 10
852.2179230164
 20
736.0809062123
 30
0.0
 10
852.2179230164
 20
735.3559871465
 30
0.0
  0
SPLINE
  5
46F
100
AcDbEntity
  8
0
100
AcDbSpline
 62
7
  6
CONTINUOUS
 70
0
 71
3
 72
8
 73
4
 74
0
 42
0.0000001
 43
0.0000001
 44
0.0000000001
 40
0.0
 40
0.0
 40
0.0
 40
0.0
 40
1.0
 40
1.0
 40
1.0
 40
1.0
 10
850.2243950378
 20
734.9935274571
 30
0.0
 10
850.2243950378
 20
736.3187703639
 30
0.0
 10
850.5868547271
 20
737.4061488062
 30
0.0
 10
851.3117741059
 20
738.2556634098
 30
0.0
  0
SPLINE
  5
470
100
AcDbEntity
  8
0
100
AcDbSpline
 62
7
  6
CONTINUOUS
 70
0
 71
3
 72
8
 73
4
 74
0
 42
0.0000001
 43
0.0000001
 44
0.0000000001
 40
0.0
 40
0.0
 40
0.0
 40
0.0
 40
1.0
 40
1.0
 40
1.0
 40
1.0
 10
852.7616116117
 20
731.1877019703
 30
0.0
 10
851.3117741059
 20
731.1877019703
 30
0.0
 10
850.4735861133
 20
732.3996762633
 30
0.0
 10
850.2243950378
 20
734.9935274571
 30
0.0
  0
SPLINE
  5
471
100
AcDbEntity
  8
0
100
AcDbSpline
 62
7
  6
CONTINUOUS
 70
0
 71
3
 72
8
 73
4
 74
0
 42
0.0000001
 43
0.0000001
 44
0.0000000001
 40
0.0
 40
0.0
 40
0.0
 40
0.0
 40
1.0
 40
1.0
 40
1.0
 40
1.0
 10
857.4735856961
 20
735.8996763676
 30
0.0
 10
857.2243952464
 20
735.8996763677
 30
0.0
 10
856.4428415607
 20
734.5177994669
 30
0.0
 10
855.1175992797
 20
731.7313918173
 30
0.0
  0
SPLINE
  5
472
100
AcDbEntity
  8
0
100
AcDbSpline
 62
7
  6
CONTINUOUS
 70
0
 71
3
 72
8
 73
4
 74
0
 42
0.0000001
 43
0.0000001
 44
0.0000000001
 40
0.0
 40
0.0
 40
0.0
 40
0.0
 40
1.0
 40
1.0
 40
1.0
 40
1.0
 10
857.2923561643
 20
731.7313918173
 30
0.0
 10
857.8926803182
 20
732.9999997914
 30
0.0
 10
858.1985050748
 20
734.0873788595
 30
0.0
 10
858.1985050748
 20
734.9935274571
 30
0.0
  0
SPLINE
  5
473
100
AcDbEntity
  8
0
100
AcDbSpline
 62
7
  6
CONTINUOUS
 70
0
 71
3
 72
8
 73
4
 74
0
 42
0.0000001
 43
0.0000001
 44
0.0000000001
 40
0.0
 40
0.0
 40
0.0
 40
0.0
 40
1.0
 40
1.0
 40
1.0
 40
1.0
 10
860.0108028959
 20
734.4498379231
 30
0.0
 10
860.0108028959
 20
732.6558620256
 30
0.0
 10
859.5803816627
 20
731.6974107325
 30
0.0
 10
859.1046539854
 20
731.5501616597
 30
0.0
  0
SPLINE
  5
474
100
AcDbEntity
  8
0
100
AcDbSpline
 62
7
  6
CONTINUOUS
 70
0
 71
3
 72
8
 73
4
 74
0
 42
0.0000001
 43
0.0000001
 44
0.0000000001
 40
0.0
 40
0.0
 40
0.0
 40
0.0
 40
1.0
 40
1.0
 40
1.0
 40
1.0
 10
858.661646237
 20
738.1960630216
 30
0.0
 10
859.381089181
 20
737.800059905
 30
0.0
 10
859.8335269351
 20
736.9151371869
 30
0.0
 10
860.0108028959
 20
735.5372166783
 30
0.0
  0
SPLINE
  5
475
100
AcDbEntity
  8
0
100
AcDbSpline
 62
7
  6
CONTINUOUS
 70
0
 71
3
 72
8
 73
4
 74
0
 42
0.0000001
 43
0.0000001
 44
0.0000000001
 40
0.0
 40
0.0
 40
0.0
 40
0.0
 40
1.0
 40
1.0
 40
1.0
 40
1.0
 10
855.0679456922
 20
721.5704111581
 30
0.0
 10
854.8843761774
 20
721.7892431202
 30
0.0
 10
854.6592874685
 20
721.9755223128
 30
0.0
 10
854.392679901
 20
722.126213491
 30
0.0
  0
SPLINE
  5
476
100
AcDbEntity
  8
0
100
AcDbSpline
 62
7
  6
CONTINUOUS
 70
0
 71
3
 72
8
 73
4
 74
0
 42
0.0000001
 43
0.0000001
 44
0.0000000001
 40
0.0
 40
0.0
 40
0.0
 40
0.0
 40
1.0
 40
1.0
 40
1.0
 40
1.0
 10
855.4800583433
 20
720.8576055169
 30
0.0
 10
855.3804999556
 20
721.1230951619
 30
0.0
 10
855.2431289747
 20
721.3615763661
 30
0.0
 10
855.0679456922
 20
721.5704111581
 30
0.0
  0
SPLINE
  5
477
100
AcDbEntity
  8
0
100
AcDbSpline
 62
7
  6
CONTINUOUS
 70
0
 71
3
 72
8
 73
4
 74
0
 42
0.0000001
 43
0.0000001
 44
0.0000000001
 40
0.0
 40
0.0
 40
0.0
 40
0.0
 40
1.0
 40
1.0
 40
1.0
 40
1.0
 10
854.2114503692
 20
719.9514566064
 30
0.0
 10
854.8797354411
 20
719.9514566064
 30
0.0
 10
855.2988288115
 20
720.257281363
 30
0.0
 10
855.4800583433
 20
720.8576055169
 30
0.0
  0
SPLINE
  5
478
100
AcDbEntity
  8
0
100
AcDbSpline
 62
7
  6
CONTINUOUS
 70
0
 71
3
 72
8
 73
4
 74
0
 42
0.0000001
 43
0.0000001
 44
0.0000000001
 40
0.0
 40
0.0
 40
0.0
 40
0.0
 40
1.0
 40
1.0
 40
1.0
 40
1.0
 10
857.1111266326
 20
720.3139156699
 30
0.0
 10
856.907242627
 20
718.6262130737
 30
0.0
 10
856.1823244999
 20
717.7766984701
 30
0.0
 10
854.936369748
 20
717.7766984701
 30
0.0
  0
SPLINE
  5
479
100
AcDbEntity
  8
0
100
AcDbSpline
 62
7
  6
CONTINUOUS
 70
0
 71
3
 72
8
 73
4
 74
0
 42
0.0000001
 43
0.0000001
 44
0.0000000001
 40
0.0
 40
0.0
 40
0.0
 40
0.0
 40
1.0
 40
1.0
 40
1.0
 40
1.0
 10
856.2050456535
 20
722.126140049
 30
0.0
 10
856.6241041405
 20
721.6730741628
 30
0.0
 10
856.9299068929
 20
721.0727751291
 30
0.0
 10
857.1111266325
 20
720.3139156699
 30
0.0
  0
SPLINE
  5
47A
100
AcDbEntity
  8
0
100
AcDbSpline
 62
7
  6
CONTINUOUS
 70
0
 71
3
 72
8
 73
4
 74
0
 42
0.0000001
 43
0.0000001
 44
0.0000000001
 40
0.0
 40
0.0
 40
0.0
 40
0.0
 40
1.0
 40
1.0
 40
1.0
 40
1.0
 10
858.5609653901
 20
702.5533977747
 30
0.0
 10
859.5237473558
 20
702.5533977747
 30
0.0
 10
860.0108028959
 20
702.0776700974
 30
0.0
 10
860.0108028959
 20
701.1035590172
 30
0.0
  0
SPLINE
  5
47B
100
AcDbEntity
  8
0
100
AcDbSpline
 62
7
  6
CONTINUOUS
 70
0
 71
3
 72
8
 73
4
 74
0
 42
0.0000001
 43
0.0000001
 44
0.0000000001
 40
0.0
 40
0.0
 40
0.0
 40
0.0
 40
1.0
 40
1.0
 40
1.0
 40
1.0
 10
858.7421949218
 20
700.1974101067
 30
0.0
 10
858.0172755431
 20
700.5598716736
 30
0.0
 10
857.6548164795
 20
701.1035590172
 30
0.0
 10
857.6548164795
 20
702.0097079277
 30
0.0
  0
SPLINE
  5
47C
100
AcDbEntity
  8
0
100
AcDbSpline
 62
7
  6
CONTINUOUS
 70
0
 71
3
 72
8
 73
4
 74
0
 42
0.0000001
 43
0.0000001
 44
0.0000000001
 40
0.0
 40
0.0
 40
0.0
 40
0.0
 40
1.0
 40
1.0
 40
1.0
 40
1.0
 10
853.848990054
 20
699.6537227631
 30
0.0
 10
856.0237481903
 20
699.325242281
 30
0.0
 10
857.1111266326
 20
698.2944993973
 30
0.0
 10
857.1111266326
 20
696.5728144646
 30
0.0
  0
SPLINE
  5
47D
100
AcDbEntity
  8
0
100
AcDbSpline
 62
7
  6
CONTINUOUS
 70
0
 71
3
 72
8
 73
4
 74
0
 42
0.0000001
 43
0.0000001
 44
0.0000000001
 40
0.0
 40
0.0
 40
0.0
 40
0.0
 40
1.0
 40
1.0
 40
1.0
 40
1.0
 10
850.6472836033
 20
698.1632483516
 30
0.0
 10
851.1483777481
 20
698.9456976634
 30
0.0
 10
852.0947936532
 20
699.4435114264
 30
0.0
 10
853.4865309905
 20
699.6537227631
 30
0.0
  0
SPLINE
  5
47E
100
AcDbEntity
  8
0
100
AcDbSpline
 62
7
  6
CONTINUOUS
 70
0
 71
3
 72
8
 73
4
 74
0
 42
0.0000001
 43
0.0000001
 44
0.0000000001
 40
0.0
 40
0.0
 40
0.0
 40
0.0
 40
1.0
 40
1.0
 40
1.0
 40
1.0
 10
850.2243950378
 20
696.5728144646
 30
0.0
 10
850.2243950378
 20
697.1927058033
 30
0.0
 10
850.3653579124
 20
697.7230265586
 30
0.0
 10
850.6472836033
 20
698.1632483516
 30
0.0
  0
SPLINE
  5
47F
100
AcDbEntity
  8
0
100
AcDbSpline
 62
7
  6
CONTINUOUS
 70
0
 71
3
 72
8
 73
4
 74
0
 42
0.0000001
 43
0.0000001
 44
0.0000000001
 40
0.0
 40
0.0
 40
0.0
 40
0.0
 40
1.0
 40
1.0
 40
1.0
 40
1.0
 10
854.2114503692
 20
730.8252429068
 30
0.0
 10
856.1370168041
 20
730.2928802967
 30
0.0
 10
857.1111266326
 20
729.1488675475
 30
0.0
 10
857.1111266326
 20
727.3818774223
 30
0.0
  0
SPLINE
  5
480
100
AcDbEntity
  8
0
100
AcDbSpline
 62
7
  6
CONTINUOUS
 70
0
 71
3
 72
8
 73
4
 74
0
 42
0.0000001
 43
0.0000001
 44
0.0000000001
 40
0.0
 40
0.0
 40
0.0
 40
0.0
 40
1.0
 40
1.0
 40
1.0
 40
1.0
 10
850.2243950378
 20
727.2006466389
 30
0.0
 10
850.4849127244
 20
729.6245952249
 30
0.0
 10
851.5156568597
 20
730.8252429068
 30
0.0
 10
853.3053014587
 20
730.8252429068
 30
0.0
  0
SPLINE
  5
481
100
AcDbEntity
  8
0
100
AcDbSpline
 62
7
  6
CONTINUOUS
 70
0
 71
3
 72
8
 73
4
 74
0
 42
0.0000001
 43
0.0000001
 44
0.0000000001
 40
0.0
 40
0.0
 40
0.0
 40
0.0
 40
1.0
 40
1.0
 40
1.0
 40
1.0
 10
850.9493144165
 20
724.8446602225
 30
0.0
 10
850.6095085751
 20
724.8446602225
 30
0.0
 10
850.3716441105
 20
725.6375405192
 30
0.0
 10
850.2243950378
 20
727.2006466389
 30
0.0
  0
SPLINE
  5
482
100
AcDbEntity
  8
0
100
AcDbSpline
 62
7
  6
CONTINUOUS
 70
0
 71
3
 72
8
 73
4
 74
0
 42
0.0000001
 43
0.0000001
 44
0.0000000001
 40
0.0
 40
0.0
 40
0.0
 40
0.0
 40
1.0
 40
1.0
 40
1.0
 40
1.0
 10
853.6677605222
 20
728.6504853964
 30
0.0
 10
852.6143631648
 20
728.6504853964
 30
0.0
 10
852.0140390109
 20
727.9255660176
 30
0.0
 10
851.8554627012
 20
726.4757285118
 30
0.0
  0
SPLINE
  5
483
100
AcDbEntity
  8
0
100
AcDbSpline
 62
7
  6
CONTINUOUS
 70
0
 71
3
 72
8
 73
4
 74
0
 42
0.0000001
 43
0.0000001
 44
0.0000000001
 40
0.0
 40
0.0
 40
0.0
 40
0.0
 40
1.0
 40
1.0
 40
1.0
 40
1.0
 10
855.4800583433
 20
726.6569580436
 30
0.0
 10
855.1515791129
 20
727.9935269356
 30
0.0
 10
854.5512562107
 20
728.6504853964
 30
0.0
 10
853.6677605222
 20
728.6504853964
 30
0.0
  0
SPLINE
  5
484
100
AcDbEntity
  8
0
100
AcDbSpline
 62
7
  6
CONTINUOUS
 70
0
 71
3
 72
8
 73
4
 74
0
 42
0.0000001
 43
0.0000001
 44
0.0000000001
 40
0.0
 40
0.0
 40
0.0
 40
0.0
 40
1.0
 40
1.0
 40
1.0
 40
1.0
 10
856.204977722
 20
714.8770234585
 30
0.0
 10
856.8053018759
 20
714.050162077
 30
0.0
 10
857.1111266325
 20
713.3818782568
 30
0.0
 10
857.1111266326
 20
712.883494854
 30
0.0
  0
SPLINE
  5
485
100
AcDbEntity
  8
0
100
AcDbSpline
 62
7
  6
CONTINUOUS
 70
0
 71
3
 72
8
 73
4
 74
0
 42
0.0000001
 43
0.0000001
 44
0.0000000001
 40
0.0
 40
0.0
 40
0.0
 40
0.0
 40
1.0
 40
1.0
 40
1.0
 40
1.0
 10
851.4930036377
 20
714.8770234585
 30
0.0
 10
851.9939615714
 20
715.4441451746
 30
0.0
 10
852.2898432901
 20
716.0428162731
 30
0.0
 10
852.3740676964
 20
716.6730382087
 30
0.0
  0
SPLINE
  5
486
100
AcDbEntity
  8
0
100
AcDbSpline
 62
7
  6
CONTINUOUS
 70
0
 71
3
 72
8
 73
4
 74
0
 42
0.0000001
 43
0.0000001
 44
0.0000000001
 40
0.0
 40
0.0
 40
0.0
 40
0.0
 40
1.0
 40
1.0
 40
1.0
 40
1.0
 10
855.4012631285
 20
713.0821220614
 30
0.0
 10
855.433082371
 20
713.1333391562
 30
0.0
 10
855.4593474411
 20
713.1879634523
 30
0.0
 10
855.4800583433
 20
713.2459539175
 30
0.0
  0
SPLINE
  5
487
100
AcDbEntity
  8
0
100
AcDbSpline
 62
7
  6
CONTINUOUS
 70
0
 71
3
 72
8
 73
4
 74
0
 42
0.0000001
 43
0.0000001
 44
0.0000000001
 40
0.0
 40
0.0
 40
0.0
 40
0.0
 40
1.0
 40
1.0
 40
1.0
 40
1.0
 10
853.8489900539
 20
712.5210357904
 30
0.0
 10
854.6546278332
 20
712.5210357904
 30
0.0
 10
855.1720516264
 20
712.7131771609
 30
0.0
 10
855.4012631285
 20
713.0821220614
 30
0.0
  0
SPLINE
  5
488
100
AcDbEntity
  8
0
100
AcDbSpline
 62
7
  6
CONTINUOUS
 70
0
 71
3
 72
8
 73
4
 74
0
 42
0.0000001
 43
0.0000001
 44
0.0000000001
 40
0.0
 40
0.0
 40
0.0
 40
0.0
 40
1.0
 40
1.0
 40
1.0
 40
1.0
 10
857.1111266326
 20
712.883494854
 30
0.0
 10
856.816628487
 20
711.3203874826
 30
0.0
 10
856.1483434151
 20
710.5275071859
 30
0.0
 10
855.1175992797
 20
710.5275071859
 30
0.0
  0
SPLINE
  5
489
100
AcDbEntity
  8
0
100
AcDbSpline
 62
7
  6
CONTINUOUS
 70
0
 71
3
 72
8
 73
4
 74
0
 42
0.0000001
 43
0.0000001
 44
0.0000000001
 40
0.0
 40
0.0
 40
0.0
 40
0.0
 40
1.0
 40
1.0
 40
1.0
 40
1.0
 10
853.848990054
 20
709.8025890589
 30
0.0
 10
856.0237481903
 20
709.4854364395
 30
0.0
 10
857.1111266326
 20
708.3980592489
 30
0.0
 10
857.1111266326
 20
706.5404524803
 30
0.0
  0
SPLINE
  5
48A
100
AcDbEntity
  8
0
100
AcDbSpline
 62
7
  6
CONTINUOUS
 70
0
 71
3
 72
8
 73
4
 74
0
 42
0.0000001
 43
0.0000001
 44
0.0000000001
 40
0.0
 40
0.0
 40
0.0
 40
0.0
 40
1.0
 40
1.0
 40
1.0
 40
1.0
 10
850.2243950378
 20
706.1779934168
 30
0.0
 10
850.5642008792
 20
708.6019407511
 30
0.0
 10
851.5269847225
 20
709.8025890589
 30
0.0
 10
853.1240719269
 20
709.8025890589
 30
0.0
  0
SPLINE
  5
48B
100
AcDbEntity
  8
0
100
AcDbSpline
 62
7
  6
CONTINUOUS
 70
0
 71
3
 72
8
 73
4
 74
0
 42
0.0000001
 43
0.0000001
 44
0.0000000001
 40
0.0
 40
0.0
 40
0.0
 40
0.0
 40
1.0
 40
1.0
 40
1.0
 40
1.0
 10
851.3117741059
 20
703.0970876217
 30
0.0
 10
850.5868547271
 20
703.7653714418
 30
0.0
 10
850.2243950377
 20
704.7961168289
 30
0.0
 10
850.2243950378
 20
706.1779934168
 30
0.0
  0
SPLINE
  5
48C
100
AcDbEntity
  8
0
100
AcDbSpline
 62
7
  6
CONTINUOUS
 70
0
 71
3
 72
8
 73
4
 74
0
 42
0.0000001
 43
0.0000001
 44
0.0000000001
 40
0.0
 40
0.0
 40
0.0
 40
0.0
 40
1.0
 40
1.0
 40
1.0
 40
1.0
 10
851.6742331694
 20
705.4530752897
 30
0.0
 10
851.6742331694
 20
704.7508078814
 30
0.0
 10
851.968731315
 20
704.0258897543
 30
0.0
 10
852.5803820799
 20
703.0970876217
 30
0.0
  0
SPLINE
  5
48D
100
AcDbEntity
  8
0
100
AcDbSpline
 62
7
  6
CONTINUOUS
 70
0
 71
3
 72
8
 73
4
 74
0
 42
0.0000001
 43
0.0000001
 44
0.0000000001
 40
0.0
 40
0.0
 40
0.0
 40
0.0
 40
1.0
 40
1.0
 40
1.0
 40
1.0
 10
853.3053014587
 20
707.6278321743
 30
0.0
 10
852.2179230164
 20
707.3786417246
 30
0.0
 10
851.6742331694
 20
706.7783175707
 30
0.0
 10
851.6742331694
 20
705.8155343533
 30
0.0
  0
SPLINE
  5
48E
100
AcDbEntity
  8
0
100
AcDbSpline
 62
7
  6
CONTINUOUS
 70
0
 71
3
 72
8
 73
4
 74
0
 42
0.0000001
 43
0.0000001
 44
0.0000000001
 40
0.0
 40
0.0
 40
0.0
 40
0.0
 40
1.0
 40
1.0
 40
1.0
 40
1.0
 10
857.1111266326
 20
706.5404524803
 30
0.0
 10
856.816628487
 20
704.2524269819
 30
0.0
 10
855.7858843516
 20
703.0970876217
 30
0.0
 10
854.0302208375
 20
703.0970876217
 30
0.0
  0
SPLINE
  5
48F
100
AcDbEntity
  8
0
100
AcDbSpline
 62
7
  6
CONTINUOUS
 70
0
 71
3
 72
8
 73
4
 74
0
 42
0.0000001
 43
0.0000001
 44
0.0000000001
 40
0.0
 40
0.0
 40
0.0
 40
0.0
 40
1.0
 40
1.0
 40
1.0
 40
1.0
 10
854.0302208375
 20
692.042069912
 30
0.0
 10
854.6409507897
 20
692.042069912
 30
0.0
 10
855.1639593364
 20
691.9036347985
 30
0.0
 10
855.5987696912
 20
691.6262876271
 30
0.0
  0
SPLINE
  5
490
100
AcDbEntity
  8
0
100
AcDbSpline
 62
7
  6
CONTINUOUS
 70
0
 71
3
 72
8
 73
4
 74
0
 42
0.0000001
 43
0.0000001
 44
0.0000000001
 40
0.0
 40
0.0
 40
0.0
 40
0.0
 40
1.0
 40
1.0
 40
1.0
 40
1.0
 10
850.2243950377
 20
688.4174742699
 30
0.0
 10
850.4849127244
 20
690.8414216042
 30
0.0
 10
851.5156568597
 20
692.042069912
 30
0.0
 10
853.3053014587
 20
692.042069912
 30
0.0
  0
SPLINE
  5
491
100
AcDbEntity
  8
0
100
AcDbSpline
 62
7
  6
CONTINUOUS
 70
0
 71
3
 72
8
 73
4
 74
0
 42
0.0000001
 43
0.0000001
 44
0.0000000001
 40
0.0
 40
0.0
 40
0.0
 40
0.0
 40
1.0
 40
1.0
 40
1.0
 40
1.0
 10
851.3117741059
 20
685.3365709782
 30
0.0
 10
850.5868547271
 20
686.0048522949
 30
0.0
 10
850.2243950378
 20
687.0356001854
 30
0.0
 10
850.2243950378
 20
688.4174742699
 30
0.0
  0
SPLINE
  5
492
100
AcDbEntity
  8
0
100
AcDbSpline
 62
7
  6
CONTINUOUS
 70
0
 71
3
 72
8
 73
4
 74
0
 42
0.0000001
 43
0.0000001
 44
0.0000000001
 40
0.0
 40
0.0
 40
0.0
 40
0.0
 40
1.0
 40
1.0
 40
1.0
 40
1.0
 10
851.6742331694
 20
687.5113253593
 30
0.0
 10
851.6742331694
 20
687.0582509041
 30
0.0
 10
851.968731315
 20
686.3899695873
 30
0.0
 10
852.5803820799
 20
685.3365709782
 30
0.0
  0
SPLINE
  5
493
100
AcDbEntity
  8
0
100
AcDbSpline
 62
7
  6
CONTINUOUS
 70
0
 71
3
 72
8
 73
4
 74
0
 42
0.0000001
 43
0.0000001
 44
0.0000000001
 40
0.0
 40
0.0
 40
0.0
 40
0.0
 40
1.0
 40
1.0
 40
1.0
 40
1.0
 10
853.1240719269
 20
689.8673155308
 30
0.0
 10
852.1499620985
 20
689.550160408
 30
0.0
 10
851.6742331694
 20
688.9385108948
 30
0.0
 10
851.6742331694
 20
688.0550177097
 30
0.0
  0
SPLINE
  5
494
100
AcDbEntity
  8
0
100
AcDbSpline
 62
7
  6
CONTINUOUS
 70
0
 71
3
 72
8
 73
4
 74
0
 42
0.0000001
 43
0.0000001
 44
0.0000000001
 40
0.0
 40
0.0
 40
0.0
 40
0.0
 40
1.0
 40
1.0
 40
1.0
 40
1.0
 10
857.1111266326
 20
688.5987050533
 30
0.0
 10
856.7713207911
 20
686.4239506722
 30
0.0
 10
855.6839423488
 20
685.3365709782
 30
0.0
 10
853.848990054
 20
685.3365709782
 30
0.0
  0
SPLINE
  5
495
100
AcDbEntity
  8
0
100
AcDbSpline
 62
7
  6
CONTINUOUS
 70
0
 71
3
 72
8
 73
4
 74
0
 42
0.0000001
 43
0.0000001
 44
0.0000000001
 40
0.0
 40
0.0
 40
0.0
 40
0.0
 40
1.0
 40
1.0
 40
1.0
 40
1.0
 10
855.5987696912
 20
691.6262876271
 30
0.0
 10
856.4139073254
 20
691.1063457384
 30
0.0
 10
856.9190734241
 20
690.0981990126
 30
0.0
 10
857.1111266326
 20
688.5987050533
 30
0.0
  0
SPLINE
  5
496
100
AcDbEntity
  8
0
100
AcDbSpline
 62
7
  6
CONTINUOUS
 70
0
 71
3
 72
8
 73
4
 74
0
 42
0.0000001
 43
0.0000001
 44
0.0000000001
 40
0.0
 40
0.0
 40
0.0
 40
0.0
 40
1.0
 40
1.0
 40
1.0
 40
1.0
 10
855.661287875
 20
682.0744318962
 30
0.0
 10
855.7659755095
 20
682.0744318962
 30
0.0
 10
855.866215846
 20
682.0597001893
 30
0.0
 10
855.9619653386
 20
682.030193239
 30
0.0
  0
SPLINE
  5
497
100
AcDbEntity
  8
0
100
AcDbSpline
 62
7
  6
CONTINUOUS
 70
0
 71
3
 72
8
 73
4
 74
0
 42
0.0000001
 43
0.0000001
 44
0.0000000001
 40
0.0
 40
0.0
 40
0.0
 40
0.0
 40
1.0
 40
1.0
 40
1.0
 40
1.0
 10
854.936369748
 20
680.8058264256
 30
0.0
 10
854.7324857424
 20
681.7799375057
 30
0.0
 10
854.0075663637
 20
682.2556626797
 30
0.0
 10
852.7616116117
 20
682.2556626797
 30
0.0
  0
SPLINE
  5
498
100
AcDbEntity
  8
0
100
AcDbSpline
 62
7
  6
CONTINUOUS
 70
0
 71
3
 72
8
 73
4
 74
0
 42
0.0000001
 43
0.0000001
 44
0.0000000001
 40
0.0
 40
0.0
 40
0.0
 40
0.0
 40
1.0
 40
1.0
 40
1.0
 40
1.0
 10
856.3862072538
 20
678.9935286045
 30
0.0
 10
855.1742335867
 20
679.208735466
 30
0.0
 10
854.5739094328
 20
679.4466030598
 30
0.0
 10
854.5739094328
 20
679.7184467316
 30
0.0
  0
SPLINE
  5
499
100
AcDbEntity
  8
0
100
AcDbSpline
 62
7
  6
CONTINUOUS
 70
0
 71
3
 72
8
 73
4
 74
0
 42
0.0000001
 43
0.0000001
 44
0.0000000001
 40
0.0
 40
0.0
 40
0.0
 40
0.0
 40
1.0
 40
1.0
 40
1.0
 40
1.0
 10
857.1111266326
 20
680.2621340752
 30
0.0
 10
856.816628487
 20
679.4239473343
 30
0.0
 10
856.5787646483
 20
678.9935286045
 30
0.0
 10
856.3862072538
 20
678.9935286045
 30
0.0
  0
SPLINE
  5
49A
100
AcDbEntity
  8
0
100
AcDbSpline
 62
7
  6
CONTINUOUS
 70
0
 71
3
 72
8
 73
4
 74
0
 42
0.0000001
 43
0.0000001
 44
0.0000000001
 40
0.0
 40
0.0
 40
0.0
 40
0.0
 40
1.0
 40
1.0
 40
1.0
 40
1.0
 10
855.9619653386
 20
682.030193239
 30
0.0
 10
856.4774433026
 20
681.8713393146
 30
0.0
 10
856.8627619643
 20
681.2842506565
 30
0.0
 10
857.1111266326
 20
680.2621340752
 30
0.0
  0
SPLINE
  5
49B
100
AcDbEntity
  8
0
100
AcDbSpline
 62
7
  6
CONTINUOUS
 70
0
 71
3
 72
8
 73
4
 74
0
 42
0.0000001
 43
0.0000001
 44
0.0000000001
 40
0.0
 40
0.0
 40
0.0
 40
0.0
 40
1.0
 40
1.0
 40
1.0
 40
1.0
 10
848.5933273743
 20
722.669903338
 30
0.0
 10
850.5188938092
 20
721.1067959666
 30
0.0
 10
851.4930036377
 20
719.5323619843
 30
0.0
 10
851.4930036377
 20
717.9579292536
 30
0.0
  0
SPLINE
  5
49C
100
AcDbEntity
  8
0
100
AcDbSpline
 62
7
  6
CONTINUOUS
 70
0
 71
3
 72
8
 73
4
 74
0
 42
0.0000001
 43
0.0000001
 44
0.0000000001
 40
0.0
 40
0.0
 40
0.0
 40
0.0
 40
1.0
 40
1.0
 40
1.0
 40
1.0
 10
847.1434892427
 20
723.5760522485
 30
0.0
 10
847.61921692
 20
723.394821465
 30
0.0
 10
847.8684079956
 20
723.2135919333
 30
0.0
 10
847.8684079956
 20
723.0323624015
 30
0.0
  0
SPLINE
  5
49D
100
AcDbEntity
  8
0
100
AcDbSpline
 62
7
  6
CONTINUOUS
 70
0
 71
3
 72
8
 73
4
 74
0
 42
0.0000001
 43
0.0000001
 44
0.0000000001
 40
0.0
 40
0.0
 40
0.0
 40
0.0
 40
1.0
 40
1.0
 40
1.0
 40
1.0
 10
842.4315150018
 20
721.7637544274
 30
0.0
 10
842.4315150018
 20
723.0097091794
 30
0.0
 10
843.2697026815
 20
723.7346273065
 30
0.0
 10
844.9687317322
 20
723.938511312
 30
0.0
  0
SPLINE
  5
49E
100
AcDbEntity
  8
0
100
AcDbSpline
 62
7
  6
CONTINUOUS
 70
0
 71
3
 72
8
 73
4
 74
0
 42
0.0000001
 43
0.0000001
 44
0.0000000001
 40
0.0
 40
0.0
 40
0.0
 40
0.0
 40
1.0
 40
1.0
 40
1.0
 40
1.0
 10
845.5124209534
 20
715.6019415855
 30
0.0
 10
843.4509323697
 20
717.1423957348
 30
0.0
 10
842.4315150018
 20
718.7055006027
 30
0.0
 10
842.4315150018
 20
720.3139156699
 30
0.0
  0
SPLINE
  5
49F
100
AcDbEntity
  8
0
100
AcDbSpline
 62
7
  6
CONTINUOUS
 70
0
 71
3
 72
8
 73
4
 74
0
 42
0.0000001
 43
0.0000001
 44
0.0000000001
 40
0.0
 40
0.0
 40
0.0
 40
0.0
 40
1.0
 40
1.0
 40
1.0
 40
1.0
 10
851.4930036377
 20
717.0517803431
 30
0.0
 10
851.4930036377
 20
715.3640764952
 30
0.0
 10
850.643489034
 20
714.5145618916
 30
0.0
 10
848.9557870637
 20
714.5145618916
 30
0.0
  0
SPLINE
  5
4A0
100
AcDbEntity
  8
0
100
AcDbSpline
 62
7
  6
CONTINUOUS
 70
0
 71
3
 72
8
 73
4
 74
0
 42
0.0000001
 43
0.0000001
 44
0.0000000001
 40
0.0
 40
0.0
 40
0.0
 40
0.0
 40
1.0
 40
1.0
 40
1.0
 40
1.0
 10
843.7001234453
 20
693.6731369495
 30
0.0
 10
843.9493142079
 20
694.3980600834
 30
0.0
 10
844.4250425111
 20
694.7605166435
 30
0.0
 10
845.1499615769
 20
694.7605166435
 30
0.0
  0
SPLINE
  5
4A1
100
AcDbEntity
  8
0
100
AcDbSpline
 62
7
  6
CONTINUOUS
 70
0
 71
3
 72
8
 73
4
 74
0
 42
0.0000001
 43
0.0000001
 44
0.0000000001
 40
0.0
 40
0.0
 40
0.0
 40
0.0
 40
1.0
 40
1.0
 40
1.0
 40
1.0
 10
845.6936507981
 20
705.0906137228
 30
0.0
 10
846.2987814849
 20
705.0906137228
 30
0.0
 10
846.766936048
 20
704.9394677632
 30
0.0
 10
847.0970360441
 20
704.6371756058
 30
0.0
  0
SPLINE
  5
4A2
100
AcDbEntity
  8
0
100
AcDbSpline
 62
7
  6
CONTINUOUS
 70
0
 71
3
 72
9
 73
5
 74
0
 42
0.0000001
 43
0.0000001
 44
0.0000000001
 40
0.0
 40
0.0
 40
0.0
 40
0.0
 40
0.2043197224
 40
1.0
 40
1.0
 40
1.0
 40
1.0
 10
829.3736039514
 20
652.0
 30
0.0
 10
829.3428951285
 20
652.0730961048
 30
0.0
 10
829.1384071198
 20
652.4078677839
 30
0.0
 10
828.8164453709
 20
652.6455684525
 30
0.0
 10
828.5639722707
 20
652.8233006552
 30
0.0
  0
SPLINE
  5
4A3
100
AcDbEntity
  8
0
100
AcDbSpline
 62
7
  6
CONTINUOUS
 70
0
 71
3
 72
8
 73
4
 74
0
 42
0.0000001
 43
0.0000001
 44
0.0000000001
 40
0.0
 40
0.0
 40
0.0
 40
0.0
 40
1.0
 40
1.0
 40
1.0
 40
1.0
 10
828.5639722707
 20
652.8233006552
 30
0.0
 10
828.4781793419
 20
652.8836958664
 30
0.0
 10
828.3911590495
 20
652.9423572739
 30
0.0
 10
828.3034930682
 20
653.0
 30
0.0
  0
SPLINE
  5
4A4
100
AcDbEntity
  8
0
100
AcDbSpline
 62
7
  6
CONTINUOUS
 70
0
 71
3
 72
8
 73
4
 74
0
 42
0.0000001
 43
0.0000001
 44
0.0000000001
 40
0.0
 40
0.0
 40
0.0
 40
0.0
 40
1.0
 40
1.0
 40
1.0
 40
1.0
 10
828.3034930682
 20
747.0
 30
0.0
 10
828.4649311692
 20
747.1061498668
 30
0.0
 10
828.6245530234
 20
747.2155416329
 30
0.0
 10
828.7775045024
 20
747.3335920448
 30
0.0
  0
SPLINE
  5
4A5
100
AcDbEntity
  8
0
100
AcDbSpline
 62
7
  6
CONTINUOUS
 70
0
 71
3
 72
8
 73
4
 74
0
 42
0.0000001
 43
0.0000001
 44
0.0000000001
 40
0.0
 40
0.0
 40
0.0
 40
0.0
 40
1.0
 40
1.0
 40
1.0
 40
1.0
 10
828.7775045024
 20
747.3335920448
 30
0.0
 10
828.909174091
 20
747.4352167514
 30
0.0
 10
829.0371714205
 20
747.5435371514
 30
0.0
 10
829.1492777988
 20
747.6664054609
 30
0.0
  0
SPLINE
  5
4A6
100
AcDbEntity
  8
0
100
AcDbSpline
 62
7
  6
CONTINUOUS
 70
0
 71
3
 72
8
 73
4
 74
0
 42
0.0000001
 43
0.0000001
 44
0.0000000001
 40
0.0
 40
0.0
 40
0.0
 40
0.0
 40
1.0
 40
1.0
 40
1.0
 40
1.0
 10
829.1492777988
 20
747.6664054609
 30
0.0
 10
829.2395967251
 20
747.7653947775
 30
0.0
 10
829.3217020777
 20
747.8764581498
 30
0.0
 10
829.3736039514
 20
748.0
 30
0.0
  0
SPLINE
  5
4A7
100
AcDbEntity
  8
0
100
AcDbSpline
 62
7
  6
CONTINUOUS
 70
0
 71
3
 72
8
 73
4
 74
0
 42
0.0000001
 43
0.0000001
 44
0.0000000001
 40
0.0
 40
0.0
 40
0.0
 40
0.0
 40
1.0
 40
1.0
 40
1.0
 40
1.0
 10
193.5530029262
 20
653.0
 30
0.0
 10
193.3915648252
 20
652.8938501332
 30
0.0
 10
193.231942971
 20
652.7844583671
 30
0.0
 10
193.078991492
 20
652.6664079552
 30
0.0
  0
SPLINE
  5
4A8
100
AcDbEntity
  8
0
100
AcDbSpline
 62
7
  6
CONTINUOUS
 70
0
 71
3
 72
8
 73
4
 74
0
 42
0.0000001
 43
0.0000001
 44
0.0000000001
 40
0.0
 40
0.0
 40
0.0
 40
0.0
 40
1.0
 40
1.0
 40
1.0
 40
1.0
 10
193.078991492
 20
652.6664079552
 30
0.0
 10
192.9473219035
 20
652.5647832486
 30
0.0
 10
192.8193245739
 20
652.4564628486
 30
0.0
 10
192.7072181956
 20
652.3335945391
 30
0.0
  0
SPLINE
  5
4A9
100
AcDbEntity
  8
0
100
AcDbSpline
 62
7
  6
CONTINUOUS
 70
0
 71
3
 72
8
 73
4
 74
0
 42
0.0000001
 43
0.0000001
 44
0.0000000001
 40
0.0
 40
0.0
 40
0.0
 40
0.0
 40
1.0
 40
1.0
 40
1.0
 40
1.0
 10
192.7072181956
 20
652.3335945391
 30
0.0
 10
192.6168992694
 20
652.2346052225
 30
0.0
 10
192.5347939167
 20
652.1235418502
 30
0.0
 10
192.482892043
 20
652.0
 30
0.0
  0
SPLINE
  5
4AA
100
AcDbEntity
  8
0
100
AcDbSpline
 62
7
  6
CONTINUOUS
 70
0
 71
3
 72
9
 73
5
 74
0
 42
0.0000001
 43
0.0000001
 44
0.0000000001
 40
0.0
 40
0.0
 40
0.0
 40
0.0
 40
0.2043197064
 40
1.0
 40
1.0
 40
1.0
 40
1.0
 10
192.482892043
 20
748.0
 30
0.0
 10
192.5136008645
 20
747.9269038985
 30
0.0
 10
192.7180889213
 20
747.592132235
 30
0.0
 10
193.0400506155
 20
747.3544314906
 30
0.0
 10
193.2925237471
 20
747.1766993031
 30
0.0
  0
SPLINE
  5
4AB
100
AcDbEntity
  8
0
100
AcDbSpline
 62
7
  6
CONTINUOUS
 70
0
 71
3
 72
8
 73
4
 74
0
 42
0.0000001
 43
0.0000001
 44
0.0000000001
 40
0.0
 40
0.0
 40
0.0
 40
0.0
 40
1.0
 40
1.0
 40
1.0
 40
1.0
 10
193.2925237471
 20
747.1766993031
 30
0.0
 10
193.3783166702
 20
747.1163041086
 30
0.0
 10
193.4653369568
 20
747.0576427183
 30
0.0
 10
193.5530029262
 20
747.0
 30
0.0
  0
SPLINE
  5
4AC
100
AcDbEntity
  8
0
100
AcDbSpline
 62
7
  6
CONTINUOUS
 70
0
 71
3
 72
8
 73
4
 74
0
 42
0.0000001
 43
0.0000001
 44
0.0000000001
 40
0.0
 40
0.0
 40
0.0
 40
0.0
 40
1.0
 40
1.0
 40
1.0
 40
1.0
 10
193.9282479972
 20
747.0
 30
0.0
 10
193.7958717432
 20
747.1299600835
 30
0.0
 10
193.663464896
 20
747.2599152393
 30
0.0
 10
193.5288592851
 20
747.3875648591
 30
0.0
  0
SPLINE
  5
4AD
100
AcDbEntity
  8
0
100
AcDbSpline
 62
7
  6
CONTINUOUS
 70
0
 71
3
 72
9
 73
5
 74
0
 42
0.0000001
 43
0.0000001
 44
0.0000000001
 40
0.0
 40
0.0
 40
0.0
 40
0.0
 40
0.2701338796
 40
1.0
 40
1.0
 40
1.0
 40
1.0
 10
193.5288592851
 20
747.3875648591
 30
0.0
 10
193.4302110988
 20
747.48111522
 30
0.0
 10
193.0611769839
 20
747.8217298302
 30
0.0
 10
192.6581159999
 20
748.1374760975
 30
0.0
 10
192.3282309166
 20
748.299044672
 30
0.0
  0
SPLINE
  5
4AE
100
AcDbEntity
  8
0
100
AcDbSpline
 62
7
  6
CONTINUOUS
 70
0
 71
3
 72
8
 73
4
 74
0
 42
0.0000001
 43
0.0000001
 44
0.0000000001
 40
0.0
 40
0.0
 40
0.0
 40
0.0
 40
1.0
 40
1.0
 40
1.0
 40
1.0
 10
192.3282309166
 20
748.299044672
 30
0.0
 10
192.0813102281
 20
748.4199795844
 30
0.0
 10
191.8031935909
 20
748.5
 30
0.0
 10
191.5282479972
 20
748.5
 30
0.0
  0
SPLINE
  5
4AF
100
AcDbEntity
  8
0
100
AcDbSpline
 62
7
  6
CONTINUOUS
 70
0
 71
3
 72
8
 73
4
 74
0
 42
0.0000001
 43
0.0000001
 44
0.0000000001
 40
0.0
 40
0.0
 40
0.0
 40
0.0
 40
1.0
 40
1.0
 40
1.0
 40
1.0
 10
830.3282479972
 20
748.5
 30
0.0
 10
830.0534399449
 20
748.5
 30
0.0
 10
829.7754613023
 20
748.4200634924
 30
0.0
 10
829.5286438398
 20
748.2992305259
 30
0.0
  0
SPLINE
  5
4B0
100
AcDbEntity
  8
0
100
AcDbSpline
 62
7
  6
CONTINUOUS
 70
0
 71
3
 72
8
 73
4
 74
0
 42
0.0000001
 43
0.0000001
 44
0.0000000001
 40
0.0
 40
0.0
 40
0.0
 40
0.0
 40
1.0
 40
1.0
 40
1.0
 40
1.0
 10
829.5286438398
 20
748.2992305259
 30
0.0
 10
829.4582904181
 20
748.264788017
 30
0.0
 10
829.3895569484
 20
748.2269147317
 30
0.0
 10
829.3224187037
 20
748.1865619566
 30
0.0
  0
SPLINE
  5
4B1
100
AcDbEntity
  8
0
100
AcDbSpline
 62
7
  6
CONTINUOUS
 70
0
 71
3
 72
8
 73
4
 74
0
 42
0.0000001
 43
0.0000001
 44
0.0000000001
 40
0.0
 40
0.0
 40
0.0
 40
0.0
 40
1.0
 40
1.0
 40
1.0
 40
1.0
 10
829.3224187037
 20
748.1865619566
 30
0.0
 10
829.1117636973
 20
748.0599498574
 30
0.0
 10
828.9154747409
 20
747.9091926018
 30
0.0
 10
828.7282309166
 20
747.7499886267
 30
0.0
  0
SPLINE
  5
4B2
100
AcDbEntity
  8
0
100
AcDbSpline
 62
7
  6
CONTINUOUS
 70
0
 71
3
 72
8
 73
4
 74
0
 42
0.0000001
 43
0.0000001
 44
0.0000000001
 40
0.0
 40
0.0
 40
0.0
 40
0.0
 40
1.0
 40
1.0
 40
1.0
 40
1.0
 10
828.7282309166
 20
747.7499886267
 30
0.0
 10
828.5910504874
 20
747.6333510302
 30
0.0
 10
828.4583066148
 20
747.5114815542
 30
0.0
 10
828.3276512659
 20
747.3875784515
 30
0.0
  0
SPLINE
  5
4B3
100
AcDbEntity
  8
0
100
AcDbSpline
 62
7
  6
CONTINUOUS
 70
0
 71
3
 72
8
 73
4
 74
0
 42
0.0000001
 43
0.0000001
 44
0.0000000001
 40
0.0
 40
0.0
 40
0.0
 40
0.0
 40
1.0
 40
1.0
 40
1.0
 40
1.0
 10
828.3276512659
 20
747.3875784515
 30
0.0
 10
828.1930406371
 20
747.2599244771
 30
0.0
 10
828.0606289876
 20
747.1299647334
 30
0.0
 10
827.9282479972
 20
747.0
 30
0.0
  0
SPLINE
  5
4B4
100
AcDbEntity
  8
0
100
AcDbSpline
 62
7
  6
CONTINUOUS
 70
0
 71
3
 72
8
 73
4
 74
0
 42
0.0000001
 43
0.0000001
 44
0.0000000001
 40
0.0
 40
0.0
 40
0.0
 40
0.0
 40
1.0
 40
1.0
 40
1.0
 40
1.0
 10
191.5282479972
 20
651.5
 30
0.0
 10
191.8030560495
 20
651.5
 30
0.0
 10
192.0810346922
 20
651.5799365076
 30
0.0
 10
192.3278521547
 20
651.7007694741
 30
0.0
  0
SPLINE
  5
4B5
100
AcDbEntity
  8
0
100
AcDbSpline
 62
7
  6
CONTINUOUS
 70
0
 71
3
 72
8
 73
4
 74
0
 42
0.0000001
 43
0.0000001
 44
0.0000000001
 40
0.0
 40
0.0
 40
0.0
 40
0.0
 40
1.0
 40
1.0
 40
1.0
 40
1.0
 10
192.3278521547
 20
651.7007694741
 30
0.0
 10
192.3982055764
 20
651.735211983
 30
0.0
 10
192.466939046
 20
651.7730852683
 30
0.0
 10
192.5340772907
 20
651.8134380434
 30
0.0
  0
SPLINE
  5
4B6
100
AcDbEntity
  8
0
100
AcDbSpline
 62
7
  6
CONTINUOUS
 70
0
 71
3
 72
8
 73
4
 74
0
 42
0.0000001
 43
0.0000001
 44
0.0000000001
 40
0.0
 40
0.0
 40
0.0
 40
0.0
 40
1.0
 40
1.0
 40
1.0
 40
1.0
 10
192.5340772907
 20
651.8134380434
 30
0.0
 10
192.7447322971
 20
651.9400501426
 30
0.0
 10
192.9410212535
 20
652.0908073982
 30
0.0
 10
193.1282650778
 20
652.2500113733
 30
0.0
  0
SPLINE
  5
4B7
100
AcDbEntity
  8
0
100
AcDbSpline
 62
7
  6
CONTINUOUS
 70
0
 71
3
 72
8
 73
4
 74
0
 42
0.0000001
 43
0.0000001
 44
0.0000000001
 40
0.0
 40
0.0
 40
0.0
 40
0.0
 40
1.0
 40
1.0
 40
1.0
 40
1.0
 10
193.1282650778
 20
652.2500113733
 30
0.0
 10
193.265445507
 20
652.3666489698
 30
0.0
 10
193.3981893796
 20
652.4885184458
 30
0.0
 10
193.5288447286
 20
652.6124215485
 30
0.0
  0
SPLINE
  5
4B8
100
AcDbEntity
  8
0
100
AcDbSpline
 62
7
  6
CONTINUOUS
 70
0
 71
3
 72
8
 73
4
 74
0
 42
0.0000001
 43
0.0000001
 44
0.0000000001
 40
0.0
 40
0.0
 40
0.0
 40
0.0
 40
1.0
 40
1.0
 40
1.0
 40
1.0
 10
193.5288447286
 20
652.6124215485
 30
0.0
 10
193.6634553573
 20
652.7400755229
 30
0.0
 10
193.7958670068
 20
652.8700352666
 30
0.0
 10
193.9282479972
 20
653.0
 30
0.0
  0
SPLINE
  5
4B9
100
AcDbEntity
  8
0
100
AcDbSpline
 62
7
  6
CONTINUOUS
 70
0
 71
3
 72
8
 73
4
 74
0
 42
0.0000001
 43
0.0000001
 44
0.0000000001
 40
0.0
 40
0.0
 40
0.0
 40
0.0
 40
1.0
 40
1.0
 40
1.0
 40
1.0
 10
827.9282479972
 20
653.0
 30
0.0
 10
828.0606242512
 20
652.8700399165
 30
0.0
 10
828.1930310985
 20
652.7400847607
 30
0.0
 10
828.3276367094
 20
652.6124351409
 30
0.0
  0
SPLINE
  5
4BA
100
AcDbEntity
  8
0
100
AcDbSpline
 62
7
  6
CONTINUOUS
 70
0
 71
3
 72
9
 73
5
 74
0
 42
0.0000001
 43
0.0000001
 44
0.0000000001
 40
0.0
 40
0.0
 40
0.0
 40
0.0
 40
0.2701338796
 40
1.0
 40
1.0
 40
1.0
 40
1.0
 10
828.3276367094
 20
652.6124351409
 30
0.0
 10
828.4262848956
 20
652.51888478
 30
0.0
 10
828.7953190106
 20
652.1782701698
 30
0.0
 10
829.1983799945
 20
651.8625239025
 30
0.0
 10
829.5282650778
 20
651.700955328
 30
0.0
  0
SPLINE
  5
4BB
100
AcDbEntity
  8
0
100
AcDbSpline
 62
7
  6
CONTINUOUS
 70
0
 71
3
 72
8
 73
4
 74
0
 42
0.0000001
 43
0.0000001
 44
0.0000000001
 40
0.0
 40
0.0
 40
0.0
 40
0.0
 40
1.0
 40
1.0
 40
1.0
 40
1.0
 10
829.5282650778
 20
651.700955328
 30
0.0
 10
829.7751857663
 20
651.5800204156
 30
0.0
 10
830.0533024036
 20
651.5
 30
0.0
 10
830.3282479972
 20
651.5
 30
0.0
  0
LINE
  5
4BC
100
AcDbEntity
  8
0
100
AcDbLine
 62
7
  6
CONTINUOUS
 10
827.9282479972
 20
747.0
 11
828.0134683136
 21
747.1672408968
  0
LINE
  5
4BD
100
AcDbEntity
  8
0
100
AcDbLine
 62
7
  6
CONTINUOUS
 10
828.0134683136
 20
747.1672408968
 11
828.1013606412
 21
747.339172551
  0
SPLINE
  5
4BE
100
AcDbEntity
  8
0
100
AcDbSpline
 62
7
  6
CONTINUOUS
 70
0
 71
3
 72
9
 73
5
 74
0
 42
0.0000001
 43
0.0000001
 44
0.0000000001
 40
0.0
 40
0.0
 40
0.0
 40
0.0
 40
0.258645249
 40
1.0
 40
1.0
 40
1.0
 40
1.0
 10
828.1013606412
 20
747.339172551
 30
0.0
 10
828.1532084752
 20
747.4403204125
 30
0.0
 10
828.3546205584
 20
747.8308628481
 30
0.0
 10
828.5626138978
 20
748.2182913481
 30
0.0
 10
828.7277760755
 20
748.4991123842
 30
0.0
  0
SPLINE
  5
4BF
100
AcDbEntity
  8
0
100
AcDbSpline
 62
7
  6
CONTINUOUS
 70
0
 71
3
 72
8
 73
4
 74
0
 42
0.0000001
 43
0.0000001
 44
0.0000000001
 40
0.0
 40
0.0
 40
0.0
 40
0.0
 40
1.0
 40
1.0
 40
1.0
 40
1.0
 10
828.7277760755
 20
748.4991123842
 30
0.0
 10
828.8527575267
 20
748.7116151563
 30
0.0
 10
828.9839772813
 20
748.9209768067
 30
0.0
 10
829.1280421732
 20
749.1210345438
 30
0.0
  0
SPLINE
  5
4C0
100
AcDbEntity
  8
0
100
AcDbSpline
 62
7
  6
CONTINUOUS
 70
0
 71
3
 72
9
 73
5
 74
0
 42
0.0000001
 43
0.0000001
 44
0.0000000001
 40
0.0
 40
0.0
 40
0.0
 40
0.0
 40
0.3166672531
 40
1.0
 40
1.0
 40
1.0
 40
1.0
 10
829.1280421732
 20
749.1210345438
 30
0.0
 10
829.2212669869
 20
749.2504924917
 30
0.0
 10
829.5220847615
 20
749.6395189808
 30
0.0
 10
829.9839972419
 20
750.0
 30
0.0
 10
830.3282479972
 20
750.0
 30
0.0
  0
SPLINE
  5
4C1
100
AcDbEntity
  8
0
100
AcDbSpline
 62
7
  6
CONTINUOUS
 70
0
 71
3
 72
9
 73
5
 74
0
 42
0.0000001
 43
0.0000001
 44
0.0000000001
 40
0.0
 40
0.0
 40
0.0
 40
0.0
 40
0.2002267574
 40
1.0
 40
1.0
 40
1.0
 40
1.0
 10
191.5282479972
 20
750.0
 30
0.0
 10
191.6299078525
 20
750.0
 30
0.0
 10
192.1397317309
 20
749.8882398354
 30
0.0
 10
192.4907097454
 20
749.4510922269
 30
0.0
 10
192.7280421732
 20
749.1216061048
 30
0.0
  0
SPLINE
  5
4C2
100
AcDbEntity
  8
0
100
AcDbSpline
 62
7
  6
CONTINUOUS
 70
0
 71
3
 72
8
 73
4
 74
0
 42
0.0000001
 43
0.0000001
 44
0.0000000001
 40
0.0
 40
0.0
 40
0.0
 40
0.0
 40
1.0
 40
1.0
 40
1.0
 40
1.0
 10
192.7280421732
 20
749.1216061048
 30
0.0
 10
192.8774946863
 20
748.9141227472
 30
0.0
 10
193.0131555989
 20
748.6966568934
 30
0.0
 10
193.1423017818
 20
748.4759610375
 30
0.0
  0
SPLINE
  5
4C3
100
AcDbEntity
  8
0
100
AcDbSpline
 62
7
  6
CONTINUOUS
 70
0
 71
3
 72
9
 73
5
 74
0
 42
0.0000001
 43
0.0000001
 44
0.0000000001
 40
0.0
 40
0.0
 40
0.0
 40
0.0
 40
0.2394633076
 40
1.0
 40
1.0
 40
1.0
 40
1.0
 10
193.1423017818
 20
748.4759610375
 30
0.0
 10
193.194369332
 20
748.3869836299
 30
0.0
 10
193.4071411212
 20
748.012676353
 30
0.0
 10
193.6057673885
 20
747.6305681162
 30
0.0
 10
193.755123244
 20
747.3391961122
 30
0.0
  0
LINE
  5
4C4
100
AcDbEntity
  8
0
100
AcDbLine
 62
7
  6
CONTINUOUS
 10
193.755123244
 20
747.3391961122
 11
193.8430223665
 21
747.1672512973
  0
LINE
  5
4C5
100
AcDbEntity
  8
0
100
AcDbLine
 62
7
  6
CONTINUOUS
 10
193.8430223665
 20
747.1672512973
 11
193.9282479972
 21
747.0
  0
SPLINE
  5
4C6
100
AcDbEntity
  8
0
100
AcDbSpline
 62
7
  6
CONTINUOUS
 70
0
 71
3
 72
9
 73
5
 74
0
 42
0.0000001
 43
0.0000001
 44
0.0000000001
 40
0.0
 40
0.0
 40
0.0
 40
0.0
 40
0.4884871566
 40
1.0
 40
1.0
 40
1.0
 40
1.0
 10
191.0375360888
 20
652.0
 30
0.0
 10
191.0456322025
 20
652.0096355758
 30
0.0
 10
191.0627479753
 20
652.028909755
 30
0.0
 10
191.0807683404
 20
652.047336532
 30
0.0
 10
191.0901796897
 20
652.0565616017
 30
0.0
  0
SPLINE
  5
4C7
100
AcDbEntity
  8
0
100
AcDbSpline
 62
7
  6
CONTINUOUS
 70
0
 71
3
 72
9
 73
5
 74
0
 42
0.0000001
 43
0.0000001
 44
0.0000000001
 40
0.0
 40
0.0
 40
0.0
 40
0.0
 40
0.2149515054
 40
1.0
 40
1.0
 40
1.0
 40
1.0
 10
191.0901796897
 20
652.0565616017
 30
0.0
 10
191.1149485213
 20
652.0808401816
 30
0.0
 10
191.2365146045
 20
652.1873297747
 30
0.0
 10
191.3752038292
 20
652.2723614136
 30
0.0
 10
191.4862634756
 20
652.3332827907
 30
0.0
  0
SPLINE
  5
4C8
100
AcDbEntity
  8
0
100
AcDbSpline
 62
7
  6
CONTINUOUS
 70
0
 71
3
 72
9
 73
5
 74
0
 42
0.0000001
 43
0.0000001
 44
0.0000000001
 40
0.0
 40
0.0
 40
0.0
 40
0.0
 40
0.2226433144
 40
1.0
 40
1.0
 40
1.0
 40
1.0
 10
191.4862634756
 20
652.3332827907
 30
0.0
 10
191.5392990191
 20
652.362375251
 30
0.0
 10
191.7810841535
 20
652.4865291399
 30
0.0
 10
192.0325968573
 20
652.5906503058
 30
0.0
 10
192.2296256424
 20
652.6667186247
 30
0.0
  0
SPLINE
  5
4C9
100
AcDbEntity
  8
0
100
AcDbSpline
 62
7
  6
CONTINUOUS
 70
0
 71
3
 72
9
 73
5
 74
0
 42
0.0000001
 43
0.0000001
 44
0.0000000001
 40
0.0
 40
0.0
 40
0.0
 40
0.0
 40
0.2363072262
 40
1.0
 40
1.0
 40
1.0
 40
1.0
 10
192.2296256424
 20
652.6667186247
 30
0.0
 10
192.3034810221
 20
652.6952325019
 30
0.0
 10
192.6172858935
 20
652.8126252938
 30
0.0
 10
192.934701082
 20
652.9200918373
 30
0.0
 10
193.1777578552
 20
653.0
 30
0.0
  0
SPLINE
  5
4CA
100
AcDbEntity
  8
0
100
AcDbSpline
 62
7
  6
CONTINUOUS
 70
0
 71
3
 72
9
 73
5
 74
0
 42
0.0000001
 43
0.0000001
 44
0.0000000001
 40
0.0
 40
0.0
 40
0.0
 40
0.0
 40
0.2617003334
 40
1.0
 40
1.0
 40
1.0
 40
1.0
 10
193.1777578552
 20
747.0
 30
0.0
 10
193.0944690335
 20
747.0273823133
 30
0.0
 10
192.7765900229
 20
747.133123958
 30
0.0
 10
192.4603663618
 20
747.2441975571
 30
0.0
 10
192.229621976
 20
747.3332827908
 30
0.0
  0
SPLINE
  5
4CB
100
AcDbEntity
  8
0
100
AcDbSpline
 62
7
  6
CONTINUOUS
 70
0
 71
3
 72
9
 73
5
 74
0
 42
0.0000001
 43
0.0000001
 44
0.0000000001
 40
0.0
 40
0.0
 40
0.0
 40
0.0
 40
0.3082712644
 40
1.0
 40
1.0
 40
1.0
 40
1.0
 10
192.1350348118
 20
747.3703075728
 30
0.0
 10
192.0209545647
 20
747.4156016108
 30
0.0
 10
191.6566061381
 20
747.570598224
 30
0.0
 10
191.2868694131
 20
747.7506416268
 30
0.0
 10
191.0901794476
 20
747.9434386348
 30
0.0
  0
SPLINE
  5
4CC
100
AcDbEntity
  8
0
100
AcDbSpline
 62
7
  6
CONTINUOUS
 70
0
 71
3
 72
9
 73
5
 74
0
 42
0.0000001
 43
0.0000001
 44
0.0000000001
 40
0.0
 40
0.0
 40
0.0
 40
0.0
 40
0.5115127924
 40
1.0
 40
1.0
 40
1.0
 40
1.0
 10
191.0901794476
 20
747.9434386348
 30
0.0
 10
191.0807681439
 20
747.9526636667
 30
0.0
 10
191.0627478633
 20
747.9710903685
 30
0.0
 10
191.045632168
 20
747.9903644654
 30
0.0
 10
191.0375360888
 20
748.0
 30
0.0
  0
SPLINE
  5
4CD
100
AcDbEntity
  8
0
100
AcDbSpline
 62
7
  6
CONTINUOUS
 70
0
 71
3
 72
9
 73
5
 74
0
 42
0.0000001
 43
0.0000001
 44
0.0000000001
 40
0.0
 40
0.0
 40
0.0
 40
0.0
 40
0.4884871567
 40
1.0
 40
1.0
 40
1.0
 40
1.0
 10
830.8189599056
 20
748.0
 30
0.0
 10
830.8108637919
 20
747.9903644242
 30
0.0
 10
830.7937480192
 20
747.971090245
 30
0.0
 10
830.7757276541
 20
747.952663468
 30
0.0
 10
830.7663163047
 20
747.9434383983
 30
0.0
  0
SPLINE
  5
4CE
100
AcDbEntity
  8
0
100
AcDbSpline
 62
7
  6
CONTINUOUS
 70
0
 71
3
 72
9
 73
5
 74
0
 42
0.0000001
 43
0.0000001
 44
0.0000000001
 40
0.0
 40
0.0
 40
0.0
 40
0.0
 40
0.2149515054
 40
1.0
 40
1.0
 40
1.0
 40
1.0
 10
830.7663163047
 20
747.9434383983
 30
0.0
 10
830.7415474731
 20
747.9191598184
 30
0.0
 10
830.6199813899
 20
747.8126702253
 30
0.0
 10
830.4812921653
 20
747.7276385864
 30
0.0
 10
830.3702325189
 20
747.6667172093
 30
0.0
  0
SPLINE
  5
4CF
100
AcDbEntity
  8
0
100
AcDbSpline
 62
7
  6
CONTINUOUS
 70
0
 71
3
 72
9
 73
5
 74
0
 42
0.0000001
 43
0.0000001
 44
0.0000000001
 40
0.0
 40
0.0
 40
0.0
 40
0.0
 40
0.2226433144
 40
1.0
 40
1.0
 40
1.0
 40
1.0
 10
830.3702325189
 20
747.6667172093
 30
0.0
 10
830.3171969753
 20
747.637624749
 30
0.0
 10
830.075411841
 20
747.5134708601
 30
0.0
 10
829.8238991371
 20
747.4093496942
 30
0.0
 10
829.626870352
 20
747.3332813753
 30
0.0
  0
SPLINE
  5
4D0
100
AcDbEntity
  8
0
100
AcDbSpline
 62
7
  6
CONTINUOUS
 70
0
 71
3
 72
9
 73
5
 74
0
 42
0.0000001
 43
0.0000001
 44
0.0000000001
 40
0.0
 40
0.0
 40
0.0
 40
0.0
 40
0.2363072262
 40
1.0
 40
1.0
 40
1.0
 40
1.0
 10
829.626870352
 20
747.3332813753
 30
0.0
 10
829.5530149724
 20
747.3047674981
 30
0.0
 10
829.239210101
 20
747.1873747062
 30
0.0
 10
828.9217949124
 20
747.0799081627
 30
0.0
 10
828.6787381393
 20
747.0
 30
0.0
  0
SPLINE
  5
4D1
100
AcDbEntity
  8
0
100
AcDbSpline
 62
7
  6
CONTINUOUS
 70
0
 71
3
 72
9
 73
5
 74
0
 42
0.0000001
 43
0.0000001
 44
0.0000000001
 40
0.0
 40
0.0
 40
0.0
 40
0.0
 40
0.2626084127
 40
1.0
 40
1.0
 40
1.0
 40
1.0
 10
828.6787381393
 20
653.0
 30
0.0
 10
828.7661794894
 20
652.9712524874
 30
0.0
 10
829.0987278331
 20
652.8605580663
 30
0.0
 10
829.4294730527
 20
652.7439902944
 30
0.0
 10
829.6701935699
 20
652.649888747
 30
0.0
  0
SPLINE
  5
4D2
100
AcDbEntity
  8
0
100
AcDbSpline
 62
7
  6
CONTINUOUS
 70
0
 71
3
 72
9
 73
5
 74
0
 42
0.0000001
 43
0.0000001
 44
0.0000000001
 40
0.0
 40
0.0
 40
0.0
 40
0.0
 40
0.309274749
 40
1.0
 40
1.0
 40
1.0
 40
1.0
 10
829.6701935699
 20
652.649888747
 30
0.0
 10
829.7901483851
 20
652.6029964678
 30
0.0
 10
830.1719264368
 20
652.4429061337
 30
0.0
 10
830.5608973506
 20
652.2579148319
 30
0.0
 10
830.7663165468
 20
652.0565613652
 30
0.0
  0
SPLINE
  5
4D3
100
AcDbEntity
  8
0
100
AcDbSpline
 62
7
  6
CONTINUOUS
 70
0
 71
3
 72
9
 73
5
 74
0
 42
0.0000001
 43
0.0000001
 44
0.0000000001
 40
0.0
 40
0.0
 40
0.0
 40
0.0
 40
0.5115127924
 40
1.0
 40
1.0
 40
1.0
 40
1.0
 10
830.7663165468
 20
652.0565613652
 30
0.0
 10
830.7757278505
 20
652.0473363333
 30
0.0
 10
830.7937481311
 20
652.0289096315
 30
0.0
 10
830.8108638265
 20
652.0096355346
 30
0.0
 10
830.8189599056
 20
652.0
 30
0.0
  0
SPLINE
  5
4D4
100
AcDbEntity
  8
0
100
AcDbSpline
 62
7
  6
CONTINUOUS
 70
0
 71
3
 72
9
 73
5
 74
0
 42
0.0000001
 43
0.0000001
 44
0.0000000001
 40
0.0
 40
0.0
 40
0.0
 40
0.0
 40
0.2002267574
 40
1.0
 40
1.0
 40
1.0
 40
1.0
 10
830.3282479972
 20
650.0
 30
0.0
 10
830.2265881419
 20
650.0
 30
0.0
 10
829.7167642635
 20
650.1117601646
 30
0.0
 10
829.365786249
 20
650.5489077731
 30
0.0
 10
829.1284538212
 20
650.8783938952
 30
0.0
  0
SPLINE
  5
4D5
100
AcDbEntity
  8
0
100
AcDbSpline
 62
7
  6
CONTINUOUS
 70
0
 71
3
 72
8
 73
4
 74
0
 42
0.0000001
 43
0.0000001
 44
0.0000000001
 40
0.0
 40
0.0
 40
0.0
 40
0.0
 40
1.0
 40
1.0
 40
1.0
 40
1.0
 10
829.1284538212
 20
650.8783938952
 30
0.0
 10
828.9790013081
 20
651.0858772528
 30
0.0
 10
828.8433403956
 20
651.3033431066
 30
0.0
 10
828.7141942126
 20
651.5240389625
 30
0.0
  0
SPLINE
  5
4D6
100
AcDbEntity
  8
0
100
AcDbSpline
 62
7
  6
CONTINUOUS
 70
0
 71
3
 72
9
 73
5
 74
0
 42
0.0000001
 43
0.0000001
 44
0.0000000001
 40
0.0
 40
0.0
 40
0.0
 40
0.0
 40
0.2394633076
 40
1.0
 40
1.0
 40
1.0
 40
1.0
 10
828.7141942126
 20
651.5240389625
 30
0.0
 10
828.6621266624
 20
651.6130163701
 30
0.0
 10
828.4493548732
 20
651.987323647
 30
0.0
 10
828.2507286059
 20
652.3694318838
 30
0.0
 10
828.1013727504
 20
652.6608038878
 30
0.0
  0
LINE
  5
4D7
100
AcDbEntity
  8
0
100
AcDbLine
 62
7
  6
CONTINUOUS
 10
828.1013727504
 20
652.6608038878
 11
828.0134736279
 21
652.8327487027
  0
LINE
  5
4D8
100
AcDbEntity
  8
0
100
AcDbLine
 62
7
  6
CONTINUOUS
 10
828.0134736279
 20
652.8327487027
 11
827.9282479972
 21
653.0
  0
LINE
  5
4D9
100
AcDbEntity
  8
0
100
AcDbLine
 62
7
  6
CONTINUOUS
 10
193.9282479972
 20
653.0
 11
193.8430276809
 21
652.8327591032
  0
LINE
  5
4DA
100
AcDbEntity
  8
0
100
AcDbLine
 62
7
  6
CONTINUOUS
 10
193.8430276809
 20
652.8327591032
 11
193.7551353532
 21
652.660827449
  0
SPLINE
  5
4DB
100
AcDbEntity
  8
0
100
AcDbSpline
 62
7
  6
CONTINUOUS
 70
0
 71
3
 72
9
 73
5
 74
0
 42
0.0000001
 43
0.0000001
 44
0.0000000001
 40
0.0
 40
0.0
 40
0.0
 40
0.0
 40
0.7605350372
 40
1.0
 40
1.0
 40
1.0
 40
1.0
 10
193.7551353532
 20
652.660827449
 30
0.0
 10
193.6057897937
 20
652.369475182
 30
0.0
 10
193.4071769125
 20
651.9873919739
 30
0.0
 10
193.1944216787
 20
651.6131078967
 30
0.0
 10
193.1423580242
 20
651.5241352447
 30
0.0
  0
SPLINE
  5
4DC
100
AcDbEntity
  8
0
100
AcDbSpline
 62
7
  6
CONTINUOUS
 70
0
 71
3
 72
8
 73
4
 74
0
 42
0.0000001
 43
0.0000001
 44
0.0000000001
 40
0.0
 40
0.0
 40
0.0
 40
0.0
 40
1.0
 40
1.0
 40
1.0
 40
1.0
 10
193.1423580242
 20
651.5241352447
 30
0.0
 10
193.0133135513
 20
651.3036084861
 30
0.0
 10
192.8777644873
 20
651.0863078114
 30
0.0
 10
192.7284538212
 20
650.8789654562
 30
0.0
  0
SPLINE
  5
4DD
100
AcDbEntity
  8
0
100
AcDbSpline
 62
7
  6
CONTINUOUS
 70
0
 71
3
 72
9
 73
5
 74
0
 42
0.0000001
 43
0.0000001
 44
0.0000000001
 40
0.0
 40
0.0
 40
0.0
 40
0.0
 40
0.3166672531
 40
1.0
 40
1.0
 40
1.0
 40
1.0
 10
192.7284538212
 20
650.8789654562
 30
0.0
 10
192.6352290076
 20
650.7495075083
 30
0.0
 10
192.3344112329
 20
650.3604810192
 30
0.0
 10
191.8724987525
 20
650.0
 30
0.0
 10
191.5282479972
 20
650.0
 30
0.0
  0
ENDSEC
  0
SECTION
  2
OBJECTS
  0
DICTIONARY
  5
C
100
AcDbDictionary
280
0
281
1
  3
ACAD_GROUP
350
D
  3
ACAD_MLINESTYLE
350
17
  3
ACAD_LAYOUT
350
1A
  3
ACAD_PLOTSETTINGS
350
19
  3
ACAD_PLOTSTYLENAME
350
E
  0
DICTIONARY
  5
D
102
{ACAD_REACTORS
330
C
102
}
100
AcDbDictionary
280
0
281
1
  0
ACDBDICTIONARYWDFLT
  5
E
102
{ACAD_REACTORS
330
C
102
}
100
AcDbDictionary
281
1
  3
Normal
350
F
100
AcDbDictionaryWithDefault
340
F
  0
DICTIONARY
  5
17
102
{ACAD_REACTORS
330
C
102
}
100
AcDbDictionary
280
0
281
1
  3
Standard
350
18
  0
DICTIONARY
  5
19
102
{ACAD_REACTORS
330
C
102
}
100
AcDbDictionary
281
1
  0
DICTIONARY
  5
1A
102
{ACAD_REACTORS
330
C
102
}
100
AcDbDictionary
281
1
  3
Model
350
4DE
  3
Layout1
350
4DF
  0
ACDBPLACEHOLDER
  5
F
102
{ACAD_REACTORS
330
E
102
}
  0
MLINESTYLE
  5
18
102
{ACAD_REACTORS
330
17
102
}
100
AcDbMlineStyle
  2
STANDARD
 70
0
  3

 62
256
 51
90.0
 52
90.0
 71
2
 49
0.5
 62
256
  6
BYLAYER
 49
-0.5
 62
256
  6
BYLAYER
  0
LAYOUT
  5
4DE
102
{ACAD_REACTORS
330
1A
102
}
100
AcDbPlotSettings
  1

  2
none_device
  4

  6

 40
0.0
 41
0.0
 42
0.0
 43
0.0
 44
210.0
 45
297.0
 46
0.0
 47
0.0
 48
0.0
 49
0.0
140
0.0
141
0.0
142
1.0
143
1.0
 70
1024
 72
1
 73
0
 74
0
  7

 75
0
147
1.0
148
0.0
149
0.0
100
AcDbLayout
  1
Model
 70
0
 71
0
 10
0.0
 20
0.0
 11
210.0
 21
297.0
 12
0.0
 22
0.0
 32
0.0
 14
0.0
 24
0.0
 34
0.0
 15
0.0
 25
0.0
 35
0.0
146
0.0
 13
0.0
 23
0.0
 33
0.0
 16
1.0
 26
0.0
 36
0.0
 17
0.0
 27
1.0
 37
0.0
 76
0
330
210
345
0
346
0
  0
LAYOUT
  5
4DF
102
{ACAD_REACTORS
330
1A
102
}
100
AcDbPlotSettings
  1

  2
none_device
  4

  6

 40
0.0
 41
0.0
 42
0.0
 43
0.0
 44
210.0
 45
297.0
 46
0.0
 47
0.0
 48
0.0
 49
0.0
140
0.0
141
0.0
142
1.0
143
1.0
 70
0
 72
1
 73
0
 74
0
  7

 75
0
147
1.0
148
0.0
149
0.0
100
AcDbLayout
  1
Layout1
 70
0
 71
1
 10
0.0
 20
0.0
 11
210.0
 21
297.0
 12
0.0
 22
0.0
 32
0.0
 14
0.0
 24
0.0
 34
0.0
 15
0.0
 25
0.0
 35
0.0
146
0.0
 13
0.0
 23
0.0
 33
0.0
 16
1.0
 26
0.0
 36
0.0
 17
0.0
 27
1.0
 37
0.0
 76
0
330
211
345
0
346
0
  0
ENDSEC
  0
EOF
