999
DXF file: C:\Users\sesa63760\Dev\_Creo\CAD\MCADPD0004030_3D-CAD\drw0001_4.dxf
999
Pro/ENGINEER 2019471 by Parametric Technology Corporation
  0
SECTION
  2
HEADER
  9
$ACADVER
  1
AC1024
  9
$DWGCODEPAGE
  3
ANSI_1252
  9
$EXTMAX
 10
84.685328185
 20
119.7692498616
 30
0.0
  9
$EXTMIN
 10
0.0
 20
0.0
 30
0.0
  9
$LIMMIN
 10
0.0
 20
0.0
  9
$LIMMAX
 10
84.685328185
 20
119.7692498616
  9
$VIEWCTR
 10
42.3426640925
 20
59.8846249308
  9
$VIEWSIZE
 40
119.7692498616
  9
$CLAYER
  8
0
  9
$LTSCALE
 40
7.8071807317
  9
$CELTYPE
  6
BYLAYER
  9
$DIMSCALE
 40
1.0
  9
$DIMASZ
 40
1.0081586689
  9
$DIMEXO
 40
1.0
  9
$DIMDLI
 40
5.3940521419
  9
$DIMEXE
 40
1.0
  9
$DIMCEN
 40
1.2775386652
  9
$DIMLFAC
 40
1.0
  9
$DIMBLK
  1
_FILLED
  9
$DIMALT
 70
0
  9
$DIMALTF
 40
0.0393700787
  9
$DIMTXT
 40
1.4114221364
  9
$DIMTOL
 70
1
  9
$DIMLIM
 70
0
  9
$DIMTFAC
 40
1.0
  9
$DIMTP
 40
0.01
  9
$DIMTM
 40
0.01
  9
$DIMGAP
 40
0.625
  9
$DIMDSEP
 70
46
  9
$AUNITS
 70
0
  9
$PDMODE
 70
3
  9
$PDSIZE
 40
0.3125
  9
$HANDSEED
  5
24C
  9
$TILEMODE
 70
1
  9
$MEASUREMENT
 70
1
  9
$INSUNITS
 70
4
  0
ENDSEC
  0
SECTION
  2
CLASSES
  0
CLASS
  1
ACDBDICTIONARYWDFLT
  2
AcDbDictionaryWithDefault
  3
AutoCAD 2000
 90
0
 91
1
280
0
281
0
  0
CLASS
  1
ACDBPLACEHOLDER
  2
AcDbPlaceHolder
  3
AutoCAD 2000
 90
0
 91
1
280
0
281
0
  0
CLASS
  1
LAYOUT
  2
AcDbLayout
  3
AutoCAD 2000
 90
0
 91
0
280
0
281
0
  0
ENDSEC
  0
SECTION
  2
TABLES
  0
TABLE
  2
VPORT
  5
8
100
AcDbSymbolTable
 70
2
  0
VPORT
  5
1F4
100
AcDbSymbolTableRecord
100
AcDbViewportTableRecord
  2
*ACTIVE
 70
0
 10
0.0
 20
0.0
 11
1.0
 21
1.0
 12
42.3426640925
 22
59.8846249308
 13
0.0
 23
0.0
 14
1.0
 24
1.0
 15
0.0
 25
0.0
 16
0.0
 26
0.0
 36
1.0
 17
0.0
 27
0.0
 37
0.0
 40
119.7692498616
 41
0.7070707071
 42
50.0
 43
0.0
 44
0.0
 50
0.0
 51
0.0
 71
0
 72
100
 73
1
 74
1
 75
0
 76
0
 77
0
 78
0
  0
ENDTAB
  0
TABLE
  2
LTYPE
  5
5
100
AcDbSymbolTable
 70
6
  0
LTYPE
  5
14
100
AcDbSymbolTableRecord
100
AcDbLinetypeTableRecord
  2
BYBLOCK
 70
0
  3

 72
65
 73
0
 40
0.0
  0
LTYPE
  5
15
100
AcDbSymbolTableRecord
100
AcDbLinetypeTableRecord
  2
BYLAYER
 70
0
  3

 72
65
 73
0
 40
0.0
  0
LTYPE
  5
16
100
AcDbSymbolTableRecord
100
AcDbLinetypeTableRecord
  2
CONTINUOUS
 70
64
  3
Solid line
 72
65
 73
0
 40
0.0
  0
LTYPE
  5
1F5
100
AcDbSymbolTableRecord
100
AcDbLinetypeTableRecord
  2
CENTER
 70
64
  3
____ _ ____ _ ____ _ ____ _ ____ _ ____ _ ____
 72
65
 73
4
 40
0.6
 49
0.375
 74
0
 49
-0.075
 74
0
 49
0.075
 74
0
 49
-0.075
 74
0
  0
LTYPE
  5
1F6
100
AcDbSymbolTableRecord
100
AcDbLinetypeTableRecord
  2
HIDDEN
 70
64
  3
- - - - - - - - - - - - - - - - - - - -
 72
65
 73
2
 40
0.2
 49
0.1
 74
0
 49
-0.1
 74
0
  0
LTYPE
  5
1F7
100
AcDbSymbolTableRecord
100
AcDbLinetypeTableRecord
  2
PHANTOM
 70
64
  3
_____ _ _ _____ _ _ _____ _ _ _____
 72
65
 73
6
 40
0.8
 49
0.45
 74
0
 49
-0.05
 74
0
 49
0.1
 74
0
 49
-0.05
 74
0
 49
0.1
 74
0
 49
-0.05
 74
0
  0
LTYPE
  5
1F8
100
AcDbSymbolTableRecord
100
AcDbLinetypeTableRecord
  2
DOT
 70
64
  3
. . . . . . . . . . . . . . . . . . . .
 72
65
 73
2
 40
0.2
 49
0.1
 74
0
 49
-0.1
 74
0
  0
LTYPE
  5
1F9
100
AcDbSymbolTableRecord
100
AcDbLinetypeTableRecord
  2
DASHED
 70
64
  3
- - - - - - - - - - - - - - - - - - - -
 72
65
 73
2
 40
0.2
 49
0.1
 74
0
 49
-0.1
 74
0
  0
ENDTAB
  0
TABLE
  2
LAYER
  5
2
100
AcDbSymbolTable
 70
36
  0
LAYER
  5
10
100
AcDbSymbolTableRecord
100
AcDbLayerTableRecord
  2
0
 70
0
 62
7
  6
CONTINUOUS
370
-3
390
F
  0
LAYER
  5
1FA
100
AcDbSymbolTableRecord
100
AcDbLayerTableRecord
  2
DEFAULT_1
 70
0
 62
7
  6
CENTER
370
-3
390
F
  0
LAYER
  5
1FB
100
AcDbSymbolTableRecord
100
AcDbLayerTableRecord
  2
DEFAULT_2
 70
0
 62
7
  6
HIDDEN
370
-3
390
F
  0
LAYER
  5
1FC
100
AcDbSymbolTableRecord
100
AcDbLayerTableRecord
  2
DEFAULT_3
 70
0
 62
7
  6
PHANTOM
370
-3
390
F
  0
LAYER
  5
1FD
100
AcDbSymbolTableRecord
100
AcDbLayerTableRecord
  2
00_COMPONENTS
 70
0
 62
7
  6
CONTINUOUS
370
-3
390
F
  0
LAYER
  5
1FE
100
AcDbSymbolTableRecord
100
AcDbLayerTableRecord
  2
01_1_DEFAULT_DATUMS
 70
0
 62
7
  6
CONTINUOUS
370
-3
390
F
  0
LAYER
  5
1FF
100
AcDbSymbolTableRecord
100
AcDbLayerTableRecord
  2
01_PLANES
 70
0
 62
7
  6
CONTINUOUS
370
-3
390
F
  0
LAYER
  5
200
100
AcDbSymbolTableRecord
100
AcDbLayerTableRecord
  2
02_COORD_SYS
 70
0
 62
7
  6
CONTINUOUS
370
-3
390
F
  0
LAYER
  5
201
100
AcDbSymbolTableRecord
100
AcDbLayerTableRecord
  2
03_AXES
 70
0
 62
7
  6
CONTINUOUS
370
-3
390
F
  0
LAYER
  5
202
100
AcDbSymbolTableRecord
100
AcDbLayerTableRecord
  2
04_POINTS
 70
0
 62
7
  6
CONTINUOUS
370
-3
390
F
  0
LAYER
  5
203
100
AcDbSymbolTableRecord
100
AcDbLayerTableRecord
  2
05_CURVES
 70
0
 62
7
  6
CONTINUOUS
370
-3
390
F
  0
LAYER
  5
204
100
AcDbSymbolTableRecord
100
AcDbLayerTableRecord
  2
06_SURFS
 70
0
 62
7
  6
CONTINUOUS
370
-3
390
F
  0
LAYER
  5
205
100
AcDbSymbolTableRecord
100
AcDbLayerTableRecord
  2
07_COSMETICS
 70
0
 62
7
  6
CONTINUOUS
370
-3
390
F
  0
LAYER
  5
206
100
AcDbSymbolTableRecord
100
AcDbLayerTableRecord
  2
10_NOTES
 70
0
 62
7
  6
CONTINUOUS
370
-3
390
F
  0
LAYER
  5
207
100
AcDbSymbolTableRecord
100
AcDbLayerTableRecord
  2
11_NOTES_PUB
 70
0
 62
7
  6
CONTINUOUS
370
-3
390
F
  0
LAYER
  5
208
100
AcDbSymbolTableRecord
100
AcDbLayerTableRecord
  2
13_REF_GTOL
 70
0
 62
7
  6
CONTINUOUS
370
-3
390
F
  0
LAYER
  5
209
100
AcDbSymbolTableRecord
100
AcDbLayerTableRecord
  2
16_MISC
 70
0
 62
7
  6
CONTINUOUS
370
-3
390
F
  0
LAYER
  5
20A
100
AcDbSymbolTableRecord
100
AcDbLayerTableRecord
  2
17_NO_PRINT
 70
0
 62
7
  6
CONTINUOUS
370
-3
390
F
  0
LAYER
  5
20B
100
AcDbSymbolTableRecord
100
AcDbLayerTableRecord
  2
18_DATUM_CAMS_JOINTS
 70
0
 62
7
  6
CONTINUOUS
370
-3
390
F
  0
LAYER
  5
20C
100
AcDbSymbolTableRecord
100
AcDbLayerTableRecord
  2
19_DATUM_FUNCTIONAL
 70
0
 62
7
  6
CONTINUOUS
370
-3
390
F
  0
LAYER
  5
20D
100
AcDbSymbolTableRecord
100
AcDbLayerTableRecord
  2
20_DATUM_KINEMATIC_SCHEME
 70
0
 62
7
  6
CONTINUOUS
370
-3
390
F
  0
ENDTAB
  0
TABLE
  2
STYLE
  5
3
100
AcDbSymbolTable
 70
1
  0
STYLE
  5
11
100
AcDbSymbolTableRecord
100
AcDbTextStyleTableRecord
  2
STANDARD
 70
0
 40
0.0
 41
1.0
 50
0.0
 71
0
 42
0.2
  3
ARIAL.TTF
  4

  0
STYLE
  5
20E
100
AcDbSymbolTableRecord
100
AcDbTextStyleTableRecord
  2
TEXTSTYLE_1
 70
0
 40
0.0
 41
0.8
 50
0.0
 71
0
 42
0.2
  3
gdt
  4

  0
ENDTAB
  0
TABLE
  2
VIEW
  5
6
100
AcDbSymbolTable
 70
0
  0
ENDTAB
  0
TABLE
  2
UCS
  5
7
100
AcDbSymbolTable
 70
0
  0
ENDTAB
  0
TABLE
  2
APPID
  5
9
100
AcDbSymbolTable
 70
1
  0
APPID
  5
20F
100
AcDbSymbolTableRecord
100
AcDbRegAppTableRecord
  2
ACAD
 70
0
  0
ENDTAB
  0
TABLE
  2
BLOCK_RECORD
  5
1
100
AcDbSymbolTable
 70
0
  0
BLOCK_RECORD
  5
210
100
AcDbSymbolTableRecord
100
AcDbBlockTableRecord
  2
*Model_Space
  0
BLOCK_RECORD
  5
211
100
AcDbSymbolTableRecord
100
AcDbBlockTableRecord
  2
*Paper_Space
  0
BLOCK_RECORD
  5
212
100
AcDbSymbolTableRecord
100
AcDbBlockTableRecord
  2
_FILLED
  0
ENDTAB
  0
TABLE
  2
DIMSTYLE
  5
A
100
AcDbSymbolTable
 70
1
100
AcDbDimStyleTable
 71
0
  0
DIMSTYLE
105
213
100
AcDbSymbolTableRecord
100
AcDbDimStyleTableRecord
  2
STANDARD
 70
0
  3

  4

 40
1.0
 41
1.0081586689
 42
1.0
 43
0.38
 44
1.0
 45
0.0
 46
0.0
 47
0.01
 48
0.01
140
1.4114221364
141
0.09
142
0.0
143
25.4
144
1.0
145
0.0
146
1.0
147
0.625
 71
1
 72
0
 73
0
 74
0
 75
0
 76
0
 77
1
 78
8
 79
2
170
0
171
1
172
0
173
0
174
0
175
0
176
0
177
0
178
0
270
2
179
2
271
2
272
2
273
2
274
2
275
0
280
0
281
0
282
0
283
1
284
8
285
0
286
0
287
3
288
0
340
11
278
46
341
212
342
212
343
212
344
212
  0
ENDTAB
  0
ENDSEC
  0
SECTION
  2
BLOCKS
  0
BLOCK
  5
20
100
AcDbEntity
  8
0
100
AcDbBlockBegin
  2
*Model_Space
 70
0
 10
0.0
 20
0.0
 30
0.0
  3
*Model_Space
  1

  0
ENDBLK
  5
21
100
AcDbEntity
  8
0
100
AcDbBlockEnd
  0
BLOCK
  5
1C
100
AcDbEntity
  8
0
100
AcDbBlockBegin
  2
*Paper_Space
 70
0
 10
0.0
 20
0.0
 30
0.0
  3
*Paper_Space
  1

  0
ENDBLK
  5
1D
100
AcDbEntity
  8
0
100
AcDbBlockEnd
  0
BLOCK
  5
214
100
AcDbEntity
  8
0
100
AcDbBlockBegin
  2
_FILLED
 70
64
 10
0.0
 20
0.0
  3
_FILLED
  1

  0
SOLID
  5
215
100
AcDbEntity
  8
0
  6
BYBLOCK
 62
0
100
AcDbTrace
 10
0.0
 20
0.0
 11
-1.0
 21
0.25
 12
-1.0
 22
-0.25
 13
-1.0
 23
-0.25
  0
ENDBLK
  5
216
100
AcDbEntity
  8
0
  6
BYBLOCK
 62
0
100
AcDbBlockEnd
  0
ENDSEC
  0
SECTION
  2
ENTITIES
  0
LINE
  5
217
100
AcDbEntity
  8
0
100
AcDbLine
 62
7
  6
BYLAYER
 10
68.5646033377
 20
21.2080991997
 11
74.3403952146
 21
21.2080991997
  0
LINE
  5
218
100
AcDbEntity
  8
0
100
AcDbLine
 62
7
  6
BYLAYER
 10
74.3403952146
 20
23.2580991997
 11
68.5646033377
 21
23.2580991997
  0
LINE
  5
219
100
AcDbEntity
  8
0
100
AcDbLine
 62
7
  6
BYLAYER
 10
10.1244294263
 20
65.952951718
 11
9.431774774
 21
26.2707932637
  0
LINE
  5
21A
100
AcDbEntity
  8
0
100
AcDbLine
 62
7
  6
BYLAYER
 10
12.4313184163
 20
26.3231504928
 11
13.1239730686
 21
66.005308947
  0
LINE
  5
21B
100
AcDbEntity
  8
0
100
AcDbLine
 62
7
  6
BYLAYER
 10
9.431774774
 20
26.2707932637
 11
77.4524992722
 21
27.4580994263
  0
LINE
  5
21C
100
AcDbEntity
  8
0
100
AcDbLine
 62
7
  6
BYLAYER
 10
68.4559902892
 20
26.9580991997
 11
74.4559730971
 21
26.9580991997
  0
LINE
  5
21D
100
AcDbEntity
  8
0
100
AcDbLine
 62
7
  6
BYLAYER
 10
22.563285985
 20
73.1580991997
 11
22.6852252877
 21
66.1722012253
  0
LINE
  5
21E
100
AcDbEntity
  8
0
100
AcDbLine
 62
7
  6
BYLAYER
 10
10.1244294263
 20
65.952951718
 11
76.7602665664
 21
67.1160845818
  0
LINE
  5
21F
100
AcDbEntity
  8
0
100
AcDbLine
 62
7
  6
BYLAYER
 10
22.563285985
 20
73.1580991997
 11
30.743035535
 21
73.1580991997
  0
LINE
  5
220
100
AcDbEntity
  8
0
100
AcDbLine
 62
7
  6
BYLAYER
 10
60.8510119155
 20
73.1580991997
 11
69.3147591402
 21
73.1580991997
  0
LINE
  5
221
100
AcDbEntity
  8
0
100
AcDbLine
 62
7
  6
BYLAYER
 10
47.4927598809
 20
81.7981516342
 11
46.9435124184
 21
82.837077694
  0
LINE
  5
222
100
AcDbEntity
  8
0
100
AcDbLine
 62
7
  6
BYLAYER
 10
54.8277186736
 20
78.8440735871
 11
55.2015634693
 21
78.8440735871
  0
LINE
  5
223
100
AcDbEntity
  8
0
100
AcDbLine
 62
7
  6
BYLAYER
 10
50.4720640609
 20
84.7218855839
 11
51.0303384528
 21
83.6871984179
  0
LINE
  5
224
100
AcDbEntity
  8
0
100
AcDbLine
 62
7
  6
BYLAYER
 10
50.6744681442
 20
84.3786041398
 11
50.4894270933
 21
84.7218709952
  0
LINE
  5
225
100
AcDbEntity
  8
0
100
AcDbLine
 62
7
  6
BYLAYER
 10
51.0301685589
 20
83.6875132935
 11
51.0569989397
 21
83.6875132935
  0
LINE
  5
226
100
AcDbEntity
  8
0
100
AcDbLine
 62
7
  6
BYLAYER
 10
68.4500056261
 20
27.3009603152
 11
68.4559902892
 21
26.9580991997
  0
LINE
  5
227
100
AcDbEntity
  8
0
100
AcDbLine
 62
7
  6
BYLAYER
 10
69.3147591402
 20
73.1580991997
 11
69.4224585758
 21
66.9880026669
  0
LINE
  5
228
100
AcDbEntity
  8
0
100
AcDbLine
 62
7
  6
BYLAYER
 10
68.5646033377
 20
21.2080991997
 11
68.5646033377
 21
23.2580991997
  0
LINE
  5
229
100
AcDbEntity
  8
0
100
AcDbLine
 62
7
  6
BYLAYER
 10
69.9524992762
 20
26.9580991997
 11
69.9524992762
 21
23.2580991997
  0
LINE
  5
22A
100
AcDbEntity
  8
0
100
AcDbLine
 62
7
  6
BYLAYER
 10
50.6831730996
 20
84.3786041398
 11
50.6744681442
 21
84.3786041398
  0
LINE
  5
22B
100
AcDbEntity
  8
0
100
AcDbLine
 62
7
  6
BYLAYER
 10
50.4892128499
 20
84.7217592932
 11
50.4718218601
 21
84.7217592932
  0
LINE
  5
22C
100
AcDbEntity
  8
0
100
AcDbLine
 62
7
  6
BYLAYER
 10
74.4559902892
 20
26.9580991997
 11
74.4481781072
 21
27.4056588053
  0
LINE
  5
22D
100
AcDbEntity
  8
0
100
AcDbLine
 62
7
  6
BYLAYER
 10
74.4529561867
 20
27.405742207
 11
73.7607234809
 21
67.0637273625
  0
LINE
  5
22E
100
AcDbEntity
  8
0
100
AcDbLine
 62
7
  6
BYLAYER
 10
72.9524992762
 20
26.9580991997
 11
72.9524992762
 21
23.2580991997
  0
LINE
  5
22F
100
AcDbEntity
  8
0
100
AcDbLine
 62
7
  6
BYLAYER
 10
74.3403952146
 20
21.2080991997
 11
74.3403952146
 21
23.2580991997
  0
LINE
  5
230
100
AcDbEntity
  8
0
100
AcDbLine
 62
7
  6
BYLAYER
 10
54.6286270402
 20
89.8029449526
 11
54.2520093614
 21
89.8029449526
  0
LINE
  5
231
100
AcDbEntity
  8
0
100
AcDbLine
 62
7
  6
BYLAYER
 10
77.4524992722
 20
27.4580994263
 11
76.7602665664
 21
67.1160845818
  0
LINE
  5
232
100
AcDbEntity
  8
0
100
AcDbLine
 62
7
  6
BYLAYER
 10
43.3651145759
 20
93.7822677905
 11
44.3192563957
 21
94.0210964624
  0
LINE
  5
233
100
AcDbEntity
  8
0
100
AcDbLine
 62
7
  6
BYLAYER
 10
46.1183848684
 20
92.9584080844
 11
46.1009938789
 21
92.958408084
  0
ARC
  5
234
100
AcDbEntity
  8
0
100
AcDbCircle
 62
7
  6
BYLAYER
 10
-508.0269510725
 20
-206.4156367834
 40
629.8425145343
100
AcDbArc
 50
27.531653397
 51
28.3800532086
  0
ARC
  5
235
100
AcDbEntity
  8
0
100
AcDbCircle
 62
7
  6
BYLAYER
 10
-508.022694566
 20
-206.4023908089
 40
629.8172272327
100
AcDbArc
 50
27.5314951401
 51
28.3798949974
  0
ARC
  5
236
100
AcDbEntity
  8
0
100
AcDbCircle
 62
7
  6
BYLAYER
 10
596.8019671551
 20
383.6942193078
 40
626.7849231638
100
AcDbArc
 50
207.8329006972
 51
208.6854414537
  0
ARC
  5
237
100
AcDbEntity
  8
0
100
AcDbCircle
 62
7
  6
BYLAYER
 10
45.7449510818
 20
89.3630630403
 40
7.0115193706
100
AcDbArc
 50
270.0046241996
 51
281.3676488928
  0
ARC
  5
238
100
AcDbEntity
  8
0
100
AcDbCircle
 62
7
  6
BYLAYER
 10
45.7448174698
 20
89.3582027583
 40
7.0069945721
100
AcDbArc
 50
314.7112009121
 51
359.9991532059
  0
ARC
  5
239
100
AcDbEntity
  8
0
100
AcDbCircle
 62
7
  6
BYLAYER
 10
45.7453797361
 20
89.358220962
 40
7.0064119561
100
AcDbArc
 50
359.9990042753
 51
269.998349539
  0
ARC
  5
23A
100
AcDbEntity
  8
0
100
AcDbCircle
 62
7
  6
BYLAYER
 10
44.3188673449
 20
91.9961575852
 40
2.0247635394
100
AcDbArc
 50
118.1014661551
 51
207.8027370129
  0
ARC
  5
23B
100
AcDbEntity
  8
0
100
AcDbCircle
 62
7
  6
BYLAYER
 10
44.3194183449
 20
91.996702
 40
2.0244344969
100
AcDbArc
 50
28.3983738712
 51
90.0045834891
  0
ARC
  5
23C
100
AcDbEntity
  8
0
100
AcDbCircle
 62
7
  6
BYLAYER
 10
44.3368792727
 20
91.9969076607
 40
2.0242286286
100
AcDbArc
 50
28.4047973703
 51
90.0065636021
  0
ARC
  5
23D
100
AcDbEntity
  8
0
100
AcDbCircle
 62
7
  6
BYLAYER
 10
49.261564681
 20
82.7426279867
 40
2.0051748117
100
AcDbArc
 50
208.1005682945
 51
28.1000758306
  0
SPLINE
  5
23E
100
AcDbEntity
  8
0
100
AcDbSpline
 62
7
  6
BYLAYER
 70
0
 71
3
 72
15
 73
11
 74
0
 42
0.0000001
 43
0.0000001
 44
0.0000000001
 40
0.0
 40
0.0
 40
0.0
 40
0.0
 40
0.1258256162
 40
0.2509486006
 40
0.3753360964
 40
0.4993503889
 40
0.6235593116
 40
0.7483909178
 40
0.8739653242
 40
1.0
 40
1.0
 40
1.0
 40
1.0
 10
37.2741718656
 20
89.8029562402
 30
0.0
 10
37.3023177896
 20
90.3423832041
 30
0.0
 10
37.4612779604
 20
91.4156979049
 30
0.0
 10
37.9976923963
 20
92.9448667668
 30
0.0
 10
38.8081006312
 20
94.3397004852
 30
0.0
 10
39.8631743121
 20
95.5545888926
 30
0.0
 10
41.1290253341
 20
96.5511198202
 30
0.0
 10
42.5662108157
 20
97.2944123565
 30
0.0
 10
44.1252178011
 20
97.7543203167
 30
0.0
 10
45.2082113043
 20
97.8580817462
 30
0.0
 10
45.7492695388
 20
97.8580777314
 30
0.0
  0
LINE
  5
23F
100
AcDbEntity
  8
0
100
AcDbLine
 62
7
  6
BYLAYER
 10
37.2742651794
 20
89.8029449529
 11
36.7025935941
 21
78.8440735874
  0
SPLINE
  5
240
100
AcDbEntity
  8
0
100
AcDbSpline
 62
7
  6
BYLAYER
 70
0
 71
3
 72
15
 73
11
 74
0
 42
0.0000001
 43
0.0000001
 44
0.0000000001
 40
0.0
 40
0.0
 40
0.0
 40
0.0
 40
0.1376813259
 40
0.2738425105
 40
0.4072611787
 40
0.5366806525
 40
0.6610506616
 40
0.7797017523
 40
0.892557788
 40
1.0
 40
1.0
 40
1.0
 40
1.0
 10
36.7024052399
 20
78.8440834622
 30
0.0
 10
36.6807255783
 20
78.4283879629
 30
0.0
 10
36.5511425691
 20
77.6035057721
 30
0.0
 10
36.1111778543
 20
76.4446130231
 30
0.0
 10
35.4595484678
 20
75.4195712308
 30
0.0
 10
34.6433370676
 20
74.5699054037
 30
0.0
 10
33.7168118574
 20
73.9182557157
 30
0.0
 10
32.7324978236
 20
73.4692503087
 30
0.0
 10
31.7351796793
 20
73.2132358859
 30
0.0
 10
31.0678721997
 20
73.1580991997
 30
0.0
 10
30.743035535
 20
73.1580991997
 30
0.0
  0
SPLINE
  5
241
100
AcDbEntity
  8
0
100
AcDbSpline
 62
7
  6
BYLAYER
 70
0
 71
3
 72
15
 73
11
 74
0
 42
0.0000001
 43
0.0000001
 44
0.0000000001
 40
0.0
 40
0.0
 40
0.0
 40
0.0
 40
0.1261768787
 40
0.2515912739
 40
0.3760893068
 40
0.4999978346
 40
0.6239403347
 40
0.7484709987
 40
0.8738716172
 40
1.0
 40
1.0
 40
1.0
 40
1.0
 10
54.6287212507
 20
89.8029498902
 30
0.0
 10
54.600443482
 20
90.3438017653
 30
0.0
 10
54.4407411373
 20
91.4196933749
 30
0.0
 10
53.9022199323
 20
92.9513570514
 30
0.0
 10
53.0899885566
 20
94.3463512925
 30
0.0
 10
52.034773104
 20
95.5592848752
 30
0.0
 10
50.7708609867
 20
96.5531352642
 30
0.0
 10
49.3366604648
 20
97.2946289821
 30
0.0
 10
47.7795459084
 20
97.7542362038
 30
0.0
 10
46.6970429564
 20
97.858078881
 30
0.0
 10
46.1556605113
 20
97.8580757514
 30
0.0
  0
LINE
  5
242
100
AcDbEntity
  8
0
100
AcDbLine
 62
7
  6
BYLAYER
 10
55.2015634693
 20
78.8440735871
 11
54.6286270402
 21
89.8029449526
  0
SPLINE
  5
243
100
AcDbEntity
  8
0
100
AcDbSpline
 62
7
  6
BYLAYER
 70
0
 71
3
 72
18
 73
14
 74
0
 42
0.0000001
 43
0.0000001
 44
0.0000000001
 40
0.0
 40
0.0
 40
0.0
 40
0.0
 40
0.0684615738
 40
0.1367445563
 40
0.2047147395
 40
0.272228276
 40
0.4051319449
 40
0.5344234083
 40
0.597437007
 40
0.6591657531
 40
0.7783723917
 40
0.8919169547
 40
1.0
 40
1.0
 40
1.0
 40
1.0
 10
55.2017518905
 20
78.8440834622
 30
0.0
 10
55.2122049269
 20
78.6441303168
 30
0.0
 10
55.2530490688
 20
78.2454991326
 30
0.0
 10
55.3732335422
 20
77.6580168261
 30
0.0
 10
55.5502990773
 20
77.0879027349
 30
0.0
 10
55.8562832493
 20
76.3639124229
 30
0.0
 10
56.3605017896
 20
75.5343196246
 30
0.0
 10
57.00473035
 20
74.8264217164
 30
0.0
 10
57.577719102
 20
74.3520252573
 30
0.0
 10
58.1671886481
 20
73.948593296
 30
0.0
 10
58.9405439087
 20
73.5585692725
 30
0.0
 10
59.8983995785
 20
73.267182867
 30
0.0
 10
60.5442608316
 20
73.1819380545
 30
0.0
 10
60.859954114
 20
73.1658067788
 30
0.0
  0
SPLINE
  5
244
100
AcDbEntity
  8
0
100
AcDbSpline
 62
7
  6
BYLAYER
 70
0
 71
3
 72
15
 73
11
 74
0
 42
0.0000001
 43
0.0000001
 44
0.0000000001
 40
0.0
 40
0.0
 40
0.0
 40
0.0
 40
0.1243506678
 40
0.2484837763
 40
0.3727332547
 40
0.497437302
 40
0.622760938
 40
0.7485749126
 40
0.8744624497
 40
1.0
 40
1.0
 40
1.0
 40
1.0
 10
49.2852149065
 20
80.737463803
 30
0.0
 10
49.456197354
 20
80.737470635
 30
0.0
 10
49.7994649204
 20
80.7815237542
 30
0.0
 10
50.2796810094
 20
80.9753388403
 30
0.0
 10
50.6960757134
 20
81.2845941425
 30
0.0
 10
51.0214093981
 20
81.6906609952
 30
0.0
 10
51.2333687791
 20
82.1683193084
 30
0.0
 10
51.3158791024
 20
82.6861349634
 30
0.0
 10
51.2625843989
 20
83.2077550083
 30
0.0
 10
51.1384595722
 20
83.5353295191
 30
0.0
 10
51.0569989397
 20
83.6875132935
 30
0.0
  0
SPLINE
  5
245
100
AcDbEntity
  8
0
100
AcDbSpline
 62
7
  6
BYLAYER
 70
0
 71
3
 72
15
 73
11
 74
0
 42
0.0000001
 43
0.0000001
 44
0.0000000001
 40
0.0
 40
0.0
 40
0.0
 40
0.0
 40
0.1367776907
 40
0.2722716758
 40
0.4053166422
 40
0.5346822924
 40
0.6593069391
 40
0.7784436303
 40
0.8919244411
 40
1.0
 40
1.0
 40
1.0
 40
1.0
 10
54.8278128842
 20
78.8440785246
 30
0.0
 10
54.8496339447
 20
78.4287304796
 30
0.0
 10
54.9804389714
 20
77.6039503758
 30
0.0
 10
55.42335214
 20
76.4447819165
 30
0.0
 10
56.0809214836
 20
75.4190264362
 30
0.0
 10
56.9055091387
 20
74.5686454446
 30
0.0
 10
57.8424163961
 20
73.9167453003
 30
0.0
 10
58.8382933196
 20
73.4680526715
 30
0.0
 10
59.8474249294
 20
73.213119105
 30
0.0
 10
60.5223700251
 20
73.1580991997
 30
0.0
 10
60.8510119155
 20
73.1580991997
 30
0.0
  0
SPLINE
  5
246
100
AcDbEntity
  8
0
100
AcDbSpline
 62
7
  6
BYLAYER
 70
0
 71
3
 72
15
 73
11
 74
0
 42
0.0000001
 43
0.0000001
 44
0.0000000001
 40
0.0
 40
0.0
 40
0.0
 40
0.0
 40
0.1260446118
 40
0.2514822926
 40
0.3761228969
 40
0.5001883409
 40
0.6241794696
 40
0.7486772217
 40
0.8739961748
 40
1.0
 40
1.0
 40
1.0
 40
1.0
 10
45.7492695388
 20
97.8580777314
 30
0.0
 10
46.2911427668
 20
97.8580737106
 30
0.0
 10
47.3751224157
 20
97.7540861251
 30
0.0
 10
48.9351080614
 20
97.2944783574
 30
0.0
 10
50.373508478
 20
96.5532351124
 30
0.0
 10
51.6425592409
 20
95.5597495444
 30
0.0
 10
52.7032944309
 20
94.3471418109
 30
0.0
 10
53.5205904272
 20
92.9521966417
 30
0.0
 10
54.0628610347
 20
91.4202886218
 30
0.0
 10
54.2236871027
 20
90.3439019228
 30
0.0
 10
54.252103572
 20
89.8029498902
 30
0.0
  0
LINE
  5
247
100
AcDbEntity
  8
0
100
AcDbLine
 62
7
  6
BYLAYER
 10
54.2520093614
 20
89.8029449526
 11
54.8277186736
 21
78.8440735871
  0
SPLINE
  5
248
100
AcDbEntity
  8
0
100
AcDbSpline
 62
7
  6
BYLAYER
 70
0
 71
3
 72
24
 73
20
 74
0
 42
0.0000001
 43
0.0000001
 44
0.0000000001
 40
0.0
 40
0.0
 40
0.0
 40
0.0
 40
0.0621328226
 40
0.124383296
 40
0.1868041725
 40
0.2494513848
 40
0.3122731709
 40
0.3751579247
 40
0.4379707094
 40
0.5006020685
 40
0.5630111008
 40
0.6252362499
 40
0.6873727879
 40
0.7495423442
 40
0.8118546804
 40
0.874373741
 40
0.9057352386
 40
0.9371406869
 40
1.0
 40
1.0
 40
1.0
 40
1.0
 10
50.6831730996
 20
84.3786041398
 30
0.0
 10
50.9268491639
 20
84.619345545
 30
0.0
 10
51.3799967439
 20
85.1378753486
 30
0.0
 10
51.9389218113
 20
86.0070839337
 30
0.0
 10
52.3654164614
 20
86.9517667031
 30
0.0
 10
52.6490114773
 20
87.9519737378
 30
0.0
 10
52.7816641058
 20
88.9857487053
 30
0.0
 10
52.7594611845
 20
90.0286807012
 30
0.0
 10
52.5829312428
 20
91.0557249934
 30
0.0
 10
52.2572369211
 20
92.0428235186
 30
0.0
 10
51.7911174077
 20
92.9682164134
 30
0.0
 10
51.1958850637
 20
93.8129574366
 30
0.0
 10
50.4844849836
 20
94.5606260744
 30
0.0
 10
49.6711560433
 20
95.1967408428
 30
0.0
 10
48.7718522623
 20
95.7082019338
 30
0.0
 10
47.9658783132
 20
96.0208267491
 30
0.0
 10
47.2977139368
 20
96.1980674381
 30
0.0
 10
46.6165783452
 20
96.325948952
 30
0.0
 10
46.0958137983
 20
96.3646239891
 30
0.0
 10
45.7492674594
 20
96.3646471417
 30
0.0
  0
ELLIPSE
  5
249
100
AcDbEntity
  8
0
100
AcDbEllipse
 62
7
  6
BYLAYER
 10
45.5714835239
 20
94.2143966275
 30
0.0
 11
-24.1562170625
 21
44.7446186935
 31
0.0
 40
0.0035170059
 41
-4.4926574554
 42
-4.4767959896
  0
ENDSEC
  0
SECTION
  2
OBJECTS
  0
DICTIONARY
  5
C
100
AcDbDictionary
280
0
281
1
  3
ACAD_GROUP
350
D
  3
ACAD_MLINESTYLE
350
17
  3
ACAD_LAYOUT
350
1A
  3
ACAD_PLOTSETTINGS
350
19
  3
ACAD_PLOTSTYLENAME
350
E
  0
DICTIONARY
  5
D
102
{ACAD_REACTORS
330
C
102
}
100
AcDbDictionary
280
0
281
1
  0
ACDBDICTIONARYWDFLT
  5
E
102
{ACAD_REACTORS
330
C
102
}
100
AcDbDictionary
281
1
  3
Normal
350
F
100
AcDbDictionaryWithDefault
340
F
  0
DICTIONARY
  5
17
102
{ACAD_REACTORS
330
C
102
}
100
AcDbDictionary
280
0
281
1
  3
Standard
350
18
  0
DICTIONARY
  5
19
102
{ACAD_REACTORS
330
C
102
}
100
AcDbDictionary
281
1
  0
DICTIONARY
  5
1A
102
{ACAD_REACTORS
330
C
102
}
100
AcDbDictionary
281
1
  3
Model
350
24A
  3
Layout1
350
24B
  0
ACDBPLACEHOLDER
  5
F
102
{ACAD_REACTORS
330
E
102
}
  0
MLINESTYLE
  5
18
102
{ACAD_REACTORS
330
17
102
}
100
AcDbMlineStyle
  2
STANDARD
 70
0
  3

 62
256
 51
90.0
 52
90.0
 71
2
 49
0.5
 62
256
  6
BYLAYER
 49
-0.5
 62
256
  6
BYLAYER
  0
LAYOUT
  5
24A
102
{ACAD_REACTORS
330
1A
102
}
100
AcDbPlotSettings
  1

  2
none_device
  4

  6

 40
0.0
 41
0.0
 42
0.0
 43
0.0
 44
210.0
 45
297.0
 46
0.0
 47
0.0
 48
0.0
 49
0.0
140
0.0
141
0.0
142
1.0
143
1.0
 70
1024
 72
1
 73
0
 74
0
  7

 75
0
147
1.0
148
0.0
149
0.0
100
AcDbLayout
  1
Model
 70
0
 71
0
 10
0.0
 20
0.0
 11
210.0
 21
297.0
 12
0.0
 22
0.0
 32
0.0
 14
0.0
 24
0.0
 34
0.0
 15
0.0
 25
0.0
 35
0.0
146
0.0
 13
0.0
 23
0.0
 33
0.0
 16
1.0
 26
0.0
 36
0.0
 17
0.0
 27
1.0
 37
0.0
 76
0
330
210
345
0
346
0
  0
LAYOUT
  5
24B
102
{ACAD_REACTORS
330
1A
102
}
100
AcDbPlotSettings
  1

  2
none_device
  4

  6

 40
0.0
 41
0.0
 42
0.0
 43
0.0
 44
210.0
 45
297.0
 46
0.0
 47
0.0
 48
0.0
 49
0.0
140
0.0
141
0.0
142
1.0
143
1.0
 70
0
 72
1
 73
0
 74
0
  7

 75
0
147
1.0
148
0.0
149
0.0
100
AcDbLayout
  1
Layout1
 70
0
 71
1
 10
0.0
 20
0.0
 11
210.0
 21
297.0
 12
0.0
 22
0.0
 32
0.0
 14
0.0
 24
0.0
 34
0.0
 15
0.0
 25
0.0
 35
0.0
146
0.0
 13
0.0
 23
0.0
 33
0.0
 16
1.0
 26
0.0
 36
0.0
 17
0.0
 27
1.0
 37
0.0
 76
0
330
211
345
0
346
0
  0
ENDSEC
  0
EOF
