999
DXF file: C:\Users\sesa63760\Dev\_Creo\CAD\MCADID0002162_3D-CAD\drw0001_4.dxf
999
Pro/ENGINEER 2019471 by Parametric Technology Corporation
  0
SECTION
  2
HEADER
  9
$ACADVER
  1
AC1024
  9
$DWGCODEPAGE
  3
ANSI_1252
  9
$EXTMAX
 10
41.0894647243
 20
58.1122429672
 30
0.0
  9
$EXTMIN
 10
0.0
 20
0.0
 30
0.0
  9
$LIMMIN
 10
0.0
 20
0.0
  9
$LIMMAX
 10
41.0894647243
 20
58.1122429672
  9
$VIEWCTR
 10
20.5447323621
 20
29.0561214836
  9
$VIEWSIZE
 40
58.1122429672
  9
$CLAYER
  8
0
  9
$LTSCALE
 40
3.7880573193
  9
$CELTYPE
  6
BYLAYER
  9
$DIMSCALE
 40
1.0
  9
$DIMASZ
 40
0.4891602943
  9
$DIMEXO
 40
1.0
  9
$DIMDLI
 40
2.6172032388
  9
$DIMEXE
 40
1.0
  9
$DIMCEN
 40
0.619863925
  9
$DIMLFAC
 40
1.0
  9
$DIMBLK
  1
_FILLED
  9
$DIMALT
 70
0
  9
$DIMALTF
 40
0.0393700787
  9
$DIMTXT
 40
0.6848244121
  9
$DIMTOL
 70
1
  9
$DIMLIM
 70
0
  9
$DIMTFAC
 40
1.0
  9
$DIMTP
 40
0.01
  9
$DIMTM
 40
0.01
  9
$DIMGAP
 40
0.625
  9
$DIMDSEP
 70
46
  9
$AUNITS
 70
0
  9
$PDMODE
 70
3
  9
$PDSIZE
 40
0.3125
  9
$HANDSEED
  5
288
  9
$TILEMODE
 70
1
  9
$MEASUREMENT
 70
1
  9
$INSUNITS
 70
4
  0
ENDSEC
  0
SECTION
  2
CLASSES
  0
CLASS
  1
ACDBDICTIONARYWDFLT
  2
AcDbDictionaryWithDefault
  3
AutoCAD 2000
 90
0
 91
1
280
0
281
0
  0
CLASS
  1
ACDBPLACEHOLDER
  2
AcDbPlaceHolder
  3
AutoCAD 2000
 90
0
 91
1
280
0
281
0
  0
CLASS
  1
LAYOUT
  2
AcDbLayout
  3
AutoCAD 2000
 90
0
 91
0
280
0
281
0
  0
ENDSEC
  0
SECTION
  2
TABLES
  0
TABLE
  2
VPORT
  5
8
100
AcDbSymbolTable
 70
2
  0
VPORT
  5
1F4
100
AcDbSymbolTableRecord
100
AcDbViewportTableRecord
  2
*ACTIVE
 70
0
 10
0.0
 20
0.0
 11
1.0
 21
1.0
 12
20.5447323621
 22
29.0561214836
 13
0.0
 23
0.0
 14
1.0
 24
1.0
 15
0.0
 25
0.0
 16
0.0
 26
0.0
 36
1.0
 17
0.0
 27
0.0
 37
0.0
 40
58.1122429672
 41
0.7070707071
 42
50.0
 43
0.0
 44
0.0
 50
0.0
 51
0.0
 71
0
 72
100
 73
1
 74
1
 75
0
 76
0
 77
0
 78
0
  0
ENDTAB
  0
TABLE
  2
LTYPE
  5
5
100
AcDbSymbolTable
 70
6
  0
LTYPE
  5
14
100
AcDbSymbolTableRecord
100
AcDbLinetypeTableRecord
  2
BYBLOCK
 70
0
  3

 72
65
 73
0
 40
0.0
  0
LTYPE
  5
15
100
AcDbSymbolTableRecord
100
AcDbLinetypeTableRecord
  2
BYLAYER
 70
0
  3

 72
65
 73
0
 40
0.0
  0
LTYPE
  5
16
100
AcDbSymbolTableRecord
100
AcDbLinetypeTableRecord
  2
CONTINUOUS
 70
64
  3
Solid line
 72
65
 73
0
 40
0.0
  0
LTYPE
  5
1F5
100
AcDbSymbolTableRecord
100
AcDbLinetypeTableRecord
  2
CENTER
 70
64
  3
____ _ ____ _ ____ _ ____ _ ____ _ ____ _ ____
 72
65
 73
4
 40
0.6
 49
0.375
 74
0
 49
-0.075
 74
0
 49
0.075
 74
0
 49
-0.075
 74
0
  0
LTYPE
  5
1F6
100
AcDbSymbolTableRecord
100
AcDbLinetypeTableRecord
  2
HIDDEN
 70
64
  3
- - - - - - - - - - - - - - - - - - - -
 72
65
 73
2
 40
0.2
 49
0.1
 74
0
 49
-0.1
 74
0
  0
LTYPE
  5
1F7
100
AcDbSymbolTableRecord
100
AcDbLinetypeTableRecord
  2
PHANTOM
 70
64
  3
_____ _ _ _____ _ _ _____ _ _ _____
 72
65
 73
6
 40
0.8
 49
0.45
 74
0
 49
-0.05
 74
0
 49
0.1
 74
0
 49
-0.05
 74
0
 49
0.1
 74
0
 49
-0.05
 74
0
  0
LTYPE
  5
1F8
100
AcDbSymbolTableRecord
100
AcDbLinetypeTableRecord
  2
DOT
 70
64
  3
. . . . . . . . . . . . . . . . . . . .
 72
65
 73
2
 40
0.2
 49
0.1
 74
0
 49
-0.1
 74
0
  0
LTYPE
  5
1F9
100
AcDbSymbolTableRecord
100
AcDbLinetypeTableRecord
  2
DASHED
 70
64
  3
- - - - - - - - - - - - - - - - - - - -
 72
65
 73
2
 40
0.2
 49
0.1
 74
0
 49
-0.1
 74
0
  0
ENDTAB
  0
TABLE
  2
LAYER
  5
2
100
AcDbSymbolTable
 70
36
  0
LAYER
  5
10
100
AcDbSymbolTableRecord
100
AcDbLayerTableRecord
  2
0
 70
0
 62
7
  6
CONTINUOUS
370
-3
390
F
  0
LAYER
  5
1FA
100
AcDbSymbolTableRecord
100
AcDbLayerTableRecord
  2
DEFAULT_1
 70
0
 62
7
  6
CENTER
370
-3
390
F
  0
LAYER
  5
1FB
100
AcDbSymbolTableRecord
100
AcDbLayerTableRecord
  2
DEFAULT_2
 70
0
 62
8
  6
HIDDEN
370
-3
390
F
  0
LAYER
  5
1FC
100
AcDbSymbolTableRecord
100
AcDbLayerTableRecord
  2
DEFAULT_3
 70
0
 62
7
  6
PHANTOM
370
-3
390
F
  0
LAYER
  5
1FD
100
AcDbSymbolTableRecord
100
AcDbLayerTableRecord
  2
00_COMPONENTS
 70
0
 62
7
  6
CONTINUOUS
370
-3
390
F
  0
LAYER
  5
1FE
100
AcDbSymbolTableRecord
100
AcDbLayerTableRecord
  2
01_1_DEFAULT_DATUMS
 70
0
 62
7
  6
CONTINUOUS
370
-3
390
F
  0
LAYER
  5
1FF
100
AcDbSymbolTableRecord
100
AcDbLayerTableRecord
  2
01_PLANES
 70
0
 62
7
  6
CONTINUOUS
370
-3
390
F
  0
LAYER
  5
200
100
AcDbSymbolTableRecord
100
AcDbLayerTableRecord
  2
02_COORD_SYS
 70
0
 62
7
  6
CONTINUOUS
370
-3
390
F
  0
LAYER
  5
201
100
AcDbSymbolTableRecord
100
AcDbLayerTableRecord
  2
03_AXES
 70
0
 62
7
  6
CONTINUOUS
370
-3
390
F
  0
LAYER
  5
202
100
AcDbSymbolTableRecord
100
AcDbLayerTableRecord
  2
04_POINTS
 70
0
 62
7
  6
CONTINUOUS
370
-3
390
F
  0
LAYER
  5
203
100
AcDbSymbolTableRecord
100
AcDbLayerTableRecord
  2
05_CURVES
 70
0
 62
7
  6
CONTINUOUS
370
-3
390
F
  0
LAYER
  5
204
100
AcDbSymbolTableRecord
100
AcDbLayerTableRecord
  2
06_SURFS
 70
0
 62
7
  6
CONTINUOUS
370
-3
390
F
  0
LAYER
  5
205
100
AcDbSymbolTableRecord
100
AcDbLayerTableRecord
  2
07_COSMETICS
 70
0
 62
7
  6
CONTINUOUS
370
-3
390
F
  0
LAYER
  5
206
100
AcDbSymbolTableRecord
100
AcDbLayerTableRecord
  2
10_NOTES
 70
0
 62
7
  6
CONTINUOUS
370
-3
390
F
  0
LAYER
  5
207
100
AcDbSymbolTableRecord
100
AcDbLayerTableRecord
  2
11_NOTES_PUB
 70
0
 62
7
  6
CONTINUOUS
370
-3
390
F
  0
LAYER
  5
208
100
AcDbSymbolTableRecord
100
AcDbLayerTableRecord
  2
13_REF_GTOL
 70
0
 62
7
  6
CONTINUOUS
370
-3
390
F
  0
LAYER
  5
209
100
AcDbSymbolTableRecord
100
AcDbLayerTableRecord
  2
16_MISC
 70
0
 62
7
  6
CONTINUOUS
370
-3
390
F
  0
LAYER
  5
20A
100
AcDbSymbolTableRecord
100
AcDbLayerTableRecord
  2
17_NO_PRINT
 70
0
 62
7
  6
CONTINUOUS
370
-3
390
F
  0
LAYER
  5
20B
100
AcDbSymbolTableRecord
100
AcDbLayerTableRecord
  2
18_DATUM_CAMS_JOINTS
 70
0
 62
7
  6
CONTINUOUS
370
-3
390
F
  0
LAYER
  5
20C
100
AcDbSymbolTableRecord
100
AcDbLayerTableRecord
  2
19_DATUM_FUNCTIONAL
 70
0
 62
7
  6
CONTINUOUS
370
-3
390
F
  0
LAYER
  5
20D
100
AcDbSymbolTableRecord
100
AcDbLayerTableRecord
  2
20_DATUM_KINEMATIC_SCHEME
 70
0
 62
7
  6
CONTINUOUS
370
-3
390
F
  0
ENDTAB
  0
TABLE
  2
STYLE
  5
3
100
AcDbSymbolTable
 70
1
  0
STYLE
  5
11
100
AcDbSymbolTableRecord
100
AcDbTextStyleTableRecord
  2
STANDARD
 70
0
 40
0.0
 41
0.8
 50
0.0
 71
0
 42
0.2
  3
txt
  4

  0
STYLE
  5
20E
100
AcDbSymbolTableRecord
100
AcDbTextStyleTableRecord
  2
TEXTSTYLE_1
 70
0
 40
0.0
 41
0.8
 50
0.0
 71
0
 42
0.2
  3
gdt
  4

  0
ENDTAB
  0
TABLE
  2
VIEW
  5
6
100
AcDbSymbolTable
 70
0
  0
ENDTAB
  0
TABLE
  2
UCS
  5
7
100
AcDbSymbolTable
 70
0
  0
ENDTAB
  0
TABLE
  2
APPID
  5
9
100
AcDbSymbolTable
 70
1
  0
APPID
  5
20F
100
AcDbSymbolTableRecord
100
AcDbRegAppTableRecord
  2
ACAD
 70
0
  0
ENDTAB
  0
TABLE
  2
BLOCK_RECORD
  5
1
100
AcDbSymbolTable
 70
0
  0
BLOCK_RECORD
  5
210
100
AcDbSymbolTableRecord
100
AcDbBlockTableRecord
  2
*Model_Space
  0
BLOCK_RECORD
  5
211
100
AcDbSymbolTableRecord
100
AcDbBlockTableRecord
  2
*Paper_Space
  0
BLOCK_RECORD
  5
212
100
AcDbSymbolTableRecord
100
AcDbBlockTableRecord
  2
_FILLED
  0
ENDTAB
  0
TABLE
  2
DIMSTYLE
  5
A
100
AcDbSymbolTable
 70
1
100
AcDbDimStyleTable
 71
0
  0
DIMSTYLE
105
213
100
AcDbSymbolTableRecord
100
AcDbDimStyleTableRecord
  2
STANDARD
 70
0
  3

  4

 40
1.0
 41
0.4891602943
 42
1.0
 43
0.38
 44
1.0
 45
0.0
 46
0.0
 47
0.01
 48
0.01
140
0.6848244121
141
0.09
142
0.0
143
25.4
144
1.0
145
0.0
146
1.0
147
0.625
 71
1
 72
0
 73
0
 74
0
 75
0
 76
0
 77
1
 78
8
 79
2
170
0
171
1
172
0
173
0
174
0
175
0
176
0
177
0
178
0
270
2
179
2
271
2
272
2
273
2
274
2
275
0
280
0
281
0
282
0
283
1
284
8
285
0
286
0
287
3
288
0
340
11
278
46
341
212
342
212
343
212
344
212
  0
ENDTAB
  0
ENDSEC
  0
SECTION
  2
BLOCKS
  0
BLOCK
  5
20
100
AcDbEntity
  8
0
100
AcDbBlockBegin
  2
*Model_Space
 70
0
 10
0.0
 20
0.0
 30
0.0
  3
*Model_Space
  1

  0
ENDBLK
  5
21
100
AcDbEntity
  8
0
100
AcDbBlockEnd
  0
BLOCK
  5
1C
100
AcDbEntity
  8
0
100
AcDbBlockBegin
  2
*Paper_Space
 70
0
 10
0.0
 20
0.0
 30
0.0
  3
*Paper_Space
  1

  0
ENDBLK
  5
1D
100
AcDbEntity
  8
0
100
AcDbBlockEnd
  0
BLOCK
  5
214
100
AcDbEntity
  8
0
100
AcDbBlockBegin
  2
_FILLED
 70
64
 10
0.0
 20
0.0
  3
_FILLED
  1

  0
SOLID
  5
215
100
AcDbEntity
  8
0
  6
BYBLOCK
 62
0
100
AcDbTrace
 10
0.0
 20
0.0
 11
-1.0
 21
0.25
 12
-1.0
 22
-0.25
 13
-1.0
 23
-0.25
  0
ENDBLK
  5
216
100
AcDbEntity
  8
0
  6
BYBLOCK
 62
0
100
AcDbBlockEnd
  0
ENDSEC
  0
SECTION
  2
ENTITIES
  0
LINE
  5
217
100
AcDbEntity
  8
0
100
AcDbLine
 62
7
  6
CONTINUOUS
 10
23.3662282009
 20
4.1610357571
 11
18.7901688135
 21
4.1610357571
  0
LINE
  5
218
100
AcDbEntity
  8
0
100
AcDbLine
 62
7
  6
CONTINUOUS
 10
17.9954227408
 20
4.1877287985
 11
24.1609742736
 21
4.1877287985
  0
LINE
  5
219
100
AcDbEntity
  8
0
100
AcDbLine
 62
7
  6
CONTINUOUS
 10
32.8407678226
 20
5.1876907216
 11
9.3156292297
 21
5.1876907216
  0
LINE
  5
21A
100
AcDbEntity
  8
0
100
AcDbLine
 62
7
  6
CONTINUOUS
 10
6.1781984849
 20
12.8783091823
 11
6.3608371316
 21
12.8783091823
  0
LINE
  5
21B
100
AcDbEntity
  8
0
100
AcDbLine
 62
7
  6
CONTINUOUS
 10
35.7955600392
 20
12.8783091823
 11
35.9781984849
 21
12.8783091823
  0
LINE
  5
21C
100
AcDbEntity
  8
0
100
AcDbLine
 62
7
  6
CONTINUOUS
 10
6.1781984849
 20
12.8783091823
 11
6.1781984849
 21
44.8783107022
  0
LINE
  5
21D
100
AcDbEntity
  8
0
100
AcDbLine
 62
7
  6
CONTINUOUS
 10
6.3608371316
 20
9.1943906847
 11
6.3608371316
 21
48.5622289878
  0
LINE
  5
21E
100
AcDbEntity
  8
0
100
AcDbLine
 62
7
  6
CONTINUOUS
 10
6.387617707
 20
48.7604046226
 11
6.387617707
 21
8.9962150499
  0
LINE
  5
21F
100
AcDbEntity
  8
0
100
AcDbLine
 62
7
  6
CONTINUOUS
 10
7.2465123847
 20
6.8768826119
 11
7.2465123847
 21
25.1579128126
  0
LINE
  5
220
100
AcDbEntity
  8
0
100
AcDbLine
 62
7
  6
CONTINUOUS
 10
7.2465123847
 20
32.5987070719
 11
7.2465123847
 21
50.8797370605
  0
LINE
  5
221
100
AcDbEntity
  8
0
100
AcDbLine
 62
7
  6
CONTINUOUS
 10
7.3875792291
 20
25.1579128126
 11
7.3875792291
 21
32.5987070719
  0
LINE
  5
222
100
AcDbEntity
  8
0
100
AcDbLine
 62
7
  6
CONTINUOUS
 10
7.8749566225
 20
48.038675628
 11
7.8749566225
 21
9.7179442564
  0
LINE
  5
223
100
AcDbEntity
  8
0
100
AcDbLine
 62
7
  6
CONTINUOUS
 10
8.3781986383
 20
25.2572914505
 11
8.3781986383
 21
32.4993284339
  0
LINE
  5
224
100
AcDbEntity
  8
0
100
AcDbLine
 62
7
  6
CONTINUOUS
 10
8.3834960011
 20
9.7685877154
 11
8.3834960011
 21
24.7472307565
  0
LINE
  5
225
100
AcDbEntity
  8
0
100
AcDbLine
 62
7
  6
CONTINUOUS
 10
8.3834960011
 20
33.009389128
 11
8.3834960011
 21
47.9880321691
  0
LINE
  5
226
100
AcDbEntity
  8
0
100
AcDbLine
 62
7
  6
CONTINUOUS
 10
8.4886724768
 20
32.5984344859
 11
8.4886724768
 21
25.158185654
  0
LINE
  5
227
100
AcDbEntity
  8
0
100
AcDbLine
 62
7
  6
CONTINUOUS
 10
8.617121063
 20
32.464721983
 11
8.617121063
 21
25.2920234655
  0
LINE
  5
228
100
AcDbEntity
  8
0
100
AcDbLine
 62
7
  6
CONTINUOUS
 10
8.7546021483
 20
25.4915151199
 11
8.7546021483
 21
32.2651047645
  0
LINE
  5
229
100
AcDbEntity
  8
0
100
AcDbLine
 62
7
  6
CONTINUOUS
 10
8.6168592028
 20
25.2917506186
 11
8.4884104212
 21
25.1579126035
  0
LINE
  5
22A
100
AcDbEntity
  8
0
100
AcDbLine
 62
7
  6
CONTINUOUS
 10
8.4884106218
 20
32.5987070719
 11
8.6168608123
 21
32.4649928989
  0
LINE
  5
22B
100
AcDbEntity
  8
0
100
AcDbLine
 62
7
  6
CONTINUOUS
 10
33.6955039037
 20
25.1580492355
 11
33.6623108367
 21
25.1578564588
  0
LINE
  5
22C
100
AcDbEntity
  8
0
100
AcDbLine
 62
7
  6
CONTINUOUS
 10
34.9098843699
 20
25.1579128126
 11
34.2814403472
 21
25.1579128126
  0
LINE
  5
22D
100
AcDbEntity
  8
0
100
AcDbLine
 62
7
  6
CONTINUOUS
 10
24.3106275148
 20
25.1579128126
 11
17.8457712863
 21
25.1579128126
  0
LINE
  5
22E
100
AcDbEntity
  8
0
100
AcDbLine
 62
7
  6
CONTINUOUS
 10
7.8749566225
 20
25.1579128126
 11
7.2465123847
 21
25.1579128126
  0
LINE
  5
22F
100
AcDbEntity
  8
0
100
AcDbLine
 62
7
  6
CONTINUOUS
 10
33.6955039037
 20
25.1580492355
 11
33.6642559833
 21
25.1580492356
  0
LINE
  5
230
100
AcDbEntity
  8
0
100
AcDbLine
 62
7
  6
CONTINUOUS
 10
8.6168592028
 20
25.2917506186
 11
12.5935619671
 21
25.2917506186
  0
LINE
  5
231
100
AcDbEntity
  8
0
100
AcDbLine
 62
7
  6
CONTINUOUS
 10
29.562835164
 20
25.2917506186
 11
33.539537767
 21
25.2917506186
  0
LINE
  5
232
100
AcDbEntity
  8
0
100
AcDbLine
 62
7
  6
CONTINUOUS
 10
33.4017948214
 20
25.4915151199
 11
8.7546021483
 21
25.4915151199
  0
LINE
  5
233
100
AcDbEntity
  8
0
100
AcDbLine
 62
7
  6
CONTINUOUS
 10
20.0781984849
 20
37.0783099422
 11
20.0781984849
 21
47.0783099422
  0
LINE
  5
234
100
AcDbEntity
  8
0
100
AcDbLine
 62
7
  6
CONTINUOUS
 10
22.0781984849
 20
37.0783099422
 11
22.0781984849
 21
47.0783099422
  0
LINE
  5
235
100
AcDbEntity
  8
0
100
AcDbLine
 62
7
  6
CONTINUOUS
 10
33.6756143604
 20
32.5987790472
 11
33.6642559018
 21
32.5985707766
  0
LINE
  5
236
100
AcDbEntity
  8
0
100
AcDbLine
 62
7
  6
CONTINUOUS
 10
8.4894274195
 20
32.598935779
 11
8.4681139987
 21
32.5985707789
  0
LINE
  5
237
100
AcDbEntity
  8
0
100
AcDbLine
 62
7
  6
CONTINUOUS
 10
8.7546021483
 20
32.2651047645
 11
33.4017948214
 21
32.2651047645
  0
LINE
  5
238
100
AcDbEntity
  8
0
100
AcDbLine
 62
7
  6
CONTINUOUS
 10
33.5395361574
 20
32.4649928989
 11
29.5675343477
 21
32.4649928989
  0
LINE
  5
239
100
AcDbEntity
  8
0
100
AcDbLine
 62
7
  6
CONTINUOUS
 10
12.5888624592
 20
32.4649928989
 11
8.6168608123
 21
32.4649928989
  0
LINE
  5
23A
100
AcDbEntity
  8
0
100
AcDbLine
 62
7
  6
CONTINUOUS
 10
8.4681139987
 20
32.5985707789
 11
8.4921409843
 21
32.5985707789
  0
LINE
  5
23B
100
AcDbEntity
  8
0
100
AcDbLine
 62
7
  6
CONTINUOUS
 10
33.6642559018
 20
32.5985707766
 11
33.6891818029
 21
32.5985707766
  0
LINE
  5
23C
100
AcDbEntity
  8
0
100
AcDbLine
 62
7
  6
CONTINUOUS
 10
34.9098843699
 20
32.5987070719
 11
34.2814403472
 21
32.5987070719
  0
LINE
  5
23D
100
AcDbEntity
  8
0
100
AcDbLine
 62
7
  6
CONTINUOUS
 10
24.3106275147
 20
32.5987070719
 11
17.8457712864
 21
32.5987070719
  0
LINE
  5
23E
100
AcDbEntity
  8
0
100
AcDbLine
 62
7
  6
CONTINUOUS
 10
7.8749566225
 20
32.5987070719
 11
7.2465123847
 21
32.5987070719
  0
LINE
  5
23F
100
AcDbEntity
  8
0
100
AcDbLine
 62
7
  6
CONTINUOUS
 10
33.6891818029
 20
32.5985707766
 11
33.6756143604
 21
32.5987790472
  0
LINE
  5
240
100
AcDbEntity
  8
0
100
AcDbLine
 62
7
  6
CONTINUOUS
 10
33.5395361574
 20
32.4649928989
 11
33.6669414107
 21
32.5988479811
  0
LINE
  5
241
100
AcDbEntity
  8
0
100
AcDbLine
 62
7
  6
CONTINUOUS
 10
33.6679863479
 20
25.1579128126
 11
33.539537767
 21
25.2917506186
  0
LINE
  5
242
100
AcDbEntity
  8
0
100
AcDbLine
 62
7
  6
CONTINUOUS
 10
22.0781984849
 20
37.0783099422
 11
20.0781984849
 21
37.0783099422
  0
LINE
  5
243
100
AcDbEntity
  8
0
100
AcDbLine
 62
7
  6
CONTINUOUS
 10
33.4017948214
 20
32.2651047645
 11
33.4017948214
 21
25.4915151199
  0
LINE
  5
244
100
AcDbEntity
  8
0
100
AcDbLine
 62
7
  6
CONTINUOUS
 10
33.5392759068
 20
25.2920234655
 11
33.5392759068
 21
32.464721983
  0
LINE
  5
245
100
AcDbEntity
  8
0
100
AcDbLine
 62
7
  6
CONTINUOUS
 10
33.6677244885
 20
32.5984344813
 11
33.6677244885
 21
25.1581856586
  0
LINE
  5
246
100
AcDbEntity
  8
0
100
AcDbLine
 62
7
  6
CONTINUOUS
 10
33.7729009686
 20
47.9880321691
 11
33.7729009686
 21
33.009389128
  0
LINE
  5
247
100
AcDbEntity
  8
0
100
AcDbLine
 62
7
  6
CONTINUOUS
 10
33.7729009686
 20
24.7472307565
 11
33.7729009686
 21
9.7685877154
  0
LINE
  5
248
100
AcDbEntity
  8
0
100
AcDbLine
 62
7
  6
CONTINUOUS
 10
33.7781983314
 20
32.4993284339
 11
33.7781983314
 21
25.2572914505
  0
LINE
  5
249
100
AcDbEntity
  8
0
100
AcDbLine
 62
7
  6
CONTINUOUS
 10
34.2814403472
 20
9.7179442564
 11
34.2814403472
 21
48.038675628
  0
LINE
  5
24A
100
AcDbEntity
  8
0
100
AcDbLine
 62
7
  6
CONTINUOUS
 10
34.7688177055
 20
32.5987070719
 11
34.7688177055
 21
25.1579128126
  0
LINE
  5
24B
100
AcDbEntity
  8
0
100
AcDbLine
 62
7
  6
CONTINUOUS
 10
34.9098843699
 20
50.8797374146
 11
34.9098843699
 21
32.5987070719
  0
LINE
  5
24C
100
AcDbEntity
  8
0
100
AcDbLine
 62
7
  6
CONTINUOUS
 10
34.9098843699
 20
25.1579128126
 11
34.9098843699
 21
6.8768822492
  0
LINE
  5
24D
100
AcDbEntity
  8
0
100
AcDbLine
 62
7
  6
CONTINUOUS
 10
35.7687796286
 20
8.9962175201
 11
35.7687796286
 21
48.7604025391
  0
LINE
  5
24E
100
AcDbEntity
  8
0
100
AcDbLine
 62
7
  6
CONTINUOUS
 10
35.7955600392
 20
48.5622276318
 11
35.7955600392
 21
9.1943926762
  0
LINE
  5
24F
100
AcDbEntity
  8
0
100
AcDbLine
 62
7
  6
CONTINUOUS
 10
35.9781984849
 20
44.8783107022
 11
35.9781984849
 21
12.8783091823
  0
LINE
  5
250
100
AcDbEntity
  8
0
100
AcDbLine
 62
7
  6
CONTINUOUS
 10
35.9781984849
 20
44.8783107022
 11
35.7955600392
 21
44.8783107022
  0
LINE
  5
251
100
AcDbEntity
  8
0
100
AcDbLine
 62
7
  6
CONTINUOUS
 10
6.3608371316
 20
44.8783107022
 11
6.1781984849
 21
44.8783107022
  0
LINE
  5
252
100
AcDbEntity
  8
0
100
AcDbLine
 62
7
  6
CONTINUOUS
 10
20.0781984849
 20
47.0783099422
 11
22.0781984849
 21
47.0783099422
  0
LINE
  5
253
100
AcDbEntity
  8
0
100
AcDbLine
 62
7
  6
CONTINUOUS
 10
9.3156297117
 20
52.5689291629
 11
32.8407672907
 21
52.5689291629
  0
LINE
  5
254
100
AcDbEntity
  8
0
100
AcDbLine
 62
7
  6
CONTINUOUS
 10
24.1599812277
 20
53.5689291629
 11
17.9964157867
 21
53.5689291629
  0
LINE
  5
255
100
AcDbEntity
  8
0
100
AcDbLine
 62
7
  6
CONTINUOUS
 10
18.7894427708
 20
53.5955631283
 11
23.3669542436
 21
53.5955631283
  0
ARC
  5
256
100
AcDbEntity
  8
0
100
AcDbCircle
 62
7
  6
CONTINUOUS
 10
11.3281990399
 20
9.7647606336
 40
5.000000622
100
AcDbArc
 50
188.8419348085
 51
262.5304021351
  0
ARC
  5
257
100
AcDbEntity
  8
0
100
AcDbCircle
 62
7
  6
CONTINUOUS
 10
11.1655155037
 20
9.6235099543
 40
3.2919136666
100
AcDbArc
 50
178.3561448218
 51
264.1143751181
  0
ARC
  5
258
100
AcDbEntity
  8
0
100
AcDbCircle
 62
7
  6
CONTINUOUS
 10
11.3598447571
 20
9.7966179585
 40
2.9764807427
100
AcDbArc
 50
180.5395762685
 51
262.0972445515
  0
ARC
  5
259
100
AcDbEntity
  8
0
100
AcDbCircle
 62
7
  6
CONTINUOUS
 10
8.5902580624
 20
24.7406793903
 40
0.206865827
100
AcDbArc
 50
93.8855999485
 51
178.1851598715
  0
ARC
  5
25A
100
AcDbEntity
  8
0
100
AcDbCircle
 62
7
  6
CONTINUOUS
 10
8.4804227649
 20
25.2596219403
 40
0.1022506882
100
AcDbArc
 50
181.305994072
 51
270.9308925931
  0
ARC
  5
25B
100
AcDbEntity
  8
0
100
AcDbCircle
 62
7
  6
CONTINUOUS
 10
21.0781994006
 20
-320.8217480248
 40
345.9947605162
100
AcDbArc
 50
87.9292594432
 51
92.0707408326
  0
ARC
  5
25C
100
AcDbEntity
  8
0
100
AcDbCircle
 62
7
  6
CONTINUOUS
 10
21.0781985656
 20
-297.3016952511
 40
322.7050051925
100
AcDbArc
 50
87.7654141563
 51
92.2345858437
  0
ARC
  5
25D
100
AcDbEntity
  8
0
100
AcDbCircle
 62
7
  6
CONTINUOUS
 10
21.0781985072
 20
-26.3717160468
 40
80.000025883
100
AcDbArc
 50
92.2077098339
 51
97.4695899064
  0
ARC
  5
25E
100
AcDbEntity
  8
0
100
AcDbCircle
 62
7
  6
CONTINUOUS
 10
21.0781985072
 20
-26.3717160468
 40
80.000025883
100
AcDbArc
 50
82.5304100936
 51
88.3605762271
  0
ARC
  5
25F
100
AcDbEntity
  8
0
100
AcDbCircle
 62
7
  6
CONTINUOUS
 10
21.0633261501
 20
-26.272610383
 40
78.3551568203
100
AcDbArc
 50
82.4763772261
 51
97.5008975003
  0
CIRCLE
  5
260
100
AcDbEntity
  8
0
100
AcDbCircle
 62
7
  6
CONTINUOUS
 10
21.0781984849
 20
15.6783099422
 40
8.5000004619
  0
CIRCLE
  5
261
100
AcDbEntity
  8
0
100
AcDbCircle
 62
7
  6
CONTINUOUS
 10
21.0781984849
 20
15.6783099422
 40
7.0397779346
  0
CIRCLE
  5
262
100
AcDbEntity
  8
0
100
AcDbCircle
 62
7
  6
CONTINUOUS
 10
21.0781984849
 20
15.6783099422
 40
5.4000000715
  0
CIRCLE
  5
263
100
AcDbEntity
  8
0
100
AcDbCircle
 62
7
  6
CONTINUOUS
 10
21.0781984849
 20
15.6783099422
 40
5.2511194534
  0
CIRCLE
  5
264
100
AcDbEntity
  8
0
100
AcDbCircle
 62
7
  6
CONTINUOUS
 10
21.0781984849
 20
15.6783099422
 40
5.0
  0
CIRCLE
  5
265
100
AcDbEntity
  8
0
100
AcDbCircle
 62
7
  6
CONTINUOUS
 10
21.0781984849
 20
15.6783099422
 40
3.5
  0
ARC
  5
266
100
AcDbEntity
  8
0
100
AcDbCircle
 62
7
  6
CONTINUOUS
 10
21.0781994006
 20
378.5783679092
 40
345.9947605162
100
AcDbArc
 50
267.9292591674
 51
272.0707405568
  0
ARC
  5
267
100
AcDbEntity
  8
0
100
AcDbCircle
 62
7
  6
CONTINUOUS
 10
21.0781984034
 20
355.0583145357
 40
322.7050045931
100
AcDbArc
 50
267.7654141523
 51
272.2345858477
  0
ARC
  5
268
100
AcDbEntity
  8
0
100
AcDbCircle
 62
7
  6
CONTINUOUS
 10
21.0781985072
 20
84.1283357079
 40
80.0000258716
100
AcDbArc
 50
262.5304100925
 51
268.3610960036
  0
ARC
  5
269
100
AcDbEntity
  8
0
100
AcDbCircle
 62
7
  6
CONTINUOUS
 10
21.0781985072
 20
84.1283357079
 40
80.0000258716
100
AcDbArc
 50
272.2089247433
 51
277.4695899075
  0
CIRCLE
  5
26A
100
AcDbEntity
  8
0
100
AcDbCircle
 62
7
  6
CONTINUOUS
 10
21.0781984849
 20
42.0783099422
 40
8.5000004619
  0
CIRCLE
  5
26B
100
AcDbEntity
  8
0
100
AcDbCircle
 62
7
  6
CONTINUOUS
 10
21.0781984849
 20
42.0783099422
 40
7.0397779346
  0
CIRCLE
  5
26C
100
AcDbEntity
  8
0
100
AcDbCircle
 62
7
  6
CONTINUOUS
 10
21.0781984849
 20
42.0783099422
 40
5.4000000715
  0
CIRCLE
  5
26D
100
AcDbEntity
  8
0
100
AcDbCircle
 62
7
  6
CONTINUOUS
 10
21.0781984849
 20
42.0783099422
 40
5.2511194534
  0
ARC
  5
26E
100
AcDbEntity
  8
0
100
AcDbCircle
 62
7
  6
CONTINUOUS
 10
11.3281990399
 20
47.9918590389
 40
5.0000006221
100
AcDbArc
 50
97.4695978649
 51
173.4497838711
  0
ARC
  5
26F
100
AcDbEntity
  8
0
100
AcDbCircle
 62
7
  6
CONTINUOUS
 10
21.0781984849
 20
42.0783099422
 40
4.5835282539
100
AcDbArc
 50
282.6017201008
 51
77.3982798992
  0
ARC
  5
270
100
AcDbEntity
  8
0
100
AcDbCircle
 62
7
  6
CONTINUOUS
 10
21.0781984849
 20
42.0783099422
 40
4.5835282539
100
AcDbArc
 50
102.6017201008
 51
257.3982798992
  0
ARC
  5
271
100
AcDbEntity
  8
0
100
AcDbCircle
 62
7
  6
CONTINUOUS
 10
11.3049257424
 20
48.0143750101
 40
3.4300552012
100
AcDbArc
 50
97.8793310905
 51
179.5940781091
  0
ARC
  5
272
100
AcDbEntity
  8
0
100
AcDbCircle
 62
7
  6
CONTINUOUS
 10
11.3598447571
 20
47.9600019259
 40
2.9764807427
100
AcDbArc
 50
97.9027554485
 51
179.4604237315
  0
ARC
  5
273
100
AcDbEntity
  8
0
100
AcDbCircle
 62
7
  6
CONTINUOUS
 10
8.5902580624
 20
33.0159404941
 40
0.206865827
100
AcDbArc
 50
181.8148401285
 51
266.1144000515
  0
ARC
  5
274
100
AcDbEntity
  8
0
100
AcDbCircle
 62
7
  6
CONTINUOUS
 10
8.4798679677
 20
32.4975748293
 40
0.1016844514
100
AcDbArc
 50
97.866284584
 51
179.0118536068
  0
ARC
  5
275
100
AcDbEntity
  8
0
100
AcDbCircle
 62
7
  6
CONTINUOUS
 10
21.0952049398
 20
-26.1608645376
 40
77.7338788945
100
AcDbArc
 50
82.5261247253
 51
97.498733033
  0
ARC
  5
276
100
AcDbEntity
  8
0
100
AcDbCircle
 62
7
  6
CONTINUOUS
 10
30.828198082
 20
9.7647604492
 40
5.0000004252
100
AcDbArc
 50
277.4695969189
 51
353.4498089979
  0
ARC
  5
277
100
AcDbEntity
  8
0
100
AcDbCircle
 62
7
  6
CONTINUOUS
 10
30.9073232773
 20
9.6879812856
 40
3.3742501065
100
AcDbArc
 50
277.0531852451
 51
0.5087869228
  0
ARC
  5
278
100
AcDbEntity
  8
0
100
AcDbCircle
 62
7
  6
CONTINUOUS
 10
30.8024155649
 20
9.7869590484
 40
2.970542213
100
AcDbArc
 50
277.815695437
 51
359.6456517086
  0
ARC
  5
279
100
AcDbEntity
  8
0
100
AcDbCircle
 62
7
  6
CONTINUOUS
 10
33.5718448244
 20
24.7461827927
 40
0.2010588754
100
AcDbArc
 50
0.2986397482
 51
87.6305335527
  0
ARC
  5
27A
100
AcDbEntity
  8
0
100
AcDbCircle
 62
7
  6
CONTINUOUS
 10
33.6819293182
 20
25.2534296807
 40
0.0963464382
100
AcDbArc
 50
278.6757597538
 51
359.8095546653
  0
ARC
  5
27B
100
AcDbEntity
  8
0
100
AcDbCircle
 62
7
  6
CONTINUOUS
 10
21.111735663
 20
84.5073380665
 40
78.8320360823
100
AcDbArc
 50
262.5042978306
 51
277.4415542895
  0
ARC
  5
27C
100
AcDbEntity
  8
0
100
AcDbCircle
 62
7
  6
CONTINUOUS
 10
21.0952049398
 20
83.917484422
 40
77.7338788945
100
AcDbArc
 50
262.501266967
 51
277.4738752747
  0
ARC
  5
27D
100
AcDbEntity
  8
0
100
AcDbCircle
 62
7
  6
CONTINUOUS
 10
30.828197951
 20
47.9918590182
 40
5.0000006456
100
AcDbArc
 50
8.8419280399
 51
82.5304018978
  0
ARC
  5
27E
100
AcDbEntity
  8
0
100
AcDbCircle
 62
7
  6
CONTINUOUS
 10
30.8596523273
 20
48.0176132478
 40
3.4218528427
100
AcDbArc
 50
0.3526724168
 51
82.2219096404
  0
ARC
  5
27F
100
AcDbEntity
  8
0
100
AcDbCircle
 62
7
  6
CONTINUOUS
 10
30.8024155649
 20
47.969660836
 40
2.970542213
100
AcDbArc
 50
0.3543482914
 51
82.184304563
  0
ARC
  5
280
100
AcDbEntity
  8
0
100
AcDbCircle
 62
7
  6
CONTINUOUS
 10
33.5718448244
 20
33.0104370917
 40
0.2010588754
100
AcDbArc
 50
272.3694664473
 51
359.7013602518
  0
ARC
  5
281
100
AcDbEntity
  8
0
100
AcDbCircle
 62
7
  6
CONTINUOUS
 10
33.6773008171
 20
32.4983773868
 40
0.1009019964
100
AcDbArc
 50
0.5400467384
 51
83.2374148235
  0
SPLINE
  5
282
100
AcDbEntity
  8
0
100
AcDbSpline
 62
7
  6
CONTINUOUS
 70
0
 71
3
 72
22
 73
18
 74
0
 42
0.0000001
 43
0.0000001
 44
0.0000000001
 40
0.0
 40
0.0
 40
0.0
 40
0.0
 40
0.0873142703
 40
0.1321166147
 40
0.1758439769
 40
0.2613245364
 40
0.3460414606
 40
0.5092837668
 40
0.6614995588
 40
0.7316882798
 40
0.7966485108
 40
0.855185584
 40
0.9058300933
 40
0.9469850789
 40
0.9768503298
 40
0.9942240697
 40
1.0
 40
1.0
 40
1.0
 40
1.0
 10
8.7574157016
 20
25.4915151199
 30
0.0
 10
8.7586898441
 20
25.4843581458
 30
0.0
 10
8.756943798
 20
25.4729851923
 30
0.0
 10
8.7520633123
 20
25.4592544061
 30
0.0
 10
8.7466044456
 20
25.4458080177
 30
0.0
 10
8.7380559189
 20
25.4301112186
 30
0.0
 10
8.721815199
 20
25.4075595022
 30
0.0
 10
8.7007580885
 20
25.3817210553
 30
0.0
 10
8.6793901103
 20
25.3577466718
 30
0.0
 10
8.6632350078
 20
25.3401047905
 30
0.0
 10
8.6522424893
 20
25.3282925531
 30
0.0
 10
8.6423303191
 20
25.3177552223
 30
0.0
 10
8.6336391647
 20
25.3086164011
 30
0.0
 10
8.6268050959
 20
25.3014932477
 30
0.0
 10
8.6212617363
 20
25.2957885174
 30
0.0
 10
8.6188982581
 20
25.2933589434
 30
0.0
 10
8.6166803154
 20
25.2913733996
 30
0.0
 10
8.6163820595
 20
25.2917506186
 30
0.0
  0
SPLINE
  5
283
100
AcDbEntity
  8
0
100
AcDbSpline
 62
7
  6
CONTINUOUS
 70
0
 71
3
 72
22
 73
18
 74
0
 42
0.0000001
 43
0.0000001
 44
0.0000000001
 40
0.0
 40
0.0
 40
0.0
 40
0.0
 40
0.0057707262
 40
0.0231402745
 40
0.0530066393
 40
0.0941612405
 40
0.1448058875
 40
0.2033439628
 40
0.2683052004
 40
0.3384952676
 40
0.4907135296
 40
0.6539574433
 40
0.7386757288
 40
0.8241589692
 40
0.8678829984
 40
0.9126837592
 40
1.0
 40
1.0
 40
1.0
 40
1.0
 10
33.5400125791
 20
25.2917506186
 30
0.0
 10
33.539714595
 20
25.2913737433
 30
0.0
 10
33.5374979116
 20
25.2933591169
 30
0.0
 10
33.5351357669
 20
25.2957886565
 30
0.0
 10
33.5295919562
 20
25.3014928353
 30
0.0
 10
33.5227581803
 20
25.3086160511
 30
0.0
 10
33.5140670081
 20
25.3177548278
 30
0.0
 10
33.5041548426
 20
25.3282921817
 30
0.0
 10
33.4931622271
 20
25.3401044891
 30
0.0
 10
33.4770070176
 20
25.3577464864
 30
0.0
 10
33.4556390609
 20
25.3817209999
 30
0.0
 10
33.4345815681
 20
25.407559445
 30
0.0
 10
33.418341732
 20
25.4301117564
 30
0.0
 10
33.4097903262
 20
25.4458070328
 30
0.0
 10
33.4043349321
 20
25.4592545668
 30
0.0
 10
33.3994561319
 20
25.4729853877
 30
0.0
 10
33.3977088584
 20
25.484358058
 30
0.0
 10
33.3989830166
 20
25.4915151199
 30
0.0
  0
SPLINE
  5
284
100
AcDbEntity
  8
0
100
AcDbSpline
 62
7
  6
CONTINUOUS
 70
0
 71
3
 72
19
 73
15
 74
0
 42
0.0000001
 43
0.0000001
 44
0.0000000001
 40
0.0
 40
0.0
 40
0.0
 40
0.0
 40
0.0091424979
 40
0.0298114299
 40
0.0616246459
 40
0.1036287162
 40
0.2128360989
 40
0.3467080514
 40
0.4970640981
 40
0.658370364
 40
0.7419173807
 40
0.8269257762
 40
0.9130899896
 40
1.0
 40
1.0
 40
1.0
 40
1.0
 10
8.6159637598
 20
32.4649928989
 30
0.0
 10
8.6164855823
 20
32.4644520616
 30
0.0
 10
8.6179492295
 20
32.4624765477
 30
0.0
 10
8.6211692798
 20
32.4585718072
 30
0.0
 10
8.6260996524
 20
32.4525672339
 30
0.0
 10
8.6358560493
 20
32.4411150838
 30
0.0
 10
8.6513294362
 20
32.423513914
 30
0.0
 10
8.6726551675
 20
32.3991996074
 30
0.0
 10
8.6964519843
 20
32.3713608203
 30
0.0
 10
8.7168129852
 20
32.3460225742
 30
0.0
 10
8.7325135504
 20
32.3238999735
 30
0.0
 10
8.7434046279
 20
32.3059852111
 30
0.0
 10
8.7520903856
 20
32.2865209724
 30
0.0
 10
8.7545571985
 20
32.2722489415
 30
0.0
 10
8.7545757452
 20
32.2651047645
 30
0.0
  0
SPLINE
  5
285
100
AcDbEntity
  8
0
100
AcDbSpline
 62
7
  6
CONTINUOUS
 70
0
 71
3
 72
19
 73
15
 74
0
 42
0.0000001
 43
0.0000001
 44
0.0000000001
 40
0.0
 40
0.0
 40
0.0
 40
0.0
 40
0.086909554
 40
0.1730733974
 40
0.2580816322
 40
0.3416276839
 40
0.5029319522
 40
0.653285688
 40
0.7871557195
 40
0.8963613251
 40
0.9383663236
 40
0.9701813386
 40
0.9908546968
 40
1.0
 40
1.0
 40
1.0
 40
1.0
 10
33.4018212453
 20
32.2651047645
 30
0.0
 10
33.401839792
 20
32.2722489659
 30
0.0
 10
33.4043067759
 20
32.2865210029
 30
0.0
 10
33.4129921784
 20
32.3059855034
 30
0.0
 10
33.423883566
 20
32.3239001693
 30
0.0
 10
33.4395841299
 20
32.3460227282
 30
0.0
 10
33.4599450274
 20
32.3713608677
 30
0.0
 10
33.4837416691
 20
32.399199547
 30
0.0
 10
33.5050674547
 20
32.4235135238
 30
0.0
 10
33.5205404305
 20
32.4411150158
 30
0.0
 10
33.5302971444
 20
32.4525671708
 30
0.0
 10
33.5352284649
 20
32.4585717972
 30
0.0
 10
33.5384496997
 20
32.4624766078
 30
0.0
 10
33.5399145996
 20
32.464451891
 30
0.0
 10
33.5404365867
 20
32.4649928989
 30
0.0
  0
ENDSEC
  0
SECTION
  2
OBJECTS
  0
DICTIONARY
  5
C
100
AcDbDictionary
280
0
281
1
  3
ACAD_GROUP
350
D
  3
ACAD_MLINESTYLE
350
17
  3
ACAD_LAYOUT
350
1A
  3
ACAD_PLOTSETTINGS
350
19
  3
ACAD_PLOTSTYLENAME
350
E
  0
DICTIONARY
  5
D
102
{ACAD_REACTORS
330
C
102
}
100
AcDbDictionary
280
0
281
1
  0
ACDBDICTIONARYWDFLT
  5
E
102
{ACAD_REACTORS
330
C
102
}
100
AcDbDictionary
281
1
  3
Normal
350
F
100
AcDbDictionaryWithDefault
340
F
  0
DICTIONARY
  5
17
102
{ACAD_REACTORS
330
C
102
}
100
AcDbDictionary
280
0
281
1
  3
Standard
350
18
  0
DICTIONARY
  5
19
102
{ACAD_REACTORS
330
C
102
}
100
AcDbDictionary
281
1
  0
DICTIONARY
  5
1A
102
{ACAD_REACTORS
330
C
102
}
100
AcDbDictionary
281
1
  3
Model
350
286
  3
Layout1
350
287
  0
ACDBPLACEHOLDER
  5
F
102
{ACAD_REACTORS
330
E
102
}
  0
MLINESTYLE
  5
18
102
{ACAD_REACTORS
330
17
102
}
100
AcDbMlineStyle
  2
STANDARD
 70
0
  3

 62
256
 51
90.0
 52
90.0
 71
2
 49
0.5
 62
256
  6
BYLAYER
 49
-0.5
 62
256
  6
BYLAYER
  0
LAYOUT
  5
286
102
{ACAD_REACTORS
330
1A
102
}
100
AcDbPlotSettings
  1

  2
none_device
  4

  6

 40
0.0
 41
0.0
 42
0.0
 43
0.0
 44
210.0
 45
297.0
 46
0.0
 47
0.0
 48
0.0
 49
0.0
140
0.0
141
0.0
142
1.0
143
1.0
 70
1024
 72
1
 73
0
 74
0
  7

 75
0
147
1.0
148
0.0
149
0.0
100
AcDbLayout
  1
Model
 70
0
 71
0
 10
0.0
 20
0.0
 11
210.0
 21
297.0
 12
0.0
 22
0.0
 32
0.0
 14
0.0
 24
0.0
 34
0.0
 15
0.0
 25
0.0
 35
0.0
146
0.0
 13
0.0
 23
0.0
 33
0.0
 16
1.0
 26
0.0
 36
0.0
 17
0.0
 27
1.0
 37
0.0
 76
0
330
210
345
0
346
0
  0
LAYOUT
  5
287
102
{ACAD_REACTORS
330
1A
102
}
100
AcDbPlotSettings
  1

  2
none_device
  4

  6

 40
0.0
 41
0.0
 42
0.0
 43
0.0
 44
210.0
 45
297.0
 46
0.0
 47
0.0
 48
0.0
 49
0.0
140
0.0
141
0.0
142
1.0
143
1.0
 70
0
 72
1
 73
0
 74
0
  7

 75
0
147
1.0
148
0.0
149
0.0
100
AcDbLayout
  1
Layout1
 70
0
 71
1
 10
0.0
 20
0.0
 11
210.0
 21
297.0
 12
0.0
 22
0.0
 32
0.0
 14
0.0
 24
0.0
 34
0.0
 15
0.0
 25
0.0
 35
0.0
146
0.0
 13
0.0
 23
0.0
 33
0.0
 16
1.0
 26
0.0
 36
0.0
 17
0.0
 27
1.0
 37
0.0
 76
0
330
211
345
0
346
0
  0
ENDSEC
  0
EOF
