999
DXF file: Y:\001_SCHNEIDER_PARIS\maxime fuentes - génération CAD 2D\TRAVAIL\XACA2013_2D-Views\xaca2013_2d-views_2.dxf
999
Pro/ENGINEER 2018260 by Parametric Technology Corporation
  0
SECTION
  2
HEADER
  9
$ACADVER
  1
AC1027
  9
$DWGCODEPAGE
  3
ANSI_1252
  9
$EXTMAX
 10
558.8
 20
431.8
 30
0.0
  9
$EXTMIN
 10
0.0
 20
0.0
 30
0.0
  9
$LIMMIN
 10
0.0
 20
0.0
  9
$LIMMAX
 10
558.8
 20
431.8
  9
$VIEWCTR
 10
279.4
 20
215.9
  9
$VIEWSIZE
 40
431.8
  9
$CLAYER
  8
0
  9
$LTSCALE
 40
30.734
  9
$CELTYPE
  6
BYLAYER
  9
$DIMSCALE
 40
1.0
  9
$DIMASZ
 40
3.5
  9
$DIMEXO
 40
1.0
  9
$DIMDLI
 40
21.2344
  9
$DIMEXE
 40
3.0
  9
$DIMCEN
 40
5.0292
  9
$DIMLFAC
 40
1.0
  9
$DIMBLK
  1
_FILLED
  9
$DIMALT
 70
0
  9
$DIMALTF
 40
0.0393700787
  9
$DIMTXT
 40
4.0
  9
$DIMTOL
 70
1
  9
$DIMLIM
 70
0
  9
$DIMTFAC
 40
1.0
  9
$DIMTP
 40
0.0001
  9
$DIMTM
 40
0.0001
  9
$DIMGAP
 40
0.625
  9
$DIMDSEP
 70
46
  9
$AUNITS
 70
0
  9
$PDMODE
 70
0
  9
$PDSIZE
 40
0.01
  9
$HANDSEED
  5
400
  9
$TILEMODE
 70
1
  9
$MEASUREMENT
 70
1
  9
$INSUNITS
 70
4
  0
ENDSEC
  0
SECTION
  2
CLASSES
  0
CLASS
  1
ACDBDICTIONARYWDFLT
  2
AcDbDictionaryWithDefault
  3
AutoCAD 2000
 90
0
 91
1
280
0
281
0
  0
CLASS
  1
ACDBPLACEHOLDER
  2
AcDbPlaceHolder
  3
AutoCAD 2000
 90
0
 91
1
280
0
281
0
  0
CLASS
  1
LAYOUT
  2
AcDbLayout
  3
AutoCAD 2000
 90
0
 91
0
280
0
281
0
  0
ENDSEC
  0
SECTION
  2
TABLES
  0
TABLE
  2
VPORT
  5
8
100
AcDbSymbolTable
 70
2
  0
VPORT
  5
1F4
100
AcDbSymbolTableRecord
100
AcDbViewportTableRecord
  2
*ACTIVE
 70
0
 10
0.0
 20
0.0
 11
1.0
 21
1.0
 12
279.4
 22
215.9
 13
0.0
 23
0.0
 14
1.0
 24
1.0
 15
0.0
 25
0.0
 16
0.0
 26
0.0
 36
1.0
 17
0.0
 27
0.0
 37
0.0
 40
431.8
 41
1.2941176471
 42
50.0
 43
0.0
 44
0.0
 50
0.0
 51
0.0
 71
0
 72
100
 73
1
 74
1
 75
0
 76
0
 77
0
 78
0
  0
ENDTAB
  0
TABLE
  2
LTYPE
  5
5
100
AcDbSymbolTable
 70
6
  0
LTYPE
  5
14
100
AcDbSymbolTableRecord
100
AcDbLinetypeTableRecord
  2
BYBLOCK
 70
0
  3

 72
65
 73
0
 40
0.0
  0
LTYPE
  5
15
100
AcDbSymbolTableRecord
100
AcDbLinetypeTableRecord
  2
BYLAYER
 70
0
  3

 72
65
 73
0
 40
0.0
  0
LTYPE
  5
16
100
AcDbSymbolTableRecord
100
AcDbLinetypeTableRecord
  2
CONTINUOUS
 70
64
  3
Solid line
 72
65
 73
0
 40
0.0
  0
LTYPE
  5
1F5
100
AcDbSymbolTableRecord
100
AcDbLinetypeTableRecord
  2
CENTER
 70
64
  3
____ _ ____ _ ____ _ ____ _ ____ _ ____ _ ____
 72
65
 73
4
 40
0.6
 49
0.375
 74
0
 49
-0.075
 74
0
 49
0.075
 74
0
 49
-0.075
 74
0
  0
LTYPE
  5
1F6
100
AcDbSymbolTableRecord
100
AcDbLinetypeTableRecord
  2
HIDDEN
 70
64
  3
- - - - - - - - - - - - - - - - - - - -
 72
65
 73
2
 40
0.2
 49
0.1
 74
0
 49
-0.1
 74
0
  0
LTYPE
  5
1F7
100
AcDbSymbolTableRecord
100
AcDbLinetypeTableRecord
  2
PHANTOM
 70
64
  3
_____ _ _ _____ _ _ _____ _ _ _____
 72
65
 73
6
 40
0.8
 49
0.45
 74
0
 49
-0.05
 74
0
 49
0.1
 74
0
 49
-0.05
 74
0
 49
0.1
 74
0
 49
-0.05
 74
0
  0
LTYPE
  5
1F8
100
AcDbSymbolTableRecord
100
AcDbLinetypeTableRecord
  2
DOT
 70
64
  3
. . . . . . . . . . . . . . . . . . . .
 72
65
 73
2
 40
0.2
 49
0.1
 74
0
 49
-0.1
 74
0
  0
LTYPE
  5
1F9
100
AcDbSymbolTableRecord
100
AcDbLinetypeTableRecord
  2
DASHED
 70
64
  3
- - - - - - - - - - - - - - - - - - - -
 72
65
 73
2
 40
0.2
 49
0.1
 74
0
 49
-0.1
 74
0
  0
ENDTAB
  0
TABLE
  2
LAYER
  5
2
100
AcDbSymbolTable
 70
36
  0
LAYER
  5
10
100
AcDbSymbolTableRecord
100
AcDbLayerTableRecord
  2
0
 70
0
 62
7
  6
CONTINUOUS
370
-3
390
F
  0
LAYER
  5
1FA
100
AcDbSymbolTableRecord
100
AcDbLayerTableRecord
  2
DEFAULT_1
 70
0
 62
7
  6
CENTER
370
-3
390
F
  0
LAYER
  5
1FB
100
AcDbSymbolTableRecord
100
AcDbLayerTableRecord
  2
DEFAULT_2
 70
0
 62
8
  6
HIDDEN
370
-3
390
F
  0
LAYER
  5
1FC
100
AcDbSymbolTableRecord
100
AcDbLayerTableRecord
  2
DEFAULT_3
 70
0
 62
7
  6
PHANTOM
370
-3
390
F
  0
LAYER
  5
1FD
100
AcDbSymbolTableRecord
100
AcDbLayerTableRecord
  2
01_ALL_DTM_PLN
 70
0
 62
7
  6
CONTINUOUS
370
-3
390
F
  0
LAYER
  5
1FE
100
AcDbSymbolTableRecord
100
AcDbLayerTableRecord
  2
01__ASM_ALL_DTM_PLN
 70
0
 62
7
  6
CONTINUOUS
370
-3
390
F
  0
LAYER
  5
1FF
100
AcDbSymbolTableRecord
100
AcDbLayerTableRecord
  2
01__ASM_DEF_DTM_PLN
 70
0
 62
7
  6
CONTINUOUS
370
-3
390
F
  0
LAYER
  5
200
100
AcDbSymbolTableRecord
100
AcDbLayerTableRecord
  2
01___PRT_ALL_DTM_PLN
 70
0
 62
7
  6
CONTINUOUS
370
-3
390
F
  0
LAYER
  5
201
100
AcDbSymbolTableRecord
100
AcDbLayerTableRecord
  2
01___PRT_DEF_DTM_PLN
 70
0
 62
7
  6
CONTINUOUS
370
-3
390
F
  0
LAYER
  5
202
100
AcDbSymbolTableRecord
100
AcDbLayerTableRecord
  2
02_ALL_AXES
 70
0
 62
7
  6
CONTINUOUS
370
-3
390
F
  0
LAYER
  5
203
100
AcDbSymbolTableRecord
100
AcDbLayerTableRecord
  2
02__ASM_ALL_AXES
 70
0
 62
7
  6
CONTINUOUS
370
-3
390
F
  0
LAYER
  5
204
100
AcDbSymbolTableRecord
100
AcDbLayerTableRecord
  2
02___PRT_ALL_AXES
 70
0
 62
7
  6
CONTINUOUS
370
-3
390
F
  0
LAYER
  5
205
100
AcDbSymbolTableRecord
100
AcDbLayerTableRecord
  2
03_ALL_CURVES
 70
0
 62
7
  6
CONTINUOUS
370
-3
390
F
  0
LAYER
  5
206
100
AcDbSymbolTableRecord
100
AcDbLayerTableRecord
  2
03__ASM_ALL_CURVES
 70
0
 62
7
  6
CONTINUOUS
370
-3
390
F
  0
LAYER
  5
207
100
AcDbSymbolTableRecord
100
AcDbLayerTableRecord
  2
03___PRT_ALL_CURVES
 70
0
 62
7
  6
CONTINUOUS
370
-3
390
F
  0
LAYER
  5
208
100
AcDbSymbolTableRecord
100
AcDbLayerTableRecord
  2
04_ALL_DTM_PNT
 70
0
 62
7
  6
CONTINUOUS
370
-3
390
F
  0
LAYER
  5
209
100
AcDbSymbolTableRecord
100
AcDbLayerTableRecord
  2
04__ASM_ALL_DTM_PNT
 70
0
 62
7
  6
CONTINUOUS
370
-3
390
F
  0
LAYER
  5
20A
100
AcDbSymbolTableRecord
100
AcDbLayerTableRecord
  2
04___PRT_ALL_DTM_PNT
 70
0
 62
7
  6
CONTINUOUS
370
-3
390
F
  0
LAYER
  5
20B
100
AcDbSymbolTableRecord
100
AcDbLayerTableRecord
  2
05_ALL_DTM_CSYS
 70
0
 62
7
  6
CONTINUOUS
370
-3
390
F
  0
LAYER
  5
20C
100
AcDbSymbolTableRecord
100
AcDbLayerTableRecord
  2
05__ASM_ALL_DTM_CSYS
 70
0
 62
7
  6
CONTINUOUS
370
-3
390
F
  0
LAYER
  5
20D
100
AcDbSymbolTableRecord
100
AcDbLayerTableRecord
  2
05__ASM_DEF_DTM_CSYS
 70
0
 62
7
  6
CONTINUOUS
370
-3
390
F
  0
LAYER
  5
20E
100
AcDbSymbolTableRecord
100
AcDbLayerTableRecord
  2
05___PRT_ALL_DTM_CSYS
 70
0
 62
7
  6
CONTINUOUS
370
-3
390
F
  0
LAYER
  5
20F
100
AcDbSymbolTableRecord
100
AcDbLayerTableRecord
  2
05___PRT_DEF_DTM_CSYS
 70
0
 62
7
  6
CONTINUOUS
370
-3
390
F
  0
LAYER
  5
210
100
AcDbSymbolTableRecord
100
AcDbLayerTableRecord
  2
06_ALL_SURFS
 70
0
 62
7
  6
CONTINUOUS
370
-3
390
F
  0
LAYER
  5
211
100
AcDbSymbolTableRecord
100
AcDbLayerTableRecord
  2
06__ASM_ALL_SURFS
 70
0
 62
7
  6
CONTINUOUS
370
-3
390
F
  0
LAYER
  5
212
100
AcDbSymbolTableRecord
100
AcDbLayerTableRecord
  2
06___PRT_ALL_SURFS
 70
0
 62
7
  6
CONTINUOUS
370
-3
390
F
  0
LAYER
  5
213
100
AcDbSymbolTableRecord
100
AcDbLayerTableRecord
  2
07__ASM_ALL_SKELETONS
 70
0
 62
7
  6
CONTINUOUS
370
-3
390
F
  0
LAYER
  5
214
100
AcDbSymbolTableRecord
100
AcDbLayerTableRecord
  2
CLOSED_SHELL
 70
0
 62
7
  6
CONTINUOUS
370
-3
390
F
  0
LAYER
  5
215
100
AcDbSymbolTableRecord
100
AcDbLayerTableRecord
  2
Colour
 70
0
 62
7
  6
CONTINUOUS
370
-3
390
F
  0
LAYER
  5
216
100
AcDbSymbolTableRecord
100
AcDbLayerTableRecord
  2
ORIENTED_CLOSED_SHE
 70
0
 62
7
  6
CONTINUOUS
370
-3
390
F
  0
ENDTAB
  0
TABLE
  2
STYLE
  5
3
100
AcDbSymbolTable
 70
1
  0
STYLE
  5
11
100
AcDbSymbolTableRecord
100
AcDbTextStyleTableRecord
  2
STANDARD
 70
0
 40
0.0
 41
0.6
 50
0.0
 71
0
 42
0.2
  3
txt
  4

  0
STYLE
  5
217
100
AcDbSymbolTableRecord
100
AcDbTextStyleTableRecord
  2
TEXTSTYLE_1
 70
0
 40
0.0
 41
0.8
 50
0.0
 71
0
 42
0.2
  3
gdt
  4

  0
ENDTAB
  0
TABLE
  2
VIEW
  5
6
100
AcDbSymbolTable
 70
0
  0
ENDTAB
  0
TABLE
  2
UCS
  5
7
100
AcDbSymbolTable
 70
0
  0
ENDTAB
  0
TABLE
  2
APPID
  5
9
100
AcDbSymbolTable
 70
1
  0
APPID
  5
218
100
AcDbSymbolTableRecord
100
AcDbRegAppTableRecord
  2
ACAD
 70
0
  0
ENDTAB
  0
TABLE
  2
BLOCK_RECORD
  5
1
100
AcDbSymbolTable
 70
0
  0
BLOCK_RECORD
  5
219
100
AcDbSymbolTableRecord
100
AcDbBlockTableRecord
  2
*Model_Space
  0
BLOCK_RECORD
  5
21A
100
AcDbSymbolTableRecord
100
AcDbBlockTableRecord
  2
*Paper_Space
  0
BLOCK_RECORD
  5
21B
100
AcDbSymbolTableRecord
100
AcDbBlockTableRecord
  2
_FILLED
  0
ENDTAB
  0
TABLE
  2
DIMSTYLE
  5
A
100
AcDbSymbolTable
 70
1
100
AcDbDimStyleTable
 71
0
  0
DIMSTYLE
105
21C
100
AcDbSymbolTableRecord
100
AcDbDimStyleTableRecord
  2
STANDARD
 70
0
  3

  4

 40
1.0
 41
3.5
 42
1.0
 43
0.38
 44
3.0
 45
0.0
 46
0.0
 47
0.0001
 48
0.0001
140
4.0
141
0.09
142
0.0
143
25.4
144
1.0
145
0.0
146
1.0
147
0.625
 71
1.0
 72
0.0
 73
0
 74
0
 75
0
 76
0
 77
1
 78
8
 79
2
170
0
171
3
172
0
173
0
174
0
175
0
176
0
177
0
178
0
270
2
179
4
271
4
272
4
273
2
274
2
275
0
280
0
281
0
282
0
283
1
284
8
285
0
286
0
287
3
288
0
340
11
278
46
341
21B
342
21B
343
21B
344
21B
  0
ENDTAB
  0
ENDSEC
  0
SECTION
  2
BLOCKS
  0
BLOCK
  5
20
100
AcDbEntity
  8
0
100
AcDbBlockBegin
  2
*Model_Space
 70
0
 10
0.0
 20
0.0
 30
0.0
  3
*Model_Space
  1

  0
ENDBLK
  5
21
100
AcDbEntity
  8
0
100
AcDbBlockEnd
  0
BLOCK
  5
1C
100
AcDbEntity
  8
0
100
AcDbBlockBegin
  2
*Paper_Space
 70
0
 10
0.0
 20
0.0
 30
0.0
  3
*Paper_Space
  1

  0
ENDBLK
  5
1D
100
AcDbEntity
  8
0
100
AcDbBlockEnd
  0
BLOCK
  5
21D
100
AcDbEntity
  8
0
100
AcDbBlockBegin
  2
_FILLED
 70
64
 10
0.0
 20
0.0
  3
_FILLED
  1

  0
SOLID
  5
21E
100
AcDbEntity
  8
0
  6
BYBLOCK
 62
0
100
AcDbTrace
 10
0.0
 20
0.0
 11
-1.0
 21
0.2857142857
 12
-1.0
 22
-0.2857142857
 13
-1.0
 23
-0.2857142857
  0
ENDBLK
  5
21F
100
AcDbEntity
  8
0
  6
BYBLOCK
 62
0
100
AcDbBlockEnd
  0
ENDSEC
  0
SECTION
  2
ENTITIES
  0
LINE
  5
220
100
AcDbEntity
  8
0
100
AcDbLine
 62
9
  6
CONTINUOUS
 10
117.0592836214
 20
105.2918529543
 11
118.6984414504
 21
105.2927268242
  0
LINE
  5
221
100
AcDbEntity
  8
0
100
AcDbLine
 62
7
  6
CONTINUOUS
 10
151.0592836212
 20
100.291852955
 11
122.0592836212
 21
100.291852955
  0
LINE
  5
222
100
AcDbEntity
  8
0
100
AcDbLine
 62
9
  6
CONTINUOUS
 10
122.0614436646
 20
101.9310107843
 11
151.0592843435
 21
101.9310107843
  0
LINE
  5
223
100
AcDbEntity
  8
0
100
AcDbLine
 62
9
  6
CONTINUOUS
 10
156.059283621
 20
105.2918529539
 11
154.420125792
 21
105.2918531965
  0
LINE
  5
224
100
AcDbEntity
  8
0
100
AcDbLine
 62
9
  6
CONTINUOUS
 10
146.189016752
 20
110.1621198239
 11
126.9295504914
 21
110.1621198239
  0
LINE
  5
225
100
AcDbEntity
  8
0
100
AcDbLine
 62
9
  6
CONTINUOUS
 10
146.189016752
 20
110.1621198244
 11
154.4201257921
 21
105.320290977
  0
LINE
  5
226
100
AcDbEntity
  8
0
100
AcDbLine
 62
9
  6
CONTINUOUS
 10
152.0152808898
 20
335.9818207618
 11
153.9612074093
 21
337.1053019629
  0
LINE
  5
227
100
AcDbEntity
  8
0
100
AcDbLine
 62
7
  6
CONTINUOUS
 10
119.1573598324
 20
337.1053019621
 11
118.2602438329
 21
335.5514514706
  0
LINE
  5
228
100
AcDbEntity
  8
0
100
AcDbLine
 62
9
  6
CONTINUOUS
 10
150.0550921302
 20
103.5879253343
 11
151.0308455996
 21
101.9310107841
  0
LINE
  5
229
100
AcDbEntity
  8
0
100
AcDbLine
 62
9
  6
CONTINUOUS
 10
146.1890167528
 20
110.1621198239
 11
151.0308455996
 21
101.9310107841
  0
LINE
  5
22A
100
AcDbEntity
  8
0
100
AcDbLine
 62
9
  6
CONTINUOUS
 10
146.1890167528
 20
110.1621198239
 11
147.2659371888
 21
108.3312268763
  0
LINE
  5
22B
100
AcDbEntity
  8
0
100
AcDbLine
 62
9
  6
CONTINUOUS
 10
149.2841162535
 20
104.9006738891
 11
150.0550921302
 21
103.5879253343
  0
LINE
  5
22C
100
AcDbEntity
  8
0
100
AcDbLine
 62
7
  6
CONTINUOUS
 10
123.0108347439
 20
194.2359188186
 11
150.1077324986
 21
194.2359188186
  0
LINE
  5
22D
100
AcDbEntity
  8
0
100
AcDbLine
 62
7
  6
CONTINUOUS
 10
123.0586687923
 20
194.331852955
 11
150.0598723411
 21
194.331852955
  0
LINE
  5
22E
100
AcDbEntity
  8
0
100
AcDbLine
 62
7
  6
CONTINUOUS
 10
123.0592836212
 20
194.406852955
 11
150.0592836212
 21
194.406852955
  0
LINE
  5
22F
100
AcDbEntity
  8
0
100
AcDbLine
 62
9
  6
CONTINUOUS
 10
150.0592836209
 20
196.406852955
 11
123.0592836212
 21
196.406852955
  0
LINE
  5
230
100
AcDbEntity
  8
0
100
AcDbLine
 62
9
  6
CONTINUOUS
 10
129.5592836212
 20
196.656852955
 11
143.5592836212
 21
196.656852955
  0
LINE
  5
231
100
AcDbEntity
  8
0
100
AcDbLine
 62
7
  6
CONTINUOUS
 10
129.5592836212
 20
198.331852955
 11
143.5592836212
 21
198.331852955
  0
LINE
  5
232
100
AcDbEntity
  8
0
100
AcDbLine
 62
9
  6
CONTINUOUS
 10
121.0592836212
 20
198.4068529552
 11
119.0592836212
 21
198.4068529552
  0
LINE
  5
233
100
AcDbEntity
  8
0
100
AcDbLine
 62
9
  6
CONTINUOUS
 10
154.0592836212
 20
198.4074245028
 11
152.0592836212
 21
198.4074245028
  0
LINE
  5
234
100
AcDbEntity
  8
0
100
AcDbLine
 62
9
  6
CONTINUOUS
 10
150.392002194
 20
178.0264489362
 11
151.0447979866
 21
177.6449030142
  0
LINE
  5
235
100
AcDbEntity
  8
0
100
AcDbLine
 62
9
  6
CONTINUOUS
 10
143.5592840721
 20
198.831852955
 11
129.5592831704
 21
198.831852955
  0
LINE
  5
236
100
AcDbEntity
  8
0
100
AcDbLine
 62
9
  6
CONTINUOUS
 10
148.2342836219
 20
201.331852955
 11
146.0592836212
 21
201.3318529555
  0
LINE
  5
237
100
AcDbEntity
  8
0
100
AcDbLine
 62
9
  6
CONTINUOUS
 10
127.0592836212
 20
201.3318529545
 11
124.8842836205
 21
201.331852955
  0
LINE
  5
238
100
AcDbEntity
  8
0
100
AcDbLine
 62
7
  6
CONTINUOUS
 10
141.5592836212
 20
208.331852955
 11
138.8092836212
 21
208.331852955
  0
LINE
  5
239
100
AcDbEntity
  8
0
100
AcDbLine
 62
7
  6
CONTINUOUS
 10
134.3092836212
 20
208.331852955
 11
131.5592836212
 21
208.331852955
  0
LINE
  5
23A
100
AcDbEntity
  8
0
100
AcDbLine
 62
9
  6
CONTINUOUS
 10
156.6695923764
 20
195.5270691639
 11
159.3092774582
 21
194.6210122876
  0
LINE
  5
23B
100
AcDbEntity
  8
0
100
AcDbLine
 62
9
  6
CONTINUOUS
 10
124.8842836205
 20
215.331852955
 11
127.0592836212
 21
215.3318529545
  0
LINE
  5
23C
100
AcDbEntity
  8
0
100
AcDbLine
 62
9
  6
CONTINUOUS
 10
146.0592836212
 20
215.331852955
 11
148.2342836219
 21
215.331852955
  0
LINE
  5
23D
100
AcDbEntity
  8
0
100
AcDbLine
 62
7
  6
CONTINUOUS
 10
138.8092836212
 20
215.831852955
 11
134.3092836212
 21
215.831852955
  0
LINE
  5
23E
100
AcDbEntity
  8
0
100
AcDbLine
 62
9
  6
CONTINUOUS
 10
129.5592831704
 20
217.831852955
 11
143.5592840721
 21
217.831852955
  0
LINE
  5
23F
100
AcDbEntity
  8
0
100
AcDbLine
 62
7
  6
CONTINUOUS
 10
143.5592836212
 20
218.331852955
 11
129.5592836212
 21
218.331852955
  0
LWPOLYLINE
  5
240
100
AcDbEntity
  8
0
100
AcDbPolyline
 62
7
  6
CONTINUOUS
 90
4
 70
0
 10
112.8171752138
 20
197.7486041023
 10
113.0187828599
 20
197.0829011722
 10
113.4599624403
 20
195.720999152
 10
113.6700871317
 20
195.113185186
  0
LINE
  5
241
100
AcDbEntity
  8
0
100
AcDbLine
 62
9
  6
CONTINUOUS
 10
117.5831458471
 20
201.4281451583
 11
117.4738526355
 21
286.7540695006
  0
LINE
  5
242
100
AcDbEntity
  8
0
100
AcDbLine
 62
7
  6
CONTINUOUS
 10
110.5592836212
 20
326.224367097
 11
110.5592836212
 21
214.1001640067
  0
LINE
  5
243
100
AcDbEntity
  8
0
100
AcDbLine
 62
9
  6
CONTINUOUS
 10
115.9491594799
 20
287.9158268612
 11
115.9491594799
 21
289.1972314236
  0
LINE
  5
244
100
AcDbEntity
  8
0
100
AcDbLine
 62
9
  6
CONTINUOUS
 10
116.9189876563
 20
287.9158268619
 11
116.9189876563
 21
289.1972314236
  0
LINE
  5
245
100
AcDbEntity
  8
0
100
AcDbLine
 62
7
  6
CONTINUOUS
 10
117.0592836212
 20
105.291852955
 11
117.0592836212
 21
175.1418529557
  0
LINE
  5
246
100
AcDbEntity
  8
0
100
AcDbLine
 62
9
  6
CONTINUOUS
 10
117.4732143193
 20
289.1972314236
 11
117.4732143193
 21
287.9158268619
  0
LINE
  5
247
100
AcDbEntity
  8
0
100
AcDbLine
 62
7
  6
CONTINUOUS
 10
117.4732143191
 20
286.7540695006
 11
117.4732143191
 21
287.9158268612
  0
LINE
  5
248
100
AcDbEntity
  8
0
100
AcDbLine
 62
9
  6
CONTINUOUS
 10
117.4732143189
 20
289.1972314236
 11
117.4746690895
 21
290.9451025221
  0
LINE
  5
249
100
AcDbEntity
  8
0
100
AcDbLine
 62
9
  6
CONTINUOUS
 10
117.4930563852
 20
300.3557372623
 11
117.4746690893
 21
290.9451025221
  0
LINE
  5
24A
100
AcDbEntity
  8
0
100
AcDbLine
 62
7
  6
CONTINUOUS
 10
126.2342836213
 20
359.8118529551
 11
124.7975728235
 21
348.269464512
  0
LINE
  5
24B
100
AcDbEntity
  8
0
100
AcDbLine
 62
7
  6
CONTINUOUS
 10
118.7299034816
 20
254.3279159471
 11
118.6500526421
 21
254.168202103
  0
LINE
  5
24C
100
AcDbEntity
  8
0
100
AcDbLine
 62
9
  6
CONTINUOUS
 10
143.5592836216
 20
220.0068529546
 11
129.5592836209
 21
220.0068529546
  0
LINE
  5
24D
100
AcDbEntity
  8
0
100
AcDbLine
 62
9
  6
CONTINUOUS
 10
119.0592836212
 20
220.256852955
 11
154.0592836212
 21
220.2568529554
  0
LINE
  5
24E
100
AcDbEntity
  8
0
100
AcDbLine
 62
7
  6
CONTINUOUS
 10
120.0592836212
 20
222.256852955
 11
153.0592836212
 21
222.256852955
  0
LINE
  5
24F
100
AcDbEntity
  8
0
100
AcDbLine
 62
7
  6
CONTINUOUS
 10
154.3092836212
 20
222.331852955
 11
118.8092836212
 21
222.331852955
  0
LINE
  5
250
100
AcDbEntity
  8
0
100
AcDbLine
 62
7
  6
CONTINUOUS
 10
154.4248802621
 20
222.5630638446
 11
118.6936869804
 21
222.5630638446
  0
LINE
  5
251
100
AcDbEntity
  8
0
100
AcDbLine
 62
7
  6
CONTINUOUS
 10
118.6936869804
 20
224.1879173901
 11
154.4248802621
 21
224.1879173901
  0
LINE
  5
252
100
AcDbEntity
  8
0
100
AcDbLine
 62
7
  6
CONTINUOUS
 10
118.7656492822
 20
224.331852955
 11
154.3529179602
 21
224.331852955
  0
LINE
  5
253
100
AcDbEntity
  8
0
100
AcDbLine
 62
7
  6
CONTINUOUS
 10
120.0592836212
 20
224.406852955
 11
153.0592836212
 21
224.406852955
  0
LINE
  5
254
100
AcDbEntity
  8
0
100
AcDbLine
 62
9
  6
CONTINUOUS
 10
154.0592836212
 20
226.406852955
 11
119.0592836212
 21
226.4068529546
  0
LINE
  5
255
100
AcDbEntity
  8
0
100
AcDbLine
 62
9
  6
CONTINUOUS
 10
129.5592836209
 20
226.6568529554
 11
143.5592836216
 21
226.6568529554
  0
LINE
  5
256
100
AcDbEntity
  8
0
100
AcDbLine
 62
7
  6
CONTINUOUS
 10
129.5592836212
 20
228.331852955
 11
143.5592836212
 21
228.331852955
  0
LINE
  5
257
100
AcDbEntity
  8
0
100
AcDbLine
 62
7
  6
CONTINUOUS
 10
131.5592836212
 20
208.331852955
 11
136.5592836212
 21
200.831852955
  0
LINE
  5
258
100
AcDbEntity
  8
0
100
AcDbLine
 62
7
  6
CONTINUOUS
 10
118.6936869804
 20
222.5630638446
 11
118.8092836213
 21
222.331852955
  0
LINE
  5
259
100
AcDbEntity
  8
0
100
AcDbLine
 62
7
  6
CONTINUOUS
 10
118.6266518637
 20
290.2521815715
 11
118.5885273568
 21
297.8188807121
  0
LINE
  5
25A
100
AcDbEntity
  8
0
100
AcDbLine
 62
7
  6
CONTINUOUS
 10
118.5738107514
 20
286.9138111323
 11
118.6831039573
 21
201.5878905825
  0
LINE
  5
25B
100
AcDbEntity
  8
0
100
AcDbLine
 62
7
  6
CONTINUOUS
 10
118.5731724344
 20
287.9158268571
 11
118.5731724344
 21
289.1972314236
  0
LINE
  5
25C
100
AcDbEntity
  8
0
100
AcDbLine
 62
7
  6
CONTINUOUS
 10
118.6936869813
 20
224.1879173901
 11
118.6936869813
 21
222.5630638446
  0
LINE
  5
25D
100
AcDbEntity
  8
0
100
AcDbLine
 62
9
  6
CONTINUOUS
 10
118.6984414504
 20
174.3251955057
 11
118.6984414504
 21
105.2927268242
  0
LINE
  5
25E
100
AcDbEntity
  8
0
100
AcDbLine
 62
9
  6
CONTINUOUS
 10
118.7267173563
 20
198.4167078725
 11
118.7267173563
 21
195.7433075204
  0
LINE
  5
25F
100
AcDbEntity
  8
0
100
AcDbLine
 62
7
  6
CONTINUOUS
 10
118.7299034821
 20
288.4279159471
 11
118.7299034821
 21
254.3279159471
  0
LINE
  5
260
100
AcDbEntity
  8
0
100
AcDbLine
 62
7
  6
CONTINUOUS
 10
118.7656492822
 20
248.0817856882
 11
118.7656492822
 21
224.331852955
  0
LINE
  5
261
100
AcDbEntity
  8
0
100
AcDbLine
 62
7
  6
CONTINUOUS
 10
118.8092836212
 20
222.331852955
 11
118.8092836212
 21
198.5819748634
  0
LINE
  5
262
100
AcDbEntity
  8
0
100
AcDbLine
 62
7
  6
CONTINUOUS
 10
119.0592836212
 20
198.406852765
 11
119.0592836212
 21
221.2568529546
  0
LINE
  5
263
100
AcDbEntity
  8
0
100
AcDbLine
 62
7
  6
CONTINUOUS
 10
119.0592836212
 20
225.406852955
 11
119.0592836212
 21
248.256852955
  0
LINE
  5
264
100
AcDbEntity
  8
0
100
AcDbLine
 62
7
  6
CONTINUOUS
 10
119.5592836212
 20
356.661852955
 11
119.5592836212
 21
338.605301962
  0
LINE
  5
265
100
AcDbEntity
  8
0
100
AcDbLine
 62
9
  6
CONTINUOUS
 10
121.0592836212
 20
198.4074225945
 11
121.0592836217
 21
222.256852955
  0
LINE
  5
266
100
AcDbEntity
  8
0
100
AcDbLine
 62
9
  6
CONTINUOUS
 10
121.0592836212
 20
224.406852955
 11
121.0592836212
 21
248.2568529517
  0
LINE
  5
267
100
AcDbEntity
  8
0
100
AcDbLine
 62
7
  6
CONTINUOUS
 10
121.6237997503
 20
347.661852955
 11
121.6237997503
 21
338.605301962
  0
LINE
  5
268
100
AcDbEntity
  8
0
100
AcDbLine
 62
7
  6
CONTINUOUS
 10
122.5592836212
 20
356.661852955
 11
122.5592836212
 21
347.661852955
  0
LINE
  5
269
100
AcDbEntity
  8
0
100
AcDbLine
 62
9
  6
CONTINUOUS
 10
122.7265650481
 20
178.0263527608
 11
122.7265650481
 21
194.2454372695
  0
LINE
  5
26A
100
AcDbEntity
  8
0
100
AcDbLine
 62
9
  6
CONTINUOUS
 10
123.0592836212
 20
194.406852955
 11
123.0592836212
 21
196.406852955
  0
LINE
  5
26B
100
AcDbEntity
  8
0
100
AcDbLine
 62
9
  6
CONTINUOUS
 10
123.0592836212
 20
250.256852955
 11
123.0592836212
 21
252.256852955
  0
LINE
  5
26C
100
AcDbEntity
  8
0
100
AcDbLine
 62
7
  6
CONTINUOUS
 10
124.809293592
 20
336.38750114
 11
124.809293592
 21
347.661852955
  0
LINE
  5
26D
100
AcDbEntity
  8
0
100
AcDbLine
 62
9
  6
CONTINUOUS
 10
124.8842836205
 20
245.3318529551
 11
124.8842836205
 21
231.3318529553
  0
LINE
  5
26E
100
AcDbEntity
  8
0
100
AcDbLine
 62
9
  6
CONTINUOUS
 10
124.8842836205
 20
215.3318529547
 11
124.8842836205
 21
201.3318529549
  0
LINE
  5
26F
100
AcDbEntity
  8
0
100
AcDbLine
 62
7
  6
CONTINUOUS
 10
126.5592836212
 20
245.331852955
 11
126.5592836212
 21
231.331852955
  0
LINE
  5
270
100
AcDbEntity
  8
0
100
AcDbLine
 62
7
  6
CONTINUOUS
 10
126.5592836212
 20
215.331852955
 11
126.5592836212
 21
201.3318529552
  0
LINE
  5
271
100
AcDbEntity
  8
0
100
AcDbLine
 62
9
  6
CONTINUOUS
 10
126.9295504914
 20
110.1621198239
 11
126.9295504914
 21
170.9120572074
  0
LINE
  5
272
100
AcDbEntity
  8
0
100
AcDbLine
 62
9
  6
CONTINUOUS
 10
127.0592836212
 20
201.3318525041
 11
127.0592836212
 21
215.3318534058
  0
LINE
  5
273
100
AcDbEntity
  8
0
100
AcDbLine
 62
9
  6
CONTINUOUS
 10
127.0592836212
 20
231.3318525041
 11
127.0592836212
 21
245.3318534058
  0
LINE
  5
274
100
AcDbEntity
  8
0
100
AcDbLine
 62
7
  6
CONTINUOUS
 10
127.9092836212
 20
365.311852955
 11
127.9092836212
 21
364.6483201029
  0
LINE
  5
275
100
AcDbEntity
  8
0
100
AcDbLine
 62
7
  6
CONTINUOUS
 10
127.9092836212
 20
361.4933977661
 11
127.9092836212
 21
359.811852955
  0
LINE
  5
276
100
AcDbEntity
  8
0
100
AcDbLine
 62
9
  6
CONTINUOUS
 10
122.0592836213
 20
100.2918529553
 11
122.0614436646
 21
101.9310107843
  0
LINE
  5
277
100
AcDbEntity
  8
0
100
AcDbLine
 62
7
  6
CONTINUOUS
 10
118.5885273568
 20
297.8188807121
 11
118.5746272047
 21
290.7047702417
  0
LINE
  5
278
100
AcDbEntity
  8
0
100
AcDbLine
 62
9
  6
CONTINUOUS
 10
143.5592840721
 20
228.831852955
 11
129.5592831704
 21
228.831852955
  0
LINE
  5
279
100
AcDbEntity
  8
0
100
AcDbLine
 62
7
  6
CONTINUOUS
 10
138.8092836212
 20
230.831852955
 11
134.3092836212
 21
230.831852955
  0
LINE
  5
27A
100
AcDbEntity
  8
0
100
AcDbLine
 62
9
  6
CONTINUOUS
 10
148.2342836219
 20
231.331852955
 11
146.0592836212
 21
231.3318529555
  0
LINE
  5
27B
100
AcDbEntity
  8
0
100
AcDbLine
 62
9
  6
CONTINUOUS
 10
127.0592836212
 20
231.331852955
 11
124.8842836205
 21
231.331852955
  0
LINE
  5
27C
100
AcDbEntity
  8
0
100
AcDbLine
 62
7
  6
CONTINUOUS
 10
141.5592836212
 20
238.331852955
 11
138.8092836212
 21
238.331852955
  0
LINE
  5
27D
100
AcDbEntity
  8
0
100
AcDbLine
 62
7
  6
CONTINUOUS
 10
134.3092836212
 20
238.331852955
 11
131.5592836212
 21
238.331852955
  0
LINE
  5
27E
100
AcDbEntity
  8
0
100
AcDbLine
 62
9
  6
CONTINUOUS
 10
118.7656492823
 20
248.0818529303
 11
118.6500526418
 21
248.3130638199
  0
LINE
  5
27F
100
AcDbEntity
  8
0
100
AcDbLine
 62
9
  6
CONTINUOUS
 10
150.1077324986
 20
194.2359188186
 11
150.0597690843
 21
194.331852955
  0
LINE
  5
280
100
AcDbEntity
  8
0
100
AcDbLine
 62
9
  6
CONTINUOUS
 10
122.8995671794
 20
252.5630638446
 11
123.0151638199
 21
252.331852955
  0
LINE
  5
281
100
AcDbEntity
  8
0
100
AcDbLine
 62
7
  6
CONTINUOUS
 10
128.9092836212
 20
373.811852955
 11
128.9092836212
 21
368.311852955
  0
LINE
  5
282
100
AcDbEntity
  8
0
100
AcDbLine
 62
9
  6
CONTINUOUS
 10
129.5592836212
 20
196.656852955
 11
129.5592836218
 21
198.831852955
  0
LINE
  5
283
100
AcDbEntity
  8
0
100
AcDbLine
 62
9
  6
CONTINUOUS
 10
129.5592836212
 20
217.831852955
 11
129.5592836212
 21
220.0068529546
  0
LINE
  5
284
100
AcDbEntity
  8
0
100
AcDbLine
 62
9
  6
CONTINUOUS
 10
129.5592836212
 20
226.6568529554
 11
129.5592836218
 21
228.831852955
  0
LINE
  5
285
100
AcDbEntity
  8
0
100
AcDbLine
 62
9
  6
CONTINUOUS
 10
129.5592836212
 20
247.831852955
 11
129.5592836212
 21
250.006852955
  0
LINE
  5
286
100
AcDbEntity
  8
0
100
AcDbLine
 62
7
  6
CONTINUOUS
 10
129.8092836212
 20
382.311852955
 11
129.8092836212
 21
376.811852955
  0
LINE
  5
287
100
AcDbEntity
  8
0
100
AcDbLine
 62
7
  6
CONTINUOUS
 10
130.9092836212
 20
390.811852955
 11
130.9092836212
 21
385.311852955
  0
LINE
  5
288
100
AcDbEntity
  8
0
100
AcDbLine
 62
7
  6
CONTINUOUS
 10
134.3092836212
 20
238.331852955
 11
134.3092836212
 21
230.831852955
  0
LINE
  5
289
100
AcDbEntity
  8
0
100
AcDbLine
 62
7
  6
CONTINUOUS
 10
134.3092836212
 20
215.831852955
 11
134.3092836212
 21
208.331852955
  0
LINE
  5
28A
100
AcDbEntity
  8
0
100
AcDbLine
 62
7
  6
CONTINUOUS
 10
118.6936869808
 20
224.18791739
 11
118.7656492823
 21
224.3318529549
  0
LINE
  5
28B
100
AcDbEntity
  8
0
100
AcDbLine
 62
7
  6
CONTINUOUS
 10
136.5592836212
 20
245.831852955
 11
131.5592836212
 21
238.331852955
  0
LINE
  5
28C
100
AcDbEntity
  8
0
100
AcDbLine
 62
9
  6
CONTINUOUS
 10
124.8842836205
 20
245.331852955
 11
127.0592836212
 21
245.3318529545
  0
LINE
  5
28D
100
AcDbEntity
  8
0
100
AcDbLine
 62
9
  6
CONTINUOUS
 10
146.0592836212
 20
245.3318529555
 11
148.2342836219
 21
245.331852955
  0
LINE
  5
28E
100
AcDbEntity
  8
0
100
AcDbLine
 62
9
  6
CONTINUOUS
 10
129.5592831704
 20
247.831852955
 11
143.5592840721
 21
247.831852955
  0
LINE
  5
28F
100
AcDbEntity
  8
0
100
AcDbLine
 62
9
  6
CONTINUOUS
 10
119.0592836212
 20
248.2562814072
 11
121.0592836212
 21
248.2562814072
  0
LINE
  5
290
100
AcDbEntity
  8
0
100
AcDbLine
 62
9
  6
CONTINUOUS
 10
152.0592836212
 20
248.2568529548
 11
154.0592836212
 21
248.2568529548
  0
LINE
  5
291
100
AcDbEntity
  8
0
100
AcDbLine
 62
7
  6
CONTINUOUS
 10
143.5592836212
 20
248.331852955
 11
129.5592836212
 21
248.331852955
  0
LINE
  5
292
100
AcDbEntity
  8
0
100
AcDbLine
 62
7
  6
CONTINUOUS
 10
136.5592836212
 20
245.831852955
 11
141.5592836212
 21
238.331852955
  0
LINE
  5
293
100
AcDbEntity
  8
0
100
AcDbLine
 62
9
  6
CONTINUOUS
 10
154.3092836212
 20
198.5818529796
 11
154.3918498862
 21
198.4167078725
  0
LINE
  5
294
100
AcDbEntity
  8
0
100
AcDbLine
 62
7
  6
CONTINUOUS
 10
118.6484112419
 20
288.7540090908
 11
118.7299034815
 21
288.4279159471
  0
LINE
  5
295
100
AcDbEntity
  8
0
100
AcDbLine
 62
9
  6
CONTINUOUS
 10
119.0955526522
 20
332.6131741483
 11
118.6422701313
 21
335.618092278
  0
LINE
  5
296
100
AcDbEntity
  8
0
100
AcDbLine
 62
7
  6
CONTINUOUS
 10
138.8092836212
 20
238.331852955
 11
138.8092836212
 21
230.831852955
  0
LINE
  5
297
100
AcDbEntity
  8
0
100
AcDbLine
 62
7
  6
CONTINUOUS
 10
138.8092836212
 20
215.831852955
 11
138.8092836212
 21
208.331852955
  0
LINE
  5
298
100
AcDbEntity
  8
0
100
AcDbLine
 62
7
  6
CONTINUOUS
 10
142.2092836212
 20
390.811852955
 11
142.2092836212
 21
385.311852955
  0
LINE
  5
299
100
AcDbEntity
  8
0
100
AcDbLine
 62
7
  6
CONTINUOUS
 10
143.3092836212
 20
382.311852955
 11
143.3092836212
 21
376.811852955
  0
LINE
  5
29A
100
AcDbEntity
  8
0
100
AcDbLine
 62
9
  6
CONTINUOUS
 10
143.5592836212
 20
250.006852955
 11
143.5592836207
 21
247.831852955
  0
LINE
  5
29B
100
AcDbEntity
  8
0
100
AcDbLine
 62
9
  6
CONTINUOUS
 10
143.5592836212
 20
228.831852955
 11
143.5592836212
 21
226.6568529554
  0
LINE
  5
29C
100
AcDbEntity
  8
0
100
AcDbLine
 62
9
  6
CONTINUOUS
 10
143.5592836212
 20
220.0068529546
 11
143.5592836207
 21
217.831852955
  0
LINE
  5
29D
100
AcDbEntity
  8
0
100
AcDbLine
 62
9
  6
CONTINUOUS
 10
143.5592836212
 20
198.831852955
 11
143.5592836212
 21
196.656852955
  0
LINE
  5
29E
100
AcDbEntity
  8
0
100
AcDbLine
 62
7
  6
CONTINUOUS
 10
144.2092836212
 20
373.811852955
 11
144.2092836212
 21
368.311852955
  0
LINE
  5
29F
100
AcDbEntity
  8
0
100
AcDbLine
 62
7
  6
CONTINUOUS
 10
145.2092836212
 20
365.311852955
 11
145.2092836212
 21
364.6522456128
  0
LINE
  5
2A0
100
AcDbEntity
  8
0
100
AcDbLine
 62
7
  6
CONTINUOUS
 10
145.2092836212
 20
361.4909132822
 11
145.2092836212
 21
359.811852955
  0
LINE
  5
2A1
100
AcDbEntity
  8
0
100
AcDbLine
 62
9
  6
CONTINUOUS
 10
146.0592836212
 20
245.3318534059
 11
146.0592836212
 21
231.3318525041
  0
LINE
  5
2A2
100
AcDbEntity
  8
0
100
AcDbLine
 62
9
  6
CONTINUOUS
 10
146.0592836212
 20
215.3318534059
 11
146.0592836212
 21
201.3318525041
  0
LINE
  5
2A3
100
AcDbEntity
  8
0
100
AcDbLine
 62
9
  6
CONTINUOUS
 10
146.189016752
 20
170.9120572074
 11
146.189016752
 21
110.1621198239
  0
LINE
  5
2A4
100
AcDbEntity
  8
0
100
AcDbLine
 62
7
  6
CONTINUOUS
 10
146.5592836212
 20
201.331852955
 11
146.5592836212
 21
215.331852955
  0
LINE
  5
2A5
100
AcDbEntity
  8
0
100
AcDbLine
 62
7
  6
CONTINUOUS
 10
146.5592836212
 20
231.331852955
 11
146.5592836212
 21
245.3318529548
  0
LINE
  5
2A6
100
AcDbEntity
  8
0
100
AcDbLine
 62
9
  6
CONTINUOUS
 10
154.0230145903
 20
332.6131741484
 11
154.4762968195
 21
335.618092322
  0
LINE
  5
2A7
100
AcDbEntity
  8
0
100
AcDbLine
 62
7
  6
CONTINUOUS
 10
154.4701560011
 20
288.7540090915
 11
154.3886637604
 21
288.4279159467
  0
LINE
  5
2A8
100
AcDbEntity
  8
0
100
AcDbLine
 62
9
  6
CONTINUOUS
 10
118.7267173563
 20
198.4167078725
 11
118.8092836213
 21
198.5818529796
  0
LINE
  5
2A9
100
AcDbEntity
  8
0
100
AcDbLine
 62
9
  6
CONTINUOUS
 10
150.1034034226
 20
252.331852955
 11
150.2190000631
 21
252.5630638446
  0
LINE
  5
2AA
100
AcDbEntity
  8
0
100
AcDbLine
 62
9
  6
CONTINUOUS
 10
143.5592836212
 20
250.006852955
 11
129.5592836212
 21
250.006852955
  0
LINE
  5
2AB
100
AcDbEntity
  8
0
100
AcDbLine
 62
9
  6
CONTINUOUS
 10
123.0592836215
 20
250.256852955
 11
150.0592836212
 21
250.256852955
  0
LINE
  5
2AC
100
AcDbEntity
  8
0
100
AcDbLine
 62
7
  6
CONTINUOUS
 10
150.0592836212
 20
252.256852955
 11
123.0592836212
 21
252.256852955
  0
LINE
  5
2AD
100
AcDbEntity
  8
0
100
AcDbLine
 62
7
  6
CONTINUOUS
 10
150.103523156
 20
252.331852955
 11
123.01486782
 21
252.331852955
  0
LINE
  5
2AE
100
AcDbEntity
  8
0
100
AcDbLine
 62
7
  6
CONTINUOUS
 10
150.2190000631
 20
252.5630638446
 11
122.8995671794
 21
252.5630638446
  0
LINE
  5
2AF
100
AcDbEntity
  8
0
100
AcDbLine
 62
7
  6
CONTINUOUS
 10
118.6500526421
 20
254.168202103
 11
154.4685146007
 21
254.168202103
  0
LINE
  5
2B0
100
AcDbEntity
  8
0
100
AcDbLine
 62
7
  6
CONTINUOUS
 10
118.7299034821
 20
254.3279159471
 11
154.3886637603
 21
254.3279159471
  0
LINE
  5
2B1
100
AcDbEntity
  8
0
100
AcDbLine
 62
7
  6
CONTINUOUS
 10
154.4248802621
 20
224.1879173901
 11
154.3529179596
 21
224.331852955
  0
LINE
  5
2B2
100
AcDbEntity
  8
0
100
AcDbLine
 62
7
  6
CONTINUOUS
 10
154.5439400378
 20
290.7047702417
 11
154.5300398857
 21
297.8188807121
  0
LINE
  5
2B3
100
AcDbEntity
  8
0
100
AcDbLine
 62
9
  6
CONTINUOUS
 10
155.6255108573
 20
300.3557372623
 11
155.6438981531
 21
290.9451025221
  0
LINE
  5
2B4
100
AcDbEntity
  8
0
100
AcDbLine
 62
9
  6
CONTINUOUS
 10
148.2342836219
 20
201.3318529549
 11
148.2342836219
 21
215.3318529547
  0
LINE
  5
2B5
100
AcDbEntity
  8
0
100
AcDbLine
 62
9
  6
CONTINUOUS
 10
148.2342836219
 20
231.3318529553
 11
148.2342836219
 21
245.3318529551
  0
LINE
  5
2B6
100
AcDbEntity
  8
0
100
AcDbLine
 62
7
  6
CONTINUOUS
 10
148.3092736504
 20
336.38750114
 11
148.3092736504
 21
347.661852955
  0
LINE
  5
2B7
100
AcDbEntity
  8
0
100
AcDbLine
 62
9
  6
CONTINUOUS
 10
150.0592836212
 20
252.256852955
 11
150.0592836212
 21
250.256852955
  0
LINE
  5
2B8
100
AcDbEntity
  8
0
100
AcDbLine
 62
9
  6
CONTINUOUS
 10
150.0592836212
 20
196.406852955
 11
150.0592836212
 21
194.406852955
  0
LINE
  5
2B9
100
AcDbEntity
  8
0
100
AcDbLine
 62
9
  6
CONTINUOUS
 10
150.3920021933
 20
194.2454372695
 11
150.3920021933
 21
178.0264489366
  0
LINE
  5
2BA
100
AcDbEntity
  8
0
100
AcDbLine
 62
7
  6
CONTINUOUS
 10
150.5592836212
 20
347.661852955
 11
150.5592836212
 21
356.6618529552
  0
LINE
  5
2BB
100
AcDbEntity
  8
0
100
AcDbLine
 62
9
  6
CONTINUOUS
 10
151.0592836212
 20
100.2918529553
 11
151.0592843435
 21
101.9310107843
  0
LINE
  5
2BC
100
AcDbEntity
  8
0
100
AcDbLine
 62
7
  6
CONTINUOUS
 10
151.4947674922
 20
347.661852955
 11
151.4947674922
 21
338.605301962
  0
LINE
  5
2BD
100
AcDbEntity
  8
0
100
AcDbLine
 62
9
  6
CONTINUOUS
 10
152.0592836212
 20
248.2562833155
 11
152.0592836207
 21
224.406852955
  0
LINE
  5
2BE
100
AcDbEntity
  8
0
100
AcDbLine
 62
9
  6
CONTINUOUS
 10
152.0592836212
 20
222.256852955
 11
152.0592836212
 21
198.4068529582
  0
LINE
  5
2BF
100
AcDbEntity
  8
0
100
AcDbLine
 62
7
  6
CONTINUOUS
 10
153.5592836212
 20
338.605301962
 11
153.5592836212
 21
356.6618529552
  0
LINE
  5
2C0
100
AcDbEntity
  8
0
100
AcDbLine
 62
7
  6
CONTINUOUS
 10
154.0592836212
 20
198.406852955
 11
154.0592836212
 21
221.256852955
  0
LINE
  5
2C1
100
AcDbEntity
  8
0
100
AcDbLine
 62
7
  6
CONTINUOUS
 10
154.0592836212
 20
225.4068529554
 11
154.0592836212
 21
248.256853145
  0
LINE
  5
2C2
100
AcDbEntity
  8
0
100
AcDbLine
 62
7
  6
CONTINUOUS
 10
154.3092836212
 20
198.5820470528
 11
154.3092836212
 21
222.331852955
  0
LINE
  5
2C3
100
AcDbEntity
  8
0
100
AcDbLine
 62
7
  6
CONTINUOUS
 10
154.3529179602
 20
224.331852955
 11
154.3529179602
 21
248.0817526333
  0
LINE
  5
2C4
100
AcDbEntity
  8
0
100
AcDbLine
 62
7
  6
CONTINUOUS
 10
154.3886637604
 20
288.4279159467
 11
154.3886637604
 21
254.3279159471
  0
LINE
  5
2C5
100
AcDbEntity
  8
0
100
AcDbLine
 62
9
  6
CONTINUOUS
 10
154.3918498862
 20
195.7433075204
 11
154.3918498862
 21
198.4167078725
  0
LINE
  5
2C6
100
AcDbEntity
  8
0
100
AcDbLine
 62
9
  6
CONTINUOUS
 10
154.420125792
 20
105.2918531965
 11
154.420125792
 21
174.3251955057
  0
LINE
  5
2C7
100
AcDbEntity
  8
0
100
AcDbLine
 62
7
  6
CONTINUOUS
 10
154.4248802617
 20
224.18791739
 11
154.4248802617
 21
222.5630638446
  0
LINE
  5
2C8
100
AcDbEntity
  8
0
100
AcDbLine
 62
7
  6
CONTINUOUS
 10
154.5453937961
 20
289.1972314239
 11
154.5453948081
 21
287.9158268612
  0
LINE
  5
2C9
100
AcDbEntity
  8
0
100
AcDbLine
 62
9
  6
CONTINUOUS
 10
155.6453529227
 20
287.9158268619
 11
155.6453529227
 21
289.1972314236
  0
LINE
  5
2CA
100
AcDbEntity
  8
0
100
AcDbLine
 62
7
  6
CONTINUOUS
 10
156.0592836212
 20
175.1418529557
 11
156.0592836212
 21
105.291852955
  0
LINE
  5
2CB
100
AcDbEntity
  8
0
100
AcDbLine
 62
9
  6
CONTINUOUS
 10
156.1995795857
 20
289.1972314236
 11
156.1995795857
 21
287.9158268619
  0
LINE
  5
2CC
100
AcDbEntity
  8
0
100
AcDbLine
 62
9
  6
CONTINUOUS
 10
157.1694080911
 20
289.1972314235
 11
157.169407516
 21
287.9158268615
  0
LINE
  5
2CD
100
AcDbEntity
  8
0
100
AcDbLine
 62
7
  6
CONTINUOUS
 10
154.435463153
 20
201.5877874528
 11
154.5447569304
 21
286.9138037483
  0
LINE
  5
2CE
100
AcDbEntity
  8
0
100
AcDbLine
 62
9
  6
CONTINUOUS
 10
155.6447146073
 20
286.7540695006
 11
155.5354212675
 21
201.4280458152
  0
LINE
  5
2CF
100
AcDbEntity
  8
0
100
AcDbLine
 62
7
  6
CONTINUOUS
 10
154.5300398857
 20
297.8188807121
 11
154.4919153788
 21
290.2521815715
  0
LINE
  5
2D0
100
AcDbEntity
  8
0
100
AcDbLine
 62
9
  6
CONTINUOUS
 10
123.0108347439
 20
194.2359188186
 11
123.0587981582
 21
194.331852955
  0
LINE
  5
2D1
100
AcDbEntity
  8
0
100
AcDbLine
 62
9
  6
CONTINUOUS
 10
154.4685146006
 20
248.3130638199
 11
154.3529179602
 21
248.0818529303
  0
LINE
  5
2D2
100
AcDbEntity
  8
0
100
AcDbLine
 62
7
  6
CONTINUOUS
 10
154.3886637604
 20
254.3279159471
 11
154.4685146006
 21
254.1682021033
  0
LINE
  5
2D3
100
AcDbEntity
  8
0
100
AcDbLine
 62
7
  6
CONTINUOUS
 10
162.5592836212
 20
214.1001640067
 11
162.5592836212
 21
326.224367097
  0
LINE
  5
2D4
100
AcDbEntity
  8
0
100
AcDbLine
 62
7
  6
CONTINUOUS
 10
154.4248802617
 20
222.5630638446
 11
154.3092836212
 21
222.331852955
  0
LINE
  5
2D5
100
AcDbEntity
  8
0
100
AcDbLine
 62
7
  6
CONTINUOUS
 10
141.5592836212
 20
208.331852955
 11
136.5592836212
 21
200.831852955
  0
LINE
  5
2D6
100
AcDbEntity
  8
0
100
AcDbLine
 62
7
  6
CONTINUOUS
 10
146.8842836212
 20
359.811852955
 11
148.3209944189
 21
348.269464512
  0
LINE
  5
2D7
100
AcDbEntity
  8
0
100
AcDbLine
 62
7
  6
CONTINUOUS
 10
160.0290242966
 20
196.8468882953
 11
160.0014564815
 21
196.7599732157
  0
LINE
  5
2D8
100
AcDbEntity
  8
0
100
AcDbLine
 62
9
  6
CONTINUOUS
 10
116.9003506083
 20
286.7540695006
 11
117.4738526355
 21
286.7540695006
  0
LINE
  5
2D9
100
AcDbEntity
  8
0
100
AcDbLine
 62
9
  6
CONTINUOUS
 10
155.6447146073
 20
286.7540695006
 11
156.2182166338
 21
286.7540695006
  0
LINE
  5
2DA
100
AcDbEntity
  8
0
100
AcDbLine
 62
9
  6
CONTINUOUS
 10
157.1694077623
 20
287.9158268612
 11
154.5453948081
 21
287.9158268612
  0
LINE
  5
2DB
100
AcDbEntity
  8
0
100
AcDbLine
 62
9
  6
CONTINUOUS
 10
118.5731724344
 20
287.9158268612
 11
115.9491594801
 21
287.9158268613
  0
LINE
  5
2DC
100
AcDbEntity
  8
0
100
AcDbLine
 62
9
  6
CONTINUOUS
 10
113.809289601
 20
194.6210128222
 11
116.4493835671
 21
195.5272380888
  0
LINE
  5
2DD
100
AcDbEntity
  8
0
100
AcDbLine
 62
7
  6
CONTINUOUS
 10
118.7299034815
 20
288.4279159471
 11
154.3886637604
 21
288.4279159471
  0
LINE
  5
2DE
100
AcDbEntity
  8
0
100
AcDbLine
 62
9
  6
CONTINUOUS
 10
118.6484112419
 20
288.7540090908
 11
154.4701560011
 21
288.7540090908
  0
LINE
  5
2DF
100
AcDbEntity
  8
0
100
AcDbLine
 62
9
  6
CONTINUOUS
 10
115.9491594801
 20
289.1972314236
 11
118.5731724344
 21
289.1972314236
  0
LINE
  5
2E0
100
AcDbEntity
  8
0
100
AcDbLine
 62
9
  6
CONTINUOUS
 10
154.5453948081
 20
289.1972314235
 11
157.1694077623
 21
289.1972314236
  0
LINE
  5
2E1
100
AcDbEntity
  8
0
100
AcDbLine
 62
9
  6
CONTINUOUS
 10
154.4919153784
 20
290.2521815718
 11
118.6266518641
 21
290.2521815718
  0
LINE
  5
2E2
100
AcDbEntity
  8
0
100
AcDbLine
 62
9
  6
CONTINUOUS
 10
156.2420084686
 20
290.9451025221
 11
155.6438981531
 21
290.9451025221
  0
LINE
  5
2E3
100
AcDbEntity
  8
0
100
AcDbLine
 62
9
  6
CONTINUOUS
 10
117.4746690893
 20
290.9451025221
 11
116.8765587754
 21
290.9451025221
  0
LINE
  5
2E4
100
AcDbEntity
  8
0
100
AcDbLine
 62
9
  6
CONTINUOUS
 10
122.7265650479
 20
178.0263527612
 11
122.0739944971
 21
177.6447928839
  0
LINE
  5
2E5
100
AcDbEntity
  8
0
100
AcDbLine
 62
9
  6
CONTINUOUS
 10
118.5453068163
 20
298.2002856004
 11
154.5732604264
 21
298.2002856004
  0
LINE
  5
2E6
100
AcDbEntity
  8
0
100
AcDbLine
 62
9
  6
CONTINUOUS
 10
155.6255108573
 20
300.3557372623
 11
117.4930563852
 21
300.3557372623
  0
LINE
  5
2E7
100
AcDbEntity
  8
0
100
AcDbLine
 62
7
  6
CONTINUOUS
 10
154.8583029109
 20
335.5514869749
 11
153.9612074093
 21
337.1053019629
  0
LINE
  5
2E8
100
AcDbEntity
  8
0
100
AcDbLine
 62
9
  6
CONTINUOUS
 10
126.9295504912
 20
110.1621198239
 11
122.0877216444
 21
101.9310107841
  0
LINE
  5
2E9
100
AcDbEntity
  8
0
100
AcDbLine
 62
9
  6
CONTINUOUS
 10
126.9295504912
 20
110.1621198239
 11
125.8487546237
 21
108.3248901469
  0
LWPOLYLINE
  5
2EA
100
AcDbEntity
  8
0
100
AcDbPolyline
 62
9
  6
CONTINUOUS
 90
3
 70
0
 10
124.7490895549
 20
106.4549339556
 10
123.8406694053
 20
104.91087777
 10
123.0723683369
 20
103.6048586534
  0
LINE
  5
2EB
100
AcDbEntity
  8
0
100
AcDbLine
 62
9
  6
CONTINUOUS
 10
119.1573598324
 20
337.1053019621
 11
121.103286353
 21
335.9818207616
  0
LINE
  5
2EC
100
AcDbEntity
  8
0
100
AcDbLine
 62
9
  6
CONTINUOUS
 10
110.559283621
 20
326.224367097
 11
114.0871339697
 21
326.224367097
  0
LINE
  5
2ED
100
AcDbEntity
  8
0
100
AcDbLine
 62
9
  6
CONTINUOUS
 10
159.0314327754
 20
326.224367097
 11
162.5592836215
 21
326.224367097
  0
LINE
  5
2EE
100
AcDbEntity
  8
0
100
AcDbLine
 62
9
  6
CONTINUOUS
 10
153.5592836212
 20
338.605301962
 11
151.4947674922
 21
338.605301962
  0
LINE
  5
2EF
100
AcDbEntity
  8
0
100
AcDbLine
 62
9
  6
CONTINUOUS
 10
121.6237997502
 20
338.605301962
 11
119.5592836212
 21
338.605301962
  0
LINE
  5
2F0
100
AcDbEntity
  8
0
100
AcDbLine
 62
7
  6
CONTINUOUS
 10
151.4947674922
 20
347.661852955
 11
150.5592836212
 21
347.661852955
  0
LINE
  5
2F1
100
AcDbEntity
  8
0
100
AcDbLine
 62
7
  6
CONTINUOUS
 10
148.3584237874
 20
347.661852955
 11
124.759293592
 21
347.661852955
  0
LINE
  5
2F2
100
AcDbEntity
  8
0
100
AcDbLine
 62
7
  6
CONTINUOUS
 10
122.5591163329
 20
347.661852955
 11
121.6237997503
 21
347.661852955
  0
LINE
  5
2F3
100
AcDbEntity
  8
0
100
AcDbLine
 62
9
  6
CONTINUOUS
 10
148.3209944189
 20
348.269464512
 11
124.7975728235
 21
348.269464512
  0
LINE
  5
2F4
100
AcDbEntity
  8
0
100
AcDbLine
 62
9
  6
CONTINUOUS
 10
119.5592836212
 20
351.5618643676
 11
121.0592836212
 21
351.5618643676
  0
LINE
  5
2F5
100
AcDbEntity
  8
0
100
AcDbLine
 62
9
  6
CONTINUOUS
 10
150.5592836212
 20
351.563776744
 11
153.5592836212
 21
351.563776744
  0
LINE
  5
2F6
100
AcDbEntity
  8
0
100
AcDbLine
 62
9
  6
CONTINUOUS
 10
122.5592836212
 20
351.562333861
 11
121.0592836212
 21
351.5628148491
  0
LINE
  5
2F7
100
AcDbEntity
  8
0
100
AcDbLine
 62
9
  6
CONTINUOUS
 10
118.6984414504
 20
105.320290978
 11
126.9294874078
 21
110.1622270673
  0
LINE
  5
2F8
100
AcDbEntity
  8
0
100
AcDbLine
 62
9
  6
CONTINUOUS
 10
120.6942229363
 20
106.4946038495
 11
122.3410673111
 21
107.4631752351
  0
LINE
  5
2F9
100
AcDbEntity
  8
0
100
AcDbLine
 62
7
  6
CONTINUOUS
 10
126.2342836219
 20
359.811852955
 11
146.8842836205
 21
359.811852955
  0
LINE
  5
2FA
100
AcDbEntity
  8
0
100
AcDbLine
 62
7
  6
CONTINUOUS
 10
127.9092836212
 20
365.311852955
 11
130.5468714847
 21
365.311852955
  0
LINE
  5
2FB
100
AcDbEntity
  8
0
100
AcDbLine
 62
7
  6
CONTINUOUS
 10
142.5756612817
 20
365.311852955
 11
145.2092836212
 21
365.311852955
  0
LINE
  5
2FC
100
AcDbEntity
  8
0
100
AcDbLine
 62
7
  6
CONTINUOUS
 10
127.9092836209
 20
368.311852955
 11
145.2092836216
 21
368.311852955
  0
LINE
  5
2FD
100
AcDbEntity
  8
0
100
AcDbLine
 62
7
  6
CONTINUOUS
 10
128.9092836212
 20
373.811852955
 11
144.2092836212
 21
373.811852955
  0
LINE
  5
2FE
100
AcDbEntity
  8
0
100
AcDbLine
 62
7
  6
CONTINUOUS
 10
128.9092836209
 20
376.811852955
 11
144.2092836216
 21
376.811852955
  0
LINE
  5
2FF
100
AcDbEntity
  8
0
100
AcDbLine
 62
7
  6
CONTINUOUS
 10
129.8092836212
 20
382.311852955
 11
143.3092836212
 21
382.311852955
  0
LINE
  5
300
100
AcDbEntity
  8
0
100
AcDbLine
 62
7
  6
CONTINUOUS
 10
129.8092836212
 20
385.311852955
 11
143.3092836212
 21
385.311852955
  0
LINE
  5
301
100
AcDbEntity
  8
0
100
AcDbLine
 62
7
  6
CONTINUOUS
 10
130.9092836212
 20
390.811852955
 11
142.2092836212
 21
390.811852955
  0
LINE
  5
302
100
AcDbEntity
  8
0
100
AcDbLine
 62
7
  6
CONTINUOUS
 10
130.9092836209
 20
393.811852955
 11
142.2092836216
 21
393.811852955
  0
ARC
  5
303
100
AcDbEntity
  8
0
100
AcDbCircle
 62
9
  6
CONTINUOUS
 10
-8060.5625237051
 20
-15.6535825406
 40
8222.3437122768
100
AcDbArc
 50
1.6003695182
 51
2.1077434095
  0
ARC
  5
304
100
AcDbEntity
  8
0
100
AcDbCircle
 62
9
  6
CONTINUOUS
 10
-8016.7019651236
 20
-15.5271868003
 40
8179.482876734
100
AcDbArc
 50
1.6087136131
 51
2.1189247479
  0
ARC
  5
305
100
AcDbEntity
  8
0
100
AcDbCircle
 62
7
  6
CONTINUOUS
 10
122.0592836212
 20
105.291852955
 40
5.0000000001
100
AcDbArc
 50
180.0
 51
270.0
  0
ARC
  5
306
100
AcDbEntity
  8
0
100
AcDbCircle
 62
9
  6
CONTINUOUS
 10
-702.3547343838
 20
203.088389015
 40
856.7915116294
100
AcDbArc
 50
359.672607918
 51
359.8996509897
  0
ARC
  5
307
100
AcDbEntity
  8
0
100
AcDbCircle
 62
9
  6
CONTINUOUS
 10
-570.1705961494
 20
205.165046559
 40
725.5718077578
100
AcDbArc
 50
359.1770877671
 51
359.3419656012
  0
ARC
  5
308
100
AcDbEntity
  8
0
100
AcDbCircle
 62
9
  6
CONTINUOUS
 10
-531.8767956627
 20
205.6347945265
 40
686.3399480679
100
AcDbArc
 50
359.1741393739
 51
359.3786564544
  0
ARC
  5
309
100
AcDbEntity
  8
0
100
AcDbCircle
 62
9
  6
CONTINUOUS
 10
74.8890490734
 20
143.0715206756
 40
110.577321544
100
AcDbArc
 50
44.9322209965
 51
45.0625783254
  0
ARC
  5
30A
100
AcDbEntity
  8
0
100
AcDbCircle
 62
9
  6
CONTINUOUS
 10
55.7987074302
 20
178.1622987505
 40
62.9654474477
100
AcDbArc
 50
15.5501254329
 51
15.971223108
  0
ARC
  5
30B
100
AcDbEntity
  8
0
100
AcDbCircle
 62
7
  6
CONTINUOUS
 10
57.0592836212
 20
175.141852955
 40
60.0
100
AcDbArc
 50
0.0000000007
 51
18.9445287207
  0
ARC
  5
30C
100
AcDbEntity
  8
0
100
AcDbCircle
 62
9
  6
CONTINUOUS
 10
98.0726690159
 20
174.4645011538
 40
20.6262428615
100
AcDbArc
 50
359.6130324638
 51
4.5339809633
  0
ARC
  5
30D
100
AcDbEntity
  8
0
100
AcDbCircle
 62
9
  6
CONTINUOUS
 10
98.7472311258
 20
175.248351025
 40
20.0055559175
100
AcDbArc
 50
357.2329811746
 51
2.3359456586
  0
ARC
  5
30E
100
AcDbEntity
  8
0
100
AcDbCircle
 62
9
  6
CONTINUOUS
 10
102.7261450561
 20
210.9522434662
 40
56.2273681747
100
AcDbArc
 50
344.0358314819
 51
355.0298283395
  0
ARC
  5
30F
100
AcDbEntity
  8
0
100
AcDbCircle
 62
7
  6
CONTINUOUS
 10
102.5592836212
 20
214.1001640067
 40
60.0
100
AcDbArc
 50
341.0554712793
 51
360.0
  0
ARC
  5
310
100
AcDbEntity
  8
0
100
AcDbCircle
 62
7
  6
CONTINUOUS
 10
106.1409371211
 20
213.5833550056
 40
56.417811531
100
AcDbArc
 50
346.078296718
 51
347.523922592
  0
ARC
  5
311
100
AcDbEntity
  8
0
100
AcDbCircle
 62
7
  6
CONTINUOUS
 10
106.2986166635
 20
213.5436349607
 40
56.25520729
100
AcDbArc
 50
343.3916216984
 51
346.0789243781
  0
ARC
  5
312
100
AcDbEntity
  8
0
100
AcDbCircle
 62
9
  6
CONTINUOUS
 10
106.6664635268
 20
215.4065654405
 40
52.905942807
100
AcDbArc
 50
349.8473624455
 51
358.5852539617
  0
ARC
  5
313
100
AcDbEntity
  8
0
100
AcDbCircle
 62
9
  6
CONTINUOUS
 10
106.7309543385
 20
215.216535606
 40
51.8577122845
100
AcDbArc
 50
349.9189345116
 51
358.6344785906
  0
ARC
  5
314
100
AcDbEntity
  8
0
100
AcDbCircle
 62
9
  6
CONTINUOUS
 10
132.6254744479
 20
195.2160480099
 40
16.179083448
100
AcDbArc
 50
178.8978988265
 51
179.7280792765
  0
ARC
  5
315
100
AcDbEntity
  8
0
100
AcDbCircle
 62
9
  6
CONTINUOUS
 10
129.5592836212
 20
201.331852955
 40
4.6750000003
100
AcDbArc
 50
180.0000000012
 51
270.0
  0
ARC
  5
316
100
AcDbEntity
  8
0
100
AcDbCircle
 62
7
  6
CONTINUOUS
 10
123.0589291716
 20
198.5814654736
 40
4.2496238603
100
AcDbArc
 50
179.9931321601
 51
269.9964894124
  0
ARC
  5
317
100
AcDbEntity
  8
0
100
AcDbCircle
 62
7
  6
CONTINUOUS
 10
123.0592836213
 20
198.406852955
 40
4.0
100
AcDbArc
 50
180.0000013605
 51
269.9999999991
  0
ARC
  5
318
100
AcDbEntity
  8
0
100
AcDbCircle
 62
7
  6
CONTINUOUS
 10
129.5592836212
 20
201.331852955
 40
3.0
100
AcDbArc
 50
180.0
 51
270.0
  0
ARC
  5
319
100
AcDbEntity
  8
0
100
AcDbCircle
 62
9
  6
CONTINUOUS
 10
129.5592836212
 20
201.331852955
 40
2.5000000395
100
AcDbArc
 50
180.0000103331
 51
269.9999896672
  0
ARC
  5
31A
100
AcDbEntity
  8
0
100
AcDbCircle
 62
9
  6
CONTINUOUS
 10
123.0592836213
 20
198.406852955
 40
2.0000000001
100
AcDbArc
 50
179.9836810318
 51
269.9999999979
  0
ARC
  5
31B
100
AcDbEntity
  8
0
100
AcDbCircle
 62
7
  6
CONTINUOUS
 10
136.5592836212
 20
216.8418529472
 40
120.1200000081
100
AcDbArc
 50
98.3955444781
 51
98.5782091325
  0
ARC
  5
31C
100
AcDbEntity
  8
0
100
AcDbCircle
 62
7
  6
CONTINUOUS
 10
136.5592836212
 20
216.8418529472
 40
120.1200000081
100
AcDbArc
 50
95.6052135974
 51
97.3049098037
  0
ARC
  5
31D
100
AcDbEntity
  8
0
100
AcDbCircle
 62
7
  6
CONTINUOUS
 10
136.5592836212
 20
216.8418529472
 40
120.1200000081
100
AcDbArc
 50
82.6950901963
 51
84.3947864026
  0
ARC
  5
31E
100
AcDbEntity
  8
0
100
AcDbCircle
 62
7
  6
CONTINUOUS
 10
136.5592836212
 20
216.8418529472
 40
120.1200000081
100
AcDbArc
 50
81.4217910082
 51
81.6044555219
  0
ARC
  5
31F
100
AcDbEntity
  8
0
100
AcDbCircle
 62
9
  6
CONTINUOUS
 10
136.5592891832
 20
221.7987730412
 40
112.1820538136
100
AcDbArc
 50
81.044165461
 51
98.9558399915
  0
ARC
  5
320
100
AcDbEntity
  8
0
100
AcDbCircle
 62
9
  6
CONTINUOUS
 10
136.5591937497
 20
222.3260439421
 40
109.3624889031
100
AcDbArc
 50
81.0459804653
 51
98.9536105239
  0
ARC
  5
321
100
AcDbEntity
  8
0
100
AcDbCircle
 62
9
  6
CONTINUOUS
 10
129.5592836212
 20
215.331852955
 40
4.6750000001
100
AcDbArc
 50
90.0000000042
 51
180.0000000033
  0
ARC
  5
322
100
AcDbEntity
  8
0
100
AcDbCircle
 62
9
  6
CONTINUOUS
 10
129.5592836212
 20
231.331852955
 40
4.6750000001
100
AcDbArc
 50
179.9999999967
 51
269.9999999958
  0
ARC
  5
323
100
AcDbEntity
  8
0
100
AcDbCircle
 62
7
  6
CONTINUOUS
 10
129.5592836212
 20
215.331852955
 40
3.0
100
AcDbArc
 50
90.0
 51
180.0
  0
ARC
  5
324
100
AcDbEntity
  8
0
100
AcDbCircle
 62
7
  6
CONTINUOUS
 10
129.5592836212
 20
231.331852955
 40
3.0
100
AcDbArc
 50
180.0
 51
270.0
  0
ARC
  5
325
100
AcDbEntity
  8
0
100
AcDbCircle
 62
9
  6
CONTINUOUS
 10
129.5592836212
 20
215.331852955
 40
2.5000000395
100
AcDbArc
 50
90.0000103331
 51
179.9999896672
  0
ARC
  5
326
100
AcDbEntity
  8
0
100
AcDbCircle
 62
9
  6
CONTINUOUS
 10
129.5592836212
 20
231.331852955
 40
2.5000000395
100
AcDbArc
 50
180.0000103331
 51
269.9999896672
  0
ARC
  5
327
100
AcDbEntity
  8
0
100
AcDbCircle
 62
7
  6
CONTINUOUS
 10
120.0592836212
 20
221.256852955
 40
1.0
100
AcDbArc
 50
90.0
 51
180.0000000229
  0
ARC
  5
328
100
AcDbEntity
  8
0
100
AcDbCircle
 62
7
  6
CONTINUOUS
 10
120.0592836212
 20
225.406852955
 40
1.0
100
AcDbArc
 50
180.0
 51
270.0
  0
ARC
  5
329
100
AcDbEntity
  8
0
100
AcDbCircle
 62
9
  6
CONTINUOUS
 10
-3370.3999304518
 20
488.5454172152
 40
3532.1734455883
100
AcDbArc
 50
356.793029
 51
357.3695922847
  0
ARC
  5
32A
100
AcDbEntity
  8
0
100
AcDbCircle
 62
7
  6
CONTINUOUS
 10
-3348.3840428078
 20
488.1949683607
 40
3511.1533424267
100
AcDbArc
 50
356.7759665095
 51
357.3559894696
  0
ARC
  5
32B
100
AcDbEntity
  8
0
100
AcDbCircle
 62
9
  6
CONTINUOUS
 10
74.7869946473
 20
303.6941837349
 40
110.7216087017
100
AcDbArc
 50
314.9330944328
 51
315.0675302709
  0
ARC
  5
32C
100
AcDbEntity
  8
0
100
AcDbCircle
 62
9
  6
CONTINUOUS
 10
80.8505956397
 20
287.9134120721
 40
36.0683897716
100
AcDbArc
 50
358.1580304533
 51
0.003835969
  0
ARC
  5
32D
100
AcDbEntity
  8
0
100
AcDbCircle
 62
9
  6
CONTINUOUS
 10
81.2994672413
 20
289.2070321452
 40
35.6195072368
100
AcDbArc
 50
359.9842350433
 51
2.7968836906
  0
ARC
  5
32E
100
AcDbEntity
  8
0
100
AcDbCircle
 62
9
  6
CONTINUOUS
 10
88.473709076
 20
287.9138959758
 40
27.4754504718
100
AcDbArc
 50
357.8837201775
 51
0.0040265612
  0
ARC
  5
32F
100
AcDbEntity
  8
0
100
AcDbCircle
 62
9
  6
CONTINUOUS
 10
88.5815946441
 20
289.1992555567
 40
27.3675649107
100
AcDbArc
 50
359.9957623456
 51
3.1992935624
  0
CIRCLE
  5
330
100
AcDbEntity
  8
0
100
AcDbCircle
 62
7
  6
CONTINUOUS
 10
136.5592836212
 20
270.331852955
 40
15.75
  0
CIRCLE
  5
331
100
AcDbEntity
  8
0
100
AcDbCircle
 62
7
  6
CONTINUOUS
 10
136.5592836212
 20
270.331852955
 40
15.1016390571
  0
CIRCLE
  5
332
100
AcDbEntity
  8
0
100
AcDbCircle
 62
9
  6
CONTINUOUS
 10
136.5592836212
 20
270.331852955
 40
13.1016390571
  0
ARC
  5
333
100
AcDbEntity
  8
0
100
AcDbCircle
 62
7
  6
CONTINUOUS
 10
120.0592836218
 20
326.2243670969
 40
9.5000000005
100
AcDbArc
 50
98.5782107736
 51
179.9999999997
  0
ARC
  5
334
100
AcDbEntity
  8
0
100
AcDbCircle
 62
7
  6
CONTINUOUS
 10
129.7592836212
 20
347.651867589
 40
5.0
100
AcDbArc
 50
172.9047398545
 51
179.8855760582
  0
ARC
  5
335
100
AcDbEntity
  8
0
100
AcDbCircle
 62
9
  6
CONTINUOUS
 10
129.5592836212
 20
245.331852955
 40
4.6750000003
100
AcDbArc
 50
90.0
 51
179.9999999988
  0
ARC
  5
336
100
AcDbEntity
  8
0
100
AcDbCircle
 62
7
  6
CONTINUOUS
 10
123.0152954147
 20
248.082239873
 40
4.2496240017
100
AcDbArc
 50
90.0057650835
 51
180.0061235377
  0
ARC
  5
337
100
AcDbEntity
  8
0
100
AcDbCircle
 62
7
  6
CONTINUOUS
 10
122.8967964365
 20
248.3162784682
 40
4.2467938068
100
AcDbArc
 50
90.0313339082
 51
179.9579013319
  0
ARC
  5
338
100
AcDbEntity
  8
0
100
AcDbCircle
 62
7
  6
CONTINUOUS
 10
123.0592836211
 20
248.2568529551
 40
3.9999999998
100
AcDbArc
 50
89.999999998
 51
180.0000000017
  0
ARC
  5
339
100
AcDbEntity
  8
0
100
AcDbCircle
 62
7
  6
CONTINUOUS
 10
129.5592836212
 20
245.331852955
 40
3.0
100
AcDbArc
 50
90.0
 51
180.0
  0
ARC
  5
33A
100
AcDbEntity
  8
0
100
AcDbCircle
 62
7
  6
CONTINUOUS
 10
116.5592836212
 20
338.605301962
 40
3.0
100
AcDbArc
 50
329.9999999998
 51
360.0
  0
ARC
  5
33B
100
AcDbEntity
  8
0
100
AcDbCircle
 62
9
  6
CONTINUOUS
 10
129.5592836212
 20
245.331852955
 40
2.5000000395
100
AcDbArc
 50
90.0000103331
 51
179.9999896672
  0
ARC
  5
33C
100
AcDbEntity
  8
0
100
AcDbCircle
 62
9
  6
CONTINUOUS
 10
123.0592836213
 20
248.2568529549
 40
1.9999999996
100
AcDbArc
 50
89.9999999936
 51
180.0000000909
  0
ARC
  5
33D
100
AcDbEntity
  8
0
100
AcDbCircle
 62
7
  6
CONTINUOUS
 10
130.9092836212
 20
392.311852955
 40
1.5
100
AcDbArc
 50
90.0000000141
 51
270.0
  0
ARC
  5
33E
100
AcDbEntity
  8
0
100
AcDbCircle
 62
7
  6
CONTINUOUS
 10
129.8092836212
 20
383.811852955
 40
1.5
100
AcDbArc
 50
90.0
 51
270.0
  0
ARC
  5
33F
100
AcDbEntity
  8
0
100
AcDbCircle
 62
7
  6
CONTINUOUS
 10
128.9092836212
 20
375.311852955
 40
1.5
100
AcDbArc
 50
90.0000000141
 51
270.0
  0
ARC
  5
340
100
AcDbEntity
  8
0
100
AcDbCircle
 62
7
  6
CONTINUOUS
 10
127.9092836212
 20
366.811852955
 40
1.5
100
AcDbArc
 50
90.0000000141
 51
270.0
  0
ARC
  5
341
100
AcDbEntity
  8
0
100
AcDbCircle
 62
9
  6
CONTINUOUS
 10
8334.3819811262
 20
-15.658679928
 40
8223.0443157577
100
AcDbArc
 50
177.8924007102
 51
178.3997313131
  0
ARC
  5
342
100
AcDbEntity
  8
0
100
AcDbCircle
 62
7
  6
CONTINUOUS
 10
8258.8643603294
 20
-14.4405504222
 40
8148.507769055
100
AcDbArc
 50
177.8806623922
 51
178.3928167119
  0
ARC
  5
343
100
AcDbEntity
  8
0
100
AcDbCircle
 62
9
  6
CONTINUOUS
 10
921.1132036682
 20
202.885455208
 40
802.4311488197
100
AcDbArc
 50
180.0926497048
 51
180.3350805041
  0
ARC
  5
344
100
AcDbEntity
  8
0
100
AcDbCircle
 62
9
  6
CONTINUOUS
 10
833.3152961721
 20
205.9926134889
 40
714.6620954755
100
AcDbArc
 50
180.6253947789
 51
180.8218066116
  0
ARC
  5
345
100
AcDbEntity
  8
0
100
AcDbCircle
 62
9
  6
CONTINUOUS
 10
816.0940257194
 20
204.8135553863
 40
698.3744279813
100
AcDbArc
 50
180.6548160101
 51
180.8261220748
  0
ARC
  5
346
100
AcDbEntity
  8
0
100
AcDbCircle
 62
9
  6
CONTINUOUS
 10
198.3315725894
 20
142.9695221809
 40
110.7216086935
100
AcDbArc
 50
134.9330944328
 51
135.0675302709
  0
ARC
  5
347
100
AcDbEntity
  8
0
100
AcDbCircle
 62
9
  6
CONTINUOUS
 10
217.2780929725
 20
178.1749062728
 40
62.9218230247
100
AcDbArc
 50
164.0293745485
 51
164.4504019282
  0
ARC
  5
348
100
AcDbEntity
  8
0
100
AcDbCircle
 62
7
  6
CONTINUOUS
 10
216.0592836212
 20
175.141852955
 40
60.0
100
AcDbArc
 50
161.0554712793
 51
179.9999999993
  0
ARC
  5
349
100
AcDbEntity
  8
0
100
AcDbCircle
 62
7
  6
CONTINUOUS
 10
170.5592836212
 20
214.1001640067
 40
60.0
100
AcDbArc
 50
180.0
 51
198.9445287207
  0
ARC
  5
34A
100
AcDbEntity
  8
0
100
AcDbCircle
 62
7
  6
CONTINUOUS
 10
166.9776571803
 20
213.583360666
 40
56.4178391791
100
AcDbArc
 50
192.4782211757
 51
193.9184671938
  0
ARC
  5
34B
100
AcDbEntity
  8
0
100
AcDbCircle
 62
7
  6
CONTINUOUS
 10
166.8201093592
 20
213.5436794015
 40
56.2553721553
100
AcDbArc
 50
193.9178362492
 51
196.6083231675
  0
ARC
  5
34C
100
AcDbEntity
  8
0
100
AcDbCircle
 62
9
  6
CONTINUOUS
 10
166.4426023583
 20
215.4056026743
 40
52.8964205509
100
AcDbArc
 50
181.4139631895
 51
190.1534251295
  0
ARC
  5
34D
100
AcDbEntity
  8
0
100
AcDbCircle
 62
7
  6
CONTINUOUS
 10
166.2976580114
 20
215.2081483063
 40
51.7674275621
100
AcDbArc
 50
181.3586138417
 51
190.0920229833
  0
ARC
  5
34E
100
AcDbEntity
  8
0
100
AcDbCircle
 62
9
  6
CONTINUOUS
 10
175.0458982249
 20
174.464501153
 40
20.6262428598
100
AcDbArc
 50
175.4660190339
 51
180.3869675338
  0
ARC
  5
34F
100
AcDbEntity
  8
0
100
AcDbCircle
 62
9
  6
CONTINUOUS
 10
174.3713361288
 20
175.2483510307
 40
20.0055559302
100
AcDbArc
 50
177.6640543305
 51
182.7670188416
  0
ARC
  5
350
100
AcDbEntity
  8
0
100
AcDbCircle
 62
9
  6
CONTINUOUS
 10
138.29288732
 20
195.188630432
 40
18.379402104
100
AcDbArc
 50
0.3248407159
 51
1.0555568566
  0
ARC
  5
351
100
AcDbEntity
  8
0
100
AcDbCircle
 62
7
  6
CONTINUOUS
 10
151.0592836212
 20
105.291852955
 40
5.0000000001
100
AcDbArc
 50
270.0
 51
360.0
  0
ARC
  5
352
100
AcDbEntity
  8
0
100
AcDbCircle
 62
9
  6
CONTINUOUS
 10
143.5592836212
 20
201.331852955
 40
4.6750000003
100
AcDbArc
 50
270.0
 51
359.9999999988
  0
ARC
  5
353
100
AcDbEntity
  8
0
100
AcDbCircle
 62
9
  6
CONTINUOUS
 10
143.5592836212
 20
215.331852955
 40
4.6750000001
100
AcDbArc
 50
0.0
 51
89.9999999958
  0
ARC
  5
354
100
AcDbEntity
  8
0
100
AcDbCircle
 62
9
  6
CONTINUOUS
 10
143.5592836212
 20
231.331852955
 40
4.6750000001
100
AcDbArc
 50
270.0000000042
 51
360.0
  0
ARC
  5
355
100
AcDbEntity
  8
0
100
AcDbCircle
 62
7
  6
CONTINUOUS
 10
150.0596382566
 20
198.5814652972
 40
4.2496239868
100
AcDbArc
 50
270.003156065
 51
0.0078435106
  0
ARC
  5
356
100
AcDbEntity
  8
0
100
AcDbCircle
 62
7
  6
CONTINUOUS
 10
150.0592836214
 20
198.4068529549
 40
3.9999999998
100
AcDbArc
 50
269.999999998
 51
360.0
  0
ARC
  5
357
100
AcDbEntity
  8
0
100
AcDbCircle
 62
7
  6
CONTINUOUS
 10
143.5592836212
 20
215.331852955
 40
3.0
100
AcDbArc
 50
0.0
 51
90.0
  0
ARC
  5
358
100
AcDbEntity
  8
0
100
AcDbCircle
 62
7
  6
CONTINUOUS
 10
143.5592836212
 20
201.331852955
 40
3.0
100
AcDbArc
 50
270.0
 51
360.0
  0
ARC
  5
359
100
AcDbEntity
  8
0
100
AcDbCircle
 62
7
  6
CONTINUOUS
 10
143.5592836212
 20
231.331852955
 40
3.0
100
AcDbArc
 50
270.0
 51
360.0
  0
ARC
  5
35A
100
AcDbEntity
  8
0
100
AcDbCircle
 62
9
  6
CONTINUOUS
 10
143.5592836212
 20
215.331852955
 40
2.5000000395
100
AcDbArc
 50
0.0000103331
 51
89.9999896672
  0
ARC
  5
35B
100
AcDbEntity
  8
0
100
AcDbCircle
 62
9
  6
CONTINUOUS
 10
143.5592836212
 20
201.331852955
 40
2.5000000395
100
AcDbArc
 50
270.0000103331
 51
359.9999896672
  0
ARC
  5
35C
100
AcDbEntity
  8
0
100
AcDbCircle
 62
9
  6
CONTINUOUS
 10
143.5592836212
 20
231.331852955
 40
2.5000000395
100
AcDbArc
 50
270.0000103331
 51
359.9999896672
  0
ARC
  5
35D
100
AcDbEntity
  8
0
100
AcDbCircle
 62
9
  6
CONTINUOUS
 10
150.0592836212
 20
198.4068529551
 40
1.9999999996
100
AcDbArc
 50
269.9999999936
 51
0.0000000909
  0
ARC
  5
35E
100
AcDbEntity
  8
0
100
AcDbCircle
 62
7
  6
CONTINUOUS
 10
153.0592836212
 20
221.256852955
 40
1.0
100
AcDbArc
 50
0.0
 51
90.0
  0
ARC
  5
35F
100
AcDbEntity
  8
0
100
AcDbCircle
 62
7
  6
CONTINUOUS
 10
153.0592836212
 20
225.406852955
 40
1.0
100
AcDbArc
 50
270.0
 51
360.0
  0
ARC
  5
360
100
AcDbEntity
  8
0
100
AcDbCircle
 62
9
  6
CONTINUOUS
 10
3637.7246044389
 20
488.2500164484
 40
3526.3721002912
100
AcDbArc
 50
182.6299334501
 51
183.2074452652
  0
ARC
  5
361
100
AcDbEntity
  8
0
100
AcDbCircle
 62
9
  6
CONTINUOUS
 10
3618.4074658024
 20
488.0364841205
 40
3508.0541811929
100
AcDbArc
 50
182.6437567665
 51
183.2242921379
  0
ARC
  5
362
100
AcDbEntity
  8
0
100
AcDbCircle
 62
9
  6
CONTINUOUS
 10
198.2295181875
 20
303.5921852528
 40
110.57732157
100
AcDbArc
 50
224.9322209965
 51
225.0625783254
  0
ARC
  5
363
100
AcDbEntity
  8
0
100
AcDbCircle
 62
9
  6
CONTINUOUS
 10
192.2680883643
 20
287.9134139483
 40
36.0685088586
100
AcDbArc
 50
179.9961670242
 51
181.8419665615
  0
ARC
  5
364
100
AcDbEntity
  8
0
100
AcDbCircle
 62
9
  6
CONTINUOUS
 10
192.194949509
 20
289.1979085132
 40
35.9953699303
100
AcDbArc
 50
177.2178034427
 51
180.0010777601
  0
ARC
  5
365
100
AcDbEntity
  8
0
100
AcDbCircle
 62
9
  6
CONTINUOUS
 10
184.6448053771
 20
287.9137664277
 40
27.4753974014
100
AcDbArc
 50
179.9957032774
 51
182.1160192723
  0
ARC
  5
366
100
AcDbEntity
  8
0
100
AcDbCircle
 62
9
  6
CONTINUOUS
 10
184.3114579337
 20
289.2055715142
 40
27.1420531061
100
AcDbArc
 50
176.7874446247
 51
180.0176055954
  0
ARC
  5
367
100
AcDbEntity
  8
0
100
AcDbCircle
 62
7
  6
CONTINUOUS
 10
137.9217771604
 20
341.2422301787
 40
21.5346625604
100
AcDbArc
 50
74.2786954095
 51
74.5106238407
  0
ARC
  5
368
100
AcDbEntity
  8
0
100
AcDbCircle
 62
7
  6
CONTINUOUS
 10
153.0592836207
 20
326.2243670969
 40
9.5000000005
100
AcDbArc
 50
0.0000000003
 51
81.421791005
  0
ARC
  5
369
100
AcDbEntity
  8
0
100
AcDbCircle
 62
7
  6
CONTINUOUS
 10
143.3592836212
 20
347.651867589
 40
5.0
100
AcDbArc
 50
0.1144239418
 51
7.0952601455
  0
ARC
  5
36A
100
AcDbEntity
  8
0
100
AcDbCircle
 62
9
  6
CONTINUOUS
 10
143.5592836212
 20
245.331852955
 40
4.6750000003
100
AcDbArc
 50
0.0000000012
 51
90.0
  0
ARC
  5
36B
100
AcDbEntity
  8
0
100
AcDbCircle
 62
7
  6
CONTINUOUS
 10
150.1032727178
 20
248.0822407462
 40
4.2496238535
100
AcDbArc
 50
359.9934190255
 51
89.9966234447
  0
ARC
  5
36C
100
AcDbEntity
  8
0
100
AcDbCircle
 62
7
  6
CONTINUOUS
 10
150.2217606186
 20
248.3163679278
 40
4.2467544923
100
AcDbArc
 50
0.0200070869
 51
89.9475503236
  0
ARC
  5
36D
100
AcDbEntity
  8
0
100
AcDbCircle
 62
7
  6
CONTINUOUS
 10
150.0592836212
 20
248.256852955
 40
4.0
100
AcDbArc
 50
0.0000013605
 51
89.9999999991
  0
ARC
  5
36E
100
AcDbEntity
  8
0
100
AcDbCircle
 62
7
  6
CONTINUOUS
 10
143.5592836212
 20
245.331852955
 40
3.0
100
AcDbArc
 50
0.0
 51
90.0
  0
ARC
  5
36F
100
AcDbEntity
  8
0
100
AcDbCircle
 62
7
  6
CONTINUOUS
 10
156.5592836212
 20
338.605301962
 40
3.0
100
AcDbArc
 50
180.0
 51
210.0
  0
ARC
  5
370
100
AcDbEntity
  8
0
100
AcDbCircle
 62
9
  6
CONTINUOUS
 10
143.5592836212
 20
245.331852955
 40
2.5000000395
100
AcDbArc
 50
0.0000103331
 51
89.9999896672
  0
ARC
  5
371
100
AcDbEntity
  8
0
100
AcDbCircle
 62
9
  6
CONTINUOUS
 10
150.0592836212
 20
248.2568529549
 40
2.0000000001
100
AcDbArc
 50
359.9836810318
 51
89.9999999979
  0
ARC
  5
372
100
AcDbEntity
  8
0
100
AcDbCircle
 62
7
  6
CONTINUOUS
 10
142.2092836212
 20
392.311852955
 40
1.5
100
AcDbArc
 50
270.0
 51
90.0000000277
  0
ARC
  5
373
100
AcDbEntity
  8
0
100
AcDbCircle
 62
7
  6
CONTINUOUS
 10
143.3092836212
 20
383.811852955
 40
1.5
100
AcDbArc
 50
270.0
 51
90.0
  0
ARC
  5
374
100
AcDbEntity
  8
0
100
AcDbCircle
 62
7
  6
CONTINUOUS
 10
144.2092836212
 20
375.311852955
 40
1.5
100
AcDbArc
 50
270.0
 51
89.9999999894
  0
ARC
  5
375
100
AcDbEntity
  8
0
100
AcDbCircle
 62
7
  6
CONTINUOUS
 10
145.2092836212
 20
366.811852955
 40
1.5
100
AcDbArc
 50
270.0
 51
90.0000000004
  0
SPLINE
  5
376
100
AcDbEntity
  8
0
100
AcDbSpline
 62
9
  6
CONTINUOUS
 70
0
 71
3
 72
20
 73
16
 74
0
 42
0.0000001
 43
0.0000001
 44
0.0000000001
 40
0.0
 40
0.0
 40
0.0
 40
0.0
 40
0.0025103922
 40
0.0069611185
 40
0.0221127534
 40
0.0458295688
 40
0.0782688532
 40
0.1195214261
 40
0.1692548424
 40
0.2269049854
 40
0.2919056578
 40
0.4416384796
 40
0.613326927
 40
0.8014977606
 40
1.0
 40
1.0
 40
1.0
 40
1.0
 10
121.0592836212
 20
222.256852955
 30
0.0
 10
121.0582179856
 20
222.256852955
 30
0.0
 10
121.0554387179
 20
222.2554445747
 30
0.0
 10
121.0478401347
 20
222.2501565266
 30
0.0
 10
121.03400825
 20
222.2377936544
 30
0.0
 10
121.0119665492
 20
222.217173686
 30
0.0
 10
120.9821316562
 20
222.1884902256
 30
0.0
 10
120.9442992765
 20
222.1522659121
 30
0.0
 10
120.8987358473
 20
222.1086134524
 30
0.0
 10
120.8459808833
 20
222.0579054533
 30
0.0
 10
120.7628220748
 20
221.9775702741
 30
0.0
 10
120.6454834859
 20
221.8629471145
 30
0.0
 10
120.4914683089
 20
221.711051088
 30
0.0
 10
120.3231270492
 20
221.5442004084
 30
0.0
 10
120.2067793818
 20
221.4284213235
 30
0.0
 10
120.1471164596
 20
221.3689196676
 30
0.0
  0
LINE
  5
377
100
AcDbEntity
  8
0
100
AcDbLine
 62
9
  6
CONTINUOUS
 10
120.1471164596
 20
221.3689196676
 11
120.1310489414
 21
221.352892438
  0
SPLINE
  5
378
100
AcDbEntity
  8
0
100
AcDbSpline
 62
9
  6
CONTINUOUS
 70
0
 71
3
 72
22
 73
18
 74
0
 42
0.0000001
 43
0.0000001
 44
0.0000000001
 40
0.0
 40
0.0
 40
0.0
 40
0.0
 40
0.1985203382
 40
0.3867893587
 40
0.5585786109
 40
0.7081299101
 40
0.7729301196
 40
0.8304449042
 40
0.8802336721
 40
0.9218574435
 40
0.954930182
 40
0.9681680258
 40
0.9791597961
 40
0.9878704977
 40
0.9942658243
 40
0.9983139391
 40
1.0
 40
1.0
 40
1.0
 40
1.0
 10
119.947349706
 20
221.1691911997
 30
0.0
 10
119.8878347457
 20
221.1095345093
 30
0.0
 10
119.7720107514
 20
220.9931692675
 30
0.0
 10
119.6051718454
 20
220.8246970698
 30
0.0
 10
119.4533962936
 20
220.6705627477
 30
0.0
 10
119.3387260189
 20
220.5534453066
 30
0.0
 10
119.2582500865
 20
220.4707348713
 30
0.0
 10
119.2074732051
 20
220.418212861
 30
0.0
 10
119.1637413629
 20
220.3725623446
 30
0.0
 10
119.1274681802
 20
220.3341409879
 30
0.0
 10
119.1021251749
 20
220.3067268708
 30
0.0
 10
119.0858350472
 20
220.2886771932
 30
0.0
 10
119.0765181079
 20
220.2782224189
 30
0.0
 10
119.069355172
 20
220.26984376
 30
0.0
 10
119.0639161467
 20
220.2636269445
 30
0.0
 10
119.0611502265
 20
220.2595434074
 30
0.0
 10
119.0592836214
 20
220.2575686477
 30
0.0
 10
119.0592836212
 20
220.2568529551
 30
0.0
  0
SPLINE
  5
379
100
AcDbEntity
  8
0
100
AcDbSpline
 62
9
  6
CONTINUOUS
 70
0
 71
3
 72
22
 73
18
 74
0
 42
0.0000001
 43
0.0000001
 44
0.0000000001
 40
0.0
 40
0.0
 40
0.0
 40
0.0
 40
0.0016855622
 40
0.0057296967
 40
0.0121178386
 40
0.0208183579
 40
0.0317971415
 40
0.0450193834
 40
0.0780538169
 40
0.1196317363
 40
0.1693708908
 40
0.2268347207
 40
0.2915849513
 40
0.4410583218
 40
0.6128436383
 40
0.8012176515
 40
1.0
 40
1.0
 40
1.0
 40
1.0
 10
154.0592836212
 20
220.2568529552
 30
0.0
 10
154.0592836207
 20
220.2575640966
 30
0.0
 10
154.0574321315
 20
220.2595266501
 30
0.0
 10
154.0546856464
 20
220.2635820015
 30
0.0
 10
154.0492877383
 20
220.2697557024
 30
0.0
 10
154.042177856
 20
220.2780751454
 30
0.0
 10
154.0329302535
 20
220.2884559417
 30
0.0
 10
154.0167607562
 20
220.3063778765
 30
0.0
 10
153.9916045566
 20
220.3335989763
 30
0.0
 10
153.9555963945
 20
220.3717522123
 30
0.0
 10
153.9121779006
 20
220.4170864058
 30
0.0
 10
153.8617581539
 20
220.4692490648
 30
0.0
 10
153.7818290075
 20
220.5514096874
 30
0.0
 10
153.6678990698
 20
220.6677828882
 30
0.0
 10
153.5170464034
 20
220.820998402
 30
0.0
 10
153.3511229839
 20
220.9885689346
 30
0.0
 10
153.2358999829
 20
221.1043458778
 30
0.0
 10
153.1766721344
 20
221.163723223
 30
0.0
  0
LINE
  5
37A
100
AcDbEntity
  8
0
100
AcDbLine
 62
9
  6
CONTINUOUS
 10
153.1766721344
 20
221.163723223
 11
153.1714643923
 21
221.1689437551
  0
LINE
  5
37B
100
AcDbEntity
  8
0
100
AcDbLine
 62
9
  6
CONTINUOUS
 10
152.9935774444
 20
221.3468468505
 11
152.9713962642
 21
221.3689740389
  0
SPLINE
  5
37C
100
AcDbEntity
  8
0
100
AcDbSpline
 62
9
  6
CONTINUOUS
 70
0
 71
3
 72
20
 73
16
 74
0
 42
0.0000001
 43
0.0000001
 44
0.0000000001
 40
0.0
 40
0.0
 40
0.0
 40
0.0
 40
0.1985048458
 40
0.3866767019
 40
0.5583651345
 40
0.7080972479
 40
0.7730974246
 40
0.8307470304
 40
0.8804798974
 40
0.9217319425
 40
0.9541708163
 40
0.977887364
 40
0.9930388697
 40
0.9974895838
 40
1.0
 40
1.0
 40
1.0
 40
1.0
 10
152.9713962642
 20
221.3689740389
 30
0.0
 10
152.9117361264
 20
221.428472839
 30
0.0
 10
152.7953943327
 20
221.5442459411
 30
0.0
 10
152.6270620797
 20
221.7110875302
 30
0.0
 10
152.4730560186
 20
221.8629743555
 30
0.0
 10
152.3557247581
 20
221.977590084
 30
0.0
 10
152.2725714402
 20
222.0579198212
 30
0.0
 10
152.2198201248
 20
222.1086242629
 30
0.0
 10
152.1742599331
 20
222.1522735963
 30
0.0
 10
152.1364303103
 20
222.1884952982
 30
0.0
 10
152.1065975761
 20
222.2171766516
 30
0.0
 10
152.0845574141
 20
222.2377951002
 30
0.0
 10
152.0707264464
 20
222.2501570414
 30
0.0
 10
152.0631283195
 20
222.2554446976
 30
0.0
 10
152.0603492027
 20
222.256852955
 30
0.0
 10
152.0592836213
 20
222.256852955
 30
0.0
  0
SPLINE
  5
37D
100
AcDbEntity
  8
0
100
AcDbSpline
 62
9
  6
CONTINUOUS
 70
0
 71
3
 72
20
 73
16
 74
0
 42
0.0000001
 43
0.0000001
 44
0.0000000001
 40
0.0
 40
0.0
 40
0.0
 40
0.0
 40
0.0025103922
 40
0.0069611185
 40
0.0221127534
 40
0.0458295688
 40
0.0782688532
 40
0.1195214261
 40
0.1692548424
 40
0.2269049854
 40
0.2919056578
 40
0.4416384796
 40
0.613326927
 40
0.8014977606
 40
1.0
 40
1.0
 40
1.0
 40
1.0
 10
152.0592836212
 20
224.406852955
 30
0.0
 10
152.0603492569
 20
224.406852955
 30
0.0
 10
152.0631285246
 20
224.4082613352
 30
0.0
 10
152.0707271078
 20
224.4135493834
 30
0.0
 10
152.0845589925
 20
224.4259122556
 30
0.0
 10
152.1066006932
 20
224.4465322239
 30
0.0
 10
152.1364355863
 20
224.4752156844
 30
0.0
 10
152.1742679659
 20
224.5114399979
 30
0.0
 10
152.2198313952
 20
224.5550924576
 30
0.0
 10
152.2725863592
 20
224.6058004566
 30
0.0
 10
152.3557451677
 20
224.6861356359
 30
0.0
 10
152.4730837565
 20
224.8007587955
 30
0.0
 10
152.6270989335
 20
224.9526548219
 30
0.0
 10
152.7954401933
 20
225.1195055015
 30
0.0
 10
152.9117878607
 20
225.2352845865
 30
0.0
 10
152.9714507829
 20
225.2947862424
 30
0.0
  0
LINE
  5
37E
100
AcDbEntity
  8
0
100
AcDbLine
 62
9
  6
CONTINUOUS
 10
152.9714507829
 20
225.2947862424
 11
152.9875183011
 21
225.310813472
  0
SPLINE
  5
37F
100
AcDbEntity
  8
0
100
AcDbSpline
 62
9
  6
CONTINUOUS
 70
0
 71
3
 72
22
 73
18
 74
0
 42
0.0000001
 43
0.0000001
 44
0.0000000001
 40
0.0
 40
0.0
 40
0.0
 40
0.0
 40
0.1985203382
 40
0.3867893587
 40
0.5585786109
 40
0.7081299101
 40
0.7729301196
 40
0.8304449042
 40
0.8802336721
 40
0.9218574435
 40
0.954930182
 40
0.9681680258
 40
0.9791597961
 40
0.9878704977
 40
0.9942658243
 40
0.9983139391
 40
1.0
 40
1.0
 40
1.0
 40
1.0
 10
153.1712175365
 20
225.4945147103
 30
0.0
 10
153.2307324968
 20
225.5541714007
 30
0.0
 10
153.3465564911
 20
225.6705366425
 30
0.0
 10
153.5133953971
 20
225.8390088402
 30
0.0
 10
153.6651709488
 20
225.9931431623
 30
0.0
 10
153.7798412236
 20
226.1102606034
 30
0.0
 10
153.8603171559
 20
226.1929710387
 30
0.0
 10
153.9110940374
 20
226.2454930489
 30
0.0
 10
153.9548258796
 20
226.2911435654
 30
0.0
 10
153.9910990622
 20
226.3295649221
 30
0.0
 10
154.0164420676
 20
226.3569790392
 30
0.0
 10
154.0327321953
 20
226.3750287167
 30
0.0
 10
154.0420491345
 20
226.3854834911
 30
0.0
 10
154.0492120704
 20
226.39386215
 30
0.0
 10
154.0546510957
 20
226.4000789654
 30
0.0
 10
154.057417016
 20
226.4041625025
 30
0.0
 10
154.059283621
 20
226.4061372623
 30
0.0
 10
154.0592836213
 20
226.4068529549
 30
0.0
  0
SPLINE
  5
380
100
AcDbEntity
  8
0
100
AcDbSpline
 62
9
  6
CONTINUOUS
 70
0
 71
3
 72
22
 73
18
 74
0
 42
0.0000001
 43
0.0000001
 44
0.0000000001
 40
0.0
 40
0.0
 40
0.0
 40
0.0
 40
0.0016855622
 40
0.0057296967
 40
0.0121178386
 40
0.0208183579
 40
0.0317971415
 40
0.0450193834
 40
0.0780538169
 40
0.1196317363
 40
0.1693708908
 40
0.2268347207
 40
0.2915849513
 40
0.4410583218
 40
0.6128436383
 40
0.8012176515
 40
1.0
 40
1.0
 40
1.0
 40
1.0
 10
119.0592836213
 20
226.4068529548
 30
0.0
 10
119.0592836218
 20
226.4061418133
 30
0.0
 10
119.0611351109
 20
226.4041792599
 30
0.0
 10
119.063881596
 20
226.4001239085
 30
0.0
 10
119.0692795042
 20
226.3939502076
 30
0.0
 10
119.0763893865
 20
226.3856307646
 30
0.0
 10
119.085636989
 20
226.3752499683
 30
0.0
 10
119.1018064862
 20
226.3573280335
 30
0.0
 10
119.1269626858
 20
226.3301069336
 30
0.0
 10
119.162970848
 20
226.2919536976
 30
0.0
 10
119.2063893419
 20
226.2466195042
 30
0.0
 10
119.2568090886
 20
226.1944568452
 30
0.0
 10
119.336738235
 20
226.1122962225
 30
0.0
 10
119.4506681726
 20
225.9959230218
 30
0.0
 10
119.601520839
 20
225.842707508
 30
0.0
 10
119.7674442586
 20
225.6751369754
 30
0.0
 10
119.8826672596
 20
225.5593600322
 30
0.0
 10
119.941895108
 20
225.499982687
 30
0.0
  0
LINE
  5
381
100
AcDbEntity
  8
0
100
AcDbLine
 62
9
  6
CONTINUOUS
 10
119.941895108
 20
225.499982687
 11
119.9471028501
 21
225.4947621548
  0
LINE
  5
382
100
AcDbEntity
  8
0
100
AcDbLine
 62
9
  6
CONTINUOUS
 10
120.1249897981
 20
225.3168590595
 11
120.1471709783
 21
225.2947318711
  0
SPLINE
  5
383
100
AcDbEntity
  8
0
100
AcDbSpline
 62
9
  6
CONTINUOUS
 70
0
 71
3
 72
20
 73
16
 74
0
 42
0.0000001
 43
0.0000001
 44
0.0000000001
 40
0.0
 40
0.0
 40
0.0
 40
0.0
 40
0.1985048458
 40
0.3866767019
 40
0.5583651345
 40
0.7080972479
 40
0.7730974246
 40
0.8307470304
 40
0.8804798974
 40
0.9217319425
 40
0.9541708163
 40
0.977887364
 40
0.9930388697
 40
0.9974895838
 40
1.0
 40
1.0
 40
1.0
 40
1.0
 10
120.1471709783
 20
225.2947318711
 30
0.0
 10
120.2068311161
 20
225.235233071
 30
0.0
 10
120.3231729098
 20
225.1194599689
 30
0.0
 10
120.4915051628
 20
224.9526183798
 30
0.0
 10
120.6455112238
 20
224.8007315545
 30
0.0
 10
120.7628424843
 20
224.686115826
 30
0.0
 10
120.8459958023
 20
224.6057860888
 30
0.0
 10
120.8987471177
 20
224.5550816471
 30
0.0
 10
120.9443073093
 20
224.5114323136
 30
0.0
 10
120.9821369321
 20
224.4752106118
 30
0.0
 10
121.0119696664
 20
224.4465292584
 30
0.0
 10
121.0340098284
 20
224.4259108098
 30
0.0
 10
121.0478407961
 20
224.4135488685
 30
0.0
 10
121.0554389229
 20
224.4082612124
 30
0.0
 10
121.0582180398
 20
224.406852955
 30
0.0
 10
121.0592836212
 20
224.406852955
 30
0.0
  0
SPLINE
  5
384
100
AcDbEntity
  8
0
100
AcDbSpline
 62
7
  6
CONTINUOUS
 70
0
 71
3
 72
15
 73
11
 74
0
 42
0.0000001
 43
0.0000001
 44
0.0000000001
 40
0.0
 40
0.0
 40
0.0
 40
0.0
 40
0.0712112393
 40
0.1524329234
 40
0.2494420881
 40
0.3651716183
 40
0.4995703464
 40
0.6514617207
 40
0.819005107
 40
1.0
 40
1.0
 40
1.0
 40
1.0
 10
150.5592836212
 20
356.661852955
 30
0.0
 10
150.5592836212
 20
356.8784572838
 30
0.0
 10
150.4936983553
 20
357.3440069115
 30
0.0
 10
150.1941184435
 20
358.0487957548
 30
0.0
 10
149.6694668503
 20
358.7801518505
 30
0.0
 10
148.9081428621
 20
359.5183265994
 30
0.0
 10
147.9123915747
 20
360.2342783498
 30
0.0
 10
146.7003837401
 20
360.900896699
 30
0.0
 10
145.2968758652
 20
361.4957341906
 30
0.0
 10
144.2867142425
 20
361.8221301877
 30
0.0
 10
143.7567746567
 20
361.971303863
 30
0.0
  0
SPLINE
  5
385
100
AcDbEntity
  8
0
100
AcDbSpline
 62
7
  6
CONTINUOUS
 70
0
 71
3
 72
11
 73
7
 74
0
 42
0.0000001
 43
0.0000001
 44
0.0000000001
 40
0.0
 40
0.0
 40
0.0
 40
0.0
 40
0.2432320439
 40
0.4999906924
 40
0.7567540793
 40
1.0
 40
1.0
 40
1.0
 40
1.0
 10
143.6728175577
 20
361.9947535419
 30
0.0
 10
142.5496899659
 20
362.3060037951
 30
0.0
 10
140.1884091098
 20
362.7633863071
 30
0.0
 10
136.5604182802
 20
362.9880093588
 30
0.0
 10
132.9323467214
 20
362.7636540637
 30
0.0
 10
130.5709360678
 20
362.3064719328
 30
0.0
 10
129.4477180342
 20
361.995299075
 30
0.0
  0
SPLINE
  5
386
100
AcDbEntity
  8
0
100
AcDbSpline
 62
7
  6
CONTINUOUS
 70
0
 71
3
 72
15
 73
11
 74
0
 42
0.0000001
 43
0.0000001
 44
0.0000000001
 40
0.0
 40
0.0
 40
0.0
 40
0.0
 40
0.1810081454
 40
0.3486282844
 40
0.5006258929
 40
0.6351256428
 40
0.7509143082
 40
0.8479025411
 40
0.9289973082
 40
1.0
 40
1.0
 40
1.0
 40
1.0
 10
129.4477180342
 20
361.995299075
 30
0.0
 10
128.9119485932
 20
361.8468711625
 30
0.0
 10
127.8903243917
 20
361.5213700725
 30
0.0
 10
126.4701437414
 20
360.9262237358
 30
0.0
 10
125.2428432443
 20
360.2576005834
 30
0.0
 10
124.2338379469
 20
359.5381790217
 30
0.0
 10
123.46192701
 20
358.7954282314
 30
0.0
 10
122.9297670605
 20
358.0589469035
 30
0.0
 10
122.6258440668
 20
357.349006528
 30
0.0
 10
122.5592836212
 20
356.8799310091
 30
0.0
 10
122.5592836212
 20
356.661852955
 30
0.0
  0
SPLINE
  5
387
100
AcDbEntity
  8
0
100
AcDbSpline
 62
7
  6
CONTINUOUS
 70
0
 71
3
 72
9
 73
5
 74
0
 42
0.0000001
 43
0.0000001
 44
0.0000000001
 40
0.0
 40
0.0
 40
0.0
 40
0.0
 40
0.4900925242
 40
1.0
 40
1.0
 40
1.0
 40
1.0
 10
121.5899250169
 20
336.0242362293
 30
0.0
 10
121.6038163113
 20
336.4457107889
 30
0.0
 10
121.6202405904
 20
337.3060895146
 30
0.0
 10
121.6237997503
 20
338.1665486356
 30
0.0
 10
121.6237997503
 20
338.605301962
 30
0.0
  0
SPLINE
  5
388
100
AcDbEntity
  8
0
100
AcDbSpline
 62
7
  6
CONTINUOUS
 70
0
 71
3
 72
9
 73
5
 74
0
 42
0.0000001
 43
0.0000001
 44
0.0000000001
 40
0.0
 40
0.0
 40
0.0
 40
0.0
 40
0.509907409
 40
1.0
 40
1.0
 40
1.0
 40
1.0
 10
151.4947674922
 20
338.605301962
 30
0.0
 10
151.4947674922
 20
338.166549119
 30
0.0
 10
151.4983266598
 20
337.3060908338
 30
0.0
 10
151.5147508528
 20
336.4457129416
 30
0.0
 10
151.5286421429
 20
336.0242387339
 30
0.0
  0
SPLINE
  5
389
100
AcDbEntity
  8
0
100
AcDbSpline
 62
7
  6
CONTINUOUS
 70
0
 71
3
 72
29
 73
25
 74
0
 42
0.0000001
 43
0.0000001
 44
0.0000000001
 40
0.0
 40
0.0
 40
0.0
 40
0.0
 40
0.0241111251
 40
0.0483962813
 40
0.073164276
 40
0.0986424994
 40
0.1251127447
 40
0.1528077844
 40
0.212382274
 40
0.2778649591
 40
0.348624488
 40
0.4232841262
 40
0.500003915
 40
0.5767234871
 40
0.65138243
 40
0.722141054
 40
0.78762246
 40
0.8471954797
 40
0.8748896611
 40
0.9013592355
 40
0.9268369004
 40
0.9516036417
 40
0.9758897039
 40
1.0
 40
1.0
 40
1.0
 40
1.0
 10
153.5592836212
 20
356.661852955
 30
0.0
 10
153.5592836212
 20
357.0011872294
 30
0.0
 10
153.4942479202
 20
357.6840463813
 30
0.0
 10
153.2065776412
 20
358.6782394393
 30
0.0
 10
152.7449765632
 20
359.6254822425
 30
0.0
 10
152.1245692396
 20
360.5137854138
 30
0.0
 10
151.3619435944
 20
361.3393737082
 30
0.0
 10
150.1416226036
 20
362.3800939971
 30
0.0
 10
148.296010447
 20
363.5084050716
 30
0.0
 10
145.7404170272
 20
364.5618147009
 30
0.0
 10
142.8670085517
 20
365.3339582796
 30
0.0
 10
139.7707387769
 20
365.8062595901
 30
0.0
 10
136.5591208089
 20
365.9653751814
 30
0.0
 10
133.3475136835
 20
365.8062309497
 30
0.0
 10
130.2512751366
 20
365.3338954203
 30
0.0
 10
127.3779133123
 20
364.5617343838
 30
0.0
 10
124.8223803761
 20
363.5083140754
 30
0.0
 10
122.9768226088
 20
362.3800105883
 30
0.0
 10
121.7565502504
 20
361.3392991031
 30
0.0
 10
120.9939510237
 20
360.5137255911
 30
0.0
 10
120.3735808759
 20
359.6254414316
 30
0.0
 10
119.9119604963
 20
358.6782213007
 30
0.0
 10
119.6243301667
 20
357.6840328645
 30
0.0
 10
119.5592836212
 20
357.0011755625
 30
0.0
 10
119.5592836212
 20
356.661852955
 30
0.0
  0
SPLINE
  5
38A
100
AcDbEntity
  8
0
100
AcDbSpline
 62
9
  6
CONTINUOUS
 70
0
 71
3
 72
13
 73
9
 74
0
 42
0.0000001
 43
0.0000001
 44
0.0000000001
 40
0.0
 40
0.0
 40
0.0
 40
0.0
 40
0.1163031103
 40
0.2340383173
 40
0.3543761349
 40
0.4780368795
 40
0.7343840518
 40
1.0
 40
1.0
 40
1.0
 40
1.0
 10
153.5592836212
 20
355.460891061
 30
0.0
 10
153.5592836212
 20
355.3758696851
 30
0.0
 10
153.5396432792
 20
355.2041623069
 30
0.0
 10
153.4528056509
 20
354.9579549373
 30
0.0
 10
153.3122347526
 20
354.7315723458
 30
0.0
 10
153.0584136343
 20
354.4651339348
 30
0.0
 10
152.6381521746
 20
354.2262894268
 30
0.0
 10
152.253457563
 20
354.1618529553
 30
0.0
 10
152.0592836212
 20
354.1618529553
 30
0.0
  0
SPLINE
  5
38B
100
AcDbEntity
  8
0
100
AcDbSpline
 62
9
  6
CONTINUOUS
 70
0
 71
3
 72
13
 73
9
 74
0
 42
0.0000001
 43
0.0000001
 44
0.0000000001
 40
0.0
 40
0.0
 40
0.0
 40
0.0
 40
0.2656159482
 40
0.5219631205
 40
0.6456238651
 40
0.7659616827
 40
0.8836968897
 40
1.0
 40
1.0
 40
1.0
 40
1.0
 10
121.0592836212
 20
354.161852955
 30
0.0
 10
120.8651096794
 20
354.161852955
 30
0.0
 10
120.4804150679
 20
354.2262894265
 30
0.0
 10
120.0601536081
 20
354.4651339345
 30
0.0
 10
119.8063324898
 20
354.7315723455
 30
0.0
 10
119.6657615915
 20
354.957954937
 30
0.0
 10
119.5789239633
 20
355.2041623066
 30
0.0
 10
119.5592836212
 20
355.3758696848
 30
0.0
 10
119.5592836212
 20
355.4608910607
 30
0.0
  0
SPLINE
  5
38C
100
AcDbEntity
  8
0
100
AcDbSpline
 62
9
  6
CONTINUOUS
 70
0
 71
3
 72
13
 73
9
 74
0
 42
0.0000001
 43
0.0000001
 44
0.0000000001
 40
0.0
 40
0.0
 40
0.0
 40
0.0
 40
0.1163031103
 40
0.2340383173
 40
0.3543761349
 40
0.4780368795
 40
0.7343840518
 40
1.0
 40
1.0
 40
1.0
 40
1.0
 10
122.5592836212
 20
355.460891061
 30
0.0
 10
122.5592836213
 20
355.3758696851
 30
0.0
 10
122.5396432792
 20
355.2041623068
 30
0.0
 10
122.452805651
 20
354.9579549372
 30
0.0
 10
122.3122347527
 20
354.7315723456
 30
0.0
 10
122.0584136344
 20
354.4651339346
 30
0.0
 10
121.6381521747
 20
354.2262894265
 30
0.0
 10
121.2534575631
 20
354.161852955
 30
0.0
 10
121.0592836212
 20
354.161852955
 30
0.0
  0
SPLINE
  5
38D
100
AcDbEntity
  8
0
100
AcDbSpline
 62
9
  6
CONTINUOUS
 70
0
 71
3
 72
12
 73
8
 74
0
 42
0.0000001
 43
0.0000001
 44
0.0000000001
 40
0.0
 40
0.0
 40
0.0
 40
0.0
 40
0.265958157
 40
0.5226353628
 40
0.7656444643
 40
0.8835839538
 40
1.0
 40
1.0
 40
1.0
 40
1.0
 10
121.0592836212
 20
355.3628148493
 30
0.0
 10
121.2534576066
 20
355.3628148493
 30
0.0
 10
121.6383857799
 20
355.4276958332
 30
0.0
 10
122.1351284403
 20
355.708672767
 30
0.0
 10
122.4231685429
 20
356.0740123236
 30
0.0
 10
122.539553629
 20
356.4051230161
 30
0.0
 10
122.5592836212
 20
356.5768585036
 30
0.0
 10
122.5592836212
 20
356.661852955
 30
0.0
  0
SPLINE
  5
38E
100
AcDbEntity
  8
0
100
AcDbSpline
 62
9
  6
CONTINUOUS
 70
0
 71
3
 72
12
 73
8
 74
0
 42
0.0000001
 43
0.0000001
 44
0.0000000001
 40
0.0
 40
0.0
 40
0.0
 40
0.0
 40
0.1164160462
 40
0.2343555357
 40
0.4773646372
 40
0.734041843
 40
1.0
 40
1.0
 40
1.0
 40
1.0
 10
150.5592836212
 20
356.661852955
 30
0.0
 10
150.5592836213
 20
356.5768585036
 30
0.0
 10
150.5790136136
 20
356.4051230161
 30
0.0
 10
150.6953986997
 20
356.0740123237
 30
0.0
 10
150.9834388023
 20
355.7086727671
 30
0.0
 10
151.4801814626
 20
355.4276958334
 30
0.0
 10
151.8651096359
 20
355.3628148496
 30
0.0
 10
152.0592836212
 20
355.3628148496
 30
0.0
  0
SPLINE
  5
38F
100
AcDbEntity
  8
0
100
AcDbSpline
 62
9
  6
CONTINUOUS
 70
0
 71
3
 72
12
 73
8
 74
0
 42
0.0000001
 43
0.0000001
 44
0.0000000001
 40
0.0
 40
0.0
 40
0.0
 40
0.0
 40
0.265958157
 40
0.5226353628
 40
0.7656444643
 40
0.8835839538
 40
1.0
 40
1.0
 40
1.0
 40
1.0
 10
152.0592836212
 20
355.3628148496
 30
0.0
 10
152.2534576066
 20
355.3628148496
 30
0.0
 10
152.6383857799
 20
355.4276958334
 30
0.0
 10
153.1351284402
 20
355.7086727671
 30
0.0
 10
153.4231685428
 20
356.0740123237
 30
0.0
 10
153.5395536289
 20
356.4051230161
 30
0.0
 10
153.5592836212
 20
356.5768585036
 30
0.0
 10
153.5592836212
 20
356.661852955
 30
0.0
  0
SPLINE
  5
390
100
AcDbEntity
  8
0
100
AcDbSpline
 62
9
  6
CONTINUOUS
 70
0
 71
3
 72
12
 73
8
 74
0
 42
0.0000001
 43
0.0000001
 44
0.0000000001
 40
0.0
 40
0.0
 40
0.0
 40
0.0
 40
0.1164160462
 40
0.2343555357
 40
0.4773646372
 40
0.734041843
 40
1.0
 40
1.0
 40
1.0
 40
1.0
 10
119.5592836212
 20
356.661852955
 30
0.0
 10
119.5592836212
 20
356.5768585036
 30
0.0
 10
119.5790136135
 20
356.4051230161
 30
0.0
 10
119.6953986996
 20
356.0740123236
 30
0.0
 10
119.9834388021
 20
355.708672767
 30
0.0
 10
120.4801814625
 20
355.4276958332
 30
0.0
 10
120.8651096358
 20
355.3628148493
 30
0.0
 10
121.0592836212
 20
355.3628148493
 30
0.0
  0
SPLINE
  5
391
100
AcDbEntity
  8
0
100
AcDbSpline
 62
9
  6
CONTINUOUS
 70
0
 71
3
 72
13
 73
9
 74
0
 42
0.0000001
 43
0.0000001
 44
0.0000000001
 40
0.0
 40
0.0
 40
0.0
 40
0.0
 40
0.2656159482
 40
0.5219631205
 40
0.6456238651
 40
0.7659616827
 40
0.8836968897
 40
1.0
 40
1.0
 40
1.0
 40
1.0
 10
152.0592836212
 20
354.1618529553
 30
0.0
 10
151.8651096794
 20
354.1618529553
 30
0.0
 10
151.4804150679
 20
354.2262894268
 30
0.0
 10
151.0601536081
 20
354.4651339348
 30
0.0
 10
150.8063324898
 20
354.7315723457
 30
0.0
 10
150.6657615915
 20
354.9579549373
 30
0.0
 10
150.5789239633
 20
355.2041623069
 30
0.0
 10
150.5592836212
 20
355.3758696851
 30
0.0
 10
150.5592836212
 20
355.460891061
 30
0.0
  0
SPLINE
  5
392
100
AcDbEntity
  8
0
100
AcDbSpline
 62
7
  6
CONTINUOUS
 70
0
 71
3
 72
27
 73
23
 74
0
 42
0.0000001
 43
0.0000001
 44
0.0000000001
 40
0.0
 40
0.0
 40
0.0
 40
0.0
 40
0.0073419176
 40
0.0186291604
 40
0.0338620517
 40
0.0529473508
 40
0.102068532
 40
0.1644373181
 40
0.2380014933
 40
0.3203178626
 40
0.4086350114
 40
0.500001312
 40
0.591368027
 40
0.6796856399
 40
0.7620010323
 40
0.8355635554
 40
0.8979315652
 40
0.9470519798
 40
0.96613613
 40
0.9813686325
 40
0.9926568019
 40
1.0
 40
1.0
 40
1.0
 40
1.0
 10
124.8267476635
 20
336.38750114
 30
0.0
 10
124.8784624677
 20
336.3622953298
 30
0.0
 10
125.0206301138
 20
336.3233286068
 30
0.0
 10
125.2813482084
 20
336.2765473111
 30
0.0
 10
125.6365286977
 20
336.2337502563
 30
0.0
 10
126.2877622967
 20
336.1764880702
 30
0.0
 10
127.3098199632
 20
336.1222469116
 30
0.0
 10
128.759114274
 20
336.0757985604
 30
0.0
 10
130.4690459588
 20
336.0434823035
 30
0.0
 10
132.3824405782
 20
336.0225930795
 30
0.0
 10
134.4354186524
 20
336.0109216476
 30
0.0
 10
136.5593385564
 20
336.0071225679
 30
0.0
 10
138.6832622374
 20
336.0108923937
 30
0.0
 10
140.7362392683
 20
336.022634472
 30
0.0
 10
142.6496164847
 20
336.0435125258
 30
0.0
 10
144.3595244794
 20
336.0756978513
 30
0.0
 10
145.8087875339
 20
336.1224194779
 30
0.0
 10
146.8308200084
 20
336.176574816
 30
0.0
 10
147.482069766
 20
336.2334569966
 30
0.0
 10
147.8372516586
 20
336.2762104164
 30
0.0
 10
148.0979628137
 20
336.3231790803
 30
0.0
 10
148.2400957556
 20
336.3622909339
 30
0.0
 10
148.291819579
 20
336.38750114
 30
0.0
  0
SPLINE
  5
393
100
AcDbEntity
  8
0
100
AcDbSpline
 62
7
  6
CONTINUOUS
 70
0
 71
3
 72
9
 73
5
 74
0
 42
0.0000001
 43
0.0000001
 44
0.0000000001
 40
0.0
 40
0.0
 40
0.0
 40
0.0
 40
0.2414030566
 40
1.0
 40
1.0
 40
1.0
 40
1.0
 10
119.0210310319
 20
335.6746097862
 30
0.0
 10
119.2039064562
 20
335.6948813437
 30
0.0
 10
119.9603853948
 20
335.7881297587
 30
0.0
 10
120.7154656128
 20
335.893531259
 30
0.0
 10
121.2860729725
 20
335.9869050409
 30
0.0
  0
SPLINE
  5
394
100
AcDbEntity
  8
0
100
AcDbSpline
 62
7
  6
CONTINUOUS
 70
0
 71
3
 72
9
 73
5
 74
0
 42
0.0000001
 43
0.0000001
 44
0.0000000001
 40
0.0
 40
0.0
 40
0.0
 40
0.0
 40
0.2420303437
 40
1.0
 40
1.0
 40
1.0
 40
1.0
 10
151.83249427
 20
335.9869050409
 30
0.0
 10
152.0145477655
 20
335.9571139366
 30
0.0
 10
152.7676774897
 20
335.8398994297
 30
0.0
 10
153.5233307397
 20
335.738259887
 30
0.0
 10
154.0975362106
 20
335.6746097863
 30
0.0
  0
SPLINE
  5
395
100
AcDbEntity
  8
0
100
AcDbSpline
 62
7
  6
CONTINUOUS
 70
0
 71
3
 72
11
 73
7
 74
0
 42
0.0000001
 43
0.0000001
 44
0.0000000001
 40
0.0
 40
0.0
 40
0.0
 40
0.0
 40
0.1312626659
 40
0.3588999941
 40
0.6598395877
 40
1.0
 40
1.0
 40
1.0
 40
1.0
 10
113.562208959
 20
214.1003351771
 30
0.0
 10
113.5968901636
 20
214.0739774658
 30
0.0
 10
113.716806742
 20
214.0435129464
 30
0.0
 10
113.9303665444
 20
214.0085457082
 30
0.0
 10
114.2192903866
 20
213.9868987526
 30
0.0
 10
114.4317115097
 20
213.980962298
 30
0.0
 10
114.5445959899
 20
213.9807314324
 30
0.0
  0
SPLINE
  5
396
100
AcDbEntity
  8
0
100
AcDbSpline
 62
9
  6
CONTINUOUS
 70
0
 71
3
 72
11
 73
7
 74
0
 42
0.0000001
 43
0.0000001
 44
0.0000000001
 40
0.0
 40
0.0
 40
0.0
 40
0.0
 40
0.1391540724
 40
0.3725872348
 40
0.6769128479
 40
1.0
 40
1.0
 40
1.0
 40
1.0
 10
115.9304243424
 20
286.8992891706
 30
0.0
 10
115.9692375037
 20
286.8751581648
 30
0.0
 10
116.0895873918
 20
286.841878542
 30
0.0
 10
116.306682623
 20
286.7998378662
 30
0.0
 10
116.588745111
 20
286.7707071131
 30
0.0
 10
116.7943064759
 20
286.7578930182
 30
0.0
 10
116.9003506088
 20
286.7540695006
 30
0.0
  0
SPLINE
  5
397
100
AcDbEntity
  8
0
100
AcDbSpline
 62
9
  6
CONTINUOUS
 70
0
 71
3
 72
11
 73
7
 74
0
 42
0.0000001
 43
0.0000001
 44
0.0000000001
 40
0.0
 40
0.0
 40
0.0
 40
0.0
 40
0.1449074726
 40
0.3782876811
 40
0.6800323497
 40
1.0
 40
1.0
 40
1.0
 40
1.0
 10
115.9065085383
 20
290.7266198229
 30
0.0
 10
115.941671205
 20
290.7600309974
 30
0.0
 10
116.0610097944
 20
290.8130465845
 30
0.0
 10
116.2784944612
 20
290.8753173081
 30
0.0
 10
116.5624495176
 20
290.9202095385
 30
0.0
 10
116.7696083847
 20
290.9393928353
 30
0.0
 10
116.8765587754
 20
290.9451025221
 30
0.0
  0
SPLINE
  5
398
100
AcDbEntity
  8
0
100
AcDbSpline
 62
9
  6
CONTINUOUS
 70
0
 71
3
 72
11
 73
7
 74
0
 42
0.0000001
 43
0.0000001
 44
0.0000000001
 40
0.0
 40
0.0
 40
0.0
 40
0.0
 40
0.138809008
 40
0.3710841932
 40
0.6761914597
 40
1.0
 40
1.0
 40
1.0
 40
1.0
 10
114.0871344673
 20
326.2243670972
 30
0.0
 10
114.1181634337
 20
326.259638546
 30
0.0
 10
114.2378173285
 20
326.3138864447
 30
0.0
 10
114.4553024101
 20
326.3766034177
 30
0.0
 10
114.7453235325
 20
326.4202186365
 30
0.0
 10
114.9572292142
 20
326.438059728
 30
0.0
 10
115.0667114671
 20
326.4428509843
 30
0.0
  0
SPLINE
  5
399
100
AcDbEntity
  8
0
100
AcDbSpline
 62
9
  6
CONTINUOUS
 70
0
 71
3
 72
11
 73
7
 74
0
 42
0.0000001
 43
0.0000001
 44
0.0000000001
 40
0.0
 40
0.0
 40
0.0
 40
0.0
 40
0.1252522453
 40
0.3551171615
 40
0.6616341417
 40
1.0
 40
1.0
 40
1.0
 40
1.0
 10
119.0955526522
 20
332.6131741483
 30
0.0
 10
119.1272543052
 20
332.5224701314
 30
0.0
 10
119.1865239988
 20
332.2556936129
 30
0.0
 10
119.2895961056
 20
331.7592593537
 30
0.0
 10
119.4092321067
 20
331.0986679227
 30
0.0
 10
119.4926569411
 20
330.6111106869
 30
0.0
 10
119.5350616534
 20
330.3550281792
 30
0.0
  0
SPLINE
  5
39A
100
AcDbEntity
  8
0
100
AcDbSpline
 62
9
  6
CONTINUOUS
 70
0
 71
3
 72
11
 73
7
 74
0
 42
0.0000001
 43
0.0000001
 44
0.0000000001
 40
0.0
 40
0.0
 40
0.0
 40
0.0
 40
0.1252517601
 40
0.3551139019
 40
0.6616296516
 40
1.0
 40
1.0
 40
1.0
 40
1.0
 10
154.0230145902
 20
332.6131741482
 30
0.0
 10
153.9913151257
 20
332.5224763931
 30
0.0
 10
153.9320488304
 20
332.2557199785
 30
0.0
 10
153.8289833318
 20
331.7593215637
 30
0.0
 10
153.7093537468
 20
331.0987730665
 30
0.0
 10
153.6259330877
 20
330.6112452756
 30
0.0
 10
153.5835300896
 20
330.355176137
 30
0.0
  0
SPLINE
  5
39B
100
AcDbEntity
  8
0
100
AcDbSpline
 62
9
  6
CONTINUOUS
 70
0
 71
3
 72
11
 73
7
 74
0
 42
0.0000001
 43
0.0000001
 44
0.0000000001
 40
0.0
 40
0.0
 40
0.0
 40
0.0
 40
0.13880901
 40
0.3710842058
 40
0.6761914789
 40
1.0
 40
1.0
 40
1.0
 40
1.0
 10
159.0314327751
 20
326.224367097
 30
0.0
 10
159.0004038027
 20
326.2596385528
 30
0.0
 10
158.8807498785
 20
326.3138864584
 30
0.0
 10
158.6632647495
 20
326.3766034366
 30
0.0
 10
158.373243573
 20
326.4202186532
 30
0.0
 10
158.1613378563
 20
326.4380597407
 30
0.0
 10
158.0518555897
 20
326.4428509924
 30
0.0
  0
SPLINE
  5
39C
100
AcDbEntity
  8
0
100
AcDbSpline
 62
9
  6
CONTINUOUS
 70
0
 71
3
 72
11
 73
7
 74
0
 42
0.0000001
 43
0.0000001
 44
0.0000000001
 40
0.0
 40
0.0
 40
0.0
 40
0.0
 40
0.1459614775
 40
0.3802765774
 40
0.6816810468
 40
1.0
 40
1.0
 40
1.0
 40
1.0
 10
157.2120599544
 20
290.7266186349
 30
0.0
 10
157.1766421579
 20
290.7602727492
 30
0.0
 10
157.0565439461
 20
290.8133521588
 30
0.0
 10
156.8385350511
 20
290.8756571428
 30
0.0
 10
156.5549014144
 20
290.9203589185
 30
0.0
 10
156.3484066577
 20
290.9394223152
 30
0.0
 10
156.2420084678
 20
290.9451025221
 30
0.0
  0
SPLINE
  5
39D
100
AcDbEntity
  8
0
100
AcDbSpline
 62
9
  6
CONTINUOUS
 70
0
 71
3
 72
11
 73
7
 74
0
 42
0.0000001
 43
0.0000001
 44
0.0000000001
 40
0.0
 40
0.0
 40
0.0
 40
0.0
 40
0.1377276385
 40
0.3698561748
 40
0.674634564
 40
1.0
 40
1.0
 40
1.0
 40
1.0
 10
157.1881522101
 20
286.8992949593
 30
0.0
 10
157.1497378259
 20
286.8754081576
 30
0.0
 10
157.0303611249
 20
286.8421388966
 30
0.0
 10
156.8139849832
 20
286.8001498029
 30
0.0
 10
156.5314706504
 20
286.770841409
 30
0.0
 10
156.3250106529
 20
286.7579200613
 30
0.0
 10
156.2182166338
 20
286.7540695006
 30
0.0
  0
SPLINE
  5
39E
100
AcDbEntity
  8
0
100
AcDbSpline
 62
7
  6
CONTINUOUS
 70
0
 71
3
 72
11
 73
7
 74
0
 42
0.0000001
 43
0.0000001
 44
0.0000000001
 40
0.0
 40
0.0
 40
0.0
 40
0.0
 40
0.131161499
 40
0.3588775416
 40
0.6598495684
 40
1.0
 40
1.0
 40
1.0
 40
1.0
 10
159.5562789432
 20
214.1003458885
 30
0.0
 10
159.5215290143
 20
214.0741320591
 30
0.0
 10
159.4016229872
 20
214.0439076675
 30
0.0
 10
159.1881427326
 20
214.0082634278
 30
0.0
 10
158.8991522367
 20
213.9866717376
 30
0.0
 10
158.6867154838
 20
213.9809447129
 30
0.0
 10
158.5738303586
 20
213.9807373709
 30
0.0
  0
SPLINE
  5
39F
100
AcDbEntity
  8
0
100
AcDbSpline
 62
9
  6
CONTINUOUS
 70
0
 71
3
 72
13
 73
9
 74
0
 42
0.0000001
 43
0.0000001
 44
0.0000000001
 40
0.0
 40
0.0
 40
0.0
 40
0.0
 40
0.2726187384
 40
0.4031364969
 40
0.5298162213
 40
0.6526146061
 40
0.7714905153
 40
1.0
 40
1.0
 40
1.0
 40
1.0
 10
155.5354212684
 20
201.4280458166
 30
0.0
 10
155.6250142859
 20
201.0985588214
 30
0.0
 10
155.7800730158
 20
200.6175824934
 30
0.0
 10
155.9332549456
 20
199.9715154739
 30
0.0
 10
156.0200852379
 20
199.5034941039
 30
0.0
 10
156.0972472459
 20
199.0486030687
 30
0.0
 10
156.2021733232
 20
198.4693007096
 30
0.0
 10
156.2691966196
 20
198.0385051467
 30
0.0
 10
156.2914040391
 20
197.7531634548
 30
0.0
  0
SPLINE
  5
3A0
100
AcDbEntity
  8
0
100
AcDbSpline
 62
9
  6
CONTINUOUS
 70
0
 71
3
 72
11
 73
7
 74
0
 42
0.0000001
 43
0.0000001
 44
0.0000000001
 40
0.0
 40
0.0
 40
0.0
 40
0.0
 40
0.1328414143
 40
0.3637483135
 40
0.6705498975
 40
1.0
 40
1.0
 40
1.0
 40
1.0
 10
158.7439598336
 20
206.0807816619
 30
0.0
 10
158.7047486135
 20
206.0640086624
 30
0.0
 10
158.5849154829
 20
206.0565267383
 30
0.0
 10
158.3714183236
 20
206.0592463283
 30
0.0
 10
158.0935074288
 20
206.089122611
 30
0.0
 10
157.8916190255
 20
206.1189645672
 30
0.0
 10
157.7874282372
 20
206.1371630701
 30
0.0
  0
SPLINE
  5
3A1
100
AcDbEntity
  8
0
100
AcDbSpline
 62
9
  6
CONTINUOUS
 70
0
 71
3
 72
11
 73
7
 74
0
 42
0.0000001
 43
0.0000001
 44
0.0000000001
 40
0.0
 40
0.0
 40
0.0
 40
0.0
 40
0.2582462929
 40
0.501439267
 40
0.7445432135
 40
1.0
 40
1.0
 40
1.0
 40
1.0
 10
156.5806208492
 20
196.906663411
 30
0.0
 10
156.9299761862
 20
197.6410870291
 30
0.0
 10
157.4300805901
 20
199.1501260046
 30
0.0
 10
157.9249222657
 20
201.4415864992
 30
0.0
 10
158.3337186786
 20
203.7420135843
 30
0.0
 10
158.6015350407
 20
205.2889922924
 30
0.0
 10
158.7439598695
 20
206.0807816773
 30
0.0
  0
SPLINE
  5
3A2
100
AcDbEntity
  8
0
100
AcDbSpline
 62
9
  6
CONTINUOUS
 70
0
 71
3
 72
10
 73
6
 74
0
 42
0.0000001
 43
0.0000001
 44
0.0000000001
 40
0.0
 40
0.0
 40
0.0
 40
0.0
 40
0.2386721733
 40
0.4920214975
 40
1.0
 40
1.0
 40
1.0
 40
1.0
 10
156.2914489436
 20
197.7531963838
 30
0.0
 10
156.3011548219
 20
197.6826266694
 30
0.0
 10
156.3439489316
 20
197.5407986798
 30
0.0
 10
156.4546553493
 20
197.2645688134
 30
0.0
 10
156.5490090018
 20
197.0549459097
 30
0.0
 10
156.5806227899
 20
196.9066674284
 30
0.0
  0
SPLINE
  5
3A3
100
AcDbEntity
  8
0
100
AcDbSpline
 62
9
  6
CONTINUOUS
 70
0
 71
3
 72
11
 73
7
 74
0
 42
0.0000001
 43
0.0000001
 44
0.0000000001
 40
0.0
 40
0.0
 40
0.0
 40
0.0
 40
0.4026301153
 40
0.733514087
 40
0.9283126813
 40
1.0
 40
1.0
 40
1.0
 40
1.0
 10
155.5354212684
 20
201.4280458166
 30
0.0
 10
155.384094698
 20
201.4282355617
 30
0.0
 10
155.112009345
 20
201.4352748832
 30
0.0
 10
154.7520662509
 20
201.4730589193
 30
0.0
 10
154.5533619264
 20
201.5102969099
 30
0.0
 10
154.4370621844
 20
201.5608915939
 30
0.0
 10
154.435463153
 20
201.5877874537
 30
0.0
  0
SPLINE
  5
3A4
100
AcDbEntity
  8
0
100
AcDbSpline
 62
9
  6
CONTINUOUS
 70
0
 71
3
 72
14
 73
10
 74
0
 42
0.0000001
 43
0.0000001
 44
0.0000000001
 40
0.0
 40
0.0
 40
0.0
 40
0.0
 40
0.0716405132
 40
0.1636260959
 40
0.2863934769
 40
0.4347536052
 40
0.5974346443
 40
0.7558733591
 40
1.0
 40
1.0
 40
1.0
 40
1.0
 10
154.4227899081
 20
198.1926491763
 30
0.0
 10
154.423463597
 20
198.1411947956
 30
0.0
 10
154.4527706239
 20
198.0229099574
 30
0.0
 10
154.5859496425
 20
197.859216402
 30
0.0
 10
154.8105465388
 20
197.7205698067
 30
0.0
 10
155.1068271695
 20
197.616958323
 30
0.0
 10
155.4440625863
 20
197.5770006272
 30
0.0
 10
155.8502290832
 20
197.5909617888
 30
0.0
 10
156.136963079
 20
197.6701141529
 30
0.0
 10
156.291403494
 20
197.7531637665
 30
0.0
  0
SPLINE
  5
3A5
100
AcDbEntity
  8
0
100
AcDbSpline
 62
9
  6
CONTINUOUS
 70
0
 71
3
 72
9
 73
5
 74
0
 42
0.0000001
 43
0.0000001
 44
0.0000000001
 40
0.0
 40
0.0
 40
0.0
 40
0.0
 40
0.2518746207
 40
1.0
 40
1.0
 40
1.0
 40
1.0
 10
154.5453928126
 20
289.1972314239
 30
0.0
 10
154.5453926983
 20
289.3238017582
 30
0.0
 10
154.5452709721
 20
289.8263149987
 30
0.0
 10
154.5446731948
 20
290.3288281409
 30
0.0
 10
154.5439400417
 20
290.7047703419
 30
0.0
  0
SPLINE
  5
3A6
100
AcDbEntity
  8
0
100
AcDbSpline
 62
9
  6
CONTINUOUS
 70
0
 71
3
 72
8
 73
4
 74
0
 42
0.0000001
 43
0.0000001
 44
0.0000000001
 40
0.0
 40
0.0
 40
0.0
 40
0.0
 40
1.0
 40
1.0
 40
1.0
 40
1.0
 10
154.5447573752
 20
286.9137963572
 30
0.0
 10
154.5451844883
 20
287.2478063197
 30
0.0
 10
154.5453947004
 20
287.5818166256
 30
0.0
 10
154.5453948088
 20
287.9158268612
 30
0.0
  0
SPLINE
  5
3A7
100
AcDbEntity
  8
0
100
AcDbSpline
 62
9
  6
CONTINUOUS
 70
0
 71
3
 72
9
 73
5
 74
0
 42
0.0000001
 43
0.0000001
 44
0.0000000001
 40
0.0
 40
0.0
 40
0.0
 40
0.0
 40
0.4444046286
 40
1.0
 40
1.0
 40
1.0
 40
1.0
 10
155.9469101354
 20
196.5026417796
 30
0.0
 10
155.8768594527
 20
196.5748979442
 30
0.0
 10
155.6631065679
 20
196.670137984
 30
0.0
 10
155.4623841686
 20
196.7693337398
 30
0.0
 10
155.3533598876
 20
196.8321341471
 30
0.0
  0
SPLINE
  5
3A8
100
AcDbEntity
  8
0
100
AcDbSpline
 62
9
  6
CONTINUOUS
 70
0
 71
3
 72
9
 73
5
 74
0
 42
0.0000001
 43
0.0000001
 44
0.0000000001
 40
0.0
 40
0.0
 40
0.0
 40
0.0
 40
0.4107768871
 40
1.0
 40
1.0
 40
1.0
 40
1.0
 10
156.6696694529
 20
195.5270559056
 30
0.0
 10
156.5885627697
 20
195.6722333912
 30
0.0
 10
156.3408070734
 20
195.9950335322
 30
0.0
 10
156.0902914018
 20
196.312004518
 30
0.0
 10
155.9469101354
 20
196.5026417796
 30
0.0
  0
SPLINE
  5
3A9
100
AcDbEntity
  8
0
100
AcDbSpline
 62
9
  6
CONTINUOUS
 70
0
 71
3
 72
9
 73
5
 74
0
 42
0.0000001
 43
0.0000001
 44
0.0000000001
 40
0.0
 40
0.0
 40
0.0
 40
0.0
 40
0.4904652118
 40
1.0
 40
1.0
 40
1.0
 40
1.0
 10
154.4227899081
 20
198.1926491763
 30
0.0
 10
154.4238122082
 20
197.9144163131
 30
0.0
 10
154.6553563991
 20
197.3484546542
 30
0.0
 10
155.1039548735
 20
196.978669717
 30
0.0
 10
155.3535758174
 20
196.8329273709
 30
0.0
  0
SPLINE
  5
3AA
100
AcDbEntity
  8
0
100
AcDbSpline
 62
9
  6
CONTINUOUS
 70
0
 71
3
 72
9
 73
5
 74
0
 42
0.0000001
 43
0.0000001
 44
0.0000000001
 40
0.0
 40
0.0
 40
0.0
 40
0.0
 40
0.2369742772
 40
1.0
 40
1.0
 40
1.0
 40
1.0
 10
156.5807737705
 20
196.9058031782
 30
0.0
 10
156.5450431567
 20
196.8576311547
 30
0.0
 10
156.3716557723
 20
196.6717059823
 30
0.0
 10
156.1342408288
 20
196.5495426472
 30
0.0
 10
155.9468934633
 20
196.5026884866
 30
0.0
  0
SPLINE
  5
3AB
100
AcDbEntity
  8
0
100
AcDbSpline
 62
9
  6
CONTINUOUS
 70
0
 71
3
 72
9
 73
5
 74
0
 42
0.0000001
 43
0.0000001
 44
0.0000000001
 40
0.0
 40
0.0
 40
0.0
 40
0.0
 40
0.2619152248
 40
1.0
 40
1.0
 40
1.0
 40
1.0
 10
156.5807003892
 20
196.9066134209
 30
0.0
 10
156.5915883199
 20
196.7864054897
 30
0.0
 10
156.6313851909
 20
196.327318206
 30
0.0
 10
156.6606381184
 20
195.8670966163
 30
0.0
 10
156.6695982772
 20
195.5270784756
 30
0.0
  0
SPLINE
  5
3AC
100
AcDbEntity
  8
0
100
AcDbSpline
 62
7
  6
CONTINUOUS
 70
0
 71
3
 72
14
 73
10
 74
0
 42
0.0000001
 43
0.0000001
 44
0.0000000001
 40
0.0
 40
0.0
 40
0.0
 40
0.0
 40
0.0742329692
 40
0.1597405129
 40
0.2622819007
 40
0.3793818477
 40
0.5113052778
 40
0.6590674085
 40
1.0
 40
1.0
 40
1.0
 40
1.0
 10
162.5592836215
 20
214.1001640069
 30
0.0
 10
162.4991861418
 20
214.0555318355
 30
0.0
 10
162.3363068282
 20
214.0045186836
 30
0.0
 10
162.0718807372
 20
214.0377273655
 30
0.0
 10
161.7714288425
 20
214.1019299752
 30
0.0
 10
161.4179837665
 20
214.1429689343
 30
0.0
 10
161.0171066664
 20
214.1292654926
 30
0.0
 10
160.3946510712
 20
214.0719438608
 30
0.0
 10
159.8979183627
 20
214.0607071992
 30
0.0
 10
159.5564066076
 20
214.1003396282
 30
0.0
  0
SPLINE
  5
3AD
100
AcDbEntity
  8
0
100
AcDbSpline
 62
9
  6
CONTINUOUS
 70
0
 71
3
 72
11
 73
7
 74
0
 42
0.0000001
 43
0.0000001
 44
0.0000000001
 40
0.0
 40
0.0
 40
0.0
 40
0.0
 40
0.2586322341
 40
0.5088930323
 40
0.7510008542
 40
1.0
 40
1.0
 40
1.0
 40
1.0
 10
154.0230145903
 20
332.6131741483
 30
0.0
 10
154.7779618815
 20
332.4987409642
 30
0.0
 10
156.2324785043
 20
331.9657445191
 30
0.0
 10
157.9116561045
 20
330.4368273234
 30
0.0
 10
158.8914418872
 20
328.4293422116
 30
0.0
 10
159.0641501904
 20
326.9587693109
 30
0.0
 10
159.0314327751
 20
326.2243670967
 30
0.0
  0
SPLINE
  5
3AE
100
AcDbEntity
  8
0
100
AcDbSpline
 62
7
  6
CONTINUOUS
 70
0
 71
3
 72
9
 73
5
 74
0
 42
0.0000001
 43
0.0000001
 44
0.0000000001
 40
0.0
 40
0.0
 40
0.0
 40
0.0
 40
0.2501829265
 40
1.0
 40
1.0
 40
1.0
 40
1.0
 10
162.5592836212
 20
213.5618548188
 30
0.0
 10
162.5592836489
 20
212.5400278782
 30
0.0
 10
162.4472109916
 20
208.4564304986
 30
0.0
 10
161.8881196803
 20
204.3854779751
 30
0.0
 10
161.226514903
 20
201.3953043664
 30
0.0
  0
SPLINE
  5
3AF
100
AcDbEntity
  8
0
100
AcDbSpline
 62
9
  6
CONTINUOUS
 70
0
 71
3
 72
9
 73
5
 74
0
 42
0.0000001
 43
0.0000001
 44
0.0000000001
 40
0.0
 40
0.0
 40
0.0
 40
0.0
 40
0.2836382452
 40
1.0
 40
1.0
 40
1.0
 40
1.0
 10
154.3823639597
 20
176.0637208349
 30
0.0
 10
154.3906007364
 20
176.0697592034
 30
0.0
 10
154.420607531
 20
176.0893261359
 30
0.0
 10
154.4587333704
 20
176.0990944819
 30
0.0
 10
154.4842025952
 20
176.0950125272
 30
0.0
  0
SPLINE
  5
3B0
100
AcDbEntity
  8
0
100
AcDbSpline
 62
9
  6
CONTINUOUS
 70
0
 71
3
 72
9
 73
5
 74
0
 42
0.0000001
 43
0.0000001
 44
0.0000000001
 40
0.0
 40
0.0
 40
0.0
 40
0.0
 40
0.7496572919
 40
1.0
 40
1.0
 40
1.0
 40
1.0
 10
155.3356996119
 20
189.2386864541
 30
0.0
 10
154.7535318086
 20
185.9860932762
 30
0.0
 10
154.3159669666
 20
181.575018953
 30
0.0
 10
154.3456544392
 20
177.166545752
 30
0.0
 10
154.38245606
 20
176.0637180929
 30
0.0
  0
SPLINE
  5
3B1
100
AcDbEntity
  8
0
100
AcDbSpline
 62
9
  6
CONTINUOUS
 70
0
 71
3
 72
12
 73
8
 74
0
 42
0.0000001
 43
0.0000001
 44
0.0000000001
 40
0.0
 40
0.0
 40
0.0
 40
0.0
 40
0.0977124204
 40
0.2104051161
 40
0.4594660936
 40
0.7254699494
 40
1.0
 40
1.0
 40
1.0
 40
1.0
 10
156.6592868583
 20
195.0425130398
 30
0.0
 10
156.6422743922
 20
194.8492860217
 30
0.0
 10
156.574640285
 20
194.43636756
 30
0.0
 10
156.39222675
 20
193.5428748684
 30
0.0
 10
156.0996259026
 20
192.3311242234
 30
0.0
 10
155.7208707228
 20
190.8102402658
 30
0.0
 10
155.4624811458
 20
189.7687198162
 30
0.0
 10
155.3356996119
 20
189.2386864541
 30
0.0
  0
SPLINE
  5
3B2
100
AcDbEntity
  8
0
100
AcDbSpline
 62
9
  6
CONTINUOUS
 70
0
 71
3
 72
9
 73
5
 74
0
 42
0.0000001
 43
0.0000001
 44
0.0000000001
 40
0.0
 40
0.0
 40
0.0
 40
0.0
 40
0.4531946968
 40
1.0
 40
1.0
 40
1.0
 40
1.0
 10
154.4842999173
 20
176.0950035889
 30
0.0
 10
154.7617027004
 20
176.0433801557
 30
0.0
 10
155.3596117824
 20
175.819712515
 30
0.0
 10
155.8294810634
 20
175.3930976834
 30
0.0
 10
156.0592565668
 20
175.1418836726
 30
0.0
  0
SPLINE
  5
3B3
100
AcDbEntity
  8
0
100
AcDbSpline
 62
9
  6
CONTINUOUS
 70
0
 71
3
 72
9
 73
5
 74
0
 42
0.0000001
 43
0.0000001
 44
0.0000000001
 40
0.0
 40
0.0
 40
0.0
 40
0.0
 40
0.5326626897
 40
1.0
 40
1.0
 40
1.0
 40
1.0
 10
156.0592614061
 20
175.1422361967
 30
0.0
 10
155.8175940572
 20
174.9172270103
 30
0.0
 10
155.3229066411
 20
174.5227027865
 30
0.0
 10
154.7081375214
 20
174.356838923
 30
0.0
 10
154.4201231385
 20
174.3255888113
 30
0.0
  0
SPLINE
  5
3B4
100
AcDbEntity
  8
0
100
AcDbSpline
 62
9
  6
CONTINUOUS
 70
0
 71
3
 72
13
 73
9
 74
0
 42
0.0000001
 43
0.0000001
 44
0.0000000001
 40
0.0
 40
0.0
 40
0.0
 40
0.0
 40
0.096705405
 40
0.2006327627
 40
0.4321716605
 40
0.5631299065
 40
0.7029738989
 40
1.0
 40
1.0
 40
1.0
 40
1.0
 10
154.3891048514
 20
174.2825864361
 30
0.0
 10
154.2688040816
 20
174.0017732826
 30
0.0
 10
153.9682879044
 20
173.4387498621
 30
0.0
 10
153.0921971731
 20
172.3809556851
 30
0.0
 10
151.8131176815
 20
171.5651528735
 30
0.0
 10
150.2926498403
 20
171.0931271324
 30
0.0
 10
148.5137545239
 20
170.8307475533
 30
0.0
 10
147.1234107364
 20
170.8263216401
 30
0.0
 10
146.189016752
 20
170.9120572067
 30
0.0
  0
SPLINE
  5
3B5
100
AcDbEntity
  8
0
100
AcDbSpline
 62
9
  6
CONTINUOUS
 70
0
 71
3
 72
9
 73
5
 74
0
 42
0.0000001
 43
0.0000001
 44
0.0000000001
 40
0.0
 40
0.0
 40
0.0
 40
0.0
 40
0.1764681834
 40
1.0
 40
1.0
 40
1.0
 40
1.0
 10
154.4201257921
 20
174.325195506
 30
0.0
 10
154.4171593227
 20
174.3241360767
 30
0.0
 10
154.4021126999
 20
174.3136740565
 30
0.0
 10
154.3948012931
 20
174.2961379681
 30
0.0
 10
154.3891048514
 20
174.2825864361
 30
0.0
  0
SPLINE
  5
3B6
100
AcDbEntity
  8
0
100
AcDbSpline
 62
9
  6
CONTINUOUS
 70
0
 71
3
 72
9
 73
5
 74
0
 42
0.0000001
 43
0.0000001
 44
0.0000000001
 40
0.0
 40
0.0
 40
0.0
 40
0.0
 40
0.500002573
 40
1.0
 40
1.0
 40
1.0
 40
1.0
 10
122.7265650481
 20
178.0263527608
 30
0.0
 10
123.421715955
 20
176.8374568891
 30
0.0
 10
124.8030298109
 20
174.4546755141
 30
0.0
 10
126.1983075981
 20
172.0790846138
 30
0.0
 10
126.9295504914
 20
170.9120572074
 30
0.0
  0
SPLINE
  5
3B7
100
AcDbEntity
  8
0
100
AcDbSpline
 62
9
  6
CONTINUOUS
 70
0
 71
3
 72
9
 73
5
 74
0
 42
0.0000001
 43
0.0000001
 44
0.0000000001
 40
0.0
 40
0.0
 40
0.0
 40
0.0
 40
0.4999016282
 40
1.0
 40
1.0
 40
1.0
 40
1.0
 10
146.1892139213
 20
170.9119336554
 30
0.0
 10
146.9203598926
 20
172.0787261395
 30
0.0
 10
148.3140443576
 20
174.4552966603
 30
0.0
 10
149.6971100598
 20
176.837080708
 30
0.0
 10
150.3922030794
 20
178.0263315227
 30
0.0
  0
SPLINE
  5
3B8
100
AcDbEntity
  8
0
100
AcDbSpline
 62
9
  6
CONTINUOUS
 70
0
 71
3
 72
9
 73
5
 74
0
 42
0.0000001
 43
0.0000001
 44
0.0000000001
 40
0.0
 40
0.0
 40
0.0
 40
0.0
 40
0.5004236154
 40
1.0
 40
1.0
 40
1.0
 40
1.0
 10
126.9297385548
 20
170.9122018205
 30
0.0
 10
126.0856265838
 20
172.0099325269
 30
0.0
 10
124.4549500503
 20
174.2463501103
 30
0.0
 10
122.8607055865
 20
176.5080824388
 30
0.0
 10
122.07414106
 20
177.6449054584
 30
0.0
  0
SPLINE
  5
3B9
100
AcDbEntity
  8
0
100
AcDbSpline
 62
9
  6
CONTINUOUS
 70
0
 71
3
 72
8
 73
4
 74
0
 42
0.0000001
 43
0.0000001
 44
0.0000000001
 40
0.0
 40
0.0
 40
0.0
 40
0.0
 40
1.0
 40
1.0
 40
1.0
 40
1.0
 10
122.0739944953
 20
177.644792895
 30
0.0
 10
121.8024579807
 20
178.0372552138
 30
0.0
 10
121.5500675956
 20
178.4429361503
 30
0.0
 10
121.3045247953
 20
178.8521640619
 30
0.0
  0
SPLINE
  5
3BA
100
AcDbEntity
  8
0
100
AcDbSpline
 62
9
  6
CONTINUOUS
 70
0
 71
3
 72
13
 73
9
 74
0
 42
0.0000001
 43
0.0000001
 44
0.0000000001
 40
0.0
 40
0.0
 40
0.0
 40
0.0
 40
0.2970291231
 40
0.4368504194
 40
0.5678210195
 40
0.7993662145
 40
0.903293592
 40
1.0
 40
1.0
 40
1.0
 40
1.0
 10
126.9295504914
 20
170.9120572068
 30
0.0
 10
125.9951467206
 20
170.8263272142
 30
0.0
 10
124.6048724238
 20
170.8307395937
 30
0.0
 10
122.8259842799
 20
171.0930562875
 30
0.0
 10
121.3055707326
 20
171.5651998684
 30
0.0
 10
120.0263818555
 20
172.3809207151
 30
0.0
 10
119.1502792665
 20
173.4387444234
 30
0.0
 10
118.849764381
 20
174.0017704687
 30
0.0
 10
118.7294623908
 20
174.2825864367
 30
0.0
  0
SPLINE
  5
3BB
100
AcDbEntity
  8
0
100
AcDbSpline
 62
9
  6
CONTINUOUS
 70
0
 71
3
 72
9
 73
5
 74
0
 42
0.0000001
 43
0.0000001
 44
0.0000000001
 40
0.0
 40
0.0
 40
0.0
 40
0.0
 40
0.1803285956
 40
1.0
 40
1.0
 40
1.0
 40
1.0
 10
118.6984414504
 20
174.3251955059
 30
0.0
 10
118.701455727
 20
174.3240886767
 30
0.0
 10
118.7159236271
 20
174.3128094812
 30
0.0
 10
118.7234033635
 20
174.2958650633
 30
0.0
 10
118.7294623908
 20
174.2825864367
 30
0.0
  0
SPLINE
  5
3BC
100
AcDbEntity
  8
0
100
AcDbSpline
 62
9
  6
CONTINUOUS
 70
0
 71
3
 72
9
 73
5
 74
0
 42
0.0000001
 43
0.0000001
 44
0.0000000001
 40
0.0
 40
0.0
 40
0.0
 40
0.0
 40
0.4673370742
 40
1.0
 40
1.0
 40
1.0
 40
1.0
 10
118.6984414084
 20
174.325189297
 30
0.0
 10
118.4104236586
 20
174.3564397741
 30
0.0
 10
117.7956466759
 20
174.5223053692
 30
0.0
 10
117.3009545986
 20
174.9168358678
 30
0.0
 10
117.0592832706
 20
175.1418469047
 30
0.0
  0
SPLINE
  5
3BD
100
AcDbEntity
  8
0
100
AcDbSpline
 62
7
  6
CONTINUOUS
 70
0
 71
3
 72
13
 73
9
 74
0
 42
0.0000001
 43
0.0000001
 44
0.0000000001
 40
0.0
 40
0.0
 40
0.0
 40
0.0
 40
0.2453694989
 40
0.3723009558
 40
0.4999789287
 40
0.6276547818
 40
0.7546095746
 40
1.0
 40
1.0
 40
1.0
 40
1.0
 10
122.0614371105
 20
101.92769253
 30
0.0
 10
121.6353436378
 20
101.8519720895
 30
0.0
 10
120.9485496496
 20
102.0277056409
 30
0.0
 10
120.1865210667
 20
102.4619284953
 30
0.0
 10
119.6573697492
 20
102.8886118875
 30
0.0
 10
119.2303233444
 20
103.4176071631
 30
0.0
 10
118.7968625908
 20
104.1801290513
 30
0.0
 10
118.6200488464
 20
104.8664992191
 30
0.0
 10
118.6952330665
 20
105.2927251136
 30
0.0
  0
SPLINE
  5
3BE
100
AcDbEntity
  8
0
100
AcDbSpline
 62
7
  6
CONTINUOUS
 70
0
 71
3
 72
13
 73
9
 74
0
 42
0.0000001
 43
0.0000001
 44
0.0000000001
 40
0.0
 40
0.0
 40
0.0
 40
0.0
 40
0.2452648571
 40
0.3721700387
 40
0.49986739
 40
0.6275373307
 40
0.754528033
 40
1.0
 40
1.0
 40
1.0
 40
1.0
 10
151.0592839187
 20
101.9277835344
 30
0.0
 10
151.484851645
 20
101.8515800393
 30
0.0
 10
152.171209929
 20
102.0279860708
 30
0.0
 10
152.9322164358
 20
102.4622852719
 30
0.0
 10
153.461301139
 20
102.8884589828
 30
0.0
 10
153.8878118482
 20
103.4174732469
 30
0.0
 10
154.3216704016
 20
104.1794781125
 30
0.0
 10
154.4978313501
 20
104.8656473625
 30
0.0
 10
154.4231361122
 20
105.2918530541
 30
0.0
  0
SPLINE
  5
3BF
100
AcDbEntity
  8
0
100
AcDbSpline
 62
9
  6
CONTINUOUS
 70
0
 71
3
 72
12
 73
8
 74
0
 42
0.0000001
 43
0.0000001
 44
0.0000000001
 40
0.0
 40
0.0
 40
0.0
 40
0.0
 40
0.2745357691
 40
0.5405884789
 40
0.7896704036
 40
0.9024592707
 40
1.0
 40
1.0
 40
1.0
 40
1.0
 10
117.7828716455
 20
189.2386638685
 30
0.0
 10
117.6561482739
 20
189.7686929657
 30
0.0
 10
117.3978123144
 20
190.8102788203
 30
0.0
 10
117.0186042117
 20
192.3311238299
 30
0.0
 10
116.7264372838
 20
193.5432389905
 30
0.0
 10
116.5433320828
 20
194.4364232194
 30
0.0
 10
116.4760340772
 20
194.8492483943
 30
0.0
 10
116.4593790894
 20
195.0421541019
 30
0.0
  0
SPLINE
  5
3C0
100
AcDbEntity
  8
0
100
AcDbSpline
 62
9
  6
CONTINUOUS
 70
0
 71
3
 72
9
 73
5
 74
0
 42
0.0000001
 43
0.0000001
 44
0.0000000001
 40
0.0
 40
0.0
 40
0.0
 40
0.0
 40
0.7154793142
 40
1.0
 40
1.0
 40
1.0
 40
1.0
 10
118.6342673251
 20
176.0950035889
 30
0.0
 10
118.6596706637
 20
176.0992923687
 30
0.0
 10
118.6978594381
 20
176.0893112815
 30
0.0
 10
118.7278196269
 20
176.0697356007
 30
0.0
 10
118.7361111653
 20
176.0637181591
 30
0.0
  0
SPLINE
  5
3C1
100
AcDbEntity
  8
0
100
AcDbSpline
 62
9
  6
CONTINUOUS
 70
0
 71
3
 72
9
 73
5
 74
0
 42
0.0000001
 43
0.0000001
 44
0.0000000001
 40
0.0
 40
0.0
 40
0.0
 40
0.0
 40
0.5465468004
 40
1.0
 40
1.0
 40
1.0
 40
1.0
 10
117.059307728
 20
175.1418808074
 30
0.0
 10
117.2897145516
 20
175.3922042765
 30
0.0
 10
117.7595936537
 20
175.8178294663
 30
0.0
 10
118.3567240837
 20
176.0435658648
 30
0.0
 10
118.6342673251
 20
176.0950035889
 30
0.0
  0
SPLINE
  5
3C2
100
AcDbEntity
  8
0
100
AcDbSpline
 62
9
  6
CONTINUOUS
 70
0
 71
3
 72
16
 73
12
 74
0
 42
0.0000001
 43
0.0000001
 44
0.0000000001
 40
0.0
 40
0.0
 40
0.0
 40
0.0
 40
0.2817435096
 40
0.4196112925
 40
0.5544790654
 40
0.6852881539
 40
0.8094286821
 40
0.8670743403
 40
0.9203063522
 40
0.9659067761
 40
1.0
 40
1.0
 40
1.0
 40
1.0
 10
119.9275825286
 20
181.7532747826
 30
0.0
 10
119.579512394
 20
182.9439054657
 30
0.0
 10
119.1636904841
 20
184.7469781453
 30
0.0
 10
118.709464264
 20
187.1453342352
 30
0.0
 10
118.4051020093
 20
188.8959347027
 30
0.0
 10
118.1176815992
 20
190.5878788711
 30
0.0
 10
117.9054836118
 20
191.9481031782
 30
0.0
 10
117.7843215521
 20
192.9757165781
 30
0.0
 10
117.7281969652
 20
193.6630154859
 30
0.0
 10
117.7178769833
 20
194.2476442949
 30
0.0
 10
117.7518748296
 20
194.6004424461
 30
0.0
 10
117.7922237917
 20
194.745024078
 30
0.0
  0
SPLINE
  5
3C3
100
AcDbEntity
  8
0
100
AcDbSpline
 62
9
  6
CONTINUOUS
 70
0
 71
3
 72
9
 73
5
 74
0
 42
0.0000001
 43
0.0000001
 44
0.0000000001
 40
0.0
 40
0.0
 40
0.0
 40
0.0
 40
0.215002195
 40
1.0
 40
1.0
 40
1.0
 40
1.0
 10
121.3044914652
 20
178.8521134851
 30
0.0
 10
121.3694528712
 20
178.8810811479
 30
0.0
 10
121.6694978921
 20
179.0204879907
 30
0.0
 10
121.9643649398
 20
179.1708347489
 30
0.0
 10
122.1935906288
 20
179.2928870716
 30
0.0
  0
SPLINE
  5
3C4
100
AcDbEntity
  8
0
100
AcDbSpline
 62
9
  6
CONTINUOUS
 70
0
 71
3
 72
10
 73
6
 74
0
 42
0.0000001
 43
0.0000001
 44
0.0000000001
 40
0.0
 40
0.0
 40
0.0
 40
0.0
 40
0.2548568068
 40
0.5164954476
 40
1.0
 40
1.0
 40
1.0
 40
1.0
 10
117.7920245807
 20
194.744971716
 30
0.0
 10
117.9136694634
 20
194.7689930968
 30
0.0
 10
118.1541586053
 20
194.8545933904
 30
0.0
 10
118.5566756936
 20
195.1360250265
 30
0.0
 10
118.7254240138
 20
195.5080910509
 30
0.0
 10
118.726673678
 20
195.7433243296
 30
0.0
  0
SPLINE
  5
3C5
100
AcDbEntity
  8
0
100
AcDbSpline
 62
9
  6
CONTINUOUS
 70
0
 71
3
 72
9
 73
5
 74
0
 42
0.0000001
 43
0.0000001
 44
0.0000000001
 40
0.0
 40
0.0
 40
0.0
 40
0.0
 40
0.4929346405
 40
1.0
 40
1.0
 40
1.0
 40
1.0
 10
116.446569437
 20
195.2927146758
 30
0.0
 10
116.5701517486
 20
195.0751274764
 30
0.0
 10
117.0041979771
 20
194.7322857262
 30
0.0
 10
117.5394944272
 20
194.695104327
 30
0.0
 10
117.7920245794
 20
194.7449718076
 30
0.0
  0
SPLINE
  5
3C6
100
AcDbEntity
  8
0
100
AcDbSpline
 62
9
  6
CONTINUOUS
 70
0
 71
3
 72
9
 73
5
 74
0
 42
0.0000001
 43
0.0000001
 44
0.0000000001
 40
0.0
 40
0.0
 40
0.0
 40
0.0
 40
0.5887634916
 40
1.0
 40
1.0
 40
1.0
 40
1.0
 10
117.1714750463
 20
196.502348725
 30
0.0
 10
117.0265714677
 20
196.3131260279
 30
0.0
 10
116.7736452526
 20
195.9982497679
 30
0.0
 10
116.5280894952
 20
195.673441773
 30
0.0
 10
116.4488817992
 20
195.5270241995
 30
0.0
  0
SPLINE
  5
3C7
100
AcDbEntity
  8
0
100
AcDbSpline
 62
9
  6
CONTINUOUS
 70
0
 71
3
 72
9
 73
5
 74
0
 42
0.0000001
 43
0.0000001
 44
0.0000000001
 40
0.0
 40
0.0
 40
0.0
 40
0.0
 40
0.2672764874
 40
1.0
 40
1.0
 40
1.0
 40
1.0
 10
116.4593858964
 20
195.0421583561
 30
0.0
 10
116.4573057253
 20
195.0644281027
 30
0.0
 10
116.4502464011
 20
195.1478044162
 30
0.0
 10
116.4462063291
 20
195.231516303
 30
0.0
 10
116.4465732058
 20
195.2928322268
 30
0.0
  0
SPLINE
  5
3C8
100
AcDbEntity
  8
0
100
AcDbSpline
 62
9
  6
CONTINUOUS
 70
0
 71
3
 72
9
 73
5
 74
0
 42
0.0000001
 43
0.0000001
 44
0.0000000001
 40
0.0
 40
0.0
 40
0.0
 40
0.0
 40
0.248187897
 40
1.0
 40
1.0
 40
1.0
 40
1.0
 10
114.3746076823
 20
206.0807823631
 30
0.0
 10
114.4517757733
 20
205.192124941
 30
0.0
 10
114.8485831428
 20
201.6195084278
 30
0.0
 10
115.5901522729
 20
198.0852682391
 30
0.0
 10
116.3336922964
 20
195.4875277611
 30
0.0
  0
SPLINE
  5
3C9
100
AcDbEntity
  8
0
100
AcDbSpline
 62
9
  6
CONTINUOUS
 70
0
 71
3
 72
11
 73
7
 74
0
 42
0.0000001
 43
0.0000001
 44
0.0000000001
 40
0.0
 40
0.0
 40
0.0
 40
0.0
 40
0.2582086493
 40
0.5014346582
 40
0.7445168349
 40
1.0
 40
1.0
 40
1.0
 40
1.0
 10
116.5379133528
 20
196.906642039
 30
0.0
 10
116.1855809637
 20
197.6395053247
 30
0.0
 10
115.690918947
 20
199.150922123
 30
0.0
 10
115.1924153425
 20
201.4410540791
 30
0.0
 10
114.7883430462
 20
203.7425826116
 30
0.0
 10
114.5114768873
 20
205.2879341854
 30
0.0
 10
114.3746076823
 20
206.0807823631
 30
0.0
  0
SPLINE
  5
3CA
100
AcDbEntity
  8
0
100
AcDbSpline
 62
9
  6
CONTINUOUS
 70
0
 71
3
 72
9
 73
5
 74
0
 42
0.0000001
 43
0.0000001
 44
0.0000000001
 40
0.0
 40
0.0
 40
0.0
 40
0.0
 40
0.2396503783
 40
1.0
 40
1.0
 40
1.0
 40
1.0
 10
116.4493835671
 20
195.5272380888
 30
0.0
 10
116.4525625403
 20
195.6376240547
 30
0.0
 10
116.4683780663
 20
196.0981930551
 30
0.0
 10
116.5060650268
 20
196.5577207647
 30
0.0
 10
116.5379133528
 20
196.906642039
 30
0.0
  0
SPLINE
  5
3CB
100
AcDbEntity
  8
0
100
AcDbSpline
 62
7
  6
CONTINUOUS
 70
0
 71
3
 72
14
 73
10
 74
0
 42
0.0000001
 43
0.0000001
 44
0.0000000001
 40
0.0
 40
0.0
 40
0.0
 40
0.0
 40
0.3409975785
 40
0.4887798042
 40
0.6207255226
 40
0.7378431787
 40
0.8403583109
 40
0.9258694287
 40
1.0
 40
1.0
 40
1.0
 40
1.0
 10
113.5621605169
 20
214.1003344986
 30
0.0
 10
113.2204970786
 20
214.0620430945
 30
0.0
 10
112.7239752589
 20
214.0722598736
 30
0.0
 10
112.1014491818
 20
214.1294177521
 30
0.0
 10
111.7005854816
 20
214.1422708465
 30
0.0
 10
111.3472049542
 20
214.1013556178
 30
0.0
 10
111.0467135823
 20
214.0380316457
 30
0.0
 10
110.7821276755
 20
214.0056702553
 30
0.0
 10
110.6200618968
 20
214.0566655137
 30
0.0
 10
110.559283621
 20
214.1001640069
 30
0.0
  0
SPLINE
  5
3CC
100
AcDbEntity
  8
0
100
AcDbSpline
 62
9
  6
CONTINUOUS
 70
0
 71
3
 72
12
 73
8
 74
0
 42
0.0000001
 43
0.0000001
 44
0.0000000001
 40
0.0
 40
0.0
 40
0.0
 40
0.0
 40
0.1264122424
 40
0.2497362538
 40
0.4914621997
 40
0.741458902
 40
1.0
 40
1.0
 40
1.0
 40
1.0
 10
114.0871344673
 20
326.2243670967
 30
0.0
 10
114.0691403797
 20
326.5974613767
 30
0.0
 10
114.1011853954
 20
327.3391326843
 30
0.0
 10
114.3919458914
 20
328.7662659935
 30
0.0
 10
115.2073926792
 20
330.4374511287
 30
0.0
 10
116.8850289272
 20
331.9667108132
 30
0.0
 10
118.340692724
 20
332.4956905854
 30
0.0
 10
119.0955526522
 20
332.6131741483
 30
0.0
  0
SPLINE
  5
3CD
100
AcDbEntity
  8
0
100
AcDbSpline
 62
7
  6
CONTINUOUS
 70
0
 71
3
 72
9
 73
5
 74
0
 42
0.0000001
 43
0.0000001
 44
0.0000000001
 40
0.0
 40
0.0
 40
0.0
 40
0.0
 40
0.2501829893
 40
1.0
 40
1.0
 40
1.0
 40
1.0
 10
110.5592836212
 20
213.5618547489
 30
0.0
 10
110.559283592
 20
212.5398519458
 30
0.0
 10
110.67139472
 20
208.4555530274
 30
0.0
 10
111.2306782066
 20
204.3839054773
 30
0.0
 10
111.8925084677
 20
201.3932429903
 30
0.0
  0
SPLINE
  5
3CE
100
AcDbEntity
  8
0
100
AcDbSpline
 62
9
  6
CONTINUOUS
 70
0
 71
3
 72
11
 73
7
 74
0
 42
0.0000001
 43
0.0000001
 44
0.0000000001
 40
0.0
 40
0.0
 40
0.0
 40
0.0
 40
0.1328416375
 40
0.3637500615
 40
0.6705526072
 40
1.0
 40
1.0
 40
1.0
 40
1.0
 10
114.3746073729
 20
206.0807816773
 30
0.0
 10
114.4138197645
 20
206.0640081586
 30
0.0
 10
114.5336569974
 20
206.0565265888
 30
0.0
 10
114.7471609933
 20
206.059246982
 30
0.0
 10
115.025079623
 20
206.0891250764
 30
0.0
 10
115.2269731018
 20
206.1189684311
 30
0.0
 10
115.3311659064
 20
206.1371677689
 30
0.0
  0
SPLINE
  5
3CF
100
AcDbEntity
  8
0
100
AcDbSpline
 62
9
  6
CONTINUOUS
 70
0
 71
3
 72
9
 73
5
 74
0
 42
0.0000001
 43
0.0000001
 44
0.0000000001
 40
0.0
 40
0.0
 40
0.0
 40
0.0
 40
0.5044456316
 40
1.0
 40
1.0
 40
1.0
 40
1.0
 10
115.3311759594
 20
206.1369559771
 30
0.0
 10
115.4862882699
 20
205.2677800501
 30
0.0
 10
116.1184803401
 20
203.600472007
 30
0.0
 10
117.0869170538
 20
202.1395144026
 30
0.0
 10
117.5831459328
 20
201.4281452168
 30
0.0
  0
SPLINE
  5
3D0
100
AcDbEntity
  8
0
100
AcDbSpline
 62
9
  6
CONTINUOUS
 70
0
 71
3
 72
12
 73
8
 74
0
 42
0.0000001
 43
0.0000001
 44
0.0000000001
 40
0.0
 40
0.0
 40
0.0
 40
0.0
 40
0.3708090657
 40
0.6870913957
 40
0.9036949211
 40
0.9659619261
 40
1.0
 40
1.0
 40
1.0
 40
1.0
 10
117.4738526359
 20
286.7540695005
 30
0.0
 10
117.6134792653
 20
286.7542445754
 30
0.0
 10
117.8727811698
 20
286.761629147
 30
0.0
 10
118.2101504336
 20
286.7912246709
 30
0.0
 10
118.4348001009
 20
286.8323653876
 30
0.0
 10
118.5422209859
 20
286.8724909092
 30
0.0
 10
118.5730500948
 20
286.9010168223
 30
0.0
 10
118.5738107513
 20
286.9138111376
 30
0.0
  0
SPLINE
  5
3D1
100
AcDbEntity
  8
0
100
AcDbSpline
 62
9
  6
CONTINUOUS
 70
0
 71
3
 72
11
 73
7
 74
0
 42
0.0000001
 43
0.0000001
 44
0.0000000001
 40
0.0
 40
0.0
 40
0.0
 40
0.0
 40
0.2328708201
 40
0.477875881
 40
0.7350191132
 40
1.0
 40
1.0
 40
1.0
 40
1.0
 10
119.5386207865
 20
330.3557411004
 30
0.0
 10
119.0435316424
 20
330.2778171943
 30
0.0
 10
118.0337638161
 20
330.0536100519
 30
0.0
 10
116.5924613929
 20
329.3538799104
 30
0.0
 10
115.3904524091
 20
328.1645096387
 30
0.0
 10
115.0405303174
 20
327.0125408988
 30
0.0
 10
115.066711333
 20
326.4428509781
 30
0.0
  0
SPLINE
  5
3D2
100
AcDbEntity
  8
0
100
AcDbSpline
 62
9
  6
CONTINUOUS
 70
0
 71
3
 72
11
 73
7
 74
0
 42
0.0000001
 43
0.0000001
 44
0.0000000001
 40
0.0
 40
0.0
 40
0.0
 40
0.0
 40
0.2649798167
 40
0.5221218902
 40
0.7671282025
 40
1.0
 40
1.0
 40
1.0
 40
1.0
 10
158.0518559129
 20
326.442850978
 30
0.0
 10
158.0780344102
 20
327.0124861009
 30
0.0
 10
157.7281876958
 20
328.1643425093
 30
0.0
 10
156.5263706217
 20
329.3536778598
 30
0.0
 10
155.0852492198
 20
330.0534469463
 30
0.0
 10
154.075584352
 20
330.2777066696
 30
0.0
 10
153.5805424627
 20
330.3556472881
 30
0.0
  0
SPLINE
  5
3D3
100
AcDbEntity
  8
0
100
AcDbSpline
 62
7
  6
CONTINUOUS
 70
0
 71
3
 72
10
 73
6
 74
0
 42
0.0000001
 43
0.0000001
 44
0.0000000001
 40
0.0
 40
0.0
 40
0.0
 40
0.0
 40
0.2361160926
 40
0.4876022597
 40
1.0
 40
1.0
 40
1.0
 40
1.0
 10
154.5732604271
 20
298.2002856004
 30
0.0
 10
154.6150410957
 20
298.3850783163
 30
0.0
 10
154.7446505623
 20
298.7565950756
 30
0.0
 10
155.0923365593
 20
299.4802024143
 30
0.0
 10
155.4092251601
 20
300.0060822073
 30
0.0
 10
155.625510857
 20
300.3557372623
 30
0.0
  0
SPLINE
  5
3D4
100
AcDbEntity
  8
0
100
AcDbSpline
 62
7
  6
CONTINUOUS
 70
0
 71
3
 72
10
 73
6
 74
0
 42
0.0000001
 43
0.0000001
 44
0.0000000001
 40
0.0
 40
0.0
 40
0.0
 40
0.0
 40
0.2362419486
 40
0.4877173297
 40
1.0
 40
1.0
 40
1.0
 40
1.0
 10
118.5453068158
 20
298.2002856022
 30
0.0
 10
118.5035055862
 20
298.3851692561
 30
0.0
 10
118.3728908048
 20
298.7564264776
 30
0.0
 10
118.0262593866
 20
299.4804185192
 30
0.0
 10
117.7092846674
 20
300.0061750259
 30
0.0
 10
117.4930563852
 20
300.3557372623
 30
0.0
  0
SPLINE
  5
3D5
100
AcDbEntity
  8
0
100
AcDbSpline
 62
9
  6
CONTINUOUS
 70
0
 71
3
 72
11
 73
7
 74
0
 42
0.0000001
 43
0.0000001
 44
0.0000000001
 40
0.0
 40
0.0
 40
0.0
 40
0.0
 40
0.1088064449
 40
0.3261391661
 40
0.6372134761
 40
1.0
 40
1.0
 40
1.0
 40
1.0
 10
118.5746272047
 20
290.704770246
 30
0.0
 10
118.5738404156
 20
290.746687915
 30
0.0
 10
118.4427052111
 20
290.8302260624
 30
0.0
 10
118.2204193435
 20
290.8844275215
 30
0.0
 10
117.8722307165
 20
290.9353384591
 30
0.0
 10
117.6144569233
 20
290.9448404832
 30
0.0
 10
117.4746690893
 20
290.9451025221
 30
0.0
  0
SPLINE
  5
3D6
100
AcDbEntity
  8
0
100
AcDbSpline
 62
9
  6
CONTINUOUS
 70
0
 71
3
 72
8
 73
4
 74
0
 42
0.0000001
 43
0.0000001
 44
0.0000000001
 40
0.0
 40
0.0
 40
0.0
 40
0.0
 40
1.0
 40
1.0
 40
1.0
 40
1.0
 10
118.5731724344
 20
287.9158268571
 30
0.0
 10
118.5731726994
 20
287.5818215477
 30
0.0
 10
118.5733831947
 20
287.247816168
 30
0.0
 10
118.5738107514
 20
286.9138111323
 30
0.0
  0
SPLINE
  5
3D7
100
AcDbEntity
  8
0
100
AcDbSpline
 62
9
  6
CONTINUOUS
 70
0
 71
3
 72
9
 73
5
 74
0
 42
0.0000001
 43
0.0000001
 44
0.0000000001
 40
0.0
 40
0.0
 40
0.0
 40
0.0
 40
0.2473299337
 40
1.0
 40
1.0
 40
1.0
 40
1.0
 10
118.5746272047
 20
290.7047702417
 30
0.0
 10
118.5743845052
 20
290.5804839177
 30
0.0
 10
118.5735300716
 20
290.0779714164
 30
0.0
 10
118.5731728556
 20
289.5754580809
 30
0.0
 10
118.5731724344
 20
289.1972314236
 30
0.0
  0
SPLINE
  5
3D8
100
AcDbEntity
  8
0
100
AcDbSpline
 62
9
  6
CONTINUOUS
 70
0
 71
3
 72
16
 73
12
 74
0
 42
0.0000001
 43
0.0000001
 44
0.0000000001
 40
0.0
 40
0.0
 40
0.0
 40
0.0
 40
0.0508419074
 40
0.1108287863
 40
0.1657158694
 40
0.2219881992
 40
0.2802133482
 40
0.3391244839
 40
0.4585754249
 40
0.7128474306
 40
1.0
 40
1.0
 40
1.0
 40
1.0
 10
118.7361917211
 20
176.0638106427
 30
0.0
 10
118.7787016975
 20
176.1142440792
 30
0.0
 10
118.8230249764
 20
176.2563374318
 30
0.0
 10
118.8951081287
 20
176.4571829664
 30
0.0
 10
119.0043667975
 20
176.6516968489
 30
0.0
 10
119.1109365242
 20
176.8435493319
 30
0.0
 10
119.223117909
 20
177.0386702326
 30
0.0
 10
119.388349083
 20
177.2975665309
 30
0.0
 10
119.7314398228
 20
177.7422826534
 30
0.0
 10
120.3399349319
 20
178.3581218125
 30
0.0
 10
120.9646670512
 20
178.6989647779
 30
0.0
 10
121.3043037497
 20
178.8520305831
 30
0.0
  0
SPLINE
  5
3D9
100
AcDbEntity
  8
0
100
AcDbSpline
 62
9
  6
CONTINUOUS
 70
0
 71
3
 72
8
 73
4
 74
0
 42
0.0000001
 43
0.0000001
 44
0.0000000001
 40
0.0
 40
0.0
 40
0.0
 40
0.0
 40
1.0
 40
1.0
 40
1.0
 40
1.0
 10
121.3043037497
 20
178.8520305831
 30
0.0
 10
120.7571070552
 20
179.7720500661
 30
0.0
 10
120.3098021517
 20
180.7533623351
 30
0.0
 10
119.9269723796
 20
181.7530129927
 30
0.0
  0
SPLINE
  5
3DA
100
AcDbEntity
  8
0
100
AcDbSpline
 62
9
  6
CONTINUOUS
 70
0
 71
3
 72
10
 73
6
 74
0
 42
0.0000001
 43
0.0000001
 44
0.0000000001
 40
0.0
 40
0.0
 40
0.0
 40
0.0
 40
0.5028819495
 40
0.7527195375
 40
1.0
 40
1.0
 40
1.0
 40
1.0
 10
119.9269723796
 20
181.7530129927
 30
0.0
 10
119.4608731972
 20
182.9730026615
 30
0.0
 10
118.8749350905
 20
184.8422977495
 30
0.0
 10
118.2348575806
 20
187.3589776963
 30
0.0
 10
117.9403496541
 20
188.6161066684
 30
0.0
 10
117.7830629892
 20
189.238739999
 30
0.0
  0
SPLINE
  5
3DB
100
AcDbEntity
  8
0
100
AcDbSpline
 62
9
  6
CONTINUOUS
 70
0
 71
3
 72
9
 73
5
 74
0
 42
0.0000001
 43
0.0000001
 44
0.0000000001
 40
0.0
 40
0.0
 40
0.0
 40
0.0
 40
0.7496523254
 40
1.0
 40
1.0
 40
1.0
 40
1.0
 10
117.7830629892
 20
189.238739999
 30
0.0
 10
118.3653743628
 20
185.9862006894
 30
0.0
 10
118.8031275408
 20
181.5751234114
 30
0.0
 10
118.7731154876
 20
177.166654172
 30
0.0
 10
118.7361917211
 20
176.0638106427
 30
0.0
  0
SPLINE
  5
3DC
100
AcDbEntity
  8
0
100
AcDbSpline
 62
9
  6
CONTINUOUS
 70
0
 71
3
 72
9
 73
5
 74
0
 42
0.0000001
 43
0.0000001
 44
0.0000000001
 40
0.0
 40
0.0
 40
0.0
 40
0.0
 40
0.4955594551
 40
1.0
 40
1.0
 40
1.0
 40
1.0
 10
155.5354212675
 20
201.4280458152
 30
0.0
 10
156.0318889398
 20
202.1397575369
 30
0.0
 10
157.0007210026
 20
203.6014461521
 30
0.0
 10
157.6329295539
 20
205.2696999724
 30
0.0
 10
157.7878135842
 20
206.1393300901
 30
0.0
  0
SPLINE
  5
3DD
100
AcDbEntity
  8
0
100
AcDbSpline
 62
9
  6
CONTINUOUS
 70
0
 71
3
 72
12
 73
8
 74
0
 42
0.0000001
 43
0.0000001
 44
0.0000000001
 40
0.0
 40
0.0
 40
0.0
 40
0.0
 40
0.0311587334
 40
0.090307988
 40
0.3128474755
 40
0.6431734327
 40
1.0
 40
1.0
 40
1.0
 40
1.0
 10
154.5447564912
 20
286.9138111376
 30
0.0
 10
154.5454526987
 20
286.9020977113
 30
0.0
 10
154.5727920632
 20
286.8744020964
 30
0.0
 10
154.6806168308
 20
286.8327191651
 30
0.0
 10
154.9111199719
 20
286.7906665139
 30
0.0
 10
155.2510859868
 20
286.7613526325
 30
0.0
 10
155.5103370427
 20
286.7542381976
 30
0.0
 10
155.6447146065
 20
286.7540695009
 30
0.0
  0
SPLINE
  5
3DE
100
AcDbEntity
  8
0
100
AcDbSpline
 62
9
  6
CONTINUOUS
 70
0
 71
3
 72
8
 73
4
 74
0
 42
0.0000001
 43
0.0000001
 44
0.0000000001
 40
0.0
 40
0.0
 40
0.0
 40
0.0
 40
1.0
 40
1.0
 40
1.0
 40
1.0
 10
155.6447146099
 20
286.7540699989
 30
0.0
 10
155.6451424337
 20
287.1413221085
 30
0.0
 10
155.6453529264
 20
287.5285745153
 30
0.0
 10
155.6453529263
 20
287.9158268612
 30
0.0
  0
SPLINE
  5
3DF
100
AcDbEntity
  8
0
100
AcDbSpline
 62
9
  6
CONTINUOUS
 70
0
 71
3
 72
9
 73
5
 74
0
 42
0.0000001
 43
0.0000001
 44
0.0000000001
 40
0.0
 40
0.0
 40
0.0
 40
0.0
 40
0.2518825787
 40
1.0
 40
1.0
 40
1.0
 40
1.0
 10
155.6453526427
 20
289.1972314236
 30
0.0
 10
155.6453526427
 20
289.3439842439
 30
0.0
 10
155.6452310887
 20
289.9266081751
 30
0.0
 10
155.6446324126
 20
290.5092320215
 30
0.0
 10
155.6438978724
 20
290.9451025217
 30
0.0
  0
SPLINE
  5
3E0
100
AcDbEntity
  8
0
100
AcDbSpline
 62
9
  6
CONTINUOUS
 70
0
 71
3
 72
12
 73
8
 74
0
 42
0.0000001
 43
0.0000001
 44
0.0000000001
 40
0.0
 40
0.0
 40
0.0
 40
0.0
 40
0.3486939025
 40
0.6731731114
 40
0.8007681703
 40
0.897213593
 40
1.0
 40
1.0
 40
1.0
 40
1.0
 10
155.6438981531
 20
290.9451025221
 30
0.0
 10
155.5094415667
 20
290.9448523503
 30
0.0
 10
155.2493608153
 20
290.9336866609
 30
0.0
 10
154.9439749272
 20
290.8953926428
 30
0.0
 10
154.7359916823
 20
290.8409332901
 30
0.0
 10
154.6241254531
 20
290.7986983472
 30
0.0
 10
154.5454836166
 20
290.7443747484
 30
0.0
 10
154.5439400378
 20
290.704770246
 30
0.0
  0
SPLINE
  5
3E1
100
AcDbEntity
  8
0
100
AcDbSpline
 62
9
  6
CONTINUOUS
 70
0
 71
3
 72
13
 73
9
 74
0
 42
0.0000001
 43
0.0000001
 44
0.0000000001
 40
0.0
 40
0.0
 40
0.0
 40
0.0
 40
0.2284959877
 40
0.3473720425
 40
0.4701704071
 40
0.5968488348
 40
0.7273717396
 40
1.0
 40
1.0
 40
1.0
 40
1.0
 10
116.8271717451
 20
197.7531644567
 30
0.0
 10
116.8494427673
 20
198.0384864482
 30
0.0
 10
116.9165594933
 20
198.4692514344
 30
0.0
 10
117.021477372
 20
199.0485432209
 30
0.0
 10
117.0986529938
 20
199.5034330296
 30
0.0
 10
117.1856722884
 20
199.9714338317
 30
0.0
 10
117.3395448959
 20
200.6173523682
 30
0.0
 10
117.4945981731
 20
201.0983613198
 30
0.0
 10
117.5831454037
 20
201.4281459753
 30
0.0
  0
SPLINE
  5
3E2
100
AcDbEntity
  8
0
100
AcDbSpline
 62
9
  6
CONTINUOUS
 70
0
 71
3
 72
13
 73
9
 74
0
 42
0.0000001
 43
0.0000001
 44
0.0000000001
 40
0.0
 40
0.0
 40
0.0
 40
0.0
 40
0.1550316138
 40
0.298498624
 40
0.4951149634
 40
0.6751823333
 40
0.8414789715
 40
1.0
 40
1.0
 40
1.0
 40
1.0
 10
116.8271720709
 20
197.7531646429
 30
0.0
 10
116.8251376426
 20
197.7068337874
 30
0.0
 10
116.7948296804
 20
197.6209994424
 30
0.0
 10
116.7537875833
 20
197.4792296974
 30
0.0
 10
116.6910178535
 20
197.3363409621
 30
0.0
 10
116.6281446763
 20
197.1865292178
 30
0.0
 10
116.5759614339
 20
197.045263154
 30
0.0
 10
116.5435067689
 20
196.9524450125
 30
0.0
 10
116.5379621314
 20
196.9053509799
 30
0.0
  0
SPLINE
  5
3E3
100
AcDbEntity
  8
0
100
AcDbSpline
 62
9
  6
CONTINUOUS
 70
0
 71
3
 72
9
 73
5
 74
0
 42
0.0000001
 43
0.0000001
 44
0.0000000001
 40
0.0
 40
0.0
 40
0.0
 40
0.0
 40
0.2370005064
 40
1.0
 40
1.0
 40
1.0
 40
1.0
 10
116.537882928
 20
196.905312964
 30
0.0
 10
116.5736123369
 20
196.8571657411
 30
0.0
 10
116.7469478812
 20
196.6713525026
 30
0.0
 10
116.9842403236
 20
196.5492452397
 30
0.0
 10
117.171490581
 20
196.5023920628
 30
0.0
  0
SPLINE
  5
3E4
100
AcDbEntity
  8
0
100
AcDbSpline
 62
9
  6
CONTINUOUS
 70
0
 71
3
 72
10
 73
6
 74
0
 42
0.0000001
 43
0.0000001
 44
0.0000000001
 40
0.0
 40
0.0
 40
0.0
 40
0.0
 40
0.202419999
 40
0.4460433585
 40
1.0
 40
1.0
 40
1.0
 40
1.0
 10
117.1714905716
 20
196.5023920365
 30
0.0
 10
117.1989893932
 20
196.5392325695
 30
0.0
 10
117.2885072474
 20
196.5946925075
 30
0.0
 10
117.4929859136
 20
196.6885101185
 30
0.0
 10
117.6565100851
 20
196.7692823164
 30
0.0
 10
117.7649814827
 20
196.8330164896
 30
0.0
  0
SPLINE
  5
3E5
100
AcDbEntity
  8
0
100
AcDbSpline
 62
9
  6
CONTINUOUS
 70
0
 71
3
 72
9
 73
5
 74
0
 42
0.0000001
 43
0.0000001
 44
0.0000000001
 40
0.0
 40
0.0
 40
0.0
 40
0.0
 40
0.5098068057
 40
1.0
 40
1.0
 40
1.0
 40
1.0
 10
117.7649814827
 20
196.8330164896
 30
0.0
 10
118.0145199758
 20
196.9791910875
 30
0.0
 10
118.4635274284
 20
197.348444376
 30
0.0
 10
118.694626375
 20
197.914586474
 30
0.0
 10
118.6957772336
 20
198.192657528
 30
0.0
  0
SPLINE
  5
3E6
100
AcDbEntity
  8
0
100
AcDbSpline
 62
9
  6
CONTINUOUS
 70
0
 71
3
 72
14
 73
10
 74
0
 42
0.0000001
 43
0.0000001
 44
0.0000000001
 40
0.0
 40
0.0
 40
0.0
 40
0.0
 40
0.0716409658
 40
0.1636267679
 40
0.2863939301
 40
0.4347535512
 40
0.5974340438
 40
0.7558724858
 40
1.0
 40
1.0
 40
1.0
 40
1.0
 10
118.6957772336
 20
198.192657528
 30
0.0
 10
118.695103549
 20
198.1412029767
 30
0.0
 10
118.6657967911
 20
198.0229180106
 30
0.0
 10
118.5326189915
 20
197.8592239222
 30
0.0
 10
118.3080238969
 20
197.7205765613
 30
0.0
 10
118.01174553
 20
197.6169642033
 30
0.0
 10
117.6745122557
 20
197.5770052143
 30
0.0
 10
117.2683468487
 20
197.5909647502
 30
0.0
 10
116.9816130881
 20
197.670115937
 30
0.0
 10
116.8271720709
 20
197.7531646429
 30
0.0
  0
SPLINE
  5
3E7
100
AcDbEntity
  8
0
100
AcDbSpline
 62
9
  6
CONTINUOUS
 70
0
 71
3
 72
11
 73
7
 74
0
 42
0.0000001
 43
0.0000001
 44
0.0000000001
 40
0.0
 40
0.0
 40
0.0
 40
0.0
 40
0.0716875262
 40
0.2664865206
 40
0.5973705416
 40
1.0
 40
1.0
 40
1.0
 40
1.0
 10
118.6831039573
 20
201.5878905815
 30
0.0
 10
118.6815049214
 20
201.5609946441
 30
0.0
 10
118.565204809
 20
201.5103999595
 30
0.0
 10
118.3665003305
 20
201.4731619536
 30
0.0
 10
118.0065572833
 20
201.4353780025
 30
0.0
 10
117.7344721642
 20
201.4283386893
 30
0.0
 10
117.5831458419
 20
201.4281489444
 30
0.0
  0
SPLINE
  5
3E8
100
AcDbEntity
  8
0
100
AcDbSpline
 62
9
  6
CONTINUOUS
 70
0
 71
3
 72
8
 73
4
 74
0
 42
0.0000001
 43
0.0000001
 44
0.0000000001
 40
0.0
 40
0.0
 40
0.0
 40
0.0
 40
1.0
 40
1.0
 40
1.0
 40
1.0
 10
151.8143255427
 20
178.8526286181
 30
0.0
 10
151.5690043613
 20
178.4431399694
 30
0.0
 10
151.3160328786
 20
178.0377095249
 30
0.0
 10
151.0448206936
 20
177.6448897365
 30
0.0
  0
SPLINE
  5
3E9
100
AcDbEntity
  8
0
100
AcDbSpline
 62
9
  6
CONTINUOUS
 70
0
 71
3
 72
11
 73
7
 74
0
 42
0.0000001
 43
0.0000001
 44
0.0000000001
 40
0.0
 40
0.0
 40
0.0
 40
0.0
 40
0.2497764266
 40
0.499739073
 40
0.7498426241
 40
1.0
 40
1.0
 40
1.0
 40
1.0
 10
151.0448206936
 20
177.6448897365
 30
0.0
 10
150.6481672285
 20
177.0788187449
 30
0.0
 10
149.8590616262
 20
175.9431079556
 30
0.0
 10
148.6587379176
 20
174.2504107578
 30
0.0
 10
147.4428632173
 20
172.5676027787
 30
0.0
 10
146.6138847687
 20
171.4586063553
 30
0.0
 10
146.1890167514
 20
170.9120572068
 30
0.0
  0
SPLINE
  5
3EA
100
AcDbEntity
  8
0
100
AcDbSpline
 62
9
  6
CONTINUOUS
 70
0
 71
3
 72
10
 73
6
 74
0
 42
0.0000001
 43
0.0000001
 44
0.0000000001
 40
0.0
 40
0.0
 40
0.0
 40
0.0
 40
0.2474524487
 40
0.4971078997
 40
1.0
 40
1.0
 40
1.0
 40
1.0
 10
155.3355060732
 20
189.2387503172
 30
0.0
 10
155.1763176485
 20
188.6169987552
 30
0.0
 10
154.8824488191
 20
187.3614411593
 30
0.0
 10
154.2467133646
 20
184.8471271151
 30
0.0
 10
153.6605126265
 20
182.9809772332
 30
0.0
 10
153.1952431987
 20
181.7624534551
 30
0.0
  0
SPLINE
  5
3EB
100
AcDbEntity
  8
0
100
AcDbSpline
 62
9
  6
CONTINUOUS
 70
0
 71
3
 72
8
 73
4
 74
0
 42
0.0000001
 43
0.0000001
 44
0.0000000001
 40
0.0
 40
0.0
 40
0.0
 40
0.0
 40
1.0
 40
1.0
 40
1.0
 40
1.0
 10
153.1952431987
 20
181.7624534551
 30
0.0
 10
152.8100056989
 20
180.7603152032
 30
0.0
 10
152.3634527761
 20
179.7752032953
 30
0.0
 10
151.8145729092
 20
178.8524791227
 30
0.0
  0
SPLINE
  5
3EC
100
AcDbEntity
  8
0
100
AcDbSpline
 62
9
  6
CONTINUOUS
 70
0
 71
3
 72
16
 73
12
 74
0
 42
0.0000001
 43
0.0000001
 44
0.0000000001
 40
0.0
 40
0.0
 40
0.0
 40
0.0
 40
0.2871620012
 40
0.5414777884
 40
0.6609163731
 40
0.7197245301
 40
0.7779662784
 40
0.8343042262
 40
0.8890755348
 40
0.9490931999
 40
1.0
 40
1.0
 40
1.0
 40
1.0
 10
151.8145729092
 20
178.8524791227
 30
0.0
 10
152.1535016514
 20
178.6978236145
 30
0.0
 10
152.779177792
 20
178.3589267178
 30
0.0
 10
153.387101679
 20
177.7419635982
 30
0.0
 10
153.7297763317
 20
177.2971844684
 30
0.0
 10
153.8958811173
 20
177.0389964626
 30
0.0
 10
154.0078773362
 20
176.84378443
 30
0.0
 10
154.1138941144
 20
176.6516819906
 30
0.0
 10
154.223892955
 20
176.4575959998
 30
0.0
 10
154.295689354
 20
176.2566112694
 30
0.0
 10
154.3399360837
 20
176.1144134732
 30
0.0
 10
154.382375496
 20
176.0638108183
 30
0.0
  0
SPLINE
  5
3ED
100
AcDbEntity
  8
0
100
AcDbSpline
 62
9
  6
CONTINUOUS
 70
0
 71
3
 72
9
 73
5
 74
0
 42
0.0000001
 43
0.0000001
 44
0.0000000001
 40
0.0
 40
0.0
 40
0.0
 40
0.0
 40
0.2320057113
 40
1.0
 40
1.0
 40
1.0
 40
1.0
 10
156.671994034
 20
195.2928326298
 30
0.0
 10
156.6721113517
 20
195.2734451281
 30
0.0
 10
156.6710875132
 20
195.1898709704
 30
0.0
 10
156.6652349304
 20
195.1064189702
 30
0.0
 10
156.6592800855
 20
195.042517396
 30
0.0
  0
SPLINE
  5
3EE
100
AcDbEntity
  8
0
100
AcDbSpline
 62
9
  6
CONTINUOUS
 70
0
 71
3
 72
9
 73
5
 74
0
 42
0.0000001
 43
0.0000001
 44
0.0000000001
 40
0.0
 40
0.0
 40
0.0
 40
0.0
 40
0.4818946868
 40
1.0
 40
1.0
 40
1.0
 40
1.0
 10
156.6718937181
 20
195.292874136
 30
0.0
 10
156.5511342151
 20
195.0800772359
 30
0.0
 10
156.121610275
 20
194.7347399695
 30
0.0
 10
155.584427169
 20
194.6941613561
 30
0.0
 10
155.3263560704
 20
194.7451470353
 30
0.0
  0
SPLINE
  5
3EF
100
AcDbEntity
  8
0
100
AcDbSpline
 62
9
  6
CONTINUOUS
 70
0
 71
3
 72
17
 73
13
 74
0
 42
0.0000001
 43
0.0000001
 44
0.0000000001
 40
0.0
 40
0.0
 40
0.0
 40
0.0
 40
0.0340468181
 40
0.0795979598
 40
0.132709104
 40
0.1907131933
 40
0.3144698546
 40
0.445219838
 40
0.5804812396
 40
0.7183572173
 40
0.8582010368
 40
1.0
 40
1.0
 40
1.0
 40
1.0
 10
155.3263560704
 20
194.7451470353
 30
0.0
 10
155.3667136042
 20
194.6008891452
 30
0.0
 10
155.3994705305
 20
194.248642164
 30
0.0
 10
155.3922797715
 20
193.6654237151
 30
0.0
 10
155.3343838882
 20
192.977781305
 30
0.0
 10
155.2091517452
 20
191.9521186956
 30
0.0
 10
155.0048279138
 20
190.5921225096
 30
0.0
 10
154.7177824162
 20
188.9014485595
 30
0.0
 10
154.4046443568
 20
187.1522489817
 30
0.0
 10
154.0712127661
 20
185.3660189591
 30
0.0
 10
153.683773603
 20
183.5610374698
 30
0.0
 10
153.3700070161
 20
182.3615348433
 30
0.0
 10
153.1938911413
 20
181.7630319962
 30
0.0
  0
SPLINE
  5
3F0
100
AcDbEntity
  8
0
100
AcDbSpline
 62
9
  6
CONTINUOUS
 70
0
 71
3
 72
10
 73
6
 74
0
 42
0.0000001
 43
0.0000001
 44
0.0000000001
 40
0.0
 40
0.0
 40
0.0
 40
0.0
 40
0.5201261416
 40
0.7645883145
 40
1.0
 40
1.0
 40
1.0
 40
1.0
 10
155.3263560704
 20
194.7451470353
 30
0.0
 10
155.0773720468
 20
194.7943344259
 30
0.0
 10
154.715794332
 20
194.9779721511
 30
0.0
 10
154.4417065591
 20
195.3921716181
 30
0.0
 10
154.3922728503
 20
195.6284403
 30
0.0
 10
154.3916521362
 20
195.7433079883
 30
0.0
  0
SPLINE
  5
3F1
100
AcDbEntity
  8
0
100
AcDbSpline
 62
9
  6
CONTINUOUS
 70
0
 71
3
 72
9
 73
5
 74
0
 42
0.0000001
 43
0.0000001
 44
0.0000000001
 40
0.0
 40
0.0
 40
0.0
 40
0.0
 40
0.2699994889
 40
1.0
 40
1.0
 40
1.0
 40
1.0
 10
150.9251726022
 20
179.2932979617
 30
0.0
 10
151.004022497
 20
179.251326412
 30
0.0
 10
151.2972574238
 20
179.0981946191
 30
0.0
 10
151.5937860575
 20
178.9509392557
 30
0.0
 10
151.814367797
 20
178.8526031449
 30
0.0
  0
SPLINE
  5
3F2
100
AcDbEntity
  8
0
100
AcDbSpline
 62
7
  6
CONTINUOUS
 70
0
 71
3
 72
11
 73
7
 74
0
 42
0.0000001
 43
0.0000001
 44
0.0000000001
 40
0.0
 40
0.0
 40
0.0
 40
0.0
 40
0.2177022632
 40
0.4488285416
 40
0.7076306819
 40
1.0
 40
1.0
 40
1.0
 40
1.0
 10
154.3918498862
 20
198.4167078733
 30
0.0
 10
154.3879043459
 20
197.9584822364
 30
0.0
 10
154.2187570528
 20
197.0079440765
 30
0.0
 10
153.4648256281
 20
195.6892402705
 30
0.0
 10
152.1623078306
 20
194.6195450173
 30
0.0
 10
151.0060334625
 20
194.2866039122
 30
0.0
 10
150.3920021933
 20
194.2454372688
 30
0.0
  0
SPLINE
  5
3F3
100
AcDbEntity
  8
0
100
AcDbSpline
 62
9
  6
CONTINUOUS
 70
0
 71
3
 72
8
 73
4
 74
0
 42
0.0000001
 43
0.0000001
 44
0.0000000001
 40
0.0
 40
0.0
 40
0.0
 40
0.0
 40
1.0
 40
1.0
 40
1.0
 40
1.0
 10
150.3920021934
 20
178.0264489348
 30
0.0
 10
150.5798749817
 20
178.4443156354
 30
0.0
 10
150.7542251053
 20
178.8682270773
 30
0.0
 10
150.9251802494
 20
179.2932954281
 30
0.0
  0
SPLINE
  5
3F4
100
AcDbEntity
  8
0
100
AcDbSpline
 62
9
  6
CONTINUOUS
 70
0
 71
3
 72
16
 73
12
 74
0
 42
0.0000001
 43
0.0000001
 44
0.0000000001
 40
0.0
 40
0.0
 40
0.0
 40
0.0
 40
0.1290449554
 40
0.2592700339
 40
0.5212650387
 40
0.6519938321
 40
0.7798159011
 40
0.8415617779
 40
0.9007447219
 40
0.9553954561
 40
1.0
 40
1.0
 40
1.0
 40
1.0
 10
150.9251977717
 20
179.2932914929
 30
0.0
 10
151.1952456792
 20
179.9652506286
 30
0.0
 10
151.6388963748
 20
181.3543291862
 30
0.0
 10
152.3488306107
 20
184.1927921074
 30
0.0
 10
152.8707843296
 20
187.082619351
 30
0.0
 10
153.4039225266
 20
189.9545237892
 30
0.0
 10
153.739120695
 20
191.7205652435
 30
0.0
 10
154.0024437814
 20
193.0914182888
 30
0.0
 10
154.1808699525
 20
194.0606500833
 30
0.0
 10
154.324869658
 20
194.9376598168
 30
0.0
 10
154.3870990084
 20
195.4927498821
 30
0.0
 10
154.3916543949
 20
195.7430264779
 30
0.0
  0
SPLINE
  5
3F5
100
AcDbEntity
  8
0
100
AcDbSpline
 62
7
  6
CONTINUOUS
 70
0
 71
3
 72
11
 73
7
 74
0
 42
0.0000001
 43
0.0000001
 44
0.0000000001
 40
0.0
 40
0.0
 40
0.0
 40
0.0
 40
0.2923695377
 40
0.551171581
 40
0.7822978088
 40
1.0
 40
1.0
 40
1.0
 40
1.0
 10
122.7265650481
 20
194.2454372688
 30
0.0
 10
122.1125333197
 20
194.2866039432
 30
0.0
 10
120.9562587185
 20
194.6195454116
 30
0.0
 10
119.653741026
 20
195.6892409601
 30
0.0
 10
118.8998101027
 20
197.0079445065
 30
0.0
 10
118.7306628953
 20
197.958482388
 30
0.0
 10
118.7267173563
 20
198.4167078721
 30
0.0
  0
SPLINE
  5
3F6
100
AcDbEntity
  8
0
100
AcDbSpline
 62
9
  6
CONTINUOUS
 70
0
 71
3
 72
16
 73
12
 74
0
 42
0.0000001
 43
0.0000001
 44
0.0000000001
 40
0.0
 40
0.0
 40
0.0
 40
0.0
 40
0.0447735134
 40
0.0992494044
 40
0.1583592845
 40
0.2201972293
 40
0.3481213501
 40
0.4787364877
 40
0.7407272158
 40
0.8709945671
 40
1.0
 40
1.0
 40
1.0
 40
1.0
 10
118.7266742668
 20
195.7433638109
 30
0.0
 10
118.7290904241
 20
195.4920968208
 30
0.0
 10
118.7967167127
 20
194.937246432
 30
0.0
 10
118.9371536966
 20
194.060381773
 30
0.0
 10
119.1147267581
 20
193.0917159396
 30
0.0
 10
119.3785077269
 20
191.7202298883
 30
0.0
 10
119.7187817276
 20
189.9545810888
 30
0.0
 10
120.2428320626
 20
187.0809183476
 30
0.0
 10
120.7726111412
 20
184.1929612249
 30
0.0
 10
121.4784642988
 20
181.3533671864
 30
0.0
 10
121.9235271841
 20
179.9645981171
 30
0.0
 10
122.193620195
 20
179.2928579325
 30
0.0
  0
SPLINE
  5
3F7
100
AcDbEntity
  8
0
100
AcDbSpline
 62
9
  6
CONTINUOUS
 70
0
 71
3
 72
8
 73
4
 74
0
 42
0.0000001
 43
0.0000001
 44
0.0000000001
 40
0.0
 40
0.0
 40
0.0
 40
0.0
 40
1.0
 40
1.0
 40
1.0
 40
1.0
 10
122.1935861808
 20
179.2928531859
 30
0.0
 10
122.364510411
 20
178.8679147638
 30
0.0
 10
122.5386907749
 20
178.4440739764
 30
0.0
 10
122.7265650481
 20
178.0263527625
 30
0.0
  0
ELLIPSE
  5
3F8
100
AcDbEntity
  8
0
100
AcDbEllipse
 62
7
  6
CONTINUOUS
 10
123.0114820392
 20
198.4865662128
 30
0.0
 11
1.900903842
 21
3.8020972451
 31
0.0
 40
0.9998096356
 41
-2.7449864053
 42
-2.6780516534
  0
ELLIPSE
  5
3F9
100
AcDbEntity
  8
0
100
AcDbEllipse
 62
7
  6
CONTINUOUS
 10
150.1070852032
 20
198.4865662128
 30
0.0
 11
-1.900903842
 21
3.8020972451
 31
0.0
 40
0.9998096356
 41
-3.6051336536
 42
-3.5381989021
  0
ELLIPSE
  5
3FA
100
AcDbEntity
  8
0
100
AcDbEllipse
 62
7
  6
CONTINUOUS
 10
117.4885458332
 20
297.8069003448
 30
0.0
 11
0.0058644032
 21
1.4068477841
 31
0.0
 40
0.781881836
 41
-1.5590212759
 42
-1.2841385006
  0
ELLIPSE
  5
3FB
100
AcDbEntity
  8
0
100
AcDbEllipse
 62
7
  6
CONTINUOUS
 10
118.6493249313
 20
291.7521815719
 30
0.0
 11
0.0
 21
3.0
 31
0.0
 40
0.0087268678
 41
-4.1887902047
 42
-3.1764992387
  0
ELLIPSE
  5
3FC
100
AcDbEntity
  8
0
100
AcDbEllipse
 62
7
  6
CONTINUOUS
 10
154.4692423112
 20
291.7521815719
 30
0.0
 11
0.0
 21
3.0
 31
0.0
 40
0.0087268678
 41
3.1764992399
 42
4.1887902046
  0
ELLIPSE
  5
3FD
100
AcDbEntity
  8
0
100
AcDbEllipse
 62
7
  6
CONTINUOUS
 10
155.6300214093
 20
297.8069003448
 30
0.0
 11
-0.0058644032
 21
1.4068477841
 31
0.0
 40
0.781881836
 41
1.2841385006
 42
1.5590212784
  0
ENDSEC
  0
SECTION
  2
OBJECTS
  0
DICTIONARY
  5
C
100
AcDbDictionary
280
0
281
1
  3
ACAD_GROUP
350
D
  3
ACAD_MLINESTYLE
350
17
  3
ACAD_LAYOUT
350
1A
  3
ACAD_PLOTSETTINGS
350
19
  3
ACAD_PLOTSTYLENAME
350
E
  0
DICTIONARY
  5
D
102
{ACAD_REACTORS
330
C
102
}
100
AcDbDictionary
280
0
281
1
  0
ACDBDICTIONARYWDFLT
  5
E
102
{ACAD_REACTORS
330
C
102
}
100
AcDbDictionary
281
1
  3
Normal
350
F
100
AcDbDictionaryWithDefault
340
F
  0
DICTIONARY
  5
17
102
{ACAD_REACTORS
330
C
102
}
100
AcDbDictionary
280
0
281
1
  3
Standard
350
18
  0
DICTIONARY
  5
19
102
{ACAD_REACTORS
330
C
102
}
100
AcDbDictionary
281
1
  0
DICTIONARY
  5
1A
102
{ACAD_REACTORS
330
C
102
}
100
AcDbDictionary
281
1
  3
Model
350
3FE
  3
Layout1
350
3FF
  0
ACDBPLACEHOLDER
  5
F
102
{ACAD_REACTORS
330
E
102
}
  0
MLINESTYLE
  5
18
102
{ACAD_REACTORS
330
17
102
}
100
AcDbMlineStyle
  2
STANDARD
 70
0
  3

 62
256
 51
90.0
 52
90.0
 71
2
 49
0.5
 62
256
  6
BYLAYER
 49
-0.5
 62
256
  6
BYLAYER
  0
LAYOUT
  5
3FE
102
{ACAD_REACTORS
330
1A
102
}
100
AcDbPlotSettings
  1

  2
none_device
  4
ANSI_C_(22.00_x_17.00_Inches)
  6

 40
0.0
 41
0.0
 42
0.0
 43
0.0
 44
558.8
 45
431.8
 46
0.0
 47
0.0
 48
0.0
 49
0.0
140
0.0
141
0.0
142
1.0
143
1.0
 70
1024
 72
1
 73
0
 74
0
  7

 75
0
147
1.0
148
0.0
149
0.0
100
AcDbLayout
  1
Model
 70
0
 71
0
 10
0.0
 20
0.0
 11
558.8
 21
431.8
 12
0.0
 22
0.0
 32
0.0
 14
0.0
 24
0.0
 34
0.0
 15
0.0
 25
0.0
 35
0.0
146
0.0
 13
0.0
 23
0.0
 33
0.0
 16
1.0
 26
0.0
 36
0.0
 17
0.0
 27
1.0
 37
0.0
 76
0
330
219
345
0
346
0
  0
LAYOUT
  5
3FF
102
{ACAD_REACTORS
330
1A
102
}
100
AcDbPlotSettings
  1

  2
none_device
  4
ANSI_C_(22.00_x_17.00_Inches)
  6

 40
0.0
 41
0.0
 42
0.0
 43
0.0
 44
558.8
 45
431.8
 46
0.0
 47
0.0
 48
0.0
 49
0.0
140
0.0
141
0.0
142
1.0
143
1.0
 70
0
 72
1
 73
0
 74
0
  7

 75
0
147
1.0
148
0.0
149
0.0
100
AcDbLayout
  1
Layout1
 70
0
 71
1
 10
0.0
 20
0.0
 11
558.8
 21
431.8
 12
0.0
 22
0.0
 32
0.0
 14
0.0
 24
0.0
 34
0.0
 15
0.0
 25
0.0
 35
0.0
146
0.0
 13
0.0
 23
0.0
 33
0.0
 16
1.0
 26
0.0
 36
0.0
 17
0.0
 27
1.0
 37
0.0
 76
0
330
21A
345
0
346
0
  0
ENDSEC
  0
EOF
