999
DXF file: C:\Users\sesa63760\Dev\_Creo\CAD\MCADID0004848_3D-CAD\drw0001_3.dxf
999
Pro/ENGINEER 2019471 by Parametric Technology Corporation
  0
SECTION
  2
HEADER
  9
$ACADVER
  1
AC1024
  9
$DWGCODEPAGE
  3
ANSI_1252
  9
$EXTMAX
 10
316.0157372411
 20
446.9365426696
 30
0.0
  9
$EXTMIN
 10
0.0
 20
0.0
 30
0.0
  9
$LIMMIN
 10
0.0
 20
0.0
  9
$LIMMAX
 10
316.0157372411
 20
446.9365426696
  9
$VIEWCTR
 10
158.0078686206
 20
223.4682713348
  9
$VIEWSIZE
 40
446.9365426696
  9
$CLAYER
  8
0
  9
$LTSCALE
 40
29.1336412999
  9
$CELTYPE
  6
BYLAYER
  9
$DIMSCALE
 40
1.0
  9
$DIMASZ
 40
3.76209211
  9
$DIMEXO
 40
1.0
  9
$DIMDLI
 40
20.1286976254
  9
$DIMEXE
 40
1.0
  9
$DIMCEN
 40
4.7673231218
  9
$DIMLFAC
 40
1.0
  9
$DIMBLK
  1
_FILLED
  9
$DIMALT
 70
0
  9
$DIMALTF
 40
0.0393700787
  9
$DIMTXT
 40
5.266928954
  9
$DIMTOL
 70
1
  9
$DIMLIM
 70
0
  9
$DIMTFAC
 40
1.0
  9
$DIMTP
 40
0.01
  9
$DIMTM
 40
0.01
  9
$DIMGAP
 40
0.625
  9
$DIMDSEP
 70
46
  9
$AUNITS
 70
0
  9
$PDMODE
 70
3
  9
$PDSIZE
 40
0.3125
  9
$HANDSEED
  5
48E
  9
$TILEMODE
 70
1
  9
$MEASUREMENT
 70
1
  9
$INSUNITS
 70
4
  0
ENDSEC
  0
SECTION
  2
CLASSES
  0
CLASS
  1
ACDBDICTIONARYWDFLT
  2
AcDbDictionaryWithDefault
  3
AutoCAD 2000
 90
0
 91
1
280
0
281
0
  0
CLASS
  1
ACDBPLACEHOLDER
  2
AcDbPlaceHolder
  3
AutoCAD 2000
 90
0
 91
1
280
0
281
0
  0
CLASS
  1
LAYOUT
  2
AcDbLayout
  3
AutoCAD 2000
 90
0
 91
0
280
0
281
0
  0
ENDSEC
  0
SECTION
  2
TABLES
  0
TABLE
  2
VPORT
  5
8
100
AcDbSymbolTable
 70
2
  0
VPORT
  5
1F4
100
AcDbSymbolTableRecord
100
AcDbViewportTableRecord
  2
*ACTIVE
 70
0
 10
0.0
 20
0.0
 11
1.0
 21
1.0
 12
158.0078686206
 22
223.4682713348
 13
0.0
 23
0.0
 14
1.0
 24
1.0
 15
0.0
 25
0.0
 16
0.0
 26
0.0
 36
1.0
 17
0.0
 27
0.0
 37
0.0
 40
446.9365426696
 41
0.7070707071
 42
50.0
 43
0.0
 44
0.0
 50
0.0
 51
0.0
 71
0
 72
100
 73
1
 74
1
 75
0
 76
0
 77
0
 78
0
  0
ENDTAB
  0
TABLE
  2
LTYPE
  5
5
100
AcDbSymbolTable
 70
6
  0
LTYPE
  5
14
100
AcDbSymbolTableRecord
100
AcDbLinetypeTableRecord
  2
BYBLOCK
 70
0
  3

 72
65
 73
0
 40
0.0
  0
LTYPE
  5
15
100
AcDbSymbolTableRecord
100
AcDbLinetypeTableRecord
  2
BYLAYER
 70
0
  3

 72
65
 73
0
 40
0.0
  0
LTYPE
  5
16
100
AcDbSymbolTableRecord
100
AcDbLinetypeTableRecord
  2
CONTINUOUS
 70
64
  3
Solid line
 72
65
 73
0
 40
0.0
  0
LTYPE
  5
1F5
100
AcDbSymbolTableRecord
100
AcDbLinetypeTableRecord
  2
CENTER
 70
64
  3
____ _ ____ _ ____ _ ____ _ ____ _ ____ _ ____
 72
65
 73
4
 40
0.6
 49
0.375
 74
0
 49
-0.075
 74
0
 49
0.075
 74
0
 49
-0.075
 74
0
  0
LTYPE
  5
1F6
100
AcDbSymbolTableRecord
100
AcDbLinetypeTableRecord
  2
HIDDEN
 70
64
  3
- - - - - - - - - - - - - - - - - - - -
 72
65
 73
2
 40
0.2
 49
0.1
 74
0
 49
-0.1
 74
0
  0
LTYPE
  5
1F7
100
AcDbSymbolTableRecord
100
AcDbLinetypeTableRecord
  2
PHANTOM
 70
64
  3
_____ _ _ _____ _ _ _____ _ _ _____
 72
65
 73
6
 40
0.8
 49
0.45
 74
0
 49
-0.05
 74
0
 49
0.1
 74
0
 49
-0.05
 74
0
 49
0.1
 74
0
 49
-0.05
 74
0
  0
LTYPE
  5
1F8
100
AcDbSymbolTableRecord
100
AcDbLinetypeTableRecord
  2
DOT
 70
64
  3
. . . . . . . . . . . . . . . . . . . .
 72
65
 73
2
 40
0.2
 49
0.1
 74
0
 49
-0.1
 74
0
  0
LTYPE
  5
1F9
100
AcDbSymbolTableRecord
100
AcDbLinetypeTableRecord
  2
DASHED
 70
64
  3
- - - - - - - - - - - - - - - - - - - -
 72
65
 73
2
 40
0.2
 49
0.1
 74
0
 49
-0.1
 74
0
  0
ENDTAB
  0
TABLE
  2
LAYER
  5
2
100
AcDbSymbolTable
 70
36
  0
LAYER
  5
10
100
AcDbSymbolTableRecord
100
AcDbLayerTableRecord
  2
0
 70
0
 62
7
  6
CONTINUOUS
370
-3
390
F
  0
LAYER
  5
1FA
100
AcDbSymbolTableRecord
100
AcDbLayerTableRecord
  2
DEFAULT_1
 70
0
 62
7
  6
CENTER
370
-3
390
F
  0
LAYER
  5
1FB
100
AcDbSymbolTableRecord
100
AcDbLayerTableRecord
  2
DEFAULT_2
 70
0
 62
7
  6
HIDDEN
370
-3
390
F
  0
LAYER
  5
1FC
100
AcDbSymbolTableRecord
100
AcDbLayerTableRecord
  2
DEFAULT_3
 70
0
 62
7
  6
PHANTOM
370
-3
390
F
  0
LAYER
  5
1FD
100
AcDbSymbolTableRecord
100
AcDbLayerTableRecord
  2
00_COMPONENTS
 70
0
 62
7
  6
CONTINUOUS
370
-3
390
F
  0
LAYER
  5
1FE
100
AcDbSymbolTableRecord
100
AcDbLayerTableRecord
  2
01_1_DEFAULT_DATUMS
 70
0
 62
7
  6
CONTINUOUS
370
-3
390
F
  0
LAYER
  5
1FF
100
AcDbSymbolTableRecord
100
AcDbLayerTableRecord
  2
01_PLANES
 70
0
 62
7
  6
CONTINUOUS
370
-3
390
F
  0
LAYER
  5
200
100
AcDbSymbolTableRecord
100
AcDbLayerTableRecord
  2
02_COORD_SYS
 70
0
 62
7
  6
CONTINUOUS
370
-3
390
F
  0
LAYER
  5
201
100
AcDbSymbolTableRecord
100
AcDbLayerTableRecord
  2
03_AXES
 70
0
 62
7
  6
CONTINUOUS
370
-3
390
F
  0
LAYER
  5
202
100
AcDbSymbolTableRecord
100
AcDbLayerTableRecord
  2
04_POINTS
 70
0
 62
7
  6
CONTINUOUS
370
-3
390
F
  0
LAYER
  5
203
100
AcDbSymbolTableRecord
100
AcDbLayerTableRecord
  2
05_CURVES
 70
0
 62
7
  6
CONTINUOUS
370
-3
390
F
  0
LAYER
  5
204
100
AcDbSymbolTableRecord
100
AcDbLayerTableRecord
  2
06_SURFS
 70
0
 62
7
  6
CONTINUOUS
370
-3
390
F
  0
LAYER
  5
205
100
AcDbSymbolTableRecord
100
AcDbLayerTableRecord
  2
07_COSMETICS
 70
0
 62
7
  6
CONTINUOUS
370
-3
390
F
  0
LAYER
  5
206
100
AcDbSymbolTableRecord
100
AcDbLayerTableRecord
  2
10_NOTES
 70
0
 62
7
  6
CONTINUOUS
370
-3
390
F
  0
LAYER
  5
207
100
AcDbSymbolTableRecord
100
AcDbLayerTableRecord
  2
11_NOTES_PUB
 70
0
 62
7
  6
CONTINUOUS
370
-3
390
F
  0
LAYER
  5
208
100
AcDbSymbolTableRecord
100
AcDbLayerTableRecord
  2
13_REF_GTOL
 70
0
 62
7
  6
CONTINUOUS
370
-3
390
F
  0
LAYER
  5
209
100
AcDbSymbolTableRecord
100
AcDbLayerTableRecord
  2
16_MISC
 70
0
 62
7
  6
CONTINUOUS
370
-3
390
F
  0
LAYER
  5
20A
100
AcDbSymbolTableRecord
100
AcDbLayerTableRecord
  2
17_NO_PRINT
 70
0
 62
7
  6
CONTINUOUS
370
-3
390
F
  0
LAYER
  5
20B
100
AcDbSymbolTableRecord
100
AcDbLayerTableRecord
  2
18_DATUM_CAMS_JOINTS
 70
0
 62
7
  6
CONTINUOUS
370
-3
390
F
  0
LAYER
  5
20C
100
AcDbSymbolTableRecord
100
AcDbLayerTableRecord
  2
19_DATUM_FUNCTIONAL
 70
0
 62
7
  6
CONTINUOUS
370
-3
390
F
  0
LAYER
  5
20D
100
AcDbSymbolTableRecord
100
AcDbLayerTableRecord
  2
20_DATUM_KINEMATIC_SCHEME
 70
0
 62
7
  6
CONTINUOUS
370
-3
390
F
  0
ENDTAB
  0
TABLE
  2
STYLE
  5
3
100
AcDbSymbolTable
 70
1
  0
STYLE
  5
11
100
AcDbSymbolTableRecord
100
AcDbTextStyleTableRecord
  2
STANDARD
 70
0
 40
0.0
 41
1.0
 50
0.0
 71
0
 42
0.2
  3
ARIAL.TTF
  4

  0
STYLE
  5
20E
100
AcDbSymbolTableRecord
100
AcDbTextStyleTableRecord
  2
TEXTSTYLE_1
 70
0
 40
0.0
 41
0.8
 50
0.0
 71
0
 42
0.2
  3
gdt
  4

  0
ENDTAB
  0
TABLE
  2
VIEW
  5
6
100
AcDbSymbolTable
 70
0
  0
ENDTAB
  0
TABLE
  2
UCS
  5
7
100
AcDbSymbolTable
 70
0
  0
ENDTAB
  0
TABLE
  2
APPID
  5
9
100
AcDbSymbolTable
 70
1
  0
APPID
  5
20F
100
AcDbSymbolTableRecord
100
AcDbRegAppTableRecord
  2
ACAD
 70
0
  0
ENDTAB
  0
TABLE
  2
BLOCK_RECORD
  5
1
100
AcDbSymbolTable
 70
0
  0
BLOCK_RECORD
  5
210
100
AcDbSymbolTableRecord
100
AcDbBlockTableRecord
  2
*Model_Space
  0
BLOCK_RECORD
  5
211
100
AcDbSymbolTableRecord
100
AcDbBlockTableRecord
  2
*Paper_Space
  0
BLOCK_RECORD
  5
212
100
AcDbSymbolTableRecord
100
AcDbBlockTableRecord
  2
_FILLED
  0
ENDTAB
  0
TABLE
  2
DIMSTYLE
  5
A
100
AcDbSymbolTable
 70
1
100
AcDbDimStyleTable
 71
0
  0
DIMSTYLE
105
213
100
AcDbSymbolTableRecord
100
AcDbDimStyleTableRecord
  2
STANDARD
 70
0
  3

  4

 40
1.0
 41
3.76209211
 42
1.0
 43
0.38
 44
1.0
 45
0.0
 46
0.0
 47
0.01
 48
0.01
140
5.266928954
141
0.09
142
0.0
143
25.4
144
1.0
145
0.0
146
1.0
147
0.625
 71
1
 72
0
 73
0
 74
0
 75
0
 76
0
 77
1
 78
8
 79
2
170
0
171
1
172
0
173
0
174
0
175
0
176
0
177
0
178
0
270
2
179
2
271
2
272
2
273
2
274
2
275
0
280
0
281
0
282
0
283
1
284
8
285
0
286
0
287
3
288
0
340
11
278
46
341
212
342
212
343
212
344
212
  0
ENDTAB
  0
ENDSEC
  0
SECTION
  2
BLOCKS
  0
BLOCK
  5
20
100
AcDbEntity
  8
0
100
AcDbBlockBegin
  2
*Model_Space
 70
0
 10
0.0
 20
0.0
 30
0.0
  3
*Model_Space
  1

  0
ENDBLK
  5
21
100
AcDbEntity
  8
0
100
AcDbBlockEnd
  0
BLOCK
  5
1C
100
AcDbEntity
  8
0
100
AcDbBlockBegin
  2
*Paper_Space
 70
0
 10
0.0
 20
0.0
 30
0.0
  3
*Paper_Space
  1

  0
ENDBLK
  5
1D
100
AcDbEntity
  8
0
100
AcDbBlockEnd
  0
BLOCK
  5
214
100
AcDbEntity
  8
0
100
AcDbBlockBegin
  2
_FILLED
 70
64
 10
0.0
 20
0.0
  3
_FILLED
  1

  0
SOLID
  5
215
100
AcDbEntity
  8
0
  6
BYBLOCK
 62
0
100
AcDbTrace
 10
0.0
 20
0.0
 11
-1.0
 21
0.25
 12
-1.0
 22
-0.25
 13
-1.0
 23
-0.25
  0
ENDBLK
  5
216
100
AcDbEntity
  8
0
  6
BYBLOCK
 62
0
100
AcDbBlockEnd
  0
ENDSEC
  0
SECTION
  2
ENTITIES
  0
LINE
  5
217
100
AcDbEntity
  8
0
100
AcDbLine
 62
7
  6
BYLAYER
 10
37.3842362354
 20
107.0623632385
 11
37.3842362354
 21
112.0623632385
  0
LINE
  5
218
100
AcDbEntity
  8
0
100
AcDbLine
 62
7
  6
BYLAYER
 10
37.3842362354
 20
172.0623632385
 11
37.3842362354
 21
185.5623632385
  0
LINE
  5
219
100
AcDbEntity
  8
0
100
AcDbLine
 62
7
  6
BYLAYER
 10
38.1342362354
 20
185.5623632385
 11
38.1342362354
 21
186.0623632385
  0
LINE
  5
21A
100
AcDbEntity
  8
0
100
AcDbLine
 62
7
  6
BYLAYER
 10
38.3842362354
 20
185.5623632385
 11
38.3842362354
 21
172.0623632385
  0
LINE
  5
21B
100
AcDbEntity
  8
0
100
AcDbLine
 62
7
  6
BYLAYER
 10
39.1342362354
 20
188.5623632385
 11
39.1342362354
 21
186.0623632385
  0
LINE
  5
21C
100
AcDbEntity
  8
0
100
AcDbLine
 62
7
  6
BYLAYER
 10
39.1479687593
 20
190.0623632385
 11
39.1479687593
 21
188.5623632385
  0
LINE
  5
21D
100
AcDbEntity
  8
0
100
AcDbLine
 62
7
  6
BYLAYER
 10
39.2102024012
 20
188.5623632385
 11
39.2102024012
 21
190.0623632385
  0
LINE
  5
21E
100
AcDbEntity
  8
0
100
AcDbLine
 62
7
  6
BYLAYER
 10
40.3842362354
 20
112.0623632385
 11
40.3842362354
 21
107.0623632385
  0
LINE
  5
21F
100
AcDbEntity
  8
0
100
AcDbLine
 62
7
  6
BYLAYER
 10
42.5690140467
 20
190.0623632385
 11
42.5690140467
 21
189.0623632385
  0
LINE
  5
220
100
AcDbEntity
  8
0
100
AcDbLine
 62
7
  6
BYLAYER
 10
43.3842362354
 20
186.0623632385
 11
43.3842362354
 21
185.5623632385
  0
LINE
  5
221
100
AcDbEntity
  8
0
100
AcDbLine
 62
7
  6
BYLAYER
 10
44.1342362354
 20
107.0623632385
 11
44.1342362354
 21
112.0623632385
  0
LINE
  5
222
100
AcDbEntity
  8
0
100
AcDbLine
 62
7
  6
BYLAYER
 10
44.4109208355
 20
189.0623632385
 11
44.4109208355
 21
190.0623632385
  0
LINE
  5
223
100
AcDbEntity
  8
0
100
AcDbLine
 62
7
  6
BYLAYER
 10
47.5582700697
 20
190.0623632385
 11
47.5582700697
 21
188.5623632385
  0
LINE
  5
224
100
AcDbEntity
  8
0
100
AcDbLine
 62
7
  6
BYLAYER
 10
47.6205037116
 20
188.5623632385
 11
47.6205037116
 21
190.0623632385
  0
LINE
  5
225
100
AcDbEntity
  8
0
100
AcDbLine
 62
7
  6
BYLAYER
 10
47.6342362354
 20
188.5623632385
 11
47.6342362354
 21
186.0623632385
  0
LINE
  5
226
100
AcDbEntity
  8
0
100
AcDbLine
 62
7
  6
BYLAYER
 10
48.3842362354
 20
185.5623632385
 11
50.1559253257
 21
287.0623632385
  0
LINE
  5
227
100
AcDbEntity
  8
0
100
AcDbLine
 62
7
  6
BYLAYER
 10
50.1751258971
 20
287.3623632385
 11
50.6062660008
 21
312.0623632385
  0
LINE
  5
228
100
AcDbEntity
  8
0
100
AcDbLine
 62
7
  6
BYLAYER
 10
37.3842362354
 20
107.0623632385
 11
86.4872989251
 21
107.0623632385
  0
LINE
  5
229
100
AcDbEntity
  8
0
100
AcDbLine
 62
7
  6
BYLAYER
 10
92.3095379434
 20
107.0623632385
 11
116.4547056368
 21
107.0623632385
  0
LINE
  5
22A
100
AcDbEntity
  8
0
100
AcDbLine
 62
7
  6
BYLAYER
 10
122.2769446551
 20
107.0623632385
 11
141.7129484366
 21
107.0623632385
  0
LINE
  5
22B
100
AcDbEntity
  8
0
100
AcDbLine
 62
7
  6
BYLAYER
 10
147.5351874549
 20
107.0623632385
 11
170.824143528
 21
107.0623632385
  0
LINE
  5
22C
100
AcDbEntity
  8
0
100
AcDbLine
 62
7
  6
BYLAYER
 10
176.6463825463
 20
107.0623632385
 11
196.510492138
 21
107.0623632385
  0
LINE
  5
22D
100
AcDbEntity
  8
0
100
AcDbLine
 62
7
  6
BYLAYER
 10
202.3327311563
 20
107.0623632385
 11
221.9365524154
 21
107.0623632385
  0
LINE
  5
22E
100
AcDbEntity
  8
0
100
AcDbLine
 62
7
  6
BYLAYER
 10
227.7587914337
 20
107.0623632385
 11
246.9516311151
 21
107.0623632385
  0
LINE
  5
22F
100
AcDbEntity
  8
0
100
AcDbLine
 62
7
  6
BYLAYER
 10
252.7738701334
 20
107.0623632385
 11
287.3842362354
 21
107.0623632385
  0
LINE
  5
230
100
AcDbEntity
  8
0
100
AcDbLine
 62
7
  6
BYLAYER
 10
49.6342362354
 20
107.0623632385
 11
49.6342362354
 21
112.0623632385
  0
LINE
  5
231
100
AcDbEntity
  8
0
100
AcDbLine
 62
7
  6
BYLAYER
 10
51.3842362354
 20
172.0623632385
 11
51.3842362354
 21
185.5623632385
  0
LINE
  5
232
100
AcDbEntity
  8
0
100
AcDbLine
 62
7
  6
BYLAYER
 10
52.3842362354
 20
172.0623632385
 11
52.3842362354
 21
185.5623632385
  0
LINE
  5
233
100
AcDbEntity
  8
0
100
AcDbLine
 62
7
  6
BYLAYER
 10
53.3842362354
 20
185.5623632385
 11
53.3842362354
 21
172.0623632385
  0
LINE
  5
234
100
AcDbEntity
  8
0
100
AcDbLine
 62
7
  6
BYLAYER
 10
55.8842362354
 20
172.0623632385
 11
55.8842362354
 21
113.0623632385
  0
LINE
  5
235
100
AcDbEntity
  8
0
100
AcDbLine
 62
7
  6
BYLAYER
 10
53.1559253257
 20
287.0623632385
 11
53.1611618451
 21
287.3623632385
  0
LINE
  5
236
100
AcDbEntity
  8
0
100
AcDbLine
 62
7
  6
BYLAYER
 10
287.3842362354
 20
112.0623632385
 11
269.8842362354
 21
112.0623632385
  0
LINE
  5
237
100
AcDbEntity
  8
0
100
AcDbLine
 62
7
  6
BYLAYER
 10
54.8842362354
 20
112.0623632385
 11
37.3842362354
 21
112.0623632385
  0
LINE
  5
238
100
AcDbEntity
  8
0
100
AcDbLine
 62
7
  6
BYLAYER
 10
78.3842362349
 20
312.0623632385
 11
78.3842362354
 21
185.5623632385
  0
LINE
  5
239
100
AcDbEntity
  8
0
100
AcDbLine
 62
7
  6
BYLAYER
 10
82.1062660008
 20
312.8523632385
 11
82.1062660008
 21
312.0623632385
  0
LINE
  5
23A
100
AcDbEntity
  8
0
100
AcDbLine
 62
7
  6
BYLAYER
 10
85.1046705267
 20
227.8212089653
 11
85.1046705267
 21
225.3212089653
  0
LINE
  5
23B
100
AcDbEntity
  8
0
100
AcDbLine
 62
7
  6
BYLAYER
 10
85.1058319533
 20
227.9212089653
 11
85.1058319533
 21
225.4212089653
  0
LINE
  5
23C
100
AcDbEntity
  8
0
100
AcDbLine
 62
7
  6
BYLAYER
 10
85.4546705267
 20
227.945205951
 11
85.4546705267
 21
235.4623632385
  0
LINE
  5
23D
100
AcDbEntity
  8
0
100
AcDbLine
 62
7
  6
BYLAYER
 10
85.4558319533
 20
228.045205951
 11
85.4558319533
 21
235.5623632385
  0
LINE
  5
23E
100
AcDbEntity
  8
0
100
AcDbLine
 62
7
  6
BYLAYER
 10
86.4872989251
 20
168.8977524625
 11
86.4872989251
 21
107.0623632385
  0
LINE
  5
23F
100
AcDbEntity
  8
0
100
AcDbLine
 62
7
  6
BYLAYER
 10
88.7546705267
 20
227.945205951
 11
88.7546705267
 21
235.4623632385
  0
LINE
  5
240
100
AcDbEntity
  8
0
100
AcDbLine
 62
7
  6
BYLAYER
 10
88.7558319533
 20
228.045205951
 11
88.7558319533
 21
235.5623632385
  0
LINE
  5
241
100
AcDbEntity
  8
0
100
AcDbLine
 62
7
  6
BYLAYER
 10
89.1046705267
 20
227.8212089653
 11
89.1046705267
 21
225.3212089653
  0
LINE
  5
242
100
AcDbEntity
  8
0
100
AcDbLine
 62
7
  6
BYLAYER
 10
89.1058319533
 20
227.9212089653
 11
89.1058319533
 21
225.4212089653
  0
LINE
  5
243
100
AcDbEntity
  8
0
100
AcDbLine
 62
7
  6
BYLAYER
 10
89.8842362354
 20
201.0626812295
 11
89.8842362354
 21
284.0623632385
  0
LINE
  5
244
100
AcDbEntity
  8
0
100
AcDbLine
 62
7
  6
BYLAYER
 10
90.3842362354
 20
202.0623632385
 11
90.3842362354
 21
280.5623632385
  0
LINE
  5
245
100
AcDbEntity
  8
0
100
AcDbLine
 62
7
  6
BYLAYER
 10
92.3095379434
 20
168.8977524625
 11
92.3095379434
 21
107.0623632385
  0
LINE
  5
246
100
AcDbEntity
  8
0
100
AcDbLine
 62
7
  6
BYLAYER
 10
93.5555375056
 20
257.7623632385
 11
93.5555375056
 21
233.4623632385
  0
LINE
  5
247
100
AcDbEntity
  8
0
100
AcDbLine
 62
7
  6
BYLAYER
 10
93.7055422408
 20
224.3518108955
 11
93.7055422408
 21
223.4623632385
  0
LINE
  5
248
100
AcDbEntity
  8
0
100
AcDbLine
 62
7
  6
BYLAYER
 10
93.7055647293
 20
225.751060053
 11
93.7055647293
 21
224.6723939731
  0
LINE
  5
249
100
AcDbEntity
  8
0
100
AcDbLine
 62
7
  6
BYLAYER
 10
93.705597745
 20
229.9518701419
 11
93.705597745
 21
228.8734091728
  0
LINE
  5
24A
100
AcDbEntity
  8
0
100
AcDbLine
 62
7
  6
BYLAYER
 10
93.7056664741
 20
227.1518563333
 11
93.7056664741
 21
226.0733666765
  0
LINE
  5
24B
100
AcDbEntity
  8
0
100
AcDbLine
 62
7
  6
BYLAYER
 10
93.7056823264
 20
228.5513132583
 11
93.7056823264
 21
227.4728522892
  0
LINE
  5
24C
100
AcDbEntity
  8
0
100
AcDbLine
 62
7
  6
BYLAYER
 10
93.7058938495
 20
231.3498038572
 11
93.7058938495
 21
230.2715210086
  0
LINE
  5
24D
100
AcDbEntity
  8
0
100
AcDbLine
 62
7
  6
BYLAYER
 10
93.7062096275
 20
232.7494772878
 11
93.7062096275
 21
231.6710825945
  0
LINE
  5
24E
100
AcDbEntity
  8
0
100
AcDbLine
 62
7
  6
BYLAYER
 10
93.7066311409
 20
233.4623632385
 11
93.7066311409
 21
233.070816416
  0
LINE
  5
24F
100
AcDbEntity
  8
0
100
AcDbLine
 62
7
  6
BYLAYER
 10
93.7282490319
 20
227.1015430292
 11
93.7282490319
 21
226.0231745284
  0
LINE
  5
250
100
AcDbEntity
  8
0
100
AcDbLine
 62
7
  6
BYLAYER
 10
94.205525452
 20
260.6316388778
 11
94.2055232682
 21
259.7623658581
  0
LINE
  5
251
100
AcDbEntity
  8
0
100
AcDbLine
 62
7
  6
BYLAYER
 10
94.995659532
 20
230.9015531422
 11
94.9956632684
 21
229.8231803557
  0
LINE
  5
252
100
AcDbEntity
  8
0
100
AcDbLine
 62
7
  6
BYLAYER
 10
95.0054831936
 20
259.7623634421
 11
95.0055254533
 21
260.6316429621
  0
LINE
  5
253
100
AcDbEntity
  8
0
100
AcDbLine
 62
7
  6
BYLAYER
 10
91.9367715888
 20
259.9623756743
 11
91.8055375056
 21
258.4623632386
  0
LINE
  5
254
100
AcDbEntity
  8
0
100
AcDbLine
 62
7
  6
BYLAYER
 10
95.2655375056
 20
259.077868369
 11
96.0022664238
 21
260.5555179781
  0
LINE
  5
255
100
AcDbEntity
  8
0
100
AcDbLine
 62
7
  6
BYLAYER
 10
95.6555375056
 20
257.7623632385
 11
96.0055375056
 21
258.4623632385
  0
LINE
  5
256
100
AcDbEntity
  8
0
100
AcDbLine
 62
7
  6
BYLAYER
 10
97.2743034223
 20
259.9623756743
 11
97.4055375055
 21
258.4623632386
  0
LINE
  5
257
100
AcDbEntity
  8
0
100
AcDbLine
 62
7
  6
BYLAYER
 10
95.504702193
 20
232.3709879439
 11
95.504702193
 21
233.4491673034
  0
LINE
  5
258
100
AcDbEntity
  8
0
100
AcDbLine
 62
7
  6
BYLAYER
 10
95.5050156064
 20
230.9712549034
 11
95.5050156064
 21
232.0496047602
  0
LINE
  5
259
100
AcDbEntity
  8
0
100
AcDbLine
 62
7
  6
BYLAYER
 10
95.5053173923
 20
226.773136824
 11
95.5053173923
 21
227.8515977763
  0
LINE
  5
25A
100
AcDbEntity
  8
0
100
AcDbLine
 62
7
  6
BYLAYER
 10
95.5053463369
 20
229.5733104533
 11
95.5053463369
 21
230.6517714225
  0
LINE
  5
25B
100
AcDbEntity
  8
0
100
AcDbLine
 62
7
  6
BYLAYER
 10
95.5054599711
 20
225.3722011781
 11
95.5054599711
 21
226.4507144835
  0
LINE
  5
25C
100
AcDbEntity
  8
0
100
AcDbLine
 62
7
  6
BYLAYER
 10
95.5055253399
 20
228.1729696525
 11
95.5055253399
 21
229.2514306216
  0
LINE
  5
25D
100
AcDbEntity
  8
0
100
AcDbLine
 62
7
  6
BYLAYER
 10
95.505535197
 20
223.9728745869
 11
95.505535197
 21
225.0514321938
  0
LINE
  5
25E
100
AcDbEntity
  8
0
100
AcDbLine
 62
7
  6
BYLAYER
 10
95.5055452252
 20
223.4623632385
 11
95.5055452252
 21
223.651816246
  0
LINE
  5
25F
100
AcDbEntity
  8
0
100
AcDbLine
 62
7
  6
BYLAYER
 10
95.6555375056
 20
257.7623632385
 11
95.6555375056
 21
233.4623632385
  0
LINE
  5
260
100
AcDbEntity
  8
0
100
AcDbLine
 62
7
  6
BYLAYER
 10
96.6865139109
 20
273.6236853439
 11
96.6865139109
 21
277.5862440696
  0
LINE
  5
261
100
AcDbEntity
  8
0
100
AcDbLine
 62
7
  6
BYLAYER
 10
96.6865139109
 20
278.7921184337
 11
96.6865139109
 21
281.5010411332
  0
LINE
  5
262
100
AcDbEntity
  8
0
100
AcDbLine
 62
7
  6
BYLAYER
 10
96.809905985
 20
201.520916606
 11
96.809905985
 21
198.2881487444
  0
LINE
  5
263
100
AcDbEntity
  8
0
100
AcDbLine
 62
7
  6
BYLAYER
 10
96.809905985
 20
196.9560191821
 11
96.809905985
 21
193.603809871
  0
LINE
  5
264
100
AcDbEntity
  8
0
100
AcDbLine
 62
7
  6
BYLAYER
 10
97.9213292597
 20
201.5261406141
 11
97.9213292597
 21
198.2881487444
  0
LINE
  5
265
100
AcDbEntity
  8
0
100
AcDbLine
 62
7
  6
BYLAYER
 10
97.9213292597
 20
196.9560191821
 11
97.9213292597
 21
193.5985858629
  0
LINE
  5
266
100
AcDbEntity
  8
0
100
AcDbLine
 62
7
  6
BYLAYER
 10
97.9213292597
 20
273.5985858629
 11
97.9213292597
 21
277.5862440696
  0
LINE
  5
267
100
AcDbEntity
  8
0
100
AcDbLine
 62
7
  6
BYLAYER
 10
97.9213292597
 20
278.7921184337
 11
97.9213292597
 21
281.5261406141
  0
LINE
  5
268
100
AcDbEntity
  8
0
100
AcDbLine
 62
7
  6
BYLAYER
 10
100.1046705235
 20
227.8212089653
 11
100.1046705235
 21
225.3212089653
  0
LINE
  5
269
100
AcDbEntity
  8
0
100
AcDbLine
 62
7
  6
BYLAYER
 10
100.1058319502
 20
227.9212089653
 11
100.1058319502
 21
225.4212089653
  0
LINE
  5
26A
100
AcDbEntity
  8
0
100
AcDbLine
 62
7
  6
BYLAYER
 10
100.4546705235
 20
227.945205951
 11
100.4546705235
 21
235.4623632385
  0
LINE
  5
26B
100
AcDbEntity
  8
0
100
AcDbLine
 62
7
  6
BYLAYER
 10
100.4558319502
 20
228.045205951
 11
100.4558319502
 21
235.5623632385
  0
LINE
  5
26C
100
AcDbEntity
  8
0
100
AcDbLine
 62
7
  6
BYLAYER
 10
103.7546705235
 20
227.945205951
 11
103.7546705235
 21
235.4623632385
  0
LINE
  5
26D
100
AcDbEntity
  8
0
100
AcDbLine
 62
7
  6
BYLAYER
 10
103.7558319502
 20
228.045205951
 11
103.7558319502
 21
235.5623632385
  0
LINE
  5
26E
100
AcDbEntity
  8
0
100
AcDbLine
 62
7
  6
BYLAYER
 10
104.1046705235
 20
227.8212089653
 11
104.1046705235
 21
225.3212089653
  0
LINE
  5
26F
100
AcDbEntity
  8
0
100
AcDbLine
 62
7
  6
BYLAYER
 10
104.1058319502
 20
227.9212089653
 11
104.1058319502
 21
225.4212089653
  0
LINE
  5
270
100
AcDbEntity
  8
0
100
AcDbLine
 62
7
  6
BYLAYER
 10
106.9361990514
 20
259.9623756743
 11
106.8049649681
 21
258.4623632386
  0
LINE
  5
271
100
AcDbEntity
  8
0
100
AcDbLine
 62
7
  6
BYLAYER
 10
95.5970731007
 20
223.676115892
 11
95.7017878955
 21
223.9204154857
  0
LINE
  5
272
100
AcDbEntity
  8
0
100
AcDbLine
 62
7
  6
BYLAYER
 10
110.2649649682
 20
259.077868369
 11
111.0016938864
 21
260.5555179781
  0
LINE
  5
273
100
AcDbEntity
  8
0
100
AcDbLine
 62
7
  6
BYLAYER
 10
110.6549649681
 20
257.7623632385
 11
111.0049649681
 21
258.4623632385
  0
LINE
  5
274
100
AcDbEntity
  8
0
100
AcDbLine
 62
7
  6
BYLAYER
 10
94.6055375056
 20
258.7269401441
 11
95.2655375056
 21
259.077868369
  0
LINE
  5
275
100
AcDbEntity
  8
0
100
AcDbLine
 62
7
  6
BYLAYER
 10
252.7738701334
 20
168.8977524625
 11
246.9516311151
 21
168.8977524625
  0
LINE
  5
276
100
AcDbEntity
  8
0
100
AcDbLine
 62
7
  6
BYLAYER
 10
227.7587914337
 20
168.8977524625
 11
221.9365524154
 21
168.8977524625
  0
LINE
  5
277
100
AcDbEntity
  8
0
100
AcDbLine
 62
7
  6
BYLAYER
 10
202.3327311563
 20
168.8977524625
 11
196.510492138
 21
168.8977524625
  0
LINE
  5
278
100
AcDbEntity
  8
0
100
AcDbLine
 62
7
  6
BYLAYER
 10
176.6463825463
 20
168.8977524625
 11
170.824143528
 21
168.8977524625
  0
LINE
  5
279
100
AcDbEntity
  8
0
100
AcDbLine
 62
7
  6
BYLAYER
 10
147.5351874549
 20
168.8977524625
 11
141.7129484366
 21
168.8977524625
  0
LINE
  5
27A
100
AcDbEntity
  8
0
100
AcDbLine
 62
7
  6
BYLAYER
 10
122.2769446551
 20
168.8977524625
 11
116.4547056368
 21
168.8977524625
  0
LINE
  5
27B
100
AcDbEntity
  8
0
100
AcDbLine
 62
7
  6
BYLAYER
 10
92.3095379434
 20
168.8977524625
 11
86.4872989251
 21
168.8977524625
  0
LINE
  5
27C
100
AcDbEntity
  8
0
100
AcDbLine
 62
7
  6
BYLAYER
 10
93.2750236774
 20
224.4669520364
 11
93.240198845
 21
224.5481983628
  0
LINE
  5
27D
100
AcDbEntity
  8
0
100
AcDbLine
 62
7
  6
BYLAYER
 10
112.2737308849
 20
259.9623756743
 11
112.4049649681
 21
258.4623632386
  0
LINE
  5
27E
100
AcDbEntity
  8
0
100
AcDbLine
 62
7
  6
BYLAYER
 10
108.5549649681
 20
257.7623632385
 11
108.5549649681
 21
233.4623632385
  0
LINE
  5
27F
100
AcDbEntity
  8
0
100
AcDbLine
 62
7
  6
BYLAYER
 10
108.7049697034
 20
224.3518108955
 11
108.7049697034
 21
223.4623632385
  0
LINE
  5
280
100
AcDbEntity
  8
0
100
AcDbLine
 62
7
  6
BYLAYER
 10
108.7049921919
 20
225.751060053
 11
108.7049921919
 21
224.6723939731
  0
LINE
  5
281
100
AcDbEntity
  8
0
100
AcDbLine
 62
7
  6
BYLAYER
 10
108.7050252076
 20
229.9518701419
 11
108.7050252076
 21
228.8734091728
  0
LINE
  5
282
100
AcDbEntity
  8
0
100
AcDbLine
 62
7
  6
BYLAYER
 10
108.7050939367
 20
227.1518563333
 11
108.7050939367
 21
226.0731641079
  0
LINE
  5
283
100
AcDbEntity
  8
0
100
AcDbLine
 62
7
  6
BYLAYER
 10
108.705109789
 20
228.5513132583
 11
108.705109789
 21
227.4728522892
  0
LINE
  5
284
100
AcDbEntity
  8
0
100
AcDbLine
 62
7
  6
BYLAYER
 10
108.7053212518
 20
231.3498039904
 11
108.7053212518
 21
230.2715211116
  0
LINE
  5
285
100
AcDbEntity
  8
0
100
AcDbLine
 62
7
  6
BYLAYER
 10
108.7056370901
 20
232.7494772879
 11
108.7056370901
 21
231.6710825946
  0
LINE
  5
286
100
AcDbEntity
  8
0
100
AcDbLine
 62
7
  6
BYLAYER
 10
108.7060586035
 20
233.4623632385
 11
108.7060586035
 21
233.070816416
  0
LINE
  5
287
100
AcDbEntity
  8
0
100
AcDbLine
 62
7
  6
BYLAYER
 10
108.7276764945
 20
227.1015430292
 11
108.7276764945
 21
226.0231745284
  0
LINE
  5
288
100
AcDbEntity
  8
0
100
AcDbLine
 62
7
  6
BYLAYER
 10
109.2049529146
 20
260.6316388778
 11
109.2049507308
 21
259.7623658581
  0
LINE
  5
289
100
AcDbEntity
  8
0
100
AcDbLine
 62
7
  6
BYLAYER
 10
109.9950869945
 20
230.9015531422
 11
109.9950907309
 21
229.8231803559
  0
LINE
  5
28A
100
AcDbEntity
  8
0
100
AcDbLine
 62
7
  6
BYLAYER
 10
110.0049106562
 20
259.7623634421
 11
110.0049529159
 21
260.6316429621
  0
LINE
  5
28B
100
AcDbEntity
  8
0
100
AcDbLine
 62
7
  6
BYLAYER
 10
110.5041296555
 20
232.3709879439
 11
110.5041296555
 21
233.4491672711
  0
LINE
  5
28C
100
AcDbEntity
  8
0
100
AcDbLine
 62
7
  6
BYLAYER
 10
110.5044430703
 20
230.9712549052
 11
110.5044430703
 21
232.0496047626
  0
LINE
  5
28D
100
AcDbEntity
  8
0
100
AcDbLine
 62
7
  6
BYLAYER
 10
110.5047448549
 20
226.7731367859
 11
110.5047448549
 21
227.8515977763
  0
LINE
  5
28E
100
AcDbEntity
  8
0
100
AcDbLine
 62
7
  6
BYLAYER
 10
110.5047737995
 20
229.5733104533
 11
110.5047737995
 21
230.6517714224
  0
LINE
  5
28F
100
AcDbEntity
  8
0
100
AcDbLine
 62
7
  6
BYLAYER
 10
110.5048874337
 20
225.3722011781
 11
110.5048874337
 21
226.4507144835
  0
LINE
  5
290
100
AcDbEntity
  8
0
100
AcDbLine
 62
7
  6
BYLAYER
 10
110.5049528025
 20
228.1729696525
 11
110.5049528025
 21
229.2514306216
  0
LINE
  5
291
100
AcDbEntity
  8
0
100
AcDbLine
 62
7
  6
BYLAYER
 10
110.5049626596
 20
223.9728745869
 11
110.5049626596
 21
225.0514321938
  0
LINE
  5
292
100
AcDbEntity
  8
0
100
AcDbLine
 62
7
  6
BYLAYER
 10
110.5049726878
 20
223.4623632385
 11
110.5049726878
 21
223.651816246
  0
LINE
  5
293
100
AcDbEntity
  8
0
100
AcDbLine
 62
7
  6
BYLAYER
 10
110.6549649681
 20
257.7623632385
 11
110.6549649681
 21
233.4623632385
  0
LINE
  5
294
100
AcDbEntity
  8
0
100
AcDbLine
 62
7
  6
BYLAYER
 10
115.1046705204
 20
227.8212089653
 11
115.1046705204
 21
225.3212089653
  0
LINE
  5
295
100
AcDbEntity
  8
0
100
AcDbLine
 62
7
  6
BYLAYER
 10
115.105831947
 20
227.9212089653
 11
115.105831947
 21
225.4212089653
  0
LINE
  5
296
100
AcDbEntity
  8
0
100
AcDbLine
 62
7
  6
BYLAYER
 10
115.4546705204
 20
227.945205951
 11
115.4546705204
 21
235.4623632385
  0
LINE
  5
297
100
AcDbEntity
  8
0
100
AcDbLine
 62
7
  6
BYLAYER
 10
115.455831947
 20
228.045205951
 11
115.455831947
 21
235.5623632385
  0
LINE
  5
298
100
AcDbEntity
  8
0
100
AcDbLine
 62
7
  6
BYLAYER
 10
116.4547056368
 20
168.8977524625
 11
116.4547056368
 21
107.0623632385
  0
LINE
  5
299
100
AcDbEntity
  8
0
100
AcDbLine
 62
7
  6
BYLAYER
 10
110.5965005633
 20
223.676115892
 11
110.7012153581
 21
223.9204154856
  0
LINE
  5
29A
100
AcDbEntity
  8
0
100
AcDbLine
 62
7
  6
BYLAYER
 10
109.6049649681
 20
258.7269401441
 11
110.2649649682
 21
259.077868369
  0
LINE
  5
29B
100
AcDbEntity
  8
0
100
AcDbLine
 62
7
  6
BYLAYER
 10
37.3842362354
 20
172.0623632385
 11
287.3842362354
 21
172.0623632385
  0
LINE
  5
29C
100
AcDbEntity
  8
0
100
AcDbLine
 62
7
  6
BYLAYER
 10
93.5555375056
 20
257.7623632385
 11
93.2055375056
 21
258.4623632385
  0
LINE
  5
29D
100
AcDbEntity
  8
0
100
AcDbLine
 62
7
  6
BYLAYER
 10
93.9455375056
 20
259.077868369
 11
93.2088085873
 21
260.5555179781
  0
LINE
  5
29E
100
AcDbEntity
  8
0
100
AcDbLine
 62
7
  6
BYLAYER
 10
108.27445114
 20
224.4669520364
 11
108.2396263075
 21
224.5481983628
  0
LINE
  5
29F
100
AcDbEntity
  8
0
100
AcDbLine
 62
7
  6
BYLAYER
 10
118.7546705204
 20
227.945205951
 11
118.7546705204
 21
235.4623632385
  0
LINE
  5
2A0
100
AcDbEntity
  8
0
100
AcDbLine
 62
7
  6
BYLAYER
 10
118.755831947
 20
228.045205951
 11
118.755831947
 21
235.5623632385
  0
LINE
  5
2A1
100
AcDbEntity
  8
0
100
AcDbLine
 62
7
  6
BYLAYER
 10
119.1046705204
 20
227.8212089653
 11
119.1046705204
 21
225.3212089653
  0
LINE
  5
2A2
100
AcDbEntity
  8
0
100
AcDbLine
 62
7
  6
BYLAYER
 10
119.105831947
 20
227.9212089653
 11
119.105831947
 21
225.4212089653
  0
LINE
  5
2A3
100
AcDbEntity
  8
0
100
AcDbLine
 62
7
  6
BYLAYER
 10
122.1062660008
 20
312.8523632385
 11
122.1062660008
 21
312.0623632385
  0
LINE
  5
2A4
100
AcDbEntity
  8
0
100
AcDbLine
 62
7
  6
BYLAYER
 10
122.2769446551
 20
168.8977524625
 11
122.2769446551
 21
107.0623632385
  0
LINE
  5
2A5
100
AcDbEntity
  8
0
100
AcDbLine
 62
7
  6
BYLAYER
 10
95.2563175846
 20
231.0624381344
 11
94.9958233246
 21
230.901529059
  0
LINE
  5
2A6
100
AcDbEntity
  8
0
100
AcDbLine
 62
7
  6
BYLAYER
 10
110.2557450472
 20
231.0624381344
 11
109.9952507872
 21
230.9015290589
  0
LINE
  5
2A7
100
AcDbEntity
  8
0
100
AcDbLine
 62
7
  6
BYLAYER
 10
37.3842362354
 20
185.5623632385
 11
287.3842362354
 21
185.5623632385
  0
LINE
  5
2A8
100
AcDbEntity
  8
0
100
AcDbLine
 62
7
  6
BYLAYER
 10
167.8966985256
 20
186.0623632385
 11
156.8717739452
 21
186.0623632385
  0
LINE
  5
2A9
100
AcDbEntity
  8
0
100
AcDbLine
 62
7
  6
BYLAYER
 10
38.1342362354
 20
186.0623632385
 11
48.3929637679
 21
186.0623632385
  0
LINE
  5
2AA
100
AcDbEntity
  8
0
100
AcDbLine
 62
7
  6
BYLAYER
 10
276.3755087029
 20
186.0623632385
 11
286.6342362354
 21
186.0623632385
  0
LINE
  5
2AB
100
AcDbEntity
  8
0
100
AcDbLine
 62
7
  6
BYLAYER
 10
285.6342362354
 20
188.5623632385
 11
285.5682199319
 21
188.5623632385
  0
LINE
  5
2AC
100
AcDbEntity
  8
0
100
AcDbLine
 62
7
  6
BYLAYER
 10
277.200252539
 20
188.5623632385
 11
277.1342362354
 21
188.5623632385
  0
LINE
  5
2AD
100
AcDbEntity
  8
0
100
AcDbLine
 62
7
  6
BYLAYER
 10
166.6342362354
 20
188.5623632385
 11
166.4663081185
 21
188.5623632385
  0
LINE
  5
2AE
100
AcDbEntity
  8
0
100
AcDbLine
 62
7
  6
BYLAYER
 10
158.3021643524
 20
188.5623632385
 11
158.1342362354
 21
188.5623632385
  0
LINE
  5
2AF
100
AcDbEntity
  8
0
100
AcDbLine
 62
7
  6
BYLAYER
 10
47.6342362354
 20
188.5623632385
 11
47.5582700697
 21
188.5623632385
  0
LINE
  5
2B0
100
AcDbEntity
  8
0
100
AcDbLine
 62
7
  6
BYLAYER
 10
39.2102024012
 20
188.5623632385
 11
39.1342362354
 21
188.5623632385
  0
LINE
  5
2B1
100
AcDbEntity
  8
0
100
AcDbLine
 62
7
  6
BYLAYER
 10
282.2460939349
 20
189.0623632385
 11
280.8919618465
 21
189.0623632385
  0
LINE
  5
2B2
100
AcDbEntity
  8
0
100
AcDbLine
 62
7
  6
BYLAYER
 10
163.1922489221
 20
189.0623632385
 11
161.3503421333
 21
189.0623632385
  0
LINE
  5
2B3
100
AcDbEntity
  8
0
100
AcDbLine
 62
7
  6
BYLAYER
 10
44.4109208355
 20
189.0623632385
 11
42.5690140467
 21
189.0623632385
  0
LINE
  5
2B4
100
AcDbEntity
  8
0
100
AcDbLine
 62
7
  6
BYLAYER
 10
285.5682199319
 20
190.0623632385
 11
282.2460939349
 21
190.0623632385
  0
LINE
  5
2B5
100
AcDbEntity
  8
0
100
AcDbLine
 62
7
  6
BYLAYER
 10
280.8919618465
 20
190.0623632385
 11
277.200252539
 21
190.0623632385
  0
LINE
  5
2B6
100
AcDbEntity
  8
0
100
AcDbLine
 62
7
  6
BYLAYER
 10
47.6205037116
 20
190.0623632385
 11
44.4109208355
 21
190.0623632385
  0
LINE
  5
2B7
100
AcDbEntity
  8
0
100
AcDbLine
 62
7
  6
BYLAYER
 10
42.5690140467
 20
190.0623632385
 11
39.1479687593
 21
190.0623632385
  0
LINE
  5
2B8
100
AcDbEntity
  8
0
100
AcDbLine
 62
7
  6
BYLAYER
 10
158.1726662697
 20
190.0623632385
 11
161.3503421333
 21
190.0623632385
  0
LINE
  5
2B9
100
AcDbEntity
  8
0
100
AcDbLine
 62
7
  6
BYLAYER
 10
163.1922489221
 20
190.0623632385
 11
166.5958062011
 21
190.0623632385
  0
LINE
  5
2BA
100
AcDbEntity
  8
0
100
AcDbLine
 62
7
  6
BYLAYER
 10
99.8833236736
 20
191.0623632223
 11
224.8851496699
 21
191.0623632217
  0
LINE
  5
2BB
100
AcDbEntity
  8
0
100
AcDbLine
 62
7
  6
BYLAYER
 10
223.8842362354
 20
191.5623632385
 11
100.8842362354
 21
191.5623632385
  0
LINE
  5
2BC
100
AcDbEntity
  8
0
100
AcDbLine
 62
7
  6
BYLAYER
 10
108.5549649681
 20
257.7623632385
 11
108.2049649681
 21
258.4623632385
  0
LINE
  5
2BD
100
AcDbEntity
  8
0
100
AcDbLine
 62
7
  6
BYLAYER
 10
95.2648028338
 20
223.4847851921
 11
95.2793597274
 21
223.4900820076
  0
LWPOLYLINE
  5
2BE
100
AcDbEntity
  8
0
100
AcDbPolyline
 62
7
  6
BYLAYER
 90
4
 70
0
 10
95.2641963172
 20
233.2845959109
 10
95.4295854264
 20
233.3428699978
 10
95.6045465664
 20
233.4010738073
 10
95.7970570692
 20
233.4623632385
  0
LWPOLYLINE
  5
2BF
100
AcDbEntity
  8
0
100
AcDbPolyline
 62
7
  6
BYLAYER
 90
4
 70
0
 10
110.2636247568
 20
233.2845962796
 10
110.428989062
 20
233.3428618762
 10
110.6039596077
 20
233.4010691289
 10
110.7964845655
 20
233.4623632385
  0
LWPOLYLINE
  5
2C0
100
AcDbEntity
  8
0
100
AcDbPolyline
 62
7
  6
BYLAYER
 90
4
 70
0
 10
93.9467042876
 20
224.8399159269
 10
93.7713153532
 20
224.7781616566
 10
93.5849058492
 20
224.7164068526
 10
93.3880579007
 20
224.6540960232
  0
LWPOLYLINE
  5
2C1
100
AcDbEntity
  8
0
100
AcDbPolyline
 62
7
  6
BYLAYER
 90
4
 70
0
 10
95.2619042934
 20
231.8837946383
 10
95.4606949622
 20
231.9536380047
 10
95.6795741459
 20
232.0255450403
 10
95.9174439023
 20
232.0999145676
  0
LWPOLYLINE
  5
2C2
100
AcDbEntity
  8
0
100
AcDbPolyline
 62
7
  6
BYLAYER
 90
4
 70
0
 10
110.2613336193
 20
231.8837953208
 10
110.4600564124
 20
231.9536156457
 10
110.6789347434
 20
232.0255236591
 10
110.9168704882
 20
232.0999142988
  0
LWPOLYLINE
  5
2C3
100
AcDbEntity
  8
0
100
AcDbPolyline
 62
7
  6
BYLAYER
 90
4
 70
0
 10
93.9458140119
 20
231.8398004033
 10
93.7449383737
 20
231.7694153129
 10
93.5274012982
 20
231.6980822774
 10
93.2942118236
 20
231.6252224834
  0
LWPOLYLINE
  5
2C4
100
AcDbEntity
  8
0
100
AcDbPolyline
 62
7
  6
BYLAYER
 90
4
 70
0
 10
95.2660749907
 20
227.6852293593
 10
95.465658966
 20
227.7551594321
 10
95.6832354634
 20
227.8265025383
 10
95.9177766333
 20
227.8997654211
  0
LWPOLYLINE
  5
2C5
100
AcDbEntity
  8
0
100
AcDbPolyline
 62
7
  6
BYLAYER
 90
4
 70
0
 10
108.9452408834
 20
231.8398001874
 10
108.7444104779
 20
231.7694303953
 10
108.5268743713
 20
231.6980968429
 10
108.2936397766
 20
231.6252226337
  0
LWPOLYLINE
  5
2C6
100
AcDbEntity
  8
0
100
AcDbPolyline
 62
7
  6
BYLAYER
 90
4
 70
0
 10
95.2641318434
 20
226.2845367556
 10
95.4619829688
 20
226.353872706
 10
95.6797663414
 20
226.4253097082
 10
95.9167264822
 20
226.4993714375
  0
LWPOLYLINE
  5
2C7
100
AcDbEntity
  8
0
100
AcDbPolyline
 62
7
  6
BYLAYER
 90
4
 70
0
 10
93.9454386545
 20
230.4396172197
 10
93.7465839191
 20
230.3699832367
 10
93.5291605763
 20
230.2987176605
 10
93.2939845981
 20
230.2252469555
  0
LWPOLYLINE
  5
2C8
100
AcDbEntity
  8
0
100
AcDbPolyline
 62
7
  6
BYLAYER
 90
4
 70
0
 10
95.2660301306
 20
230.4852362868
 10
95.4673764251
 20
230.555753206
 10
95.6850630016
 20
230.6270795264
 10
95.9181132482
 20
230.6998425197
  0
LWPOLYLINE
  5
2C9
100
AcDbEntity
  8
0
100
AcDbPolyline
 62
7
  6
BYLAYER
 90
4
 70
0
 10
93.9441248797
 20
229.0391702467
 10
93.7473329039
 20
228.9702645921
 10
93.530616897
 20
228.8991711349
 10
93.2945753281
 20
228.8253769491
  0
LWPOLYLINE
  5
2CA
100
AcDbEntity
  8
0
100
AcDbPolyline
 62
7
  6
BYLAYER
 90
4
 70
0
 10
93.944520455
 20
226.239331484
 10
93.7448074325
 20
226.1694002015
 10
93.5288341268
 20
226.0985651283
 10
93.2942215207
 20
226.0252312751
  0
LWPOLYLINE
  5
2CB
100
AcDbEntity
  8
0
100
AcDbPolyline
 62
7
  6
BYLAYER
 90
4
 70
0
 10
108.9448662429
 20
230.4396172656
 10
108.7459924139
 20
230.3699768314
 10
108.5285692536
 20
230.2987116632
 10
108.2934116214
 20
230.2252468208
  0
LWPOLYLINE
  5
2CC
100
AcDbEntity
  8
0
100
AcDbPolyline
 62
7
  6
BYLAYER
 90
4
 70
0
 10
110.2654575931
 20
230.4852362868
 10
110.4668038875
 20
230.5557532059
 10
110.684490464
 20
230.6270795263
 10
110.9175407108
 20
230.6998425197
  0
LWPOLYLINE
  5
2CD
100
AcDbEntity
  8
0
100
AcDbPolyline
 62
7
  6
BYLAYER
 90
4
 70
0
 10
95.2643420433
 20
224.8846212404
 10
95.4642617455
 20
224.9546541357
 10
95.682123995
 20
225.0260663061
 10
95.9170783227
 20
225.0994655181
  0
LWPOLYLINE
  5
2CE
100
AcDbEntity
  8
0
100
AcDbPolyline
 62
7
  6
BYLAYER
 90
4
 70
0
 10
108.9436075851
 20
229.0391903888
 10
108.7478925339
 20
228.9706472011
 10
108.5355586154
 20
228.9009343726
 10
108.2941316931
 20
228.825416467
  0
LWPOLYLINE
  5
2CF
100
AcDbEntity
  8
0
100
AcDbPolyline
 62
7
  6
BYLAYER
 90
4
 70
0
 10
95.2669684574
 20
229.0855708773
 10
95.4639155916
 20
229.1545215011
 10
95.6806710392
 20
229.2255993079
 10
95.9165773515
 20
229.2993355592
  0
LWPOLYLINE
  5
2D0
100
AcDbEntity
  8
0
100
AcDbPolyline
 62
7
  6
BYLAYER
 90
4
 70
0
 10
93.9449560286
 20
227.6394357275
 10
93.7414274791
 20
227.568199527
 10
93.5237902486
 20
227.4969470208
 10
93.2929644612
 20
227.4249035458
  0
LWPOLYLINE
  5
2D1
100
AcDbEntity
  8
0
100
AcDbPolyline
 62
7
  6
BYLAYER
 90
4
 70
0
 10
110.26639592
 20
229.0855708773
 10
110.4633430542
 20
229.1545215011
 10
110.6800985018
 20
229.2255993079
 10
110.9160048141
 20
229.2993355592
  0
LWPOLYLINE
  5
2D2
100
AcDbEntity
  8
0
100
AcDbPolyline
 62
7
  6
BYLAYER
 90
4
 70
0
 10
93.9452220977
 20
233.2395283252
 10
93.7417289776
 20
233.1683208274
 10
93.5242007816
 20
233.097113029
 10
93.2934867865
 20
233.0250963252
  0
LWPOLYLINE
  5
2D3
100
AcDbEntity
  8
0
100
AcDbPolyline
 62
7
  6
BYLAYER
 90
4
 70
0
 10
108.9446500685
 20
233.2395285106
 10
108.7411442122
 20
233.1683167039
 10
108.523616509
 20
233.097109287
 10
108.2929138295
 20
233.0250961967
  0
LINE
  5
2D4
100
AcDbEntity
  8
0
100
AcDbLine
 62
7
  6
BYLAYER
 10
101.3380125171
 20
196.9560191821
 11
97.9213292597
 21
196.9560191821
  0
LINE
  5
2D5
100
AcDbEntity
  8
0
100
AcDbLine
 62
7
  6
BYLAYER
 10
96.809905985
 20
196.9560191821
 11
93.4304599538
 21
196.9560191821
  0
LINE
  5
2D6
100
AcDbEntity
  8
0
100
AcDbLine
 62
7
  6
BYLAYER
 10
223.4304599538
 20
196.9560191821
 11
226.7794647686
 21
196.9560191821
  0
LINE
  5
2D7
100
AcDbEntity
  8
0
100
AcDbLine
 62
7
  6
BYLAYER
 10
228.2890750187
 20
196.9560191821
 11
231.3380125171
 21
196.9560191821
  0
LINE
  5
2D8
100
AcDbEntity
  8
0
100
AcDbLine
 62
7
  6
BYLAYER
 10
223.4294210172
 20
198.1618935462
 11
226.7794647686
 21
198.1618935462
  0
LINE
  5
2D9
100
AcDbEntity
  8
0
100
AcDbLine
 62
7
  6
BYLAYER
 10
228.2890750187
 20
198.1618935462
 11
231.3390514536
 21
198.1618935462
  0
LINE
  5
2DA
100
AcDbEntity
  8
0
100
AcDbLine
 62
7
  6
BYLAYER
 10
101.3178395961
 20
198.2881487444
 11
97.9213292597
 21
198.2881487444
  0
LINE
  5
2DB
100
AcDbEntity
  8
0
100
AcDbLine
 62
7
  6
BYLAYER
 10
96.809905985
 20
198.2881487444
 11
93.4506328747
 21
198.2881487444
  0
LWPOLYLINE
  5
2DC
100
AcDbEntity
  8
0
100
AcDbPolyline
 62
7
  6
BYLAYER
 90
3
 70
0
 10
93.5448397758
 20
224.3209900326
 10
93.7532248292
 20
224.2524925505
 10
93.9466373482
 20
224.1846590167
  0
LWPOLYLINE
  5
2DD
100
AcDbEntity
  8
0
100
AcDbPolyline
 62
7
  6
BYLAYER
 90
3
 70
0
 10
95.5385747306
 20
224.0452340148
 10
95.4022316458
 20
224.0911960462
 10
95.265208842
 20
224.1397153527
  0
LINE
  5
2DE
100
AcDbEntity
  8
0
100
AcDbLine
 62
7
  6
BYLAYER
 10
94.9958362391
 20
229.8232050042
 11
95.2563222439
 21
229.6623032466
  0
LINE
  5
2DF
100
AcDbEntity
  8
0
100
AcDbLine
 62
7
  6
BYLAYER
 10
109.9952637017
 20
229.8232050042
 11
110.2557497065
 21
229.6623032466
  0
LINE
  5
2E0
100
AcDbEntity
  8
0
100
AcDbLine
 62
7
  6
BYLAYER
 10
108.9449649681
 20
259.077868369
 11
108.2082360499
 21
260.5555179781
  0
LINE
  5
2E1
100
AcDbEntity
  8
0
100
AcDbLine
 62
7
  6
BYLAYER
 10
141.7129484366
 20
168.8977524625
 11
141.7129484366
 21
107.0623632385
  0
LINE
  5
2E2
100
AcDbEntity
  8
0
100
AcDbLine
 62
7
  6
BYLAYER
 10
147.5351874549
 20
168.8977524625
 11
147.5351874549
 21
107.0623632385
  0
LINE
  5
2E3
100
AcDbEntity
  8
0
100
AcDbLine
 62
7
  6
BYLAYER
 10
151.6022362354
 20
312.0623632385
 11
151.6022362354
 21
342.0623632385
  0
LINE
  5
2E4
100
AcDbEntity
  8
0
100
AcDbLine
 62
7
  6
BYLAYER
 10
110.2642327192
 20
223.4847860766
 11
110.2787901725
 21
223.490083089
  0
LWPOLYLINE
  5
2E5
100
AcDbEntity
  8
0
100
AcDbPolyline
 62
7
  6
BYLAYER
 90
4
 70
0
 10
108.9461317502
 20
224.8399159269
 10
108.7707428157
 20
224.7781616566
 10
108.5843333118
 20
224.7164068526
 10
108.3874853633
 20
224.6540960232
  0
LWPOLYLINE
  5
2E6
100
AcDbEntity
  8
0
100
AcDbPolyline
 62
7
  6
BYLAYER
 90
4
 70
0
 10
110.2655024533
 20
227.6852293593
 10
110.4650864285
 20
227.7551594321
 10
110.682662926
 20
227.8265025383
 10
110.9172040959
 20
227.8997654211
  0
LWPOLYLINE
  5
2E7
100
AcDbEntity
  8
0
100
AcDbPolyline
 62
7
  6
BYLAYER
 90
4
 70
0
 10
108.943890753
 20
226.2393144529
 10
108.747168183
 20
226.1703882124
 10
108.5277025125
 20
226.0983766028
 10
108.2936189655
 20
226.0252111415
  0
LWPOLYLINE
  5
2E8
100
AcDbEntity
  8
0
100
AcDbPolyline
 62
7
  6
BYLAYER
 90
4
 70
0
 10
110.2635584377
 20
226.2845364385
 10
110.4614664696
 20
226.353891646
 10
110.6792464418
 20
226.4253265244
 10
110.9161595183
 20
226.4993731465
  0
LWPOLYLINE
  5
2E9
100
AcDbEntity
  8
0
100
AcDbPolyline
 62
7
  6
BYLAYER
 90
4
 70
0
 10
108.9443297135
 20
227.6394160981
 10
108.7440825678
 20
227.5692887287
 10
108.5275166863
 20
227.498318483
 10
108.2924653354
 20
227.4249260317
  0
LWPOLYLINE
  5
2EA
100
AcDbEntity
  8
0
100
AcDbPolyline
 62
7
  6
BYLAYER
 90
4
 70
0
 10
110.263772036
 20
224.8846221643
 10
110.4635872689
 20
224.9546197064
 10
110.6814451451
 20
225.0260323658
 10
110.9165112232
 20
225.0994671853
  0
LINE
  5
2EB
100
AcDbEntity
  8
0
100
AcDbLine
 62
7
  6
BYLAYER
 10
93.7285288257
 20
227.1015149807
 11
93.1431768684
 21
227.2624135988
  0
LINE
  5
2EC
100
AcDbEntity
  8
0
100
AcDbLine
 62
7
  6
BYLAYER
 10
108.7279562883
 20
227.1015149807
 11
108.1426043309
 21
227.2624135988
  0
LWPOLYLINE
  5
2ED
100
AcDbEntity
  8
0
100
AcDbPolyline
 62
7
  6
BYLAYER
 90
4
 70
0
 10
93.2918178059
 20
232.8002281165
 10
93.5237864067
 20
232.7278725882
 10
93.7426922918
 20
232.65622745
 10
93.9476562165
 20
232.584452156
  0
LWPOLYLINE
  5
2EE
100
AcDbEntity
  8
0
100
AcDbPolyline
 62
7
  6
BYLAYER
 90
4
 70
0
 10
93.2931406744
 20
229.9997292825
 10
93.5235688075
 20
229.927809197
 10
93.7410354763
 20
229.8566330357
 10
93.9446725195
 20
229.7853903917
  0
LWPOLYLINE
  5
2EF
100
AcDbEntity
  8
0
100
AcDbPolyline
 62
7
  6
BYLAYER
 90
4
 70
0
 10
95.9181467178
 20
232.3248687977
 10
95.6852319213
 20
232.3975865294
 10
95.4673189933
 20
232.468983993
 10
95.2653644337
 20
232.5397229489
  0
LWPOLYLINE
  5
2F0
100
AcDbEntity
  8
0
100
AcDbPolyline
 62
7
  6
BYLAYER
 90
4
 70
0
 10
108.2925681369
 20
229.9997292825
 10
108.5229962701
 20
229.927809197
 10
108.7404629389
 20
229.8566330357
 10
108.9440999821
 20
229.7853903917
  0
LWPOLYLINE
  5
2F1
100
AcDbEntity
  8
0
100
AcDbPolyline
 62
7
  6
BYLAYER
 90
4
 70
0
 10
95.9177595545
 20
226.7249546865
 10
95.6838058231
 20
226.7980323063
 10
95.4662385414
 20
226.8693634143
 10
95.2660743916
 20
226.9394897162
  0
LWPOLYLINE
  5
2F2
100
AcDbEntity
  8
0
100
AcDbPolyline
 62
7
  6
BYLAYER
 90
4
 70
0
 10
95.9170365725
 20
228.1252682185
 10
95.6812200151
 20
228.1989345963
 10
95.4717230579
 20
228.2675366933
 10
95.2664460936
 20
228.3393179945
  0
LWPOLYLINE
  5
2F3
100
AcDbEntity
  8
0
100
AcDbPolyline
 62
7
  6
BYLAYER
 90
4
 70
0
 10
95.9173152246
 20
229.5250788245
 10
95.6856323476
 20
229.5974579834
 10
95.468281554
 20
229.6686959004
 10
95.2662473802
 20
229.7394436434
  0
LWPOLYLINE
  5
2F4
100
AcDbEntity
  8
0
100
AcDbPolyline
 62
7
  6
BYLAYER
 90
4
 70
0
 10
110.9171865337
 20
226.7249548271
 10
110.6830925263
 20
226.7980772417
 10
110.4655289194
 20
226.8694097209
 10
110.2655050474
 20
226.9394885486
  0
LWPOLYLINE
  5
2F5
100
AcDbEntity
  8
0
100
AcDbPolyline
 62
7
  6
BYLAYER
 90
4
 70
0
 10
110.9166152838
 20
228.1252218644
 10
110.6835886389
 20
228.1979958395
 10
110.4664787752
 20
228.2691119332
 10
110.2661142203
 20
228.3392302318
  0
LWPOLYLINE
  5
2F6
100
AcDbEntity
  8
0
100
AcDbPolyline
 62
7
  6
BYLAYER
 90
4
 70
0
 10
110.9167436241
 20
229.5250785373
 10
110.6849906887
 20
229.5974800497
 10
110.467642774
 20
229.6687182665
 10
110.2656747858
 20
229.7394436642
  0
LWPOLYLINE
  5
2F7
100
AcDbEntity
  8
0
100
AcDbPolyline
 62
7
  6
BYLAYER
 90
4
 70
0
 10
93.2945439056
 20
225.7993039382
 10
93.5308977827
 20
225.7254419227
 10
93.7485974303
 20
225.6540455232
 10
93.9468289198
 20
225.5845827221
  0
LWPOLYLINE
  5
2F8
100
AcDbEntity
  8
0
100
AcDbPolyline
 62
7
  6
BYLAYER
 90
4
 70
0
 10
93.2944214885
 20
227.1993575973
 10
93.5312280204
 20
227.1253364325
 10
93.7488259118
 20
227.0539570588
 10
93.9465404462
 20
226.9846784565
  0
LWPOLYLINE
  5
2F9
100
AcDbEntity
  8
0
100
AcDbPolyline
 62
7
  6
BYLAYER
 90
4
 70
0
 10
93.2941766035
 20
228.599495235
 10
93.5269500869
 20
228.5267517225
 10
93.7440056451
 20
228.4555880945
 10
93.9445186481
 20
228.3853867466
  0
LWPOLYLINE
  5
2FA
100
AcDbEntity
  8
0
100
AcDbPolyline
 62
7
  6
BYLAYER
 90
4
 70
0
 10
108.293966519
 20
225.7993054251
 10
108.5304142407
 20
225.7254134967
 10
108.7481095237
 20
225.6540169236
 10
108.9462539
 20
225.5845836287
  0
LWPOLYLINE
  5
2FB
100
AcDbEntity
  8
0
100
AcDbPolyline
 62
7
  6
BYLAYER
 90
4
 70
0
 10
95.9164505225
 20
230.9253809362
 10
95.6800375211
 20
230.9992961737
 10
95.462939296
 20
231.0705353936
 10
95.2657864339
 20
231.1395998521
  0
LWPOLYLINE
  5
2FC
100
AcDbEntity
  8
0
100
AcDbPolyline
 62
7
  6
BYLAYER
 90
4
 70
0
 10
108.2938452584
 20
227.1993587296
 10
108.5306034852
 20
227.1253530464
 10
108.7481977673
 20
227.0539758522
 10
108.9459689845
 20
226.9846780636
  0
LWPOLYLINE
  5
2FD
100
AcDbEntity
  8
0
100
AcDbPolyline
 62
7
  6
BYLAYER
 90
4
 70
0
 10
108.2936040661
 20
228.599495235
 10
108.5263775495
 20
228.5267517225
 10
108.7434331077
 20
228.4555880945
 10
108.9439461107
 20
228.3853867466
  0
LWPOLYLINE
  5
2FE
100
AcDbEntity
  8
0
100
AcDbPolyline
 62
7
  6
BYLAYER
 90
4
 70
0
 10
95.9169172189
 20
225.3249560849
 10
95.6795055423
 20
225.399215215
 10
95.461313425
 20
225.470911544
 10
95.2634356942
 20
225.54040715
  0
LWPOLYLINE
  5
2FF
100
AcDbEntity
  8
0
100
AcDbPolyline
 62
7
  6
BYLAYER
 90
4
 70
0
 10
110.9163446815
 20
225.3249560849
 10
110.6789330049
 20
225.399215215
 10
110.4607408876
 20
225.470911544
 10
110.2628631568
 20
225.54040715
  0
LWPOLYLINE
  5
300
100
AcDbEntity
  8
0
100
AcDbPolyline
 62
7
  6
BYLAYER
 90
4
 70
0
 10
93.2961267565
 20
231.3990047267
 10
93.5329643618
 20
231.3248632862
 10
93.7503626225
 20
231.253434477
 10
93.947702216
 20
231.184228827
  0
LWPOLYLINE
  5
301
100
AcDbEntity
  8
0
100
AcDbPolyline
 62
7
  6
BYLAYER
 90
3
 70
0
 10
108.5442687842
 20
224.3209895375
 10
108.7527108948
 20
224.2524727171
 10
108.9460622814
 20
224.1846599403
  0
LWPOLYLINE
  5
302
100
AcDbEntity
  8
0
100
AcDbPolyline
 62
7
  6
BYLAYER
 90
3
 70
0
 10
110.5380021932
 20
224.0452340148
 10
110.4016591084
 20
224.0911960462
 10
110.2646363046
 20
224.1397153527
  0
LINE
  5
303
100
AcDbEntity
  8
0
100
AcDbLine
 62
7
  6
BYLAYER
 10
156.8721971533
 20
185.5623632462
 11
156.8717401341
 21
186.0623632308
  0
LINE
  5
304
100
AcDbEntity
  8
0
100
AcDbLine
 62
7
  6
BYLAYER
 10
157.1342362354
 20
185.5623632385
 11
157.1342362354
 21
186.0623632385
  0
LINE
  5
305
100
AcDbEntity
  8
0
100
AcDbLine
 62
7
  6
BYLAYER
 10
158.1342362354
 20
188.5623632385
 11
158.1342362354
 21
186.0623632385
  0
LINE
  5
306
100
AcDbEntity
  8
0
100
AcDbLine
 62
7
  6
BYLAYER
 10
158.1726662697
 20
190.0623632385
 11
158.1726662697
 21
188.5623632385
  0
LINE
  5
307
100
AcDbEntity
  8
0
100
AcDbLine
 62
7
  6
BYLAYER
 10
158.3021643523
 20
188.5623632385
 11
158.3021643523
 21
190.0623632385
  0
LINE
  5
308
100
AcDbEntity
  8
0
100
AcDbLine
 62
7
  6
BYLAYER
 10
161.3503421333
 20
190.0623632385
 11
161.3503421333
 21
189.0623632385
  0
LINE
  5
309
100
AcDbEntity
  8
0
100
AcDbLine
 62
7
  6
BYLAYER
 10
163.1922489221
 20
189.0623632385
 11
163.1922489221
 21
190.0623632385
  0
LINE
  5
30A
100
AcDbEntity
  8
0
100
AcDbLine
 62
7
  6
BYLAYER
 10
110.505052801
 20
223.4623632385
 11
108.7049868002
 21
223.4623632385
  0
LINE
  5
30B
100
AcDbEntity
  8
0
100
AcDbLine
 62
7
  6
BYLAYER
 10
95.5056253384
 20
223.4623632385
 11
93.7055593376
 21
223.4623632385
  0
LINE
  5
30C
100
AcDbEntity
  8
0
100
AcDbLine
 62
7
  6
BYLAYER
 10
119.1046705204
 20
225.3212089653
 11
115.1046705208
 21
225.3212089653
  0
LINE
  5
30D
100
AcDbEntity
  8
0
100
AcDbLine
 62
7
  6
BYLAYER
 10
104.1046705235
 20
225.3212089653
 11
100.1046705239
 21
225.3212089653
  0
LINE
  5
30E
100
AcDbEntity
  8
0
100
AcDbLine
 62
7
  6
BYLAYER
 10
89.1046705267
 20
225.3212089653
 11
85.1046705271
 21
225.3212089653
  0
LINE
  5
30F
100
AcDbEntity
  8
0
100
AcDbLine
 62
7
  6
BYLAYER
 10
119.105831947
 20
225.4212089653
 11
115.1058319475
 21
225.4212089653
  0
LINE
  5
310
100
AcDbEntity
  8
0
100
AcDbLine
 62
7
  6
BYLAYER
 10
104.1058319502
 20
225.4212089653
 11
100.1058319506
 21
225.4212089653
  0
LINE
  5
311
100
AcDbEntity
  8
0
100
AcDbLine
 62
7
  6
BYLAYER
 10
89.1058319533
 20
225.4212089653
 11
85.1058319537
 21
225.4212089653
  0
LWPOLYLINE
  5
312
100
AcDbEntity
  8
0
100
AcDbPolyline
 62
7
  6
BYLAYER
 90
4
 70
0
 10
108.2912461384
 20
232.8002278504
 10
108.52329373
 20
232.727847136
 10
108.7421983485
 20
232.6562009414
 10
108.9470819936
 20
232.584452772
  0
LWPOLYLINE
  5
313
100
AcDbEntity
  8
0
100
AcDbPolyline
 62
7
  6
BYLAYER
 90
4
 70
0
 10
110.9175732254
 20
232.3248690902
 10
110.6845787774
 20
232.3976122486
 10
110.4666671891
 20
232.4690107545
 10
110.2647936922
 20
232.539722293
  0
LWPOLYLINE
  5
314
100
AcDbEntity
  8
0
100
AcDbPolyline
 62
7
  6
BYLAYER
 90
4
 70
0
 10
110.9158782885
 20
230.9253808431
 10
110.6794806748
 20
230.9992911584
 10
110.4623827732
 20
231.0705299804
 10
110.265213825
 20
231.1395998782
  0
LWPOLYLINE
  5
315
100
AcDbEntity
  8
0
100
AcDbPolyline
 62
7
  6
BYLAYER
 90
4
 70
0
 10
108.2955540096
 20
231.399004791
 10
108.5323777199
 20
231.3248678001
 10
108.7497758284
 20
231.2534393021
 10
108.9471304722
 20
231.1842285372
  0
LINE
  5
316
100
AcDbEntity
  8
0
100
AcDbLine
 62
7
  6
BYLAYER
 10
94.6055375056
 20
258.7269401441
 11
93.9455375056
 21
259.077868369
  0
LINE
  5
317
100
AcDbEntity
  8
0
100
AcDbLine
 62
7
  6
BYLAYER
 10
164.3822362354
 20
342.0623632385
 11
164.3822362354
 21
312.0623632385
  0
LINE
  5
318
100
AcDbEntity
  8
0
100
AcDbLine
 62
7
  6
BYLAYER
 10
166.4663081185
 20
190.0623632385
 11
166.4663081185
 21
188.5623632385
  0
LINE
  5
319
100
AcDbEntity
  8
0
100
AcDbLine
 62
7
  6
BYLAYER
 10
166.5958062011
 20
188.5623632385
 11
166.5958062011
 21
190.0623632385
  0
LINE
  5
31A
100
AcDbEntity
  8
0
100
AcDbLine
 62
7
  6
BYLAYER
 10
166.6342362354
 20
188.5623632385
 11
166.6342362354
 21
186.0623632385
  0
LINE
  5
31B
100
AcDbEntity
  8
0
100
AcDbLine
 62
7
  6
BYLAYER
 10
167.6342362354
 20
186.0623632385
 11
167.6342362354
 21
185.5623632385
  0
LINE
  5
31C
100
AcDbEntity
  8
0
100
AcDbLine
 62
7
  6
BYLAYER
 10
170.824143528
 20
168.8977524625
 11
170.824143528
 21
107.0623632385
  0
LINE
  5
31D
100
AcDbEntity
  8
0
100
AcDbLine
 62
7
  6
BYLAYER
 10
167.8963091286
 20
185.5623632771
 11
167.8966985256
 21
186.0623631999
  0
LINE
  5
31E
100
AcDbEntity
  8
0
100
AcDbLine
 62
7
  6
BYLAYER
 10
119.10467052
 20
227.8212089653
 11
115.1046705204
 21
227.8212089653
  0
LINE
  5
31F
100
AcDbEntity
  8
0
100
AcDbLine
 62
7
  6
BYLAYER
 10
104.1046705231
 20
227.8212089653
 11
100.1046705235
 21
227.8212089653
  0
LINE
  5
320
100
AcDbEntity
  8
0
100
AcDbLine
 62
7
  6
BYLAYER
 10
89.1046705262
 20
227.8212089653
 11
85.1046705267
 21
227.8212089653
  0
LINE
  5
321
100
AcDbEntity
  8
0
100
AcDbLine
 62
7
  6
BYLAYER
 10
119.1058319466
 20
227.9212089653
 11
115.105831947
 21
227.9212089653
  0
LINE
  5
322
100
AcDbEntity
  8
0
100
AcDbLine
 62
7
  6
BYLAYER
 10
104.1058319498
 20
227.9212089653
 11
100.1058319502
 21
227.9212089653
  0
LINE
  5
323
100
AcDbEntity
  8
0
100
AcDbLine
 62
7
  6
BYLAYER
 10
89.1058319529
 20
227.9212089653
 11
85.1058319533
 21
227.9212089653
  0
LINE
  5
324
100
AcDbEntity
  8
0
100
AcDbLine
 62
7
  6
BYLAYER
 10
118.7546705204
 20
227.945205951
 11
115.4546705207
 21
227.945205951
  0
LINE
  5
325
100
AcDbEntity
  8
0
100
AcDbLine
 62
7
  6
BYLAYER
 10
103.7546705235
 20
227.945205951
 11
100.4546705239
 21
227.945205951
  0
LINE
  5
326
100
AcDbEntity
  8
0
100
AcDbLine
 62
7
  6
BYLAYER
 10
88.7546705267
 20
227.945205951
 11
85.454670527
 21
227.945205951
  0
LINE
  5
327
100
AcDbEntity
  8
0
100
AcDbLine
 62
7
  6
BYLAYER
 10
118.755831947
 20
228.045205951
 11
115.4558319474
 21
228.045205951
  0
LINE
  5
328
100
AcDbEntity
  8
0
100
AcDbLine
 62
7
  6
BYLAYER
 10
103.7558319502
 20
228.045205951
 11
100.4558319505
 21
228.045205951
  0
LINE
  5
329
100
AcDbEntity
  8
0
100
AcDbLine
 62
7
  6
BYLAYER
 10
88.7558319533
 20
228.045205951
 11
85.4558319537
 21
228.045205951
  0
LINE
  5
32A
100
AcDbEntity
  8
0
100
AcDbLine
 62
7
  6
BYLAYER
 10
93.5555375056
 20
233.4623632385
 11
95.7972459729
 21
233.4623632385
  0
LINE
  5
32B
100
AcDbEntity
  8
0
100
AcDbLine
 62
7
  6
BYLAYER
 10
108.5549649681
 20
233.4623632385
 11
110.7966734556
 21
233.4623632385
  0
LINE
  5
32C
100
AcDbEntity
  8
0
100
AcDbLine
 62
7
  6
BYLAYER
 10
118.75467052
 20
235.4623632385
 11
115.4546705204
 21
235.4623632385
  0
LINE
  5
32D
100
AcDbEntity
  8
0
100
AcDbLine
 62
7
  6
BYLAYER
 10
103.7546705232
 20
235.4623632385
 11
100.4546705235
 21
235.4623632385
  0
LINE
  5
32E
100
AcDbEntity
  8
0
100
AcDbLine
 62
7
  6
BYLAYER
 10
88.7546705263
 20
235.4623632385
 11
85.4546705267
 21
235.4623632385
  0
LINE
  5
32F
100
AcDbEntity
  8
0
100
AcDbLine
 62
7
  6
BYLAYER
 10
118.7558319467
 20
235.5623632385
 11
115.455831947
 21
235.5623632385
  0
LINE
  5
330
100
AcDbEntity
  8
0
100
AcDbLine
 62
7
  6
BYLAYER
 10
103.7558319498
 20
235.5623632385
 11
100.4558319502
 21
235.5623632385
  0
LINE
  5
331
100
AcDbEntity
  8
0
100
AcDbLine
 62
7
  6
BYLAYER
 10
88.755831953
 20
235.5623632385
 11
85.4558319533
 21
235.5623632385
  0
LINE
  5
332
100
AcDbEntity
  8
0
100
AcDbLine
 62
7
  6
BYLAYER
 10
109.6049649681
 20
258.7269401441
 11
108.9449649681
 21
259.077868369
  0
LINE
  5
333
100
AcDbEntity
  8
0
100
AcDbLine
 62
7
  6
BYLAYER
 10
176.6463825463
 20
168.8977524625
 11
176.6463825463
 21
107.0623632385
  0
LINE
  5
334
100
AcDbEntity
  8
0
100
AcDbLine
 62
7
  6
BYLAYER
 10
93.1384984352
 20
225.8598132306
 11
93.7191109899
 21
226.0195801185
  0
LINE
  5
335
100
AcDbEntity
  8
0
100
AcDbLine
 62
7
  6
BYLAYER
 10
108.142636937
 20
225.862293387
 11
108.7279617559
 21
226.0231974941
  0
LINE
  5
336
100
AcDbEntity
  8
0
100
AcDbLine
 62
7
  6
BYLAYER
 10
93.1432094744
 20
225.862293387
 11
93.7285342933
 21
226.0231974941
  0
LINE
  5
337
100
AcDbEntity
  8
0
100
AcDbLine
 62
7
  6
BYLAYER
 10
196.510492138
 20
168.8977524625
 11
196.510492138
 21
107.0623632385
  0
LINE
  5
338
100
AcDbEntity
  8
0
100
AcDbLine
 62
7
  6
BYLAYER
 10
93.5555375056
 20
257.7623632385
 11
95.6555375056
 21
257.7623632385
  0
LINE
  5
339
100
AcDbEntity
  8
0
100
AcDbLine
 62
7
  6
BYLAYER
 10
108.5549649681
 20
257.7623632385
 11
110.6549649681
 21
257.7623632385
  0
LINE
  5
33A
100
AcDbEntity
  8
0
100
AcDbLine
 62
7
  6
BYLAYER
 10
112.4049649681
 20
258.4623632385
 11
106.8049649687
 21
258.4623632385
  0
LINE
  5
33B
100
AcDbEntity
  8
0
100
AcDbLine
 62
7
  6
BYLAYER
 10
97.4055375056
 20
258.4623632385
 11
91.8055375061
 21
258.4623632385
  0
LINE
  5
33C
100
AcDbEntity
  8
0
100
AcDbLine
 62
7
  6
BYLAYER
 10
110.0048847775
 20
259.7623632385
 11
109.2046666023
 21
259.7623632385
  0
LINE
  5
33D
100
AcDbEntity
  8
0
100
AcDbLine
 62
7
  6
BYLAYER
 10
95.0054573149
 20
259.7623632385
 11
94.2052391397
 21
259.7623632385
  0
LINE
  5
33E
100
AcDbEntity
  8
0
100
AcDbLine
 62
7
  6
BYLAYER
 10
112.2737483841
 20
259.9623772053
 11
110.0046641463
 21
259.9623772053
  0
LINE
  5
33F
100
AcDbEntity
  8
0
100
AcDbLine
 62
7
  6
BYLAYER
 10
109.2051577807
 20
259.9623772053
 11
106.9361815516
 21
259.9623772053
  0
LINE
  5
340
100
AcDbEntity
  8
0
100
AcDbLine
 62
7
  6
BYLAYER
 10
97.2743209216
 20
259.9623772053
 11
95.0052366837
 21
259.9623772053
  0
LINE
  5
341
100
AcDbEntity
  8
0
100
AcDbLine
 62
7
  6
BYLAYER
 10
94.2057303181
 20
259.9623772053
 11
91.936754089
 21
259.9623772053
  0
LINE
  5
342
100
AcDbEntity
  8
0
100
AcDbLine
 62
7
  6
BYLAYER
 10
202.3327311563
 20
168.8977524625
 11
202.3327311563
 21
107.0623632385
  0
LINE
  5
343
100
AcDbEntity
  8
0
100
AcDbLine
 62
7
  6
BYLAYER
 10
95.6308562081
 20
260.5123634345
 11
95.2702003038
 21
260.5123653619
  0
LINE
  5
344
100
AcDbEntity
  8
0
100
AcDbLine
 62
7
  6
BYLAYER
 10
110.6302836706
 20
260.5123634345
 11
110.2696277664
 21
260.5123653619
  0
LINE
  5
345
100
AcDbEntity
  8
0
100
AcDbLine
 62
7
  6
BYLAYER
 10
93.58026065
 20
260.5123631598
 11
93.9408402857
 21
260.5123629271
  0
LINE
  5
346
100
AcDbEntity
  8
0
100
AcDbLine
 62
7
  6
BYLAYER
 10
108.5796881126
 20
260.5123631598
 11
108.9402677483
 21
260.512362927
  0
LINE
  5
347
100
AcDbEntity
  8
0
100
AcDbLine
 62
7
  6
BYLAYER
 10
111.0015278561
 20
260.5556007577
 11
110.9513911247
 21
260.5556007577
  0
LINE
  5
348
100
AcDbEntity
  8
0
100
AcDbLine
 62
7
  6
BYLAYER
 10
108.2585899138
 20
260.5556007577
 11
108.2084020805
 21
260.5556007577
  0
LINE
  5
349
100
AcDbEntity
  8
0
100
AcDbLine
 62
7
  6
BYLAYER
 10
96.0021003935
 20
260.5556007577
 11
95.9519636621
 21
260.5556007577
  0
LINE
  5
34A
100
AcDbEntity
  8
0
100
AcDbLine
 62
7
  6
BYLAYER
 10
93.2591624513
 20
260.5556007577
 11
93.2089746179
 21
260.5556007577
  0
LINE
  5
34B
100
AcDbEntity
  8
0
100
AcDbLine
 62
7
  6
BYLAYER
 10
101.384164948
 20
277.5862440696
 11
97.9213292597
 21
277.5862440696
  0
LINE
  5
34C
100
AcDbEntity
  8
0
100
AcDbLine
 62
7
  6
BYLAYER
 10
96.6865139109
 20
277.5862440696
 11
93.3843075228
 21
277.5862440696
  0
LINE
  5
34D
100
AcDbEntity
  8
0
100
AcDbLine
 62
7
  6
BYLAYER
 10
223.3843075228
 20
277.5862440696
 11
226.5912039141
 21
277.5862440696
  0
LINE
  5
34E
100
AcDbEntity
  8
0
100
AcDbLine
 62
7
  6
BYLAYER
 10
228.2890750187
 20
277.5862440696
 11
231.384164948
 21
277.5862440696
  0
LINE
  5
34F
100
AcDbEntity
  8
0
100
AcDbLine
 62
7
  6
BYLAYER
 10
223.4654349825
 20
278.3642340135
 11
226.5912039141
 21
278.3642340135
  0
LINE
  5
350
100
AcDbEntity
  8
0
100
AcDbLine
 62
7
  6
BYLAYER
 10
228.2890750187
 20
278.3642340135
 11
231.3030374884
 21
278.3642340135
  0
LINE
  5
351
100
AcDbEntity
  8
0
100
AcDbLine
 62
7
  6
BYLAYER
 10
101.1905076603
 20
278.7921184337
 11
97.9213292597
 21
278.7921184337
  0
LINE
  5
352
100
AcDbEntity
  8
0
100
AcDbLine
 62
7
  6
BYLAYER
 10
96.6865139109
 20
278.7921184337
 11
93.5779648106
 21
278.7921184337
  0
LINE
  5
353
100
AcDbEntity
  8
0
100
AcDbLine
 62
7
  6
BYLAYER
 10
221.9365524154
 20
168.8977524625
 11
221.9365524154
 21
107.0623632385
  0
LINE
  5
354
100
AcDbEntity
  8
0
100
AcDbLine
 62
7
  6
BYLAYER
 10
226.5912039141
 20
273.6417638281
 11
226.5912039141
 21
277.5862440696
  0
LINE
  5
355
100
AcDbEntity
  8
0
100
AcDbLine
 62
7
  6
BYLAYER
 10
226.5912039141
 20
278.3642340135
 11
226.5912039141
 21
281.482962649
  0
LINE
  5
356
100
AcDbEntity
  8
0
100
AcDbLine
 62
7
  6
BYLAYER
 10
226.7794647686
 20
201.5163803696
 11
226.7794647686
 21
198.1618935462
  0
LINE
  5
357
100
AcDbEntity
  8
0
100
AcDbLine
 62
7
  6
BYLAYER
 10
226.7794647686
 20
196.9560191821
 11
226.7794647686
 21
193.6083461074
  0
LINE
  5
358
100
AcDbEntity
  8
0
100
AcDbLine
 62
7
  6
BYLAYER
 10
227.7587914337
 20
168.8977524625
 11
227.7587914337
 21
107.0623632385
  0
LINE
  5
359
100
AcDbEntity
  8
0
100
AcDbLine
 62
7
  6
BYLAYER
 10
228.2890750187
 20
201.4586777505
 11
228.2890750187
 21
198.1618935462
  0
LINE
  5
35A
100
AcDbEntity
  8
0
100
AcDbLine
 62
7
  6
BYLAYER
 10
228.2890750187
 20
196.9560191821
 11
228.2890750187
 21
193.6660487265
  0
LINE
  5
35B
100
AcDbEntity
  8
0
100
AcDbLine
 62
7
  6
BYLAYER
 10
228.2890750187
 20
273.6660487265
 11
228.2890750187
 21
277.5862440696
  0
LINE
  5
35C
100
AcDbEntity
  8
0
100
AcDbLine
 62
7
  6
BYLAYER
 10
228.2890750187
 20
278.3642340135
 11
228.2890750187
 21
281.4586777505
  0
LINE
  5
35D
100
AcDbEntity
  8
0
100
AcDbLine
 62
7
  6
BYLAYER
 10
93.3842362354
 20
283.5623632385
 11
231.3842362354
 21
283.5623632385
  0
LINE
  5
35E
100
AcDbEntity
  8
0
100
AcDbLine
 62
7
  6
BYLAYER
 10
89.8842362354
 20
284.0623632385
 11
234.8842362354
 21
284.0623632385
  0
LINE
  5
35F
100
AcDbEntity
  8
0
100
AcDbLine
 62
7
  6
BYLAYER
 10
50.1559253256
 20
287.0623632385
 11
274.6125471452
 21
287.0623632385
  0
LINE
  5
360
100
AcDbEntity
  8
0
100
AcDbLine
 62
7
  6
BYLAYER
 10
50.175125897
 20
287.3623632385
 11
274.5933465738
 21
287.3623632385
  0
LINE
  5
361
100
AcDbEntity
  8
0
100
AcDbLine
 62
7
  6
BYLAYER
 10
234.3842362354
 20
280.5623632385
 11
234.3842362354
 21
202.0623632385
  0
LINE
  5
362
100
AcDbEntity
  8
0
100
AcDbLine
 62
7
  6
BYLAYER
 10
234.8842362354
 20
284.0623632385
 11
234.8842362354
 21
201.0626144806
  0
LINE
  5
363
100
AcDbEntity
  8
0
100
AcDbLine
 62
7
  6
BYLAYER
 10
246.3822362354
 20
312.0623632385
 11
246.3822362354
 21
342.0623632385
  0
LINE
  5
364
100
AcDbEntity
  8
0
100
AcDbLine
 62
7
  6
BYLAYER
 10
246.3842362354
 20
185.5623632385
 11
246.3842362357
 21
312.0623632385
  0
LINE
  5
365
100
AcDbEntity
  8
0
100
AcDbLine
 62
7
  6
BYLAYER
 10
246.9516311151
 20
168.8977524625
 11
246.9516311151
 21
107.0623632385
  0
LINE
  5
366
100
AcDbEntity
  8
0
100
AcDbLine
 62
7
  6
BYLAYER
 10
252.7738701334
 20
168.8977524625
 11
252.7738701334
 21
107.0623632385
  0
LINE
  5
367
100
AcDbEntity
  8
0
100
AcDbLine
 62
7
  6
BYLAYER
 10
50.6062660008
 20
312.0623632385
 11
274.16220647
 21
312.0623632385
  0
LINE
  5
368
100
AcDbEntity
  8
0
100
AcDbLine
 62
7
  6
BYLAYER
 10
259.1622362354
 20
342.0623632385
 11
259.1622362354
 21
312.0623632385
  0
LINE
  5
369
100
AcDbEntity
  8
0
100
AcDbLine
 62
7
  6
BYLAYER
 10
114.1062660008
 20
320.8523632385
 11
90.1062660008
 21
320.8523632385
  0
LINE
  5
36A
100
AcDbEntity
  8
0
100
AcDbLine
 62
7
  6
BYLAYER
 10
271.6073106257
 20
287.3623632385
 11
271.6125471452
 21
287.0623632385
  0
LINE
  5
36B
100
AcDbEntity
  8
0
100
AcDbLine
 62
7
  6
BYLAYER
 10
274.1622064701
 20
312.0623632385
 11
274.5933465738
 21
287.3623632385
  0
LINE
  5
36C
100
AcDbEntity
  8
0
100
AcDbLine
 62
7
  6
BYLAYER
 10
274.6125471452
 20
287.0623632385
 11
276.3842362354
 21
185.5623632385
  0
LINE
  5
36D
100
AcDbEntity
  8
0
100
AcDbLine
 62
7
  6
BYLAYER
 10
268.8842362354
 20
113.0623632385
 11
268.8842362354
 21
172.0623632385
  0
LINE
  5
36E
100
AcDbEntity
  8
0
100
AcDbLine
 62
7
  6
BYLAYER
 10
271.3842362354
 20
172.0623632385
 11
271.3842362354
 21
185.5623632385
  0
LINE
  5
36F
100
AcDbEntity
  8
0
100
AcDbLine
 62
7
  6
BYLAYER
 10
272.1376600228
 20
287.0623632385
 11
272.1376600228
 21
287.3623632385
  0
LINE
  5
370
100
AcDbEntity
  8
0
100
AcDbLine
 62
7
  6
BYLAYER
 10
272.3842362354
 20
185.5623632385
 11
272.3842362354
 21
172.0623632385
  0
LINE
  5
371
100
AcDbEntity
  8
0
100
AcDbLine
 62
7
  6
BYLAYER
 10
273.3842362354
 20
185.5623632385
 11
273.3842362354
 21
172.0623632385
  0
LINE
  5
372
100
AcDbEntity
  8
0
100
AcDbLine
 62
7
  6
BYLAYER
 10
275.1342362354
 20
107.0623632385
 11
275.1342362354
 21
112.0623632385
  0
LINE
  5
373
100
AcDbEntity
  8
0
100
AcDbLine
 62
7
  6
BYLAYER
 10
277.1342362354
 20
188.5623632385
 11
277.1342362354
 21
186.0623632385
  0
LINE
  5
374
100
AcDbEntity
  8
0
100
AcDbLine
 62
7
  6
BYLAYER
 10
277.1479687592
 20
190.0623632385
 11
277.1479687592
 21
188.5623632385
  0
LINE
  5
375
100
AcDbEntity
  8
0
100
AcDbLine
 62
7
  6
BYLAYER
 10
277.2002525389
 20
188.5623632385
 11
277.2002525389
 21
190.0623632385
  0
LINE
  5
376
100
AcDbEntity
  8
0
100
AcDbLine
 62
7
  6
BYLAYER
 10
280.6342362354
 20
107.0623632385
 11
280.6342362354
 21
112.0623632385
  0
LINE
  5
377
100
AcDbEntity
  8
0
100
AcDbLine
 62
7
  6
BYLAYER
 10
280.8919618465
 20
190.0623632385
 11
280.8919618465
 21
189.0623632385
  0
LINE
  5
378
100
AcDbEntity
  8
0
100
AcDbLine
 62
7
  6
BYLAYER
 10
281.3842362354
 20
185.5623632385
 11
281.3842362354
 21
186.0623632385
  0
LINE
  5
379
100
AcDbEntity
  8
0
100
AcDbLine
 62
7
  6
BYLAYER
 10
282.2460939349
 20
189.0623632385
 11
282.2460939349
 21
190.0623632385
  0
LINE
  5
37A
100
AcDbEntity
  8
0
100
AcDbLine
 62
7
  6
BYLAYER
 10
284.3842362354
 20
107.0623632385
 11
284.3842362354
 21
112.0623632385
  0
LINE
  5
37B
100
AcDbEntity
  8
0
100
AcDbLine
 62
7
  6
BYLAYER
 10
285.5682199319
 20
190.0623632385
 11
285.5682199319
 21
188.5623632385
  0
LINE
  5
37C
100
AcDbEntity
  8
0
100
AcDbLine
 62
7
  6
BYLAYER
 10
285.6205037116
 20
188.5623632385
 11
285.6205037116
 21
190.0623632385
  0
LINE
  5
37D
100
AcDbEntity
  8
0
100
AcDbLine
 62
7
  6
BYLAYER
 10
285.6342362354
 20
188.5623632385
 11
285.6342362354
 21
186.0623632385
  0
LINE
  5
37E
100
AcDbEntity
  8
0
100
AcDbLine
 62
7
  6
BYLAYER
 10
286.3842362354
 20
172.0623632385
 11
286.3842362354
 21
185.5623632385
  0
LINE
  5
37F
100
AcDbEntity
  8
0
100
AcDbLine
 62
7
  6
BYLAYER
 10
286.6342362354
 20
185.5623632385
 11
286.6342362354
 21
186.0623632385
  0
LINE
  5
380
100
AcDbEntity
  8
0
100
AcDbLine
 62
7
  6
BYLAYER
 10
287.3842362354
 20
185.5623632385
 11
287.3842362354
 21
172.0623632385
  0
LINE
  5
381
100
AcDbEntity
  8
0
100
AcDbLine
 62
7
  6
BYLAYER
 10
287.3842362354
 20
112.0623632385
 11
287.3842362354
 21
107.0623632385
  0
LINE
  5
382
100
AcDbEntity
  8
0
100
AcDbLine
 62
7
  6
BYLAYER
 10
151.6022362354
 20
342.0623632385
 11
259.1622362354
 21
342.0623632385
  0
ARC
  5
383
100
AcDbEntity
  8
0
100
AcDbCircle
 62
7
  6
BYLAYER
 10
40.1806336404
 20
193.9559721791
 40
86.3979967235
100
AcDbArc
 50
50.3850132469
 51
50.5034699207
  0
ARC
  5
384
100
AcDbEntity
  8
0
100
AcDbCircle
 62
7
  6
BYLAYER
 10
55.1800611557
 20
193.955972243
 40
86.3979966407
100
AcDbArc
 50
50.3850132468
 51
50.5034699207
  0
ARC
  5
385
100
AcDbEntity
  8
0
100
AcDbCircle
 62
7
  6
BYLAYER
 10
149.0223902899
 20
193.9655856406
 40
86.3855407917
100
AcDbArc
 50
129.4965502656
 51
129.6150055398
  0
ARC
  5
386
100
AcDbEntity
  8
0
100
AcDbCircle
 62
7
  6
BYLAYER
 10
147.3120830295
 20
196.0372352906
 40
83.699054554
100
AcDbArc
 50
129.4950213699
 51
129.6172882487
  0
ARC
  5
387
100
AcDbEntity
  8
0
100
AcDbCircle
 62
7
  6
BYLAYER
 10
42.0228657776
 20
196.1871278443
 40
83.5046002414
100
AcDbArc
 50
50.3826037661
 51
50.5051542209
  0
ARC
  5
388
100
AcDbEntity
  8
0
100
AcDbCircle
 62
7
  6
BYLAYER
 10
57.0222966711
 20
196.1871320081
 40
83.5045948462
100
AcDbArc
 50
50.3826037578
 51
50.5051542205
  0
ARC
  5
389
100
AcDbEntity
  8
0
100
AcDbCircle
 62
7
  6
BYLAYER
 10
100.8842362354
 20
202.0623632385
 40
10.5
100
AcDbArc
 50
180.0
 51
270.0
  0
ARC
  5
38A
100
AcDbEntity
  8
0
100
AcDbCircle
 62
7
  6
BYLAYER
 10
99.8842362354
 20
201.0623632385
 40
10.0
100
AcDbArc
 50
179.998916376
 51
269.9988663875
  0
CIRCLE
  5
38B
100
AcDbEntity
  8
0
100
AcDbCircle
 62
7
  6
BYLAYER
 10
97.3842362354
 20
197.5623632385
 40
4.0
  0
ARC
  5
38C
100
AcDbEntity
  8
0
100
AcDbCircle
 62
7
  6
BYLAYER
 10
54.8842362354
 20
113.0623632385
 40
1.0
100
AcDbArc
 50
270.0
 51
360.0
  0
ARC
  5
38D
100
AcDbEntity
  8
0
100
AcDbCircle
 62
7
  6
BYLAYER
 10
132.5214329286
 20
265.372007117
 40
24.076700385
100
AcDbArc
 50
191.3683476319
 51
191.6445852231
  0
ARC
  5
38E
100
AcDbEntity
  8
0
100
AcDbCircle
 62
7
  6
BYLAYER
 10
117.5220040698
 20
265.3720068339
 40
24.0766989603
100
AcDbArc
 50
191.3683476264
 51
191.6445852339
  0
ARC
  5
38F
100
AcDbEntity
  8
0
100
AcDbCircle
 62
7
  6
BYLAYER
 10
86.689261518
 20
265.371851832
 40
24.075920264
100
AcDbArc
 50
348.3554094907
 51
348.6316560385
  0
ARC
  5
390
100
AcDbEntity
  8
0
100
AcDbCircle
 62
7
  6
BYLAYER
 10
71.6898345847
 20
265.3718517245
 40
24.075919724
100
AcDbArc
 50
348.355409487
 51
348.631656041
  0
ARC
  5
391
100
AcDbEntity
  8
0
100
AcDbCircle
 62
7
  6
BYLAYER
 10
72.3753684777
 20
265.2306295829
 40
23.3759570115
100
AcDbArc
 50
348.3552610141
 51
348.6397967415
  0
ARC
  5
392
100
AcDbEntity
  8
0
100
AcDbCircle
 62
7
  6
BYLAYER
 10
87.3747960272
 20
265.2306295657
 40
23.375956923
100
AcDbArc
 50
348.3552610123
 51
348.6397967408
  0
ARC
  5
393
100
AcDbEntity
  8
0
100
AcDbCircle
 62
7
  6
BYLAYER
 10
131.8122565498
 20
265.2259904496
 40
23.3527420465
100
AcDbArc
 50
191.3600816225
 51
191.6448558496
  0
ARC
  5
394
100
AcDbEntity
  8
0
100
AcDbCircle
 62
7
  6
BYLAYER
 10
116.8128286893
 20
265.2259903679
 40
23.3527416403
100
AcDbArc
 50
191.3600816184
 51
191.6448558506
  0
CIRCLE
  5
395
100
AcDbEntity
  8
0
100
AcDbCircle
 62
7
  6
BYLAYER
 10
143.3842362354
 20
220.5623632385
 40
16.268699997
  0
CIRCLE
  5
396
100
AcDbEntity
  8
0
100
AcDbCircle
 62
7
  6
BYLAYER
 10
120.3842362354
 20
251.0623632385
 40
16.268699997
  0
ARC
  5
397
100
AcDbEntity
  8
0
100
AcDbCircle
 62
7
  6
BYLAYER
 10
94.6764223495
 20
251.5998312729
 40
9.0378145447
100
AcDbArc
 50
87.1075424572
 51
87.9124132901
  0
ARC
  5
398
100
AcDbEntity
  8
0
100
AcDbCircle
 62
7
  6
BYLAYER
 10
109.6758498122
 20
251.5998312729
 40
9.0378145447
100
AcDbArc
 50
87.1075424575
 51
87.9124132904
  0
ARC
  5
399
100
AcDbEntity
  8
0
100
AcDbCircle
 62
7
  6
BYLAYER
 10
94.5346270527
 20
251.6005555981
 40
9.0370799297
100
AcDbArc
 50
92.0875940347
 51
92.8934965688
  0
ARC
  5
39A
100
AcDbEntity
  8
0
100
AcDbCircle
 62
7
  6
BYLAYER
 10
109.5340545026
 20
251.6005558763
 40
9.0370796511
100
AcDbArc
 50
92.0875940183
 51
92.8934965772
  0
ARC
  5
39B
100
AcDbEntity
  8
0
100
AcDbCircle
 62
7
  6
BYLAYER
 10
109.5272879109
 20
251.7566588748
 40
8.8808361556
100
AcDbArc
 50
92.0804696163
 51
92.9000703223
  0
ARC
  5
39C
100
AcDbEntity
  8
0
100
AcDbCircle
 62
7
  6
BYLAYER
 10
94.5278604369
 20
251.7566591666
 40
8.8808358635
100
AcDbArc
 50
92.0804696108
 51
92.9000703439
  0
ARC
  5
39D
100
AcDbEntity
  8
0
100
AcDbCircle
 62
7
  6
BYLAYER
 10
109.6838020396
 20
251.7843485237
 40
8.8531223911
100
AcDbArc
 50
87.0983514686
 51
87.9205270227
  0
ARC
  5
39E
100
AcDbEntity
  8
0
100
AcDbCircle
 62
7
  6
BYLAYER
 10
94.6843745775
 20
251.7843485484
 40
8.8531223664
100
AcDbArc
 50
87.0983514635
 51
87.92052702
  0
ARC
  5
39F
100
AcDbEntity
  8
0
100
AcDbCircle
 62
7
  6
BYLAYER
 10
114.1062660008
 20
312.8523632385
 40
8.0
100
AcDbArc
 50
0.0
 51
90.0
  0
ARC
  5
3A0
100
AcDbEntity
  8
0
100
AcDbCircle
 62
7
  6
BYLAYER
 10
90.1062660008
 20
312.8523632385
 40
8.0
100
AcDbArc
 50
90.0
 51
180.0
  0
CIRCLE
  5
3A1
100
AcDbEntity
  8
0
100
AcDbCircle
 62
7
  6
BYLAYER
 10
97.3842362354
 20
277.5623632385
 40
4.0
  0
ARC
  5
3A2
100
AcDbEntity
  8
0
100
AcDbCircle
 62
7
  6
BYLAYER
 10
93.3842362354
 20
280.5623632385
 40
3.0
100
AcDbArc
 50
90.0
 51
180.0
  0
ARC
  5
3A3
100
AcDbEntity
  8
0
100
AcDbCircle
 62
7
  6
BYLAYER
 10
164.0218165979
 20
193.9655870387
 40
86.3855389784
100
AcDbArc
 50
129.4965502645
 51
129.6150055411
  0
ARC
  5
3A4
100
AcDbEntity
  8
0
100
AcDbCircle
 62
7
  6
BYLAYER
 10
162.311515678
 20
196.0372290116
 40
83.6990626977
100
AcDbArc
 50
129.4950213755
 51
129.6172882425
  0
ARC
  5
3A5
100
AcDbEntity
  8
0
100
AcDbCircle
 62
7
  6
BYLAYER
 10
223.8842362354
 20
202.0623632385
 40
10.5
100
AcDbArc
 50
270.0
 51
360.0
  0
ARC
  5
3A6
100
AcDbEntity
  8
0
100
AcDbCircle
 62
7
  6
BYLAYER
 10
224.8842362354
 20
201.0623632385
 40
10.0
100
AcDbArc
 50
270.0011319776
 51
360.0
  0
CIRCLE
  5
3A7
100
AcDbEntity
  8
0
100
AcDbCircle
 62
7
  6
BYLAYER
 10
227.3842362354
 20
197.5623632385
 40
4.0
  0
ARC
  5
3A8
100
AcDbEntity
  8
0
100
AcDbCircle
 62
7
  6
BYLAYER
 10
269.8842362354
 20
113.0623632385
 40
1.0
100
AcDbArc
 50
180.0
 51
270.0
  0
CIRCLE
  5
3A9
100
AcDbEntity
  8
0
100
AcDbCircle
 62
7
  6
BYLAYER
 10
182.3842362354
 20
220.5623632385
 40
16.268699997
  0
CIRCLE
  5
3AA
100
AcDbEntity
  8
0
100
AcDbCircle
 62
7
  6
BYLAYER
 10
204.3842362354
 20
251.0623632385
 40
16.268699997
  0
CIRCLE
  5
3AB
100
AcDbEntity
  8
0
100
AcDbCircle
 62
7
  6
BYLAYER
 10
162.3842362354
 20
255.0623632385
 40
16.268699997
  0
CIRCLE
  5
3AC
100
AcDbEntity
  8
0
100
AcDbCircle
 62
7
  6
BYLAYER
 10
212.3842362354
 20
220.5623632385
 40
11.684
  0
CIRCLE
  5
3AD
100
AcDbEntity
  8
0
100
AcDbCircle
 62
7
  6
BYLAYER
 10
205.7231964878
 20
325.7590147161
 40
6.25
  0
CIRCLE
  5
3AE
100
AcDbEntity
  8
0
100
AcDbCircle
 62
7
  6
BYLAYER
 10
227.3842362354
 20
277.5623632385
 40
4.0
  0
ARC
  5
3AF
100
AcDbEntity
  8
0
100
AcDbCircle
 62
7
  6
BYLAYER
 10
231.3842362354
 20
280.5623632385
 40
3.0
100
AcDbArc
 50
0.0
 51
90.0
  0
SPLINE
  5
3B0
100
AcDbEntity
  8
0
100
AcDbSpline
 62
7
  6
BYLAYER
 70
0
 71
3
 72
10
 73
6
 74
0
 42
0.0000001
 43
0.0000001
 44
0.0000000001
 40
0.0
 40
0.0
 40
0.0
 40
0.0
 40
0.3537805366
 40
0.6876356044
 40
1.0
 40
1.0
 40
1.0
 40
1.0
 10
94.2261118334
 20
259.7623705137
 30
0.0
 10
94.2252449185
 20
259.6815966519
 30
0.0
 10
94.2235475288
 20
259.5245983692
 30
0.0
 10
94.2209912807
 20
259.2962832227
 30
0.0
 10
94.2192339518
 20
259.1487427369
 30
0.0
 10
94.2183532326
 20
259.0774261856
 30
0.0
  0
SPLINE
  5
3B1
100
AcDbEntity
  8
0
100
AcDbSpline
 62
7
  6
BYLAYER
 70
0
 71
3
 72
10
 73
6
 74
0
 42
0.0000001
 43
0.0000001
 44
0.0000000001
 40
0.0
 40
0.0
 40
0.0
 40
0.0
 40
0.3113372978
 40
0.6452601797
 40
1.0
 40
1.0
 40
1.0
 40
1.0
 10
94.9906582562
 20
259.0774077351
 30
0.0
 10
94.9898852981
 20
259.14849174
 30
0.0
 10
94.9883381355
 20
259.2958170522
 30
0.0
 10
94.9860823452
 20
259.5241377221
 30
0.0
 10
94.9845802531
 20
259.6813741468
 30
0.0
 10
94.9838124744
 20
259.7623688914
 30
0.0
  0
LINE
  5
3B2
100
AcDbEntity
  8
0
100
AcDbLine
 62
7
  6
BYLAYER
 10
94.2194725511
 20
259.7623625196
 11
94.2177908169
 21
259.0659690509
  0
LINE
  5
3B3
100
AcDbEntity
  8
0
100
AcDbLine
 62
7
  6
BYLAYER
 10
93.9407447697
 20
260.5123636018
 11
94.0901849393
 21
259.2158677057
  0
SPLINE
  5
3B4
100
AcDbEntity
  8
0
100
AcDbSpline
 62
7
  6
BYLAYER
 70
0
 71
3
 72
10
 73
6
 74
0
 42
0.0000001
 43
0.0000001
 44
0.0000000001
 40
0.0
 40
0.0
 40
0.0
 40
0.0
 40
0.3344429193
 40
0.6660152093
 40
1.0
 40
1.0
 40
1.0
 40
1.0
 10
94.0901849393
 20
259.2158677057
 30
0.0
 10
94.0999182155
 20
259.2002100818
 30
0.0
 10
94.1194970677
 20
259.1691535712
 30
0.0
 10
94.1490887339
 20
259.1226333331
 30
0.0
 10
94.170080854
 20
259.092535151
 30
0.0
 10
94.1803797806
 20
259.0772741091
 30
0.0
  0
SPLINE
  5
3B5
100
AcDbEntity
  8
0
100
AcDbSpline
 62
7
  6
BYLAYER
 70
0
 71
3
 72
10
 73
6
 74
0
 42
0.0000001
 43
0.0000001
 44
0.0000000001
 40
0.0
 40
0.0
 40
0.0
 40
0.0
 40
0.360218498
 40
0.6930796982
 40
1.0
 40
1.0
 40
1.0
 40
1.0
 10
93.2590833805
 20
260.555544636
 30
0.0
 10
93.3524609516
 20
260.3758549413
 30
0.0
 10
93.5331763904
 20
260.0306557089
 30
0.0
 10
93.7999218594
 20
259.5358142908
 30
0.0
 10
93.9793301035
 20
259.2238946879
 30
0.0
 10
94.0704891732
 20
259.0774007894
 30
0.0
  0
SPLINE
  5
3B6
100
AcDbEntity
  8
0
100
AcDbSpline
 62
7
  6
BYLAYER
 70
0
 71
3
 72
10
 73
6
 74
0
 42
0.0000001
 43
0.0000001
 44
0.0000000001
 40
0.0
 40
0.0
 40
0.0
 40
0.0
 40
0.3040864747
 40
0.6372619965
 40
1.0
 40
1.0
 40
1.0
 40
1.0
 10
94.0718748048
 20
259.0774300524
 30
0.0
 10
93.9812299974
 20
259.2224441026
 30
0.0
 10
93.8020828538
 20
259.5330444154
 30
0.0
 10
93.5348657188
 20
260.0278745077
 30
0.0
 10
93.3532203677
 20
260.374554847
 30
0.0
 10
93.2591040706
 20
260.555544636
 30
0.0
  0
SPLINE
  5
3B7
100
AcDbEntity
  8
0
100
AcDbSpline
 62
7
  6
BYLAYER
 70
0
 71
3
 72
10
 73
6
 74
0
 42
0.0000001
 43
0.0000001
 44
0.0000000001
 40
0.0
 40
0.0
 40
0.0
 40
0.0
 40
0.3491183522
 40
0.6819546838
 40
1.0
 40
1.0
 40
1.0
 40
1.0
 10
93.2590833805
 20
260.555544636
 30
0.0
 10
93.3340335887
 20
260.5687672352
 30
0.0
 10
93.4810592225
 20
260.5911699666
 30
0.0
 10
93.6977175973
 20
260.615645047
 30
0.0
 10
93.8391455893
 20
260.6273410833
 30
0.0
 10
93.9083046673
 20
260.6322590822
 30
0.0
  0
SPLINE
  5
3B8
100
AcDbEntity
  8
0
100
AcDbSpline
 62
7
  6
BYLAYER
 70
0
 71
3
 72
10
 73
6
 74
0
 42
0.0000001
 43
0.0000001
 44
0.0000000001
 40
0.0
 40
0.0
 40
0.0
 40
0.0
 40
0.3404877747
 40
0.6741133953
 40
1.0
 40
1.0
 40
1.0
 40
1.0
 10
93.9083046673
 20
260.6322590822
 30
0.0
 10
93.9301811114
 20
260.4544094684
 30
0.0
 10
93.9734689697
 20
260.1022916562
 30
0.0
 10
94.0377281108
 20
259.5799549106
 30
0.0
 10
94.0794507858
 20
259.2353870195
 30
0.0
 10
94.1003894108
 20
259.065164186
 30
0.0
  0
SPLINE
  5
3B9
100
AcDbEntity
  8
0
100
AcDbSpline
 62
7
  6
BYLAYER
 70
0
 71
3
 72
10
 73
6
 74
0
 42
0.0000001
 43
0.0000001
 44
0.0000000001
 40
0.0
 40
0.0
 40
0.0
 40
0.0
 40
0.3063984134
 40
0.6398337937
 40
1.0
 40
1.0
 40
1.0
 40
1.0
 10
93.9082635835
 20
260.6322543968
 30
0.0
 10
93.9092565647
 20
260.6316750371
 30
0.0
 10
93.9113236482
 20
260.6304532846
 30
0.0
 10
93.914469602
 20
260.6284062745
 30
0.0
 10
93.9165984471
 20
260.6269087352
 30
0.0
 10
93.9176969881
 20
260.6261216908
 30
0.0
  0
SPLINE
  5
3BA
100
AcDbEntity
  8
0
100
AcDbSpline
 62
7
  6
BYLAYER
 70
0
 71
3
 72
10
 73
6
 74
0
 42
0.0000001
 43
0.0000001
 44
0.0000000001
 40
0.0
 40
0.0
 40
0.0
 40
0.0
 40
0.3381137102
 40
0.67062841
 40
1.0
 40
1.0
 40
1.0
 40
1.0
 10
94.0903063605
 20
259.2155827784
 30
0.0
 10
94.0916070014
 20
259.1999970097
 30
0.0
 10
94.0941229833
 20
259.1690789163
 30
0.0
 10
94.0983007597
 20
259.1230073401
 30
0.0
 10
94.099885197
 20
259.0924238545
 30
0.0
 10
94.1011493125
 20
259.0772408233
 30
0.0
  0
SPLINE
  5
3BB
100
AcDbEntity
  8
0
100
AcDbSpline
 62
7
  6
BYLAYER
 70
0
 71
3
 72
10
 73
6
 74
0
 42
0.0000001
 43
0.0000001
 44
0.0000000001
 40
0.0
 40
0.0
 40
0.0
 40
0.0
 40
0.3551583601
 40
0.6882732076
 40
1.0
 40
1.0
 40
1.0
 40
1.0
 10
93.9176853892
 20
260.6261098957
 30
0.0
 10
93.8742851902
 20
260.6201179169
 30
0.0
 10
93.7904206348
 20
260.6066319269
 30
0.0
 10
93.6697935505
 20
260.580411483
 30
0.0
 10
93.5935067811
 20
260.5575231221
 30
0.0
 10
93.5571405705
 20
260.5450240914
 30
0.0
  0
SPLINE
  5
3BC
100
AcDbEntity
  8
0
100
AcDbSpline
 62
7
  6
BYLAYER
 70
0
 71
3
 72
10
 73
6
 74
0
 42
0.0000001
 43
0.0000001
 44
0.0000000001
 40
0.0
 40
0.0
 40
0.0
 40
0.0
 40
0.3341633782
 40
0.6658366277
 40
1.0
 40
1.0
 40
1.0
 40
1.0
 10
93.5572519503
 20
260.5451563105
 30
0.0
 10
93.562376976
 20
260.5451882385
 30
0.0
 10
93.5725826676
 20
260.5446741601
 30
0.0
 10
93.5879246061
 20
260.5446741605
 30
0.0
 10
93.5981302977
 20
260.5451882371
 30
0.0
 10
93.6032553234
 20
260.5451563091
 30
0.0
  0
LINE
  5
3BD
100
AcDbEntity
  8
0
100
AcDbLine
 62
7
  6
BYLAYER
 10
93.6032553234
 20
260.5451563091
 11
93.5802537495
 21
260.5123632385
  0
LINE
  5
3BE
100
AcDbEntity
  8
0
100
AcDbLine
 62
7
  6
BYLAYER
 10
93.5802537495
 20
260.5123632385
 11
93.5572519503
 21
260.5451563105
  0
SPLINE
  5
3BF
100
AcDbEntity
  8
0
100
AcDbSpline
 62
7
  6
BYLAYER
 70
0
 71
3
 72
10
 73
6
 74
0
 42
0.0000001
 43
0.0000001
 44
0.0000000001
 40
0.0
 40
0.0
 40
0.0
 40
0.0
 40
0.3336694298
 40
0.6661902959
 40
1.0
 40
1.0
 40
1.0
 40
1.0
 10
93.6033309341
 20
260.5450240889
 30
0.0
 10
93.6555966171
 20
260.5571120917
 30
0.0
 10
93.7604054729
 20
260.5793493043
 30
0.0
 10
93.9190046903
 20
260.6059432059
 30
0.0
 10
94.0252360773
 20
260.6199511353
 30
0.0
 10
94.0785494725
 20
260.6261093415
 30
0.0
  0
SPLINE
  5
3C0
100
AcDbEntity
  8
0
100
AcDbSpline
 62
7
  6
BYLAYER
 70
0
 71
3
 72
10
 73
6
 74
0
 42
0.0000001
 43
0.0000001
 44
0.0000000001
 40
0.0
 40
0.0
 40
0.0
 40
0.0
 40
0.3341437247
 40
0.6655544988
 40
1.0
 40
1.0
 40
1.0
 40
1.0
 10
94.1804217647
 20
259.0772329736
 30
0.0
 10
94.1701331799
 20
259.0924784643
 30
0.0
 10
94.149093916
 20
259.1224782756
 30
0.0
 10
94.1195754341
 20
259.1689491342
 30
0.0
 10
94.1000252228
 20
259.1999483618
 30
0.0
 10
94.0903063605
 20
259.2155827784
 30
0.0
  0
LINE
  5
3C1
100
AcDbEntity
  8
0
100
AcDbLine
 62
7
  6
BYLAYER
 10
94.0903063605
 20
259.2155827784
 11
93.9408406684
 21
260.5123655758
  0
SPLINE
  5
3C2
100
AcDbEntity
  8
0
100
AcDbSpline
 62
7
  6
BYLAYER
 70
0
 71
3
 72
10
 73
6
 74
0
 42
0.0000001
 43
0.0000001
 44
0.0000000001
 40
0.0
 40
0.0
 40
0.0
 40
0.0
 40
0.3532635537
 40
0.6870685269
 40
1.0
 40
1.0
 40
1.0
 40
1.0
 10
94.982736698
 20
259.7623682573
 30
0.0
 10
94.9833966657
 20
259.6817072569
 30
0.0
 10
94.984690691
 20
259.5248283371
 30
0.0
 10
94.9866351865
 20
259.2964980251
 30
0.0
 10
94.9879720768
 20
259.1488291809
 30
0.0
 10
94.9886407166
 20
259.0773779794
 30
0.0
  0
SPLINE
  5
3C3
100
AcDbEntity
  8
0
100
AcDbSpline
 62
7
  6
BYLAYER
 70
0
 71
3
 72
10
 73
6
 74
0
 42
0.0000001
 43
0.0000001
 44
0.0000000001
 40
0.0
 40
0.0
 40
0.0
 40
0.0
 40
0.3113310238
 40
0.6452509311
 40
1.0
 40
1.0
 40
1.0
 40
1.0
 10
94.2204161524
 20
259.0774012999
 30
0.0
 10
94.2211891353
 20
259.1484846427
 30
0.0
 10
94.2227370291
 20
259.2958094329
 30
0.0
 10
94.2249925476
 20
259.5241325816
 30
0.0
 10
94.2264947434
 20
259.6813721429
 30
0.0
 10
94.2272625503
 20
259.7623698774
 30
0.0
  0
LINE
  5
3C4
100
AcDbEntity
  8
0
100
AcDbLine
 62
7
  6
BYLAYER
 10
94.9878270093
 20
259.7623613426
 11
94.9891139674
 21
259.0646963411
  0
SPLINE
  5
3C5
100
AcDbEntity
  8
0
100
AcDbSpline
 62
7
  6
BYLAYER
 70
0
 71
3
 72
10
 73
6
 74
0
 42
0.0000001
 43
0.0000001
 44
0.0000000001
 40
0.0
 40
0.0
 40
0.0
 40
0.0
 40
0.3346652806
 40
0.6660657453
 40
1.0
 40
1.0
 40
1.0
 40
1.0
 10
95.1206956294
 20
259.2153161878
 30
0.0
 10
95.1109901011
 20
259.199703161
 30
0.0
 10
95.0914716768
 20
259.1687580536
 30
0.0
 10
95.0620197885
 20
259.1223768712
 30
0.0
 10
95.0410265944
 20
259.0924500014
 30
0.0
 10
95.0307665911
 20
259.0772440365
 30
0.0
  0
SPLINE
  5
3C6
100
AcDbEntity
  8
0
100
AcDbSpline
 62
7
  6
BYLAYER
 70
0
 71
3
 72
10
 73
6
 74
0
 42
0.0000001
 43
0.0000001
 44
0.0000000001
 40
0.0
 40
0.0
 40
0.0
 40
0.0
 40
0.3337906878
 40
0.6663298565
 40
1.0
 40
1.0
 40
1.0
 40
1.0
 10
95.1324799498
 20
260.626118332
 30
0.0
 10
95.1858002318
 20
260.6199602997
 30
0.0
 10
95.292050919
 20
260.6059489966
 30
0.0
 10
95.4506804639
 20
260.5793569052
 30
0.0
 10
95.5555114617
 20
260.5571140291
 30
0.0
 10
95.6077869507
 20
260.545024091
 30
0.0
  0
LINE
  5
3C7
100
AcDbEntity
  8
0
100
AcDbLine
 62
7
  6
BYLAYER
 10
95.6538640506
 20
260.5451563106
 11
95.6308630259
 21
260.5123632385
  0
LINE
  5
3C8
100
AcDbEntity
  8
0
100
AcDbLine
 62
7
  6
BYLAYER
 10
95.6308630259
 20
260.5123632385
 11
95.6078625563
 21
260.5451563103
  0
SPLINE
  5
3C9
100
AcDbEntity
  8
0
100
AcDbSpline
 62
7
  6
BYLAYER
 70
0
 71
3
 72
10
 73
6
 74
0
 42
0.0000001
 43
0.0000001
 44
0.0000000001
 40
0.0
 40
0.0
 40
0.0
 40
0.0
 40
0.3117332563
 40
0.6448195464
 40
1.0
 40
1.0
 40
1.0
 40
1.0
 10
95.6539754272
 20
260.5450240916
 30
0.0
 10
95.6176002491
 20
260.5575254447
 30
0.0
 10
95.5412985907
 20
260.5804154579
 30
0.0
 10
95.4206447624
 20
260.6066404045
 30
0.0
 10
95.3367618673
 20
260.6201249158
 30
0.0
 10
95.2933492818
 20
260.6261174021
 30
0.0
  0
SPLINE
  5
3CA
100
AcDbEntity
  8
0
100
AcDbSpline
 62
7
  6
BYLAYER
 70
0
 71
3
 72
10
 73
6
 74
0
 42
0.0000001
 43
0.0000001
 44
0.0000000001
 40
0.0
 40
0.0
 40
0.0
 40
0.0
 40
0.3604898371
 40
0.6939271202
 40
1.0
 40
1.0
 40
1.0
 40
1.0
 10
95.2933377863
 20
260.6261293341
 30
0.0
 10
95.294447494
 20
260.6269247244
 30
0.0
 10
95.2965970381
 20
260.6284375517
 30
0.0
 10
95.2997730231
 20
260.63050318
 30
0.0
 10
95.3018590712
 20
260.6317348482
 30
0.0
 10
95.3028608197
 20
260.6323181939
 30
0.0
  0
SPLINE
  5
3CB
100
AcDbEntity
  8
0
100
AcDbSpline
 62
7
  6
BYLAYER
 70
0
 71
3
 72
10
 73
6
 74
0
 42
0.0000001
 43
0.0000001
 44
0.0000000001
 40
0.0
 40
0.0
 40
0.0
 40
0.0
 40
0.3291148901
 40
0.6616165081
 40
1.0
 40
1.0
 40
1.0
 40
1.0
 10
95.1099059847
 20
259.077243979
 30
0.0
 10
95.11116705
 20
259.0923853272
 30
0.0
 10
95.112693279
 20
259.1229000085
 30
0.0
 10
95.1168893223
 20
259.1688791699
 30
0.0
 10
95.1193961027
 20
259.1997486715
 30
0.0
 10
95.1206956294
 20
259.2153161878
 30
0.0
  0
LINE
  5
3CC
100
AcDbEntity
  8
0
100
AcDbLine
 62
7
  6
BYLAYER
 10
95.1206956294
 20
259.2153161878
 11
95.2701968546
 21
260.5123656796
  0
LINE
  5
3CD
100
AcDbEntity
  8
0
100
AcDbLine
 62
7
  6
BYLAYER
 10
95.1099462338
 20
259.0636208294
 11
95.3028247422
 21
260.6323218762
  0
SPLINE
  5
3CE
100
AcDbEntity
  8
0
100
AcDbSpline
 62
7
  6
BYLAYER
 70
0
 71
3
 72
10
 73
6
 74
0
 42
0.0000001
 43
0.0000001
 44
0.0000000001
 40
0.0
 40
0.0
 40
0.0
 40
0.0
 40
0.3247393578
 40
0.6571983155
 40
1.0
 40
1.0
 40
1.0
 40
1.0
 10
95.3028247422
 20
260.6323218762
 30
0.0
 10
95.3734395111
 20
260.6272941991
 30
0.0
 10
95.5162381294
 20
260.6154374736
 30
0.0
 10
95.7328798011
 20
260.5907965488
 30
0.0
 10
95.8784495899
 20
260.5685365711
 30
0.0
 10
95.9520427387
 20
260.555544636
 30
0.0
  0
SPLINE
  5
3CF
100
AcDbEntity
  8
0
100
AcDbSpline
 62
7
  6
BYLAYER
 70
0
 71
3
 72
10
 73
6
 74
0
 42
0.0000001
 43
0.0000001
 44
0.0000000001
 40
0.0
 40
0.0
 40
0.0
 40
0.0
 40
0.3045688695
 40
0.637749831
 40
1.0
 40
1.0
 40
1.0
 40
1.0
 10
95.1420347458
 20
259.0773777712
 30
0.0
 10
95.2321668478
 20
259.2228739817
 30
0.0
 10
95.4106750664
 20
259.5338185161
 30
0.0
 10
95.6770722242
 20
260.0285992782
 30
0.0
 10
95.8582252316
 20
260.3748867633
 30
0.0
 10
95.9520427387
 20
260.555544636
 30
0.0
  0
SPLINE
  5
3D0
100
AcDbEntity
  8
0
100
AcDbSpline
 62
7
  6
BYLAYER
 70
0
 71
3
 72
10
 73
6
 74
0
 42
0.0000001
 43
0.0000001
 44
0.0000000001
 40
0.0
 40
0.0
 40
0.0
 40
0.0
 40
0.3210962978
 40
0.6538915126
 40
1.0
 40
1.0
 40
1.0
 40
1.0
 10
95.1405863566
 20
259.0774008301
 30
0.0
 10
95.2359556171
 20
259.2306606686
 30
0.0
 10
95.418905949
 20
259.549709427
 30
0.0
 10
95.6852806409
 20
260.0447412047
 30
0.0
 10
95.8622719112
 20
260.3828938853
 30
0.0
 10
95.9519916245
 20
260.555544636
 30
0.0
  0
SPLINE
  5
3D1
100
AcDbEntity
  8
0
100
AcDbSpline
 62
7
  6
BYLAYER
 70
0
 71
3
 72
10
 73
6
 74
0
 42
0.0000001
 43
0.0000001
 44
0.0000000001
 40
0.0
 40
0.0
 40
0.0
 40
0.0
 40
0.3491183467
 40
0.6819546817
 40
1.0
 40
1.0
 40
1.0
 40
1.0
 10
95.9519916245
 20
260.555544636
 30
0.0
 10
95.8770414181
 20
260.5687672349
 30
0.0
 10
95.7300157863
 20
260.5911699673
 30
0.0
 10
95.5133574134
 20
260.6156450469
 30
0.0
 10
95.3719294215
 20
260.6273410833
 30
0.0
 10
95.3027703437
 20
260.6322590822
 30
0.0
  0
SPLINE
  5
3D2
100
AcDbEntity
  8
0
100
AcDbSpline
 62
7
  6
BYLAYER
 70
0
 71
3
 72
10
 73
6
 74
0
 42
0.0000001
 43
0.0000001
 44
0.0000000001
 40
0.0
 40
0.0
 40
0.0
 40
0.0
 40
0.3404877747
 40
0.6741133953
 40
1.0
 40
1.0
 40
1.0
 40
1.0
 10
95.3027703437
 20
260.6322590822
 30
0.0
 10
95.2808938996
 20
260.4544094684
 30
0.0
 10
95.2376060415
 20
260.1022916562
 30
0.0
 10
95.1733469003
 20
259.5799549106
 30
0.0
 10
95.1316242253
 20
259.2353870195
 30
0.0
 10
95.1106856003
 20
259.065164186
 30
0.0
  0
SPLINE
  5
3D3
100
AcDbEntity
  8
0
100
AcDbSpline
 62
7
  6
BYLAYER
 70
0
 71
3
 72
10
 73
6
 74
0
 42
0.0000001
 43
0.0000001
 44
0.0000000001
 40
0.0
 40
0.0
 40
0.0
 40
0.0
 40
0.3063984155
 40
0.6398337954
 40
1.0
 40
1.0
 40
1.0
 40
1.0
 10
95.3028114276
 20
260.6322543967
 30
0.0
 10
95.3018184464
 20
260.6316750371
 30
0.0
 10
95.299751363
 20
260.6304532846
 30
0.0
 10
95.2966054093
 20
260.6284062746
 30
0.0
 10
95.2944765642
 20
260.6269087356
 30
0.0
 10
95.2933780233
 20
260.6261216912
 30
0.0
  0
SPLINE
  5
3D4
100
AcDbEntity
  8
0
100
AcDbSpline
 62
7
  6
BYLAYER
 70
0
 71
3
 72
10
 73
6
 74
0
 42
0.0000001
 43
0.0000001
 44
0.0000000001
 40
0.0
 40
0.0
 40
0.0
 40
0.0
 40
0.3381137102
 40
0.67062841
 40
1.0
 40
1.0
 40
1.0
 40
1.0
 10
95.1207686506
 20
259.2155827784
 30
0.0
 10
95.1194680097
 20
259.1999970097
 30
0.0
 10
95.1169520278
 20
259.1690789163
 30
0.0
 10
95.1127742514
 20
259.1230073401
 30
0.0
 10
95.1111898141
 20
259.0924238545
 30
0.0
 10
95.1099256986
 20
259.0772408233
 30
0.0
  0
SPLINE
  5
3D5
100
AcDbEntity
  8
0
100
AcDbSpline
 62
7
  6
BYLAYER
 70
0
 71
3
 72
10
 73
6
 74
0
 42
0.0000001
 43
0.0000001
 44
0.0000000001
 40
0.0
 40
0.0
 40
0.0
 40
0.0
 40
0.3551583631
 40
0.6882732087
 40
1.0
 40
1.0
 40
1.0
 40
1.0
 10
95.2933896213
 20
260.6261098968
 30
0.0
 10
95.3367898208
 20
260.620117918
 30
0.0
 10
95.4206543758
 20
260.606631924
 30
0.0
 10
95.5412814613
 20
260.5804114848
 30
0.0
 10
95.6175682301
 20
260.5575231221
 30
0.0
 10
95.6539344406
 20
260.5450240914
 30
0.0
  0
SPLINE
  5
3D6
100
AcDbEntity
  8
0
100
AcDbSpline
 62
7
  6
BYLAYER
 70
0
 71
3
 72
10
 73
6
 74
0
 42
0.0000001
 43
0.0000001
 44
0.0000000001
 40
0.0
 40
0.0
 40
0.0
 40
0.0
 40
0.3341633783
 40
0.6658366277
 40
1.0
 40
1.0
 40
1.0
 40
1.0
 10
95.6538230608
 20
260.5451563105
 30
0.0
 10
95.6486980351
 20
260.5451882385
 30
0.0
 10
95.6384923435
 20
260.5446741601
 30
0.0
 10
95.623150405
 20
260.5446741604
 30
0.0
 10
95.6129447134
 20
260.5451882371
 30
0.0
 10
95.6078196878
 20
260.5451563091
 30
0.0
  0
LINE
  5
3D7
100
AcDbEntity
  8
0
100
AcDbLine
 62
7
  6
BYLAYER
 10
95.6078196878
 20
260.5451563091
 11
95.6308212616
 21
260.5123632385
  0
LINE
  5
3D8
100
AcDbEntity
  8
0
100
AcDbLine
 62
7
  6
BYLAYER
 10
95.6308212616
 20
260.5123632385
 11
95.6538230608
 21
260.5451563105
  0
SPLINE
  5
3D9
100
AcDbEntity
  8
0
100
AcDbSpline
 62
7
  6
BYLAYER
 70
0
 71
3
 72
10
 73
6
 74
0
 42
0.0000001
 43
0.0000001
 44
0.0000000001
 40
0.0
 40
0.0
 40
0.0
 40
0.0
 40
0.3336725423
 40
0.6661939489
 40
1.0
 40
1.0
 40
1.0
 40
1.0
 10
95.607744077
 20
260.5450240889
 30
0.0
 10
95.5554780522
 20
260.5571121708
 30
0.0
 10
95.4506688961
 20
260.579349315
 30
0.0
 10
95.2920701848
 20
260.6059436468
 30
0.0
 10
95.1858394041
 20
260.6199500594
 30
0.0
 10
95.1325267416
 20
260.6261081864
 30
0.0
  0
SPLINE
  5
3DA
100
AcDbEntity
  8
0
100
AcDbSpline
 62
7
  6
BYLAYER
 70
0
 71
3
 72
10
 73
6
 74
0
 42
0.0000001
 43
0.0000001
 44
0.0000000001
 40
0.0
 40
0.0
 40
0.0
 40
0.0
 40
0.3386679549
 40
0.6575853566
 40
1.0
 40
1.0
 40
1.0
 40
1.0
 10
94.9910122896
 20
259.064499409
 30
0.0
 10
94.9954913547
 20
259.0659124651
 30
0.0
 10
95.0041669352
 20
259.0687226741
 30
0.0
 10
95.0173749303
 20
259.0729528696
 30
0.0
 10
95.0260268778
 20
259.0759983267
 30
0.0
 10
95.0305287045
 20
259.0775093133
 30
0.0
  0
SPLINE
  5
3DB
100
AcDbEntity
  8
0
100
AcDbSpline
 62
7
  6
BYLAYER
 70
0
 71
3
 72
10
 73
6
 74
0
 42
0.0000001
 43
0.0000001
 44
0.0000000001
 40
0.0
 40
0.0
 40
0.0
 40
0.0
 40
0.3339659854
 40
0.6655300139
 40
1.0
 40
1.0
 40
1.0
 40
1.0
 10
95.030768773
 20
259.0772609515
 30
0.0
 10
95.0410447716
 20
259.0924913077
 30
0.0
 10
95.0619818595
 20
259.1225354174
 30
0.0
 10
95.091515308
 20
259.1689603762
 30
0.0
 10
95.1110542596
 20
259.1999555546
 30
0.0
 10
95.1207686506
 20
259.2155827784
 30
0.0
  0
LINE
  5
3DC
100
AcDbEntity
  8
0
100
AcDbLine
 62
7
  6
BYLAYER
 10
95.1207686506
 20
259.2155827784
 11
95.2702343433
 21
260.5123656093
  0
LINE
  5
3DD
100
AcDbEntity
  8
0
100
AcDbLine
 62
7
  6
BYLAYER
 10
94.9906582562
 20
259.0774077351
 11
94.9911938979
 21
259.0644376981
  0
LINE
  5
3DE
100
AcDbEntity
  8
0
100
AcDbLine
 62
7
  6
BYLAYER
 10
94.9911938979
 20
259.0644376981
 11
94.9896932548
 21
259.7623619258
  0
SPLINE
  5
3DF
100
AcDbEntity
  8
0
100
AcDbSpline
 62
7
  6
BYLAYER
 70
0
 71
3
 72
10
 73
6
 74
0
 42
0.0000001
 43
0.0000001
 44
0.0000000001
 40
0.0
 40
0.0
 40
0.0
 40
0.0
 40
0.3136366876
 40
0.6475796696
 40
1.0
 40
1.0
 40
1.0
 40
1.0
 10
95.1107794023
 20
259.0649446563
 30
0.0
 10
95.1107058397
 20
259.066269263
 30
0.0
 10
95.1093804382
 20
259.0688136216
 30
0.0
 10
95.1095396571
 20
259.0731193462
 30
0.0
 10
95.1097056858
 20
259.0760063644
 30
0.0
 10
95.1096280878
 20
259.0774950416
 30
0.0
  0
SPLINE
  5
3E0
100
AcDbEntity
  8
0
100
AcDbSpline
 62
7
  6
BYLAYER
 70
0
 71
3
 72
10
 73
6
 74
0
 42
0.0000001
 43
0.0000001
 44
0.0000000001
 40
0.0
 40
0.0
 40
0.0
 40
0.0
 40
0.2964514582
 40
0.6536262088
 40
1.0
 40
1.0
 40
1.0
 40
1.0
 10
95.1096280878
 20
259.0774950416
 30
0.0
 10
95.1018111903
 20
259.0774950416
 30
0.0
 10
95.0845813176
 20
259.0780583091
 30
0.0
 10
95.0582095275
 20
259.0779504586
 30
0.0
 10
95.039661965
 20
259.0775093133
 30
0.0
 10
95.0305287045
 20
259.0775093133
 30
0.0
  0
SPLINE
  5
3E1
100
AcDbEntity
  8
0
100
AcDbSpline
 62
7
  6
BYLAYER
 70
0
 71
3
 72
10
 73
6
 74
0
 42
0.0000001
 43
0.0000001
 44
0.0000000001
 40
0.0
 40
0.0
 40
0.0
 40
0.0
 40
0.3082642362
 40
0.6499167904
 40
1.0
 40
1.0
 40
1.0
 40
1.0
 10
94.9908476168
 20
259.077528823
 30
0.0
 10
94.9512537413
 20
259.077528823
 30
0.0
 10
94.8677782334
 20
259.0780199591
 30
0.0
 10
94.7393365771
 20
259.0778263785
 30
0.0
 10
94.6504891711
 20
259.077868369
 30
0.0
 10
94.6055240101
 20
259.077868369
 30
0.0
  0
SPLINE
  5
3E2
100
AcDbEntity
  8
0
100
AcDbSpline
 62
7
  6
BYLAYER
 70
0
 71
3
 72
10
 73
6
 74
0
 42
0.0000001
 43
0.0000001
 44
0.0000000001
 40
0.0
 40
0.0
 40
0.0
 40
0.0
 40
0.3510057668
 40
0.6902814381
 40
1.0
 40
1.0
 40
1.0
 40
1.0
 10
94.605551001
 20
259.077868369
 30
0.0
 10
94.650398794
 20
259.077868369
 30
0.0
 10
94.7385955513
 20
259.0778245582
 30
0.0
 10
94.866365288
 20
259.078028517
 30
0.0
 10
94.9492861013
 20
259.0775040029
 30
0.0
 10
94.9888586533
 20
259.0775040029
 30
0.0
  0
LINE
  5
3E3
100
AcDbEntity
  8
0
100
AcDbLine
 62
7
  6
BYLAYER
 10
94.9886407166
 20
259.0773779794
 11
94.9891139674
 21
259.0646963411
  0
SPLINE
  5
3E4
100
AcDbEntity
  8
0
100
AcDbSpline
 62
7
  6
BYLAYER
 70
0
 71
3
 72
10
 73
6
 74
0
 42
0.0000001
 43
0.0000001
 44
0.0000000001
 40
0.0
 40
0.0
 40
0.0
 40
0.0
 40
0.3323037866
 40
0.6458407197
 40
1.0
 40
1.0
 40
1.0
 40
1.0
 10
94.9894999332
 20
259.0643769329
 30
0.0
 10
94.9940504468
 20
259.0658070762
 30
0.0
 10
95.0030314336
 20
259.0681344695
 30
0.0
 10
95.0166365065
 20
259.0727286653
 30
0.0
 10
95.0256892411
 20
259.0758726129
 30
0.0
 10
95.0305087165
 20
259.0774901427
 30
0.0
  0
SPLINE
  5
3E5
100
AcDbEntity
  8
0
100
AcDbSpline
 62
7
  6
BYLAYER
 70
0
 71
3
 72
10
 73
6
 74
0
 42
0.0000001
 43
0.0000001
 44
0.0000000001
 40
0.0
 40
0.0
 40
0.0
 40
0.0
 40
0.3501594846
 40
0.6657935493
 40
1.0
 40
1.0
 40
1.0
 40
1.0
 10
95.1096000295
 20
259.0774900666
 30
0.0
 10
95.1096833849
 20
259.0758870985
 30
0.0
 10
95.1093466664
 20
259.0728306043
 30
0.0
 10
95.1098242071
 20
259.0682582843
 30
0.0
 10
95.1098036321
 20
259.0652769601
 30
0.0
 10
95.1098884693
 20
259.0637473059
 30
0.0
  0
SPLINE
  5
3E6
100
AcDbEntity
  8
0
100
AcDbSpline
 62
7
  6
BYLAYER
 70
0
 71
3
 72
10
 73
6
 74
0
 42
0.0000001
 43
0.0000001
 44
0.0000000001
 40
0.0
 40
0.0
 40
0.0
 40
0.0
 40
0.3451234999
 40
0.6602670802
 40
1.0
 40
1.0
 40
1.0
 40
1.0
 10
95.1099462338
 20
259.0636208294
 30
0.0
 10
95.1136514839
 20
259.0651713946
 30
0.0
 10
95.1206076666
 20
259.0684448432
 30
0.0
 10
95.131359935
 20
259.0729018691
 30
0.0
 10
95.1383997349
 20
259.0758222049
 30
0.0
 10
95.1420347458
 20
259.0773777712
 30
0.0
  0
LINE
  5
3E7
100
AcDbEntity
  8
0
100
AcDbLine
 62
7
  6
BYLAYER
 10
95.1405399447
 20
259.0775187722
 11
95.2655288331
 21
259.0778760092
  0
SPLINE
  5
3E8
100
AcDbEntity
  8
0
100
AcDbSpline
 62
7
  6
BYLAYER
 70
0
 71
3
 72
10
 73
6
 74
0
 42
0.0000001
 43
0.0000001
 44
0.0000000001
 40
0.0
 40
0.0
 40
0.0
 40
0.0
 40
0.3407414944
 40
0.6607775305
 40
1.0
 40
1.0
 40
1.0
 40
1.0
 10
95.1405863566
 20
259.0774008301
 30
0.0
 10
95.1372101504
 20
259.0759624968
 30
0.0
 10
95.1306098814
 20
259.073300405
 30
0.0
 10
95.1207604449
 20
259.0689328799
 30
0.0
 10
95.1140576603
 20
259.0665702347
 30
0.0
 10
95.1106856003
 20
259.065164186
 30
0.0
  0
SPLINE
  5
3E9
100
AcDbEntity
  8
0
100
AcDbSpline
 62
7
  6
BYLAYER
 70
0
 71
3
 72
10
 73
6
 74
0
 42
0.0000001
 43
0.0000001
 44
0.0000000001
 40
0.0
 40
0.0
 40
0.0
 40
0.0
 40
0.3330934958
 40
0.6634304955
 40
1.0
 40
1.0
 40
1.0
 40
1.0
 10
94.217487751
 20
259.0656922828
 30
0.0
 10
94.2133883031
 20
259.0669896518
 30
0.0
 10
94.2050989434
 20
259.0691655778
 30
0.0
 10
94.1928659143
 20
259.0733028864
 30
0.0
 10
94.1847362525
 20
259.0761327432
 30
0.0
 10
94.1806172533
 20
259.0775149067
 30
0.0
  0
SPLINE
  5
3EA
100
AcDbEntity
  8
0
100
AcDbSpline
 62
7
  6
BYLAYER
 70
0
 71
3
 72
10
 73
6
 74
0
 42
0.0000001
 43
0.0000001
 44
0.0000000001
 40
0.0
 40
0.0
 40
0.0
 40
0.0
 40
0.3465318585
 40
0.7018981961
 40
1.0
 40
1.0
 40
1.0
 40
1.0
 10
94.1806172533
 20
259.0775149067
 30
0.0
 10
94.1714613068
 20
259.0775149067
 30
0.0
 10
94.1529199022
 20
259.0779978871
 30
0.0
 10
94.1264950203
 20
259.0780013209
 30
0.0
 10
94.1092334928
 20
259.0775117645
 30
0.0
 10
94.1013571487
 20
259.0775117645
 30
0.0
  0
SPLINE
  5
3EB
100
AcDbEntity
  8
0
100
AcDbSpline
 62
7
  6
BYLAYER
 70
0
 71
3
 72
10
 73
6
 74
0
 42
0.0000001
 43
0.0000001
 44
0.0000000001
 40
0.0
 40
0.0
 40
0.0
 40
0.0
 40
0.3313520082
 40
0.6613056437
 40
1.0
 40
1.0
 40
1.0
 40
1.0
 10
94.1002606135
 20
259.0661533199
 30
0.0
 10
94.0971441561
 20
259.0674477968
 30
0.0
 10
94.0906469929
 20
259.0693140489
 30
0.0
 10
94.0813851378
 20
259.0735857973
 30
0.0
 10
94.0750503976
 20
259.076083254
 30
0.0
 10
94.0718748048
 20
259.0774300524
 30
0.0
  0
LINE
  5
3EC
100
AcDbEntity
  8
0
100
AcDbLine
 62
7
  6
BYLAYER
 10
94.0719188923
 20
259.0775430016
 11
93.9455396705
 21
259.0778751545
  0
SPLINE
  5
3ED
100
AcDbEntity
  8
0
100
AcDbSpline
 62
7
  6
BYLAYER
 70
0
 71
3
 72
10
 73
6
 74
0
 42
0.0000001
 43
0.0000001
 44
0.0000000001
 40
0.0
 40
0.0
 40
0.0
 40
0.0
 40
0.3407391169
 40
0.66078102
 40
1.0
 40
1.0
 40
1.0
 40
1.0
 10
94.0704891732
 20
259.0774007894
 30
0.0
 10
94.0738653045
 20
259.075962489
 30
0.0
 10
94.0804654176
 20
259.073300209
 30
0.0
 10
94.0903147355
 20
259.068932827
 30
0.0
 10
94.0970174371
 20
259.0665701988
 30
0.0
 10
94.1003894108
 20
259.065164186
 30
0.0
  0
SPLINE
  5
3EE
100
AcDbEntity
  8
0
100
AcDbSpline
 62
7
  6
BYLAYER
 70
0
 71
3
 72
10
 73
6
 74
0
 42
0.0000001
 43
0.0000001
 44
0.0000000001
 40
0.0
 40
0.0
 40
0.0
 40
0.0
 40
0.3063645317
 40
0.6396356423
 40
1.0
 40
1.0
 40
1.0
 40
1.0
 10
94.1002956088
 20
259.0649446563
 30
0.0
 10
94.100367478
 20
259.0662387708
 30
0.0
 10
94.1016941716
 20
259.0687463558
 30
0.0
 10
94.1015410453
 20
259.0730554335
 30
0.0
 10
94.1013675626
 20
259.0759725479
 30
0.0
 10
94.1014469234
 20
259.0774950416
 30
0.0
  0
SPLINE
  5
3EF
100
AcDbEntity
  8
0
100
AcDbSpline
 62
7
  6
BYLAYER
 70
0
 71
3
 72
10
 73
6
 74
0
 42
0.0000001
 43
0.0000001
 44
0.0000000001
 40
0.0
 40
0.0
 40
0.0
 40
0.0
 40
0.2963160513
 40
0.6534033017
 40
1.0
 40
1.0
 40
1.0
 40
1.0
 10
94.1014469234
 20
259.0774950416
 30
0.0
 10
94.1092733123
 20
259.0774950416
 30
0.0
 10
94.1265260858
 20
259.0780562064
 30
0.0
 10
94.1529421111
 20
259.0779596084
 30
0.0
 10
94.1715238748
 20
259.0774882671
 30
0.0
 10
94.1806782915
 20
259.0774882671
 30
0.0
  0
SPLINE
  5
3F0
100
AcDbEntity
  8
0
100
AcDbSpline
 62
7
  6
BYLAYER
 70
0
 71
3
 72
10
 73
6
 74
0
 42
0.0000001
 43
0.0000001
 44
0.0000000001
 40
0.0
 40
0.0
 40
0.0
 40
0.0
 40
0.3542337537
 40
0.6698108296
 40
1.0
 40
1.0
 40
1.0
 40
1.0
 10
94.1806782915
 20
259.0774882671
 30
0.0
 10
94.184928949
 20
259.0760619574
 30
0.0
 10
94.1929246236
 20
259.0732523767
 30
0.0
 10
94.2048921955
 20
259.0690900319
 30
0.0
 10
94.2129148539
 20
259.0674107599
 30
0.0
 10
94.2170339728
 20
259.066704424
 30
0.0
  0
LINE
  5
3F1
100
AcDbEntity
  8
0
100
AcDbLine
 62
7
  6
BYLAYER
 10
94.2199184903
 20
259.0683520483
 11
94.2204161524
 21
259.0774012999
  0
SPLINE
  5
3F2
100
AcDbEntity
  8
0
100
AcDbSpline
 62
7
  6
BYLAYER
 70
0
 71
3
 72
10
 73
6
 74
0
 42
0.0000001
 43
0.0000001
 44
0.0000000001
 40
0.0
 40
0.0
 40
0.0
 40
0.0
 40
0.3082376041
 40
0.6500054045
 40
1.0
 40
1.0
 40
1.0
 40
1.0
 10
94.2202065372
 20
259.0775208634
 30
0.0
 10
94.2597991372
 20
259.0775208634
 30
0.0
 10
94.3432905175
 20
259.0780238636
 30
0.0
 10
94.4717391483
 20
259.0778253019
 30
0.0
 10
94.5605947859
 20
259.077868369
 30
0.0
 10
94.605551001
 20
259.077868369
 30
0.0
  0
SPLINE
  5
3F3
100
AcDbEntity
  8
0
100
AcDbSpline
 62
7
  6
BYLAYER
 70
0
 71
3
 72
10
 73
6
 74
0
 42
0.0000001
 43
0.0000001
 44
0.0000000001
 40
0.0
 40
0.0
 40
0.0
 40
0.0
 40
0.3517701243
 40
0.6910566565
 40
1.0
 40
1.0
 40
1.0
 40
1.0
 10
94.6055240101
 20
259.077868369
 30
0.0
 10
94.5601022326
 20
259.077868369
 30
0.0
 10
94.4708706684
 20
259.0778284865
 30
0.0
 10
94.3417469221
 20
259.0780130573
 30
0.0
 10
94.2580458691
 20
259.0775390625
 30
0.0
 10
94.2181540339
 20
259.0775390625
 30
0.0
  0
LINE
  5
3F4
100
AcDbEntity
  8
0
100
AcDbLine
 62
7
  6
BYLAYER
 10
94.2183532326
 20
259.0774261856
 11
94.2177908169
 21
259.0659690509
  0
SPLINE
  5
3F5
100
AcDbEntity
  8
0
100
AcDbSpline
 62
7
  6
BYLAYER
 70
0
 71
3
 72
10
 73
6
 74
0
 42
0.0000001
 43
0.0000001
 44
0.0000000001
 40
0.0
 40
0.0
 40
0.0
 40
0.0
 40
0.3381762333
 40
0.670667895
 40
1.0
 40
1.0
 40
1.0
 40
1.0
 10
94.0901849393
 20
259.2158677057
 30
0.0
 10
94.0914886147
 20
259.2002501882
 30
0.0
 10
94.0940230943
 20
259.1692740336
 30
0.0
 10
94.0981695276
 20
259.1231140698
 30
0.0
 10
94.0998053802
 20
259.0924801936
 30
0.0
 10
94.1010720926
 20
259.0772708729
 30
0.0
  0
SPLINE
  5
3F6
100
AcDbEntity
  8
0
100
AcDbSpline
 62
7
  6
BYLAYER
 70
0
 71
3
 72
10
 73
6
 74
0
 42
0.0000001
 43
0.0000001
 44
0.0000000001
 40
0.0
 40
0.0
 40
0.0
 40
0.0
 40
0.3599794432
 40
0.6934035966
 40
1.0
 40
1.0
 40
1.0
 40
1.0
 10
93.9176100584
 20
260.6261116525
 30
0.0
 10
93.9165235794
 20
260.6268906363
 30
0.0
 10
93.914418633
 20
260.6283746189
 30
0.0
 10
93.9113064838
 20
260.6304033552
 30
0.0
 10
93.9092601076
 20
260.6316132758
 30
0.0
 10
93.9082774583
 20
260.6321884945
 30
0.0
  0
SPLINE
  5
3F7
100
AcDbEntity
  8
0
100
AcDbSpline
 62
7
  6
BYLAYER
 70
0
 71
3
 72
10
 73
6
 74
0
 42
0.0000001
 43
0.0000001
 44
0.0000000001
 40
0.0
 40
0.0
 40
0.0
 40
0.0
 40
0.3146849059
 40
0.6309630497
 40
1.0
 40
1.0
 40
1.0
 40
1.0
 10
94.1000846248
 20
259.0657421231
 30
0.0
 10
94.1001538133
 20
259.0669949621
 30
0.0
 10
94.1016779582
 20
259.0692418235
 30
0.0
 10
94.1014254498
 20
259.0733350387
 30
0.0
 10
94.101280721
 20
259.0760422839
 30
0.0
 10
94.1013571487
 20
259.0775117645
 30
0.0
  0
SPLINE
  5
3F8
100
AcDbEntity
  8
0
100
AcDbSpline
 62
7
  6
BYLAYER
 70
0
 71
3
 72
10
 73
6
 74
0
 42
0.0000001
 43
0.0000001
 44
0.0000000001
 40
0.0
 40
0.0
 40
0.0
 40
0.0
 40
0.3374840249
 40
0.6706192525
 40
1.0
 40
1.0
 40
1.0
 40
1.0
 10
94.1002606135
 20
259.0661533199
 30
0.0
 10
94.0785885752
 20
259.2423147133
 30
0.0
 10
94.0342783292
 20
259.5922139627
 30
0.0
 10
93.9717521641
 20
260.1144053033
 30
0.0
 10
93.9294742624
 20
260.4602610132
 30
0.0
 10
93.9083229462
 20
260.6321926663
 30
0.0
  0
SPLINE
  5
3F9
100
AcDbEntity
  8
0
100
AcDbSpline
 62
7
  6
BYLAYER
 70
0
 71
3
 72
10
 73
6
 74
0
 42
0.0000001
 43
0.0000001
 44
0.0000000001
 40
0.0
 40
0.0
 40
0.0
 40
0.0
 40
0.3248141629
 40
0.6572347238
 40
1.0
 40
1.0
 40
1.0
 40
1.0
 10
93.9083229462
 20
260.6321926663
 30
0.0
 10
93.8376925962
 20
260.6271761961
 30
0.0
 10
93.6948865919
 20
260.6153504293
 30
0.0
 10
93.4782457651
 20
260.590744236
 30
0.0
 10
93.3326907675
 20
260.568517979
 30
0.0
 10
93.2591040706
 20
260.555544636
 30
0.0
  0
SPLINE
  5
3FA
100
AcDbEntity
  8
0
100
AcDbSpline
 62
7
  6
BYLAYER
 70
0
 71
3
 72
10
 73
6
 74
0
 42
0.0000001
 43
0.0000001
 44
0.0000000001
 40
0.0
 40
0.0
 40
0.0
 40
0.0
 40
0.3337970898
 40
0.6663384612
 40
1.0
 40
1.0
 40
1.0
 40
1.0
 10
94.0784428575
 20
260.6261006555
 30
0.0
 10
94.0251386704
 20
260.6199428682
 30
0.0
 10
93.9189207349
 20
260.6059330175
 30
0.0
 10
93.7603420958
 20
260.5793463144
 30
0.0
 10
93.6555456001
 20
260.5571098777
 30
0.0
 10
93.6032880602
 20
260.5450240907
 30
0.0
  0
LINE
  5
3FB
100
AcDbEntity
  8
0
100
AcDbLine
 62
7
  6
BYLAYER
 10
93.5572109608
 20
260.5451563105
 11
93.5802119877
 21
260.5123632385
  0
LINE
  5
3FC
100
AcDbEntity
  8
0
100
AcDbLine
 62
7
  6
BYLAYER
 10
93.5802119877
 20
260.5123632385
 11
93.6032124545
 21
260.5451563101
  0
LINE
  5
3FD
100
AcDbEntity
  8
0
100
AcDbLine
 62
7
  6
BYLAYER
 10
94.2199184903
 20
259.0683520483
 11
94.2213817563
 21
259.7623619254
  0
SPLINE
  5
3FE
100
AcDbEntity
  8
0
100
AcDbSpline
 62
7
  6
BYLAYER
 70
0
 71
3
 72
10
 73
6
 74
0
 42
0.0000001
 43
0.0000001
 44
0.0000000001
 40
0.0
 40
0.0
 40
0.0
 40
0.0
 40
0.3021373131
 40
0.658190268
 40
1.0
 40
1.0
 40
1.0
 40
1.0
 10
95.1099059847
 20
259.077243979
 30
0.0
 10
95.101934155
 20
259.077243979
 30
0.0
 10
95.0845802969
 20
259.0780750149
 30
0.0
 10
95.0581856789
 20
259.078118848
 30
0.0
 10
95.0397851693
 20
259.0772440365
 30
0.0
 10
95.0307665911
 20
259.0772440365
 30
0.0
  0
SPLINE
  5
3FF
100
AcDbEntity
  8
0
100
AcDbSpline
 62
7
  6
BYLAYER
 70
0
 71
3
 72
103
 73
99
 74
0
 42
0.0000001
 43
0.0000001
 44
0.0000000001
 40
0.0
 40
0.0
 40
0.0
 40
0.0
 40
0.0032006676
 40
0.0067559122
 40
0.0107118036
 40
0.0151140077
 40
0.0200134415
 40
0.0254643966
 40
0.031529248
 40
0.0382701714
 40
0.0457484285
 40
0.0540241612
 40
0.0631382891
 40
0.0730855269
 40
0.0837433915
 40
0.0949084906
 40
0.106140318
 40
0.1163633821
 40
0.1243225937
 40
0.1297789381
 40
0.1336994275
 40
0.1381134289
 40
0.1445456097
 40
0.1532525836
 40
0.1637730263
 40
0.1759447558
 40
0.1898034587
 40
0.2052365577
 40
0.2219548148
 40
0.238723398
 40
0.2546226437
 40
0.2693963238
 40
0.2829947855
 40
0.2951430381
 40
0.3055004033
 40
0.3134693952
 40
0.3189959854
 40
0.3229956799
 40
0.3275248389
 40
0.3339422131
 40
0.3426228642
 40
0.3533699442
 40
0.3659940827
 40
0.3803681174
 40
0.3962793177
 40
0.4128788462
 40
0.42939911
 40
0.4452216757
 40
0.4599908505
 40
0.473594584
 40
0.4858102532
 40
0.4958265082
 40
0.5033586057
 40
0.5085870411
 40
0.5125126199
 40
0.5171382886
 40
0.523831719
 40
0.5327046215
 40
0.5434216876
 40
0.5558850204
 40
0.5701070456
 40
0.5857985257
 40
0.6025688558
 40
0.6192357183
 40
0.6350824795
 40
0.6498263065
 40
0.6633891697
 40
0.6753504217
 40
0.685338431
 40
0.692865403
 40
0.698052059
 40
0.7020085478
 40
0.7068312553
 40
0.7135962299
 40
0.7225465507
 40
0.7335052051
 40
0.7463894189
 40
0.7610525852
 40
0.7772293659
 40
0.7938861076
 40
0.8102116003
 40
0.8257357367
 40
0.8402994302
 40
0.8537614121
 40
0.8657683604
 40
0.8754189375
 40
0.882545941
 40
0.8874684122
 40
0.8913670577
 40
0.8961702764
 40
0.9030870108
 40
0.9122159085
 40
0.92329866
 40
0.9362631383
 40
0.9509843369
 40
0.9669212475
 40
0.9834695515
 40
1.0
 40
1.0
 40
1.0
 40
1.0
 10
94.9956632684
 20
229.8231803557
 30
0.0
 10
94.9849236126
 20
229.826145243
 30
0.0
 10
94.9622919493
 20
229.832539213
 30
0.0
 10
94.9262650421
 20
229.8421549812
 30
0.0
 10
94.8861869872
 20
229.852808004
 30
0.0
 10
94.8415324724
 20
229.8644578697
 30
0.0
 10
94.7917995963
 20
229.8772562248
 30
0.0
 10
94.7364137763
 20
229.8913095492
 30
0.0
 10
94.6747677143
 20
229.9067529607
 30
0.0
 10
94.6062288348
 20
229.9237208761
 30
0.0
 10
94.5301915904
 20
229.9424247804
 30
0.0
 10
94.446143425
 20
229.963147159
 30
0.0
 10
94.3538366688
 20
229.9862725411
 30
0.0
 10
94.2537025394
 20
230.0122760067
 30
0.0
 10
94.1471599321
 20
230.0419356636
 30
0.0
 10
94.037102341
 20
230.0756313047
 30
0.0
 10
93.9299498328
 20
230.1131209829
 30
0.0
 10
93.8351268665
 20
230.1525468896
 30
0.0
 10
93.7633854261
 20
230.1923775389
 30
0.0
 10
93.7150886054
 20
230.2310693767
 30
0.0
 10
93.700154272
 20
230.2814308501
 30
0.0
 10
93.7297755867
 20
230.3283100208
 30
0.0
 10
93.78445864
 20
230.3686128794
 30
0.0
 10
93.8645461037
 20
230.4092720191
 30
0.0
 10
93.9666339685
 20
230.4483534429
 30
0.0
 10
94.087823398
 20
230.4872902882
 30
0.0
 10
94.226586421
 20
230.5270232613
 30
0.0
 10
94.3814350949
 20
230.5679587927
 30
0.0
 10
94.5465693857
 20
230.6095433591
 30
0.0
 10
94.7135170086
 20
230.6505508509
 30
0.0
 10
94.8738318867
 20
230.6902034461
 30
0.0
 10
95.0227732774
 20
230.7297945566
 30
0.0
 10
95.1579504597
 20
230.7702774725
 30
0.0
 10
95.2767256242
 20
230.8112160908
 30
0.0
 10
95.375115777
 20
230.8518248649
 30
0.0
 10
95.4474236563
 20
230.8919723343
 30
0.0
 10
95.4964630791
 20
230.9309677912
 30
0.0
 10
95.5106461953
 20
230.9827099123
 30
0.0
 10
95.4798200589
 20
231.0295489123
 30
0.0
 10
95.4247698879
 20
231.0696648927
 30
0.0
 10
95.343980815
 20
231.1104023397
 30
0.0
 10
95.2397044189
 20
231.1501056817
 30
0.0
 10
95.114424974
 20
231.1899200252
 30
0.0
 10
94.9707661437
 20
231.2308259666
 30
0.0
 10
94.8129189048
 20
231.2723374924
 30
0.0
 10
94.6473330026
 20
231.3137087122
 30
0.0
 10
94.4818835023
 20
231.354338009
 30
0.0
 10
94.3227220297
 20
231.3938821446
 30
0.0
 10
94.1741411055
 20
231.4337982186
 30
0.0
 10
94.0389035481
 20
231.4749396364
 30
0.0
 10
93.9212633023
 20
231.5162277512
 30
0.0
 10
93.8254454224
 20
231.5567690783
 30
0.0
 10
93.7571284354
 20
231.5961205364
 30
0.0
 10
93.7113677942
 20
231.635395903
 30
0.0
 10
93.7018913147
 20
231.6870817622
 30
0.0
 10
93.7350977194
 20
231.7330252826
 30
0.0
 10
93.7923931639
 20
231.7733764319
 30
0.0
 10
93.8750768475
 20
231.8136793602
 30
0.0
 10
93.9795217345
 20
231.8529020692
 30
0.0
 10
94.1037645712
 20
231.8920379995
 30
0.0
 10
94.2456944694
 20
231.9322359583
 30
0.0
 10
94.4028522588
 20
231.9736181712
 30
0.0
 10
94.5687986871
 20
232.0149519156
 30
0.0
 10
94.7354375698
 20
232.0557217956
 30
0.0
 10
94.8950395845
 20
232.0955995241
 30
0.0
 10
95.0434043598
 20
232.1357441468
 30
0.0
 10
95.1775329969
 20
232.1767190783
 30
0.0
 10
95.2939917763
 20
232.217924773
 30
0.0
 10
95.3888501629
 20
232.2582771107
 30
0.0
 10
95.4567513283
 20
232.2975887739
 30
0.0
 10
95.5018623611
 20
232.3382979807
 30
0.0
 10
95.507775991
 20
232.3912910821
 30
0.0
 10
95.4719748647
 20
232.4362639196
 30
0.0
 10
95.4132933849
 20
232.4765683386
 30
0.0
 10
95.3289388789
 20
232.5165945065
 30
0.0
 10
95.2218993797
 20
232.5561548154
 30
0.0
 10
95.0938810375
 20
232.5961123561
 30
0.0
 10
94.9473164766
 20
232.6371489604
 30
0.0
 10
94.7873327792
 20
232.6789074911
 30
0.0
 10
94.6212514803
 20
232.7201345402
 30
0.0
 10
94.4572114495
 20
232.7601370412
 30
0.0
 10
94.3005242214
 20
232.7995664396
 30
0.0
 10
94.1543467744
 20
232.8397501591
 30
0.0
 10
94.02111579
 20
232.8808395731
 30
0.0
 10
93.9061058466
 20
232.9220954336
 30
0.0
 10
93.8138890301
 20
232.9624304177
 30
0.0
 10
93.7493477669
 20
233.000750721
 30
0.0
 10
93.7077080038
 20
233.0416253104
 30
0.0
 10
93.7047315544
 20
233.0934304962
 30
0.0
 10
93.7411071312
 20
233.1377523624
 30
0.0
 10
93.8009856505
 20
233.1784042994
 30
0.0
 10
93.8869587082
 20
233.2186266635
 30
0.0
 10
93.9954324118
 20
233.258172934
 30
0.0
 10
94.1243638282
 20
233.2982421178
 30
0.0
 10
94.2706457718
 20
233.3389896543
 30
0.0
 10
94.4297251601
 20
233.3802034272
 30
0.0
 10
94.595293729
 20
233.421421244
 30
0.0
 10
94.7072023999
 20
233.4485362977
 30
0.0
 10
94.7630480804
 20
233.4624043874
 30
0.0
  0
SPLINE
  5
400
100
AcDbEntity
  8
0
100
AcDbSpline
 62
7
  6
BYLAYER
 70
0
 71
3
 72
15
 73
11
 74
0
 42
0.0000001
 43
0.0000001
 44
0.0000000001
 40
0.0
 40
0.0
 40
0.0
 40
0.0
 40
0.1238755402
 40
0.277079664
 40
0.4448957554
 40
0.6118044741
 40
0.7626009158
 40
0.8834637304
 40
0.9635774352
 40
1.0
 40
1.0
 40
1.0
 40
1.0
 10
95.7782622615
 20
233.4624016423
 30
0.0
 10
95.6678871719
 20
233.4362103219
 30
0.0
 10
95.4185123603
 20
233.3885586518
 30
0.0
 10
95.0163562204
 20
233.3229641885
 30
0.0
 10
94.5745416487
 20
233.2583011428
 30
0.0
 10
94.1337138694
 20
233.1919141755
 30
0.0
 10
93.740898921
 20
233.1284949684
 30
0.0
 10
93.4155524572
 20
233.0608073676
 30
0.0
 10
93.2252882417
 20
233.0094460519
 30
0.0
 10
93.1057875092
 20
232.9460053008
 30
0.0
 10
93.1057319313
 20
232.9126510814
 30
0.0
  0
SPLINE
  5
401
100
AcDbEntity
  8
0
100
AcDbSpline
 62
7
  6
BYLAYER
 70
0
 71
3
 72
17
 73
13
 74
0
 42
0.0000001
 43
0.0000001
 44
0.0000000001
 40
0.0
 40
0.0
 40
0.0
 40
0.0
 40
0.032927014
 40
0.1053202911
 40
0.2153380823
 40
0.3514202979
 40
0.5019496442
 40
0.6525370805
 40
0.7881786382
 40
0.8961897488
 40
0.9675756506
 40
1.0
 40
1.0
 40
1.0
 40
1.0
 10
93.1057319313
 20
232.9126510814
 30
0.0
 10
93.1056749618
 20
232.8784617195
 30
0.0
 10
93.2288042181
 20
232.8138004485
 30
0.0
 10
93.4245744981
 20
232.7624577452
 30
0.0
 10
93.7587298887
 20
232.6929784665
 30
0.0
 10
94.1616680815
 20
232.6285436782
 30
0.0
 10
94.6116101418
 20
232.5618125045
 30
0.0
 10
95.0608893397
 20
232.4942183325
 30
0.0
 10
95.4616387171
 20
232.4305457637
 30
0.0
 10
95.7915310881
 20
232.3612823613
 30
0.0
 10
95.9849229314
 20
232.3100499001
 30
0.0
 10
96.1048452437
 20
232.2461659943
 30
0.0
 10
96.105399753
 20
232.2125030881
 30
0.0
  0
SPLINE
  5
402
100
AcDbEntity
  8
0
100
AcDbSpline
 62
7
  6
BYLAYER
 70
0
 71
3
 72
17
 73
13
 74
0
 42
0.0000001
 43
0.0000001
 44
0.0000000001
 40
0.0
 40
0.0
 40
0.0
 40
0.0
 40
0.0332799482
 40
0.1067200144
 40
0.2165807223
 40
0.3541016838
 40
0.5048602053
 40
0.6547029532
 40
0.7902208356
 40
0.8974733071
 40
0.9682584083
 40
1.0
 40
1.0
 40
1.0
 40
1.0
 10
96.105399753
 20
232.2125030881
 30
0.0
 10
96.1059689092
 20
232.1779510008
 30
0.0
 10
95.9792465306
 20
232.1133641028
 30
0.0
 10
95.7837570919
 20
232.0616046871
 30
0.0
 10
95.4465514962
 20
231.9917150944
 30
0.0
 10
95.0421749574
 20
231.927890689
 30
0.0
 10
94.5913503758
 20
231.8601283495
 30
0.0
 10
94.1425473443
 20
231.7935389648
 30
0.0
 10
93.7437476781
 20
231.7291920937
 30
0.0
 10
93.4150229029
 20
231.6603018125
 30
0.0
 10
93.2242913793
 20
231.6093773307
 30
0.0
 10
93.1053776094
 20
231.5453168752
 30
0.0
 10
93.1055946381
 20
231.5123581925
 30
0.0
  0
SPLINE
  5
403
100
AcDbEntity
  8
0
100
AcDbSpline
 62
7
  6
BYLAYER
 70
0
 71
3
 72
14
 73
10
 74
0
 42
0.0000001
 43
0.0000001
 44
0.0000000001
 40
0.0
 40
0.0
 40
0.0
 40
0.0
 40
0.0399221509
 40
0.1268805869
 40
0.2587291221
 40
0.4261636887
 40
0.6158118746
 40
0.813335976
 40
1.0
 40
1.0
 40
1.0
 40
1.0
 10
93.1055946381
 20
231.5123581925
 30
0.0
 10
93.1057888572
 20
231.4828634537
 30
0.0
 10
93.2058439881
 20
231.4228310643
 30
0.0
 10
93.3748343136
 20
231.374773116
 30
0.0
 10
93.6610641031
 20
231.3111730261
 30
0.0
 10
94.0145111134
 20
231.2520961209
 30
0.0
 10
94.4203973078
 20
231.1893204212
 30
0.0
 10
94.8396603419
 20
231.1282680517
 30
0.0
 10
95.120256152
 20
231.0849522212
 30
0.0
 10
95.2563175846
 20
231.0624381344
 30
0.0
  0
SPLINE
  5
404
100
AcDbEntity
  8
0
100
AcDbSpline
 62
7
  6
BYLAYER
 70
0
 71
3
 72
69
 73
65
 74
0
 42
0.0000001
 43
0.0000001
 44
0.0000000001
 40
0.0
 40
0.0
 40
0.0
 40
0.0
 40
0.0223122894
 40
0.0457685353
 40
0.069469025
 40
0.0924307203
 40
0.1138932772
 40
0.1335620598
 40
0.1511623232
 40
0.1658729791
 40
0.1771688064
 40
0.1850807985
 40
0.1907006488
 40
0.1970270465
 40
0.2063013403
 40
0.2187413264
 40
0.2340955967
 40
0.2519934554
 40
0.2724247034
 40
0.2950324679
 40
0.3189228516
 40
0.3424034526
 40
0.3648796118
 40
0.3857255011
 40
0.4048467427
 40
0.4219022404
 40
0.4364482633
 40
0.4475405646
 40
0.4552174769
 40
0.460802939
 40
0.4673440048
 40
0.4767589072
 40
0.4895245995
 40
0.5051418454
 40
0.5233163662
 40
0.543934681
 40
0.5666547768
 40
0.5903181319
 40
0.6140586187
 40
0.6366486117
 40
0.6577103212
 40
0.6769667852
 40
0.6939956002
 40
0.7078708311
 40
0.7183678046
 40
0.7256014046
 40
0.7311225606
 40
0.7380514148
 40
0.7480893379
 40
0.7610468228
 40
0.7766825574
 40
0.7947764208
 40
0.8153338639
 40
0.8379727303
 40
0.8620393583
 40
0.8856381809
 40
0.9079410216
 40
0.9285822651
 40
0.9475422211
 40
0.9643730697
 40
0.978284874
 40
0.9884989769
 40
0.9952243111
 40
1.0
 40
1.0
 40
1.0
 40
1.0
 10
94.9958233246
 20
230.901529059
 30
0.0
 10
94.9432307015
 20
230.9158247701
 30
0.0
 10
94.8349608009
 20
230.943708723
 30
0.0
 10
94.670325233
 20
230.9848012984
 30
0.0
 10
94.5040870518
 20
231.0260297311
 30
0.0
 10
94.3428793843
 20
231.0673096441
 30
0.0
 10
94.1916398492
 20
231.1077475838
 30
0.0
 10
94.0537788346
 20
231.1476008039
 30
0.0
 10
93.9334406328
 20
231.1880391728
 30
0.0
 10
93.834754433
 20
231.2290583252
 30
0.0
 10
93.7630642489
 20
231.2702608104
 30
0.0
 10
93.7150275618
 20
231.3095644027
 30
0.0
 10
93.7000857451
 20
231.3606678792
 30
0.0
 10
93.7315295897
 20
231.4071444391
 30
0.0
 10
93.7869604575
 20
231.4467513532
 30
0.0
 10
93.8682114839
 20
231.4878831339
 30
0.0
 10
93.9721693958
 20
231.5284551146
 30
0.0
 10
94.0969697165
 20
231.5689924994
 30
0.0
 10
94.2404348423
 20
231.6087116369
 30
0.0
 10
94.3988327482
 20
231.6491930172
 30
0.0
 10
94.5647176762
 20
231.6904264466
 30
0.0
 10
94.7301679269
 20
231.7320719954
 30
0.0
 10
94.8882202353
 20
231.7726553376
 30
0.0
 10
95.0355702046
 20
231.8120267648
 30
0.0
 10
95.1693089615
 20
231.8511738355
 30
0.0
 10
95.2863832269
 20
231.891578064
 30
0.0
 10
95.3828556578
 20
231.9323233818
 30
0.0
 10
95.4528022249
 20
231.9731547288
 30
0.0
 10
95.4994201101
 20
232.0134154807
 30
0.0
 10
95.509511205
 20
232.0655781681
 30
0.0
 10
95.4752824817
 20
232.1105143152
 30
0.0
 10
95.418001973
 20
232.1502005042
 30
0.0
 10
95.334772084
 20
232.1914010081
 30
0.0
 10
95.2287440218
 20
232.2324463455
 30
0.0
 10
95.1019215065
 20
232.2725327657
 30
0.0
 10
94.9569407212
 20
232.3119994485
 30
0.0
 10
94.7983738062
 20
232.3525335895
 30
0.0
 10
94.6322480292
 20
232.3942644995
 30
0.0
 10
94.4664056096
 20
232.4358180241
 30
0.0
 10
94.306918734
 20
232.4766075845
 30
0.0
 10
94.1585566096
 20
232.5165977023
 30
0.0
 10
94.0243399682
 20
232.5569690129
 30
0.0
 10
93.9088569805
 20
232.5976649528
 30
0.0
 10
93.8157053763
 20
232.6384170658
 30
0.0
 10
93.750410612
 20
232.678545366
 30
0.0
 10
93.7074925248
 20
232.7199866082
 30
0.0
 10
93.704358837
 20
232.7727277141
 30
0.0
 10
93.7431729992
 20
232.8161735733
 30
0.0
 10
93.8035750543
 20
232.8563217586
 30
0.0
 10
93.8892296062
 20
232.897207005
 30
0.0
 10
93.9960120048
 20
232.9371353173
 30
0.0
 10
94.1228533369
 20
232.9761069558
 30
0.0
 10
94.2673152765
 20
233.0153791583
 30
0.0
 10
94.426455869
 20
233.0562536655
 30
0.0
 10
94.593080999
 20
233.0978027019
 30
0.0
 10
94.7588963161
 20
233.1392119606
 30
0.0
 10
94.9162828394
 20
233.1798355914
 30
0.0
 10
95.0621762556
 20
233.219584847
 30
0.0
 10
95.1942009979
 20
233.2593771194
 30
0.0
 10
95.3086597634
 20
233.2998861285
 30
0.0
 10
95.4002468535
 20
233.3410217467
 30
0.0
 10
95.464060313
 20
233.381001411
 30
0.0
 10
95.5021055846
 20
233.4205955227
 30
0.0
 10
95.5062264285
 20
233.4508165213
 30
0.0
 10
95.5034395359
 20
233.4621440272
 30
0.0
  0
SPLINE
  5
405
100
AcDbEntity
  8
0
100
AcDbSpline
 62
7
  6
BYLAYER
 70
0
 71
3
 72
17
 73
13
 74
0
 42
0.0000001
 43
0.0000001
 44
0.0000000001
 40
0.0
 40
0.0
 40
0.0
 40
0.0
 40
0.0329051569
 40
0.1056723585
 40
0.2151692545
 40
0.3508758528
 40
0.5002803547
 40
0.6491059079
 40
0.7843662226
 40
0.8936528602
 40
0.9668060971
 40
1.0
 40
1.0
 40
1.0
 40
1.0
 10
93.1055948101
 20
228.7124200529
 30
0.0
 10
93.1056172998
 20
228.6782544561
 30
0.0
 10
93.2294237087
 20
228.6138996986
 30
0.0
 10
93.4246421806
 20
228.5618881369
 30
0.0
 10
93.7584349311
 20
228.4931804307
 30
0.0
 10
94.1592256128
 20
228.4288062247
 30
0.0
 10
94.6057654412
 20
228.3624310582
 30
0.0
 10
95.0518026632
 20
228.29578265
 30
0.0
 10
95.4513549789
 20
228.2318666716
 30
0.0
 10
95.7849319016
 20
228.1631779452
 30
0.0
 10
95.980371102
 20
228.1112119288
 30
0.0
 10
96.1054571493
 20
228.0469103627
 30
0.0
 10
96.1054847644
 20
228.012444963
 30
0.0
  0
SPLINE
  5
406
100
AcDbEntity
  8
0
100
AcDbSpline
 62
7
  6
BYLAYER
 70
0
 71
3
 72
10
 73
6
 74
0
 42
0.0000001
 43
0.0000001
 44
0.0000000001
 40
0.0
 40
0.0
 40
0.0
 40
0.0
 40
0.2660079943
 40
0.5884378975
 40
1.0
 40
1.0
 40
1.0
 40
1.0
 10
93.1055886912
 20
227.3123927389
 30
0.0
 10
93.105585441
 20
227.3066578837
 30
0.0
 10
93.1093214464
 20
227.2939425751
 30
0.0
 10
93.1231768029
 20
227.2770453437
 30
0.0
 10
93.1358043669
 20
227.2673503419
 30
0.0
 10
93.1431809117
 20
227.2624194105
 30
0.0
  0
SPLINE
  5
407
100
AcDbEntity
  8
0
100
AcDbSpline
 62
7
  6
BYLAYER
 70
0
 71
3
 72
53
 73
49
 74
0
 42
0.0000001
 43
0.0000001
 44
0.0000000001
 40
0.0
 40
0.0
 40
0.0
 40
0.0
 40
0.0079807449
 40
0.0209108194
 40
0.0427734876
 40
0.0711480552
 40
0.1036385457
 40
0.1355270419
 40
0.1629183437
 40
0.1821420257
 40
0.1923194322
 40
0.2014111671
 40
0.2191735252
 40
0.245503265
 40
0.2768826536
 40
0.3093728277
 40
0.3388645531
 40
0.3619311432
 40
0.3762929135
 40
0.384237546
 40
0.3977288129
 40
0.4201394208
 40
0.4493556185
 40
0.4816999101
 40
0.5131067646
 40
0.5396797052
 40
0.5583962444
 40
0.5684501382
 40
0.578098032
 40
0.5964550805
 40
0.6230011715
 40
0.6543828524
 40
0.6868663539
 40
0.7164372451
 40
0.7391217429
 40
0.7528043651
 40
0.7607032114
 40
0.774802414
 40
0.7975702461
 40
0.8270264811
 40
0.8598288286
 40
0.891247398
 40
0.9173950405
 40
0.9353546523
 40
0.9447032632
 40
0.9547703037
 40
0.9733635516
 40
1.0
 40
1.0
 40
1.0
 40
1.0
 10
93.7285319958
 20
227.101515383
 30
0.0
 10
93.7099361667
 20
227.1223132084
 30
0.0
 10
93.6999422152
 20
227.2145710188
 30
0.0
 10
93.8591589784
 20
227.2824184412
 30
0.0
 10
94.0531466823
 20
227.3602758698
 30
0.0
 10
94.3379370715
 20
227.4349038949
 30
0.0
 10
94.6513617891
 20
227.513235087
 30
0.0
 10
94.9615014551
 20
227.5890455779
 30
0.0
 10
95.2297710898
 20
227.6710608283
 30
0.0
 10
95.4043194429
 20
227.7325526212
 30
0.0
 10
95.5339148493
 20
227.8385583649
 30
0.0
 10
95.433566641
 20
227.9622710502
 30
0.0
 10
95.2620930389
 20
228.0178740385
 30
0.0
 10
95.0093572983
 20
228.1025640887
 30
0.0
 10
94.7032993701
 20
228.1769059352
 30
0.0
 10
94.3878808225
 20
228.2560365669
 30
0.0
 10
94.0953054687
 20
228.3295786087
 30
0.0
 10
93.8865920888
 20
228.4112269715
 30
0.0
 10
93.7181132191
 20
228.4708566609
 30
0.0
 10
93.7033489034
 20
228.6190541625
 30
0.0
 10
93.8705317898
 20
228.6869889231
 30
0.0
 10
94.0696188586
 20
228.7654621862
 30
0.0
 10
94.3595722135
 20
228.8402429342
 30
0.0
 10
94.6734999463
 20
228.9187595832
 30
0.0
 10
94.9789831241
 20
228.9933630865
 30
0.0
 10
95.2400003228
 20
229.0753966963
 30
0.0
 10
95.4113812213
 20
229.1344198963
 30
0.0
 10
95.536266293
 20
229.2465713149
 30
0.0
 10
95.4219158071
 20
229.3662559263
 30
0.0
 10
95.2497664197
 20
229.4231406635
 30
0.0
 10
94.9920418112
 20
229.5068837542
 30
0.0
 10
94.6857604544
 20
229.581265016
 30
0.0
 10
94.3702488772
 20
229.6603146173
 30
0.0
 10
94.0779375324
 20
229.7350150444
 30
0.0
 10
93.8750707135
 20
229.8147868959
 30
0.0
 10
93.7077538783
 20
229.880164474
 30
0.0
 10
93.7131314409
 20
230.0283223178
 30
0.0
 10
93.8811245997
 20
230.0901682278
 30
0.0
 10
94.0865862574
 20
230.1708827449
 30
0.0
 10
94.3794554694
 20
230.2451273204
 30
0.0
 10
94.6959099456
 20
230.3243799453
 30
0.0
 10
95.0021266815
 20
230.3989754783
 30
0.0
 10
95.2565500346
 20
230.482548781
 30
0.0
 10
95.4261972962
 20
230.5389684103
 30
0.0
 10
95.5351447426
 20
230.658075435
 30
0.0
 10
95.4113646713
 20
230.768582712
 30
0.0
 10
95.2404239962
 20
230.8276093493
 30
0.0
 10
95.0855988214
 20
230.8768297882
 30
0.0
 10
94.9958164757
 20
230.901520087
 30
0.0
  0
SPLINE
  5
408
100
AcDbEntity
  8
0
100
AcDbSpline
 62
7
  6
BYLAYER
 70
0
 71
3
 72
11
 73
7
 74
0
 42
0.0000001
 43
0.0000001
 44
0.0000000001
 40
0.0
 40
0.0
 40
0.0
 40
0.0
 40
0.3947126283
 40
0.7025022577
 40
0.9045090567
 40
1.0
 40
1.0
 40
1.0
 40
1.0
 10
95.256312634
 20
231.062421385
 30
0.0
 10
95.373133702
 20
231.0431462951
 30
0.0
 10
95.5787488946
 20
231.0082339578
 30
0.0
 10
95.8505853706
 20
230.9460369447
 30
0.0
 10
96.0110514039
 20
230.8996587497
 30
0.0
 10
96.1057032779
 20
230.841066614
 30
0.0
 10
96.1054689802
 20
230.8124234912
 30
0.0
  0
SPLINE
  5
409
100
AcDbEntity
  8
0
100
AcDbSpline
 62
7
  6
BYLAYER
 70
0
 71
3
 72
17
 73
13
 74
0
 42
0.0000001
 43
0.0000001
 44
0.0000000001
 40
0.0
 40
0.0
 40
0.0
 40
0.0
 40
0.0322683598
 40
0.103479849
 40
0.2119163347
 40
0.3468328784
 40
0.4958140938
 40
0.6460541578
 40
0.7831509223
 40
0.8938217673
 40
0.9670587865
 40
1.0
 40
1.0
 40
1.0
 40
1.0
 10
96.1054689802
 20
230.8124234912
 30
0.0
 10
96.1051949083
 20
230.7789179278
 30
0.0
 10
95.9854606981
 20
230.7148854175
 30
0.0
 10
95.7922181972
 20
230.6636269378
 30
0.0
 10
95.4626004392
 20
230.5946856351
 30
0.0
 10
95.063901784
 20
230.5308263497
 30
0.0
 10
94.6172296501
 20
230.4640779256
 30
0.0
 10
94.1681968087
 20
230.3971854043
 30
0.0
 10
93.7639429751
 20
230.332631354
 30
0.0
 10
93.4267094132
 20
230.2634450913
 30
0.0
 10
93.2302833756
 20
230.2110536415
 30
0.0
 10
93.1054301154
 20
230.1465848313
 30
0.0
 10
93.1055488807
 20
230.1123796782
 30
0.0
  0
SPLINE
  5
40A
100
AcDbEntity
  8
0
100
AcDbSpline
 62
7
  6
BYLAYER
 70
0
 71
3
 72
14
 73
10
 74
0
 42
0.0000001
 43
0.0000001
 44
0.0000000001
 40
0.0
 40
0.0
 40
0.0
 40
0.0
 40
0.040179782
 40
0.1266422007
 40
0.2587285495
 40
0.4255634776
 40
0.6157692787
 40
0.8124745667
 40
1.0
 40
1.0
 40
1.0
 40
1.0
 10
93.1055488807
 20
230.1123796782
 30
0.0
 10
93.1056519606
 20
230.082692042
 30
0.0
 10
93.2056765382
 20
230.0226431266
 30
0.0
 10
93.3747322487
 20
229.9748658655
 30
0.0
 10
93.6603328991
 20
229.9111705008
 30
0.0
 10
94.0139043434
 20
229.8518097274
 30
0.0
 10
94.4192725934
 20
229.7896340395
 30
0.0
 10
94.8389391197
 20
229.7280826152
 30
0.0
 10
95.1196070913
 20
229.6849028688
 30
0.0
 10
95.2563210037
 20
229.6623738294
 30
0.0
  0
SPLINE
  5
40B
100
AcDbEntity
  8
0
100
AcDbSpline
 62
7
  6
BYLAYER
 70
0
 71
3
 72
11
 73
7
 74
0
 42
0.0000001
 43
0.0000001
 44
0.0000000001
 40
0.0
 40
0.0
 40
0.0
 40
0.0
 40
0.3934024568
 40
0.7031551439
 40
0.9052621997
 40
1.0
 40
1.0
 40
1.0
 40
1.0
 10
95.2563210037
 20
229.6623738294
 30
0.0
 10
95.3727602617
 20
229.6431373945
 30
0.0
 10
95.5787098883
 20
229.6083474625
 30
0.0
 10
95.8504900995
 20
229.545958309
 30
0.0
 10
96.011953836
 20
229.4995730595
 30
0.0
 10
96.1054466623
 20
229.4407788743
 30
0.0
 10
96.1054836096
 20
229.4123583266
 30
0.0
  0
SPLINE
  5
40C
100
AcDbEntity
  8
0
100
AcDbSpline
 62
7
  6
BYLAYER
 70
0
 71
3
 72
17
 73
13
 74
0
 42
0.0000001
 43
0.0000001
 44
0.0000000001
 40
0.0
 40
0.0
 40
0.0
 40
0.0
 40
0.0327780224
 40
0.1045763311
 40
0.2126563014
 40
0.3484788001
 40
0.4985663059
 40
0.6495977763
 40
0.7860496128
 40
0.8948546598
 40
0.9670776052
 40
1.0
 40
1.0
 40
1.0
 40
1.0
 10
93.1055948092
 20
228.7123443935
 30
0.0
 10
93.1055724062
 20
228.7463782588
 30
0.0
 10
93.2281099602
 20
228.8101921699
 30
0.0
 10
93.4209594403
 20
228.8620235484
 30
0.0
 10
93.7523243839
 20
228.9303658433
 30
0.0
 10
94.1524236861
 20
228.994925064
 30
0.0
 10
94.6020635695
 20
229.06176706
 30
0.0
 10
95.0523422515
 20
229.1288904128
 30
0.0
 10
95.4547630131
 20
229.1936120283
 30
0.0
 10
95.788195169
 20
229.2619756076
 30
0.0
 10
95.9819517948
 20
229.3142955627
 30
0.0
 10
96.1055280467
 20
229.3781044863
 30
0.0
 10
96.1054836071
 20
229.4122882338
 30
0.0
  0
SPLINE
  5
40D
100
AcDbEntity
  8
0
100
AcDbSpline
 62
7
  6
BYLAYER
 70
0
 71
3
 72
88
 73
84
 74
0
 42
0.0000001
 43
0.0000001
 44
0.0000000001
 40
0.0
 40
0.0
 40
0.0
 40
0.0
 40
0.0267709105
 40
0.0452887634
 40
0.0552325769
 40
0.0648084471
 40
0.0832253035
 40
0.1095996137
 40
0.1409013087
 40
0.1734773674
 40
0.2027792648
 40
0.2253267827
 40
0.2392300956
 40
0.2470617313
 40
0.2606854952
 40
0.2829333805
 40
0.3116498678
 40
0.3437375534
 40
0.3751667807
 40
0.4018271241
 40
0.4204986033
 40
0.4305572061
 40
0.4399313221
 40
0.4576180935
 40
0.4832600957
 40
0.5140565215
 40
0.5462499101
 40
0.5758283348
 40
0.59912288
 40
0.6137715461
 40
0.6216847983
 40
0.6346203325
 40
0.6563045262
 40
0.684985662
 40
0.7172875078
 40
0.7487668994
 40
0.7757670223
 40
0.79505113
 40
0.8053980534
 40
0.8131130452
 40
0.8251847375
 40
0.8407214684
 40
0.8575927427
 40
0.8743262585
 40
0.8902041855
 40
0.9048850899
 40
0.918069907
 40
0.9297012668
 40
0.9398557917
 40
0.9487431101
 40
0.9564089367
 40
0.9629351764
 40
0.9683811252
 40
0.9729276084
 40
0.9767397915
 40
0.9799212149
 40
0.9825609849
 40
0.9847521572
 40
0.9865727363
 40
0.988087326
 40
0.9893560733
 40
0.9904279158
 40
0.9913440212
 40
0.9921359051
 40
0.9928272989
 40
0.9934382503
 40
0.9939846147
 40
0.9944787805
 40
0.9949304266
 40
0.9953472336
 40
0.9957355677
 40
0.9961013293
 40
0.9964498702
 40
0.9967861238
 40
0.9971149225
 40
0.9974412183
 40
0.9977697692
 40
0.9981010215
 40
0.998439935
 40
0.9988039665
 40
0.9991521815
 40
0.99943221
 40
1.0
 40
1.0
 40
1.0
 40
1.0
 10
94.9958278166
 20
229.8232109571
 30
0.0
 10
95.086151715
 20
229.7983721382
 30
0.0
 10
95.241188135
 20
229.7488135531
 30
0.0
 10
95.4123366829
 20
229.6896618396
 30
0.0
 10
95.5355075915
 20
229.5786299483
 30
0.0
 10
95.4228704761
 20
229.4582866403
 30
0.0
 10
95.2504488175
 20
229.4020182866
 30
0.0
 10
94.9934461389
 20
229.3182116832
 30
0.0
 10
94.6873561653
 20
229.243821201
 30
0.0
 10
94.3723206761
 20
229.1649039398
 30
0.0
 10
94.0811185311
 20
229.0906920078
 30
0.0
 10
93.8777942063
 20
229.0106115346
 30
0.0
 10
93.7109894313
 20
228.9476807979
 30
0.0
 10
93.7095886812
 20
228.8007566079
 30
0.0
 10
93.8739000624
 20
228.7368777038
 30
0.0
 10
94.0733425708
 20
228.6580818382
 30
0.0
 10
94.3596817127
 20
228.5845087325
 30
0.0
 10
94.6716842592
 20
228.5064212235
 30
0.0
 10
94.9768172831
 20
228.4318308068
 30
0.0
 10
95.2386588482
 20
228.3500818939
 30
0.0
 10
95.4097477399
 20
228.2902888993
 30
0.0
 10
95.5353831637
 20
228.18115066
 30
0.0
 10
95.427811742
 20
228.0614956427
 30
0.0
 10
95.2604156021
 20
228.005496319
 30
0.0
 10
95.0106664535
 20
227.9228455608
 30
0.0
 10
94.7101661549
 20
227.849444124
 30
0.0
 10
94.3967754556
 20
227.7708772625
 30
0.0
 10
94.1044594144
 20
227.6978690147
 30
0.0
 10
93.8917124869
 20
227.6155166546
 30
0.0
 10
93.7241262084
 20
227.557570027
 30
0.0
 10
93.6983534943
 20
227.4118978154
 30
0.0
 10
93.8609968521
 20
227.340682597
 30
0.0
 10
94.0536229576
 20
227.26474329
 30
0.0
 10
94.3393752364
 20
227.1893138272
 30
0.0
 10
94.6518954023
 20
227.1114922804
 30
0.0
 10
94.9588443258
 20
227.0358560935
 30
0.0
 10
95.2255368352
 20
226.9562717205
 30
0.0
 10
95.3983896374
 20
226.8922020082
 30
0.0
 10
95.5282959177
 20
226.7972819851
 30
0.0
 10
95.4642429636
 20
226.6879874888
 30
0.0
 10
95.3506712886
 20
226.6405052094
 30
0.0
 10
95.2057431758
 20
226.5828656422
 30
0.0
 10
95.0404950702
 20
226.5349302123
 30
0.0
 10
94.8732872939
 20
226.4900124388
 30
0.0
 10
94.7127919628
 20
226.4496421775
 30
0.0
 10
94.5641965948
 20
226.4129181426
 30
0.0
 10
94.4300697653
 20
226.3795747716
 30
0.0
 10
94.3115272282
 20
226.3492027947
 30
0.0
 10
94.2078674346
 20
226.321356289
 30
0.0
 10
94.1179704158
 20
226.295796844
 30
0.0
 10
94.0407166615
 20
226.2722397555
 30
0.0
 10
93.9754710098
 20
226.2506489808
 30
0.0
 10
93.9211295081
 20
226.23092094
 30
0.0
 10
93.8762968797
 20
226.2129096092
 30
0.0
 10
93.8394124003
 20
226.1964453712
 30
0.0
 10
93.8092529522
 20
226.1813606511
 30
0.0
 10
93.7848247641
 20
226.1675739003
 30
0.0
 10
93.7652277814
 20
226.1549901727
 30
0.0
 10
93.7496584132
 20
226.1434943991
 30
0.0
 10
93.7374358907
 20
226.1329738128
 30
0.0
 10
93.727968219
 20
226.1233400609
 30
0.0
 10
93.7207468854
 20
226.1145021
 30
0.0
 10
93.7153549082
 20
226.1063860134
 30
0.0
 10
93.7114562859
 20
226.0989321194
 30
0.0
 10
93.7087743102
 20
226.0920971428
 30
0.0
 10
93.7070638629
 20
226.0858459544
 30
0.0
 10
93.706120633
 20
226.0801346758
 30
0.0
 10
93.705775867
 20
226.0749169047
 30
0.0
 10
93.7058934276
 20
226.0701443114
 30
0.0
 10
93.7063655359
 20
226.0657673767
 30
0.0
 10
93.7071104936
 20
226.0617349346
 30
0.0
 10
93.7080644217
 20
226.0579937644
 30
0.0
 10
93.7091814253
 20
226.0544894941
 30
0.0
 10
93.7104334671
 20
226.0511696077
 30
0.0
 10
93.7118058772
 20
226.047982364
 30
0.0
 10
93.7132989274
 20
226.0448805807
 30
0.0
 10
93.7149033227
 20
226.0418233245
 30
0.0
 10
93.7166923706
 20
226.0388233803
 30
0.0
 10
93.7188236155
 20
226.0358685842
 30
0.0
 10
93.7208243526
 20
226.0328889139
 30
0.0
 10
93.7222600465
 20
226.029319404
 30
0.0
 10
93.726314159
 20
226.0283952266
 30
0.0
 10
93.7273903386
 20
226.0214792813
 30
0.0
 10
93.7285837308
 20
226.0230677548
 30
0.0
  0
SPLINE
  5
40E
100
AcDbEntity
  8
0
100
AcDbSpline
 62
7
  6
BYLAYER
 70
0
 71
3
 72
21
 73
17
 74
0
 42
0.0000001
 43
0.0000001
 44
0.0000000001
 40
0.0
 40
0.0
 40
0.0
 40
0.0
 40
0.0481796451
 40
0.1261076566
 40
0.1829016478
 40
0.252907977
 40
0.3233269751
 40
0.3909942687
 40
0.4603847178
 40
0.5319808998
 40
0.6049590499
 40
0.6792591703
 40
0.7550999357
 40
0.8330313759
 40
0.914093936
 40
1.0
 40
1.0
 40
1.0
 40
1.0
 10
93.1432669542
 20
225.8621548129
 30
0.0
 10
93.1429764372
 20
225.8611468535
 30
0.0
 10
93.1389735553
 20
225.8643522752
 30
0.0
 10
93.1377588783
 20
225.8671224688
 30
0.0
 10
93.1330931718
 20
225.8687262998
 30
0.0
 10
93.1302462957
 20
225.8719450701
 30
0.0
 10
93.1268223966
 20
225.8749235118
 30
0.0
 10
93.1234074286
 20
225.8778802855
 30
0.0
 10
93.120217785
 20
225.8811225503
 30
0.0
 10
93.1171559136
 20
225.8846358637
 30
0.0
 10
93.1142264281
 20
225.8883986715
 30
0.0
 10
93.1115327845
 20
225.8924480986
 30
0.0
 10
93.1091674594
 20
225.8968233101
 30
0.0
 10
93.1072437193
 20
225.9015756243
 30
0.0
 10
93.1059336799
 20
225.906760332
 30
0.0
 10
93.1055762553
 20
225.9104006911
 30
0.0
 10
93.1055810321
 20
225.9122710744
 30
0.0
  0
SPLINE
  5
40F
100
AcDbEntity
  8
0
100
AcDbSpline
 62
7
  6
BYLAYER
 70
0
 71
3
 72
17
 73
13
 74
0
 42
0.0000001
 43
0.0000001
 44
0.0000000001
 40
0.0
 40
0.0
 40
0.0
 40
0.0
 40
0.0329628026
 40
0.106063237
 40
0.2160470591
 40
0.3512793846
 40
0.5002973013
 40
0.6497425249
 40
0.7855344091
 40
0.8942844125
 40
0.966962295
 40
1.0
 40
1.0
 40
1.0
 40
1.0
 10
93.1055810321
 20
225.9122710744
 30
0.0
 10
93.1056684408
 20
225.9464969787
 30
0.0
 10
93.2298380687
 20
226.0110405564
 30
0.0
 10
93.4259628121
 20
226.0631262232
 30
0.0
 10
93.7601129378
 20
226.131838729
 30
0.0
 10
94.1605688002
 20
226.1960896226
 30
0.0
 10
94.6068519202
 20
226.2624551466
 30
0.0
 10
95.0536987857
 20
226.3292242803
 30
0.0
 10
95.4538332299
 20
226.393275068
 30
0.0
 10
95.7869455722
 20
226.4620091022
 30
0.0
 10
95.9811590312
 20
226.5138171062
 30
0.0
 10
96.1056193457
 20
226.577978722
 30
0.0
 10
96.1054771953
 20
226.6122822161
 30
0.0
  0
SPLINE
  5
410
100
AcDbEntity
  8
0
100
AcDbSpline
 62
7
  6
BYLAYER
 70
0
 71
3
 72
16
 73
12
 74
0
 42
0.0000001
 43
0.0000001
 44
0.0000000001
 40
0.0
 40
0.0
 40
0.0
 40
0.0
 40
0.0351329585
 40
0.1137970938
 40
0.2321685568
 40
0.3779229211
 40
0.5372501761
 40
0.6933683048
 40
0.8308944546
 40
0.9362710555
 40
1.0
 40
1.0
 40
1.0
 40
1.0
 10
96.1054771953
 20
226.6122822161
 30
0.0
 10
96.1053289826
 20
226.6480486326
 30
0.0
 10
95.9729011855
 20
226.7139797048
 30
0.0
 10
95.7668333724
 20
226.7675420645
 30
0.0
 10
95.4132639251
 20
226.8385886643
 30
0.0
 10
94.9916393308
 20
226.9051460377
 30
0.0
 10
94.5257708261
 20
226.9739338853
 30
0.0
 10
94.0704226404
 20
227.0425352072
 30
0.0
 10
93.6686379933
 20
227.1091966974
 30
0.0
 10
93.3658665276
 20
227.1763850676
 30
0.0
 10
93.1972261849
 20
227.2264538458
 30
0.0
 10
93.1431837142
 20
227.262351452
 30
0.0
  0
SPLINE
  5
411
100
AcDbEntity
  8
0
100
AcDbSpline
 62
7
  6
BYLAYER
 70
0
 71
3
 72
17
 73
13
 74
0
 42
0.0000001
 43
0.0000001
 44
0.0000000001
 40
0.0
 40
0.0
 40
0.0
 40
0.0
 40
0.0323831325
 40
0.1050599778
 40
0.215397598
 40
0.3520066173
 40
0.5023103882
 40
0.6522807328
 40
0.7881942792
 40
0.8970122162
 40
0.9681451574
 40
1.0
 40
1.0
 40
1.0
 40
1.0
 10
93.1055886766
 20
227.3123212632
 30
0.0
 10
93.1056077352
 20
227.345949231
 30
0.0
 10
93.2279168243
 20
227.4106470644
 30
0.0
 10
93.4238131009
 20
227.4623445054
 30
0.0
 10
93.7591405721
 20
227.5319937592
 30
0.0
 10
94.1628249116
 20
227.5961883908
 30
0.0
 10
94.6123836433
 20
227.6634444773
 30
0.0
 10
95.0612367849
 20
227.7303546059
 30
0.0
 10
95.46234763
 20
227.7945093619
 30
0.0
 10
95.7933614085
 20
227.8640457316
 30
0.0
 10
95.9864808276
 20
227.9148901697
 30
0.0
 10
96.1055112712
 20
227.9792960528
 30
0.0
 10
96.1054847666
 20
228.0123754175
 30
0.0
  0
SPLINE
  5
412
100
AcDbEntity
  8
0
100
AcDbSpline
 62
7
  6
BYLAYER
 70
0
 71
3
 72
38
 73
34
 74
0
 42
0.0000001
 43
0.0000001
 44
0.0000000001
 40
0.0
 40
0.0
 40
0.0
 40
0.0
 40
0.0391984716
 40
0.0860466628
 40
0.1307333973
 40
0.1686082877
 40
0.1967764496
 40
0.2125813719
 40
0.2244173959
 40
0.2481836864
 40
0.2819161467
 40
0.3251663287
 40
0.3724310091
 40
0.4143807384
 40
0.4484908258
 40
0.4705850533
 40
0.4817234747
 40
0.4986653459
 40
0.5281923472
 40
0.5668237344
 40
0.6121463226
 40
0.6575900234
 40
0.6961370051
 40
0.7250621642
 40
0.7409213761
 40
0.7533292455
 40
0.7774068241
 40
0.8118738976
 40
0.8580206167
 40
0.9049392912
 40
0.9461467292
 40
0.9791532179
 40
1.0
 40
1.0
 40
1.0
 40
1.0
 10
94.0128427841
 20
223.4624323058
 30
0.0
 10
94.1053793002
 20
223.4927522207
 30
0.0
 10
94.3112225108
 20
223.550341158
 30
0.0
 10
94.6268458615
 20
223.6298942798
 30
0.0
 10
94.9368110176
 20
223.7048094345
 30
0.0
 10
95.2084707825
 20
223.7834449232
 30
0.0
 10
95.3813677597
 20
223.8519460802
 30
0.0
 10
95.5305877226
 20
223.9419657996
 30
0.0
 10
95.4513228983
 20
224.0758389593
 30
0.0
 10
95.2869712523
 20
224.1293970158
 30
0.0
 10
95.0511298138
 20
224.2126989855
 30
0.0
 10
94.7510690404
 20
224.2874401009
 30
0.0
 10
94.432736341
 20
224.3674330657
 30
0.0
 10
94.1325553732
 20
224.4394231529
 30
0.0
 10
93.9093854587
 20
224.5262941236
 30
0.0
 10
93.7407441282
 20
224.579883082
 30
0.0
 10
93.6891165653
 20
224.7198987528
 30
0.0
 10
93.8454466696
 20
224.8005557508
 30
0.0
 10
94.0267535531
 20
224.8722806
 30
0.0
 10
94.3054400135
 20
224.9486144804
 30
0.0
 10
94.6154614685
 20
225.0269624871
 30
0.0
 10
94.9257712154
 20
225.1019923205
 30
0.0
 10
95.2029106797
 20
225.181632092
 30
0.0
 10
95.3789158433
 20
225.2504638375
 30
0.0
 10
95.5322375191
 20
225.3427481087
 30
0.0
 10
95.447210142
 20
225.4782798953
 30
0.0
 10
95.2802164238
 20
225.531854408
 30
0.0
 10
95.0341759855
 20
225.6178217832
 30
0.0
 10
94.726370189
 20
225.6938375489
 30
0.0
 10
94.4029398097
 20
225.7737421089
 30
0.0
 10
94.1103443
 20
225.8488027988
 30
0.0
 10
93.8896016282
 20
225.9262005349
 30
0.0
 10
93.7644095735
 20
225.985470046
 30
0.0
 10
93.7289072241
 20
226.0231735158
 30
0.0
  0
SPLINE
  5
413
100
AcDbEntity
  8
0
100
AcDbSpline
 62
7
  6
BYLAYER
 70
0
 71
3
 72
51
 73
47
 74
0
 42
0.0000001
 43
0.0000001
 44
0.0000000001
 40
0.0
 40
0.0
 40
0.0
 40
0.0
 40
0.0154811687
 40
0.0400110298
 40
0.0701558842
 40
0.1040538752
 40
0.1382944997
 40
0.1643187854
 40
0.181799999
 40
0.1904162388
 40
0.2023934102
 40
0.223866956
 40
0.2521538514
 40
0.2850730674
 40
0.3187992011
 40
0.3472546769
 40
0.3687499815
 40
0.3806508117
 40
0.3891567711
 40
0.406155257
 40
0.4312483829
 40
0.4616584719
 40
0.495250867
 40
0.5267763988
 40
0.5521463841
 40
0.5693021832
 40
0.5778491754
 40
0.5897438295
 40
0.6108146001
 40
0.6388160666
 40
0.6711579737
 40
0.7047917794
 40
0.7337061978
 40
0.7557348333
 40
0.767988193
 40
0.7764418448
 40
0.7932804281
 40
0.8179679382
 40
0.8491593697
 40
0.8834973027
 40
0.9142887193
 40
0.9405837142
 40
0.9573638733
 40
0.9658535913
 40
0.9785536641
 40
1.0
 40
1.0
 40
1.0
 40
1.0
 10
93.7289062768
 20
227.1015430284
 30
0.0
 10
93.7645471499
 20
227.0630928892
 30
0.0
 10
93.8907576293
 20
227.0015912128
 30
0.0
 10
94.1140803495
 20
226.9271380234
 30
0.0
 10
94.4052200948
 20
226.8506692838
 30
0.0
 10
94.7272781824
 20
226.7692044206
 30
0.0
 10
95.039111372
 20
226.6965017456
 30
0.0
 10
95.2846660358
 20
226.6062425196
 30
0.0
 10
95.4568821508
 20
226.5520969132
 30
0.0
 10
95.5278384769
 20
226.4128172094
 30
0.0
 10
95.3726460622
 20
226.3257402403
 30
0.0
 10
95.1943425246
 20
226.2559783215
 30
0.0
 10
94.9172701739
 20
226.1790695058
 30
0.0
 10
94.6073930178
 20
226.1006899943
 30
0.0
 10
94.2964352159
 20
226.0246398787
 30
0.0
 10
94.0158264029
 20
225.9469825233
 30
0.0
 10
93.8380775145
 20
225.8749886007
 30
0.0
 10
93.6834526371
 20
225.7886896921
 30
0.0
 10
93.7524287901
 20
225.6515878135
 30
0.0
 10
93.9193166173
 20
225.5979215273
 30
0.0
 10
94.1485591387
 20
225.5147451276
 30
0.0
 10
94.4425183573
 20
225.4420916911
 30
0.0
 10
94.7554399575
 20
225.3624494046
 30
0.0
 10
95.0547679768
 20
225.291701393
 30
0.0
 10
95.288477933
 20
225.2045117734
 30
0.0
 10
95.4566757492
 20
225.1514046292
 30
0.0
 10
95.5282293331
 20
225.0148055663
 30
0.0
 10
95.3761310782
 20
224.9268134966
 30
0.0
 10
95.1997763306
 20
224.8580778461
 30
0.0
 10
94.9272361947
 20
224.7815343424
 30
0.0
 10
94.620475226
 20
224.7038123512
 30
0.0
 10
94.3101108423
 20
224.6282856953
 30
0.0
 10
94.0262795495
 20
224.5504687912
 30
0.0
 10
93.8446762093
 20
224.4770335456
 30
0.0
 10
93.6849542169
 20
224.3933950453
 30
0.0
 10
93.7482981919
 20
224.2534081773
 30
0.0
 10
93.9150253196
 20
224.1997818174
 30
0.0
 10
94.1437864354
 20
224.115846358
 30
0.0
 10
94.4418879996
 20
224.0421409803
 30
0.0
 10
94.7570791459
 20
223.9621769893
 30
0.0
 10
95.0603810446
 20
223.8904823053
 30
0.0
 10
95.2905083004
 20
223.802079529
 30
0.0
 10
95.4653482497
 20
223.7485039927
 30
0.0
 10
95.5244959176
 20
223.6052537154
 30
0.0
 10
95.3639136898
 20
223.5234324846
 30
0.0
 10
95.2683899077
 20
223.4850859762
 30
0.0
 10
95.1994088797
 20
223.4623564191
 30
0.0
  0
SPLINE
  5
414
100
AcDbEntity
  8
0
100
AcDbSpline
 62
7
  6
BYLAYER
 70
0
 71
3
 72
17
 73
13
 74
0
 42
0.0000001
 43
0.0000001
 44
0.0000000001
 40
0.0
 40
0.0
 40
0.0
 40
0.0
 40
0.0333059358
 40
0.0920050708
 40
0.1867352043
 40
0.3096564639
 40
0.4493256321
 40
0.5976239651
 40
0.7418285152
 40
0.8622762405
 40
0.9512106471
 40
1.0
 40
1.0
 40
1.0
 40
1.0
 10
95.5972359316
 20
223.6764957779
 30
0.0
 10
95.608224199
 20
223.7021395434
 30
0.0
 10
95.5738171354
 20
223.7897116394
 30
0.0
 10
95.4254054119
 20
223.8507652575
 30
0.0
 10
95.2099306909
 20
223.9304434752
 30
0.0
 10
94.9180888188
 20
224.0022348034
 30
0.0
 10
94.5826713389
 20
224.0773511068
 30
0.0
 10
94.2279223278
 20
224.1517142521
 30
0.0
 10
93.8912833627
 20
224.225995402
 30
0.0
 10
93.6009117706
 20
224.2998642217
 30
0.0
 10
93.4034210319
 20
224.3682986728
 30
0.0
 10
93.29111877
 20
224.4293862572
 30
0.0
 10
93.275023678
 20
224.4669520366
 30
0.0
  0
SPLINE
  5
415
100
AcDbEntity
  8
0
100
AcDbSpline
 62
7
  6
BYLAYER
 70
0
 71
3
 72
10
 73
6
 74
0
 42
0.0000001
 43
0.0000001
 44
0.0000000001
 40
0.0
 40
0.0
 40
0.0
 40
0.0
 40
0.2079621421
 40
0.5525843441
 40
1.0
 40
1.0
 40
1.0
 40
1.0
 10
95.5972359316
 20
223.6764957779
 30
0.0
 10
95.5847355999
 20
223.6473232463
 30
0.0
 10
95.515630807
 20
223.5900672311
 30
0.0
 10
95.3792158154
 20
223.5257165641
 30
0.0
 10
95.2648808025
 20
223.4841884173
 30
0.0
 10
95.2001809482
 20
223.4623632385
 30
0.0
  0
SPLINE
  5
416
100
AcDbEntity
  8
0
100
AcDbSpline
 62
7
  6
BYLAYER
 70
0
 71
3
 72
12
 73
8
 74
0
 42
0.0000001
 43
0.0000001
 44
0.0000000001
 40
0.0
 40
0.0
 40
0.0
 40
0.0
 40
0.3181196809
 40
0.5925930224
 40
0.8066465073
 40
0.9399892442
 40
1.0
 40
1.0
 40
1.0
 40
1.0
 10
94.6056035002
 20
224.8622281321
 30
0.0
 10
94.4564149777
 20
224.8371820698
 30
0.0
 10
94.1787570266
 20
224.7884927295
 30
0.0
 10
93.8016672407
 20
224.7200572865
 30
0.0
 10
93.5161690776
 20
224.6342626319
 30
0.0
 10
93.3316542344
 20
224.590120409
 30
0.0
 10
93.2637850438
 20
224.4931828936
 30
0.0
 10
93.2750236775
 20
224.4669520378
 30
0.0
  0
SPLINE
  5
417
100
AcDbEntity
  8
0
100
AcDbSpline
 62
7
  6
BYLAYER
 70
0
 71
3
 72
14
 73
10
 74
0
 42
0.0000001
 43
0.0000001
 44
0.0000000001
 40
0.0
 40
0.0
 40
0.0
 40
0.0
 40
0.1389990532
 40
0.317568347
 40
0.5002896038
 40
0.677272142
 40
0.8290755631
 40
0.9375173265
 40
1.0
 40
1.0
 40
1.0
 40
1.0
 10
94.0123924221
 20
223.4623632385
 30
0.0
 10
94.0900519941
 20
223.4873251203
 30
0.0
 10
94.2704993441
 20
223.5347676164
 30
0.0
 10
94.5572320796
 20
223.5974151102
 30
0.0
 10
94.8673038479
 20
223.6596272375
 30
0.0
 10
95.1598476258
 20
223.721344372
 30
0.0
 10
95.4130685054
 20
223.7809879068
 30
0.0
 10
95.5856718305
 20
223.8383012449
 30
0.0
 10
95.6873981811
 20
223.8868265488
 30
0.0
 10
95.7018379132
 20
223.9205321789
 30
0.0
  0
SPLINE
  5
418
100
AcDbEntity
  8
0
100
AcDbSpline
 62
7
  6
BYLAYER
 70
0
 71
3
 72
17
 73
13
 74
0
 42
0.0000001
 43
0.0000001
 44
0.0000000001
 40
0.0
 40
0.0
 40
0.0
 40
0.0
 40
0.0270665192
 40
0.0859420648
 40
0.1802984898
 40
0.3029687572
 40
0.4450183624
 40
0.6004502814
 40
0.7496894434
 40
0.8719388563
 40
0.9580559915
 40
1.0
 40
1.0
 40
1.0
 40
1.0
 10
95.7018379132
 20
223.9205321789
 30
0.0
 10
95.7110054701
 20
223.9419313489
 30
0.0
 10
95.6515637208
 20
224.0180840143
 30
0.0
 10
95.5063924359
 20
224.052174551
 30
0.0
 10
95.2752396763
 20
224.1189151312
 30
0.0
 10
94.9720598131
 20
224.1731595584
 30
0.0
 10
94.6155504952
 20
224.2333149115
 30
0.0
 10
94.2355740556
 20
224.2934298714
 30
0.0
 10
93.875345447
 20
224.3541055431
 30
0.0
 10
93.5679123834
 20
224.412830989
 30
0.0
 10
93.3716054952
 20
224.4692855504
 30
0.0
 10
93.2544052196
 20
224.5150367305
 30
0.0
 10
93.2401988456
 20
224.5481983631
 30
0.0
  0
SPLINE
  5
419
100
AcDbEntity
  8
0
100
AcDbSpline
 62
7
  6
BYLAYER
 70
0
 71
3
 72
12
 73
8
 74
0
 42
0.0000001
 43
0.0000001
 44
0.0000000001
 40
0.0
 40
0.0
 40
0.0
 40
0.0
 40
0.0549994313
 40
0.1910309217
 40
0.4052218151
 40
0.6788441244
 40
1.0
 40
1.0
 40
1.0
 40
1.0
 10
93.2401988475
 20
224.5481983589
 30
0.0
 10
93.2299057869
 20
224.5722252283
 30
0.0
 10
93.3269938074
 20
224.6527948904
 30
0.0
 10
93.4975376441
 20
224.6786801408
 30
0.0
 10
93.796370042
 20
224.7501915817
 30
0.0
 10
94.1733533945
 20
224.8025071128
 30
0.0
 10
94.4543240761
 20
224.8419588834
 30
0.0
 10
94.6056035002
 20
224.8622281321
 30
0.0
  0
SPLINE
  5
41A
100
AcDbEntity
  8
0
100
AcDbSpline
 62
7
  6
BYLAYER
 70
0
 71
3
 72
12
 73
8
 74
0
 42
0.0000001
 43
0.0000001
 44
0.0000000001
 40
0.0
 40
0.0
 40
0.0
 40
0.0
 40
0.3049451894
 40
0.5750594183
 40
0.7925170652
 40
0.9358982675
 40
1.0
 40
1.0
 40
1.0
 40
1.0
 10
94.6056187783
 20
224.8621351566
 30
0.0
 10
94.7622172738
 20
224.885467048
 30
0.0
 10
95.0584267646
 20
224.9300664016
 30
0.0
 10
95.4611484073
 20
224.993900767
 30
0.0
 10
95.7915341334
 20
225.0634720249
 30
0.0
 10
95.985581787
 20
225.1145677922
 30
0.0
 10
96.1051101718
 20
225.178991904
 30
0.0
 10
96.1054787478
 20
225.2122713865
 30
0.0
  0
SPLINE
  5
41B
100
AcDbEntity
  8
0
100
AcDbSpline
 62
7
  6
BYLAYER
 70
0
 71
3
 72
16
 73
12
 74
0
 42
0.0000001
 43
0.0000001
 44
0.0000000001
 40
0.0
 40
0.0
 40
0.0
 40
0.0
 40
0.0353857343
 40
0.1140952282
 40
0.2314512071
 40
0.3786040561
 40
0.5381636753
 40
0.6941395518
 40
0.8327130674
 40
0.9374718647
 40
1.0
 40
1.0
 40
1.0
 40
1.0
 10
96.1054787478
 20
225.2122713865
 30
0.0
 10
96.1058776779
 20
225.2482915873
 30
0.0
 10
95.9713152216
 20
225.3137411643
 30
0.0
 10
95.7672154781
 20
225.3674853706
 30
0.0
 10
95.4127211962
 20
225.438750759
 30
0.0
 10
94.9906524664
 20
225.5048062061
 30
0.0
 10
94.5233453205
 20
225.5745209623
 30
0.0
 10
94.0667622732
 20
225.6425509591
 30
0.0
 10
93.6648630955
 20
225.7100122756
 30
0.0
 10
93.3627298202
 20
225.7768042361
 30
0.0
 10
93.1962559251
 20
225.8271110055
 30
0.0
 10
93.1432094744
 20
225.862293387
 30
0.0
  0
SPLINE
  5
41C
100
AcDbEntity
  8
0
100
AcDbSpline
 62
7
  6
BYLAYER
 70
0
 71
3
 72
10
 73
6
 74
0
 42
0.0000001
 43
0.0000001
 44
0.0000000001
 40
0.0
 40
0.0
 40
0.0
 40
0.0
 40
0.3457648406
 40
0.706356069
 40
1.0
 40
1.0
 40
1.0
 40
1.0
 10
97.2743012678
 20
259.9624002997
 30
0.0
 10
97.1587629244
 20
260.0981578348
 30
0.0
 10
96.8840705671
 20
260.2916283187
 30
0.0
 10
96.4461604621
 20
260.4591837371
 30
0.0
 10
96.1417382002
 20
260.5299184089
 30
0.0
 10
96.0022902852
 20
260.5555658367
 30
0.0
  0
SPLINE
  5
41D
100
AcDbEntity
  8
0
100
AcDbSpline
 62
7
  6
BYLAYER
 70
0
 71
3
 72
10
 73
6
 74
0
 42
0.0000001
 43
0.0000001
 44
0.0000000001
 40
0.0
 40
0.0
 40
0.0
 40
0.0
 40
0.3457648406
 40
0.706356069
 40
1.0
 40
1.0
 40
1.0
 40
1.0
 10
91.9367737433
 20
259.9624002997
 30
0.0
 10
92.0523120867
 20
260.0981578348
 30
0.0
 10
92.327004444
 20
260.2916283187
 30
0.0
 10
92.764914549
 20
260.4591837371
 30
0.0
 10
93.0693368109
 20
260.5299184089
 30
0.0
 10
93.2087847259
 20
260.5555658367
 30
0.0
  0
SPLINE
  5
41E
100
AcDbEntity
  8
0
100
AcDbSpline
 62
7
  6
BYLAYER
 70
0
 71
3
 72
10
 73
6
 74
0
 42
0.0000001
 43
0.0000001
 44
0.0000000001
 40
0.0
 40
0.0
 40
0.0
 40
0.0
 40
0.3537805366
 40
0.6876356044
 40
1.0
 40
1.0
 40
1.0
 40
1.0
 10
109.225539296
 20
259.7623705137
 30
0.0
 10
109.2246723811
 20
259.6815966519
 30
0.0
 10
109.2229749914
 20
259.5245983692
 30
0.0
 10
109.2204187433
 20
259.2962832227
 30
0.0
 10
109.2186614144
 20
259.1487427369
 30
0.0
 10
109.2177806952
 20
259.0774261856
 30
0.0
  0
SPLINE
  5
41F
100
AcDbEntity
  8
0
100
AcDbSpline
 62
7
  6
BYLAYER
 70
0
 71
3
 72
10
 73
6
 74
0
 42
0.0000001
 43
0.0000001
 44
0.0000000001
 40
0.0
 40
0.0
 40
0.0
 40
0.0
 40
0.3113372978
 40
0.6452601797
 40
1.0
 40
1.0
 40
1.0
 40
1.0
 10
109.9900857188
 20
259.0774077351
 30
0.0
 10
109.9893127607
 20
259.14849174
 30
0.0
 10
109.9877655981
 20
259.2958170522
 30
0.0
 10
109.9855098078
 20
259.5241377221
 30
0.0
 10
109.9840077156
 20
259.6813741468
 30
0.0
 10
109.983239937
 20
259.7623688914
 30
0.0
  0
LINE
  5
420
100
AcDbEntity
  8
0
100
AcDbLine
 62
7
  6
BYLAYER
 10
109.2189000137
 20
259.7623625196
 11
109.2172182795
 21
259.0659690509
  0
LINE
  5
421
100
AcDbEntity
  8
0
100
AcDbLine
 62
7
  6
BYLAYER
 10
108.9401722323
 20
260.5123636018
 11
109.0896124019
 21
259.2158677057
  0
SPLINE
  5
422
100
AcDbEntity
  8
0
100
AcDbSpline
 62
7
  6
BYLAYER
 70
0
 71
3
 72
10
 73
6
 74
0
 42
0.0000001
 43
0.0000001
 44
0.0000000001
 40
0.0
 40
0.0
 40
0.0
 40
0.0
 40
0.3344429193
 40
0.6660152093
 40
1.0
 40
1.0
 40
1.0
 40
1.0
 10
109.0896124019
 20
259.2158677057
 30
0.0
 10
109.0993456781
 20
259.2002100818
 30
0.0
 10
109.1189245303
 20
259.1691535712
 30
0.0
 10
109.1485161965
 20
259.1226333331
 30
0.0
 10
109.1695083166
 20
259.092535151
 30
0.0
 10
109.1798072432
 20
259.0772741091
 30
0.0
  0
SPLINE
  5
423
100
AcDbEntity
  8
0
100
AcDbSpline
 62
7
  6
BYLAYER
 70
0
 71
3
 72
10
 73
6
 74
0
 42
0.0000001
 43
0.0000001
 44
0.0000000001
 40
0.0
 40
0.0
 40
0.0
 40
0.0
 40
0.360218498
 40
0.6930796982
 40
1.0
 40
1.0
 40
1.0
 40
1.0
 10
108.2585108431
 20
260.555544636
 30
0.0
 10
108.3518884142
 20
260.3758549413
 30
0.0
 10
108.532603853
 20
260.0306557089
 30
0.0
 10
108.799349322
 20
259.5358142908
 30
0.0
 10
108.9787575661
 20
259.2238946879
 30
0.0
 10
109.0699166358
 20
259.0774007894
 30
0.0
  0
SPLINE
  5
424
100
AcDbEntity
  8
0
100
AcDbSpline
 62
7
  6
BYLAYER
 70
0
 71
3
 72
10
 73
6
 74
0
 42
0.0000001
 43
0.0000001
 44
0.0000000001
 40
0.0
 40
0.0
 40
0.0
 40
0.0
 40
0.3040864747
 40
0.6372619965
 40
1.0
 40
1.0
 40
1.0
 40
1.0
 10
109.0713022673
 20
259.0774300524
 30
0.0
 10
108.98065746
 20
259.2224441026
 30
0.0
 10
108.8015103164
 20
259.5330444154
 30
0.0
 10
108.5342931814
 20
260.0278745077
 30
0.0
 10
108.3526478303
 20
260.374554847
 30
0.0
 10
108.2585315332
 20
260.555544636
 30
0.0
  0
SPLINE
  5
425
100
AcDbEntity
  8
0
100
AcDbSpline
 62
7
  6
BYLAYER
 70
0
 71
3
 72
10
 73
6
 74
0
 42
0.0000001
 43
0.0000001
 44
0.0000000001
 40
0.0
 40
0.0
 40
0.0
 40
0.0
 40
0.3491183522
 40
0.6819546838
 40
1.0
 40
1.0
 40
1.0
 40
1.0
 10
108.2585108431
 20
260.555544636
 30
0.0
 10
108.3334610513
 20
260.5687672352
 30
0.0
 10
108.4804866851
 20
260.5911699666
 30
0.0
 10
108.6971450599
 20
260.615645047
 30
0.0
 10
108.8385730519
 20
260.6273410833
 30
0.0
 10
108.9077321299
 20
260.6322590822
 30
0.0
  0
SPLINE
  5
426
100
AcDbEntity
  8
0
100
AcDbSpline
 62
7
  6
BYLAYER
 70
0
 71
3
 72
10
 73
6
 74
0
 42
0.0000001
 43
0.0000001
 44
0.0000000001
 40
0.0
 40
0.0
 40
0.0
 40
0.0
 40
0.3404877747
 40
0.6741133953
 40
1.0
 40
1.0
 40
1.0
 40
1.0
 10
108.9077321299
 20
260.6322590822
 30
0.0
 10
108.929608574
 20
260.4544094684
 30
0.0
 10
108.9728964323
 20
260.1022916562
 30
0.0
 10
109.0371555734
 20
259.5799549106
 30
0.0
 10
109.0788782484
 20
259.2353870195
 30
0.0
 10
109.0998168734
 20
259.065164186
 30
0.0
  0
SPLINE
  5
427
100
AcDbEntity
  8
0
100
AcDbSpline
 62
7
  6
BYLAYER
 70
0
 71
3
 72
10
 73
6
 74
0
 42
0.0000001
 43
0.0000001
 44
0.0000000001
 40
0.0
 40
0.0
 40
0.0
 40
0.0
 40
0.3063984134
 40
0.6398337938
 40
1.0
 40
1.0
 40
1.0
 40
1.0
 10
108.9076910461
 20
260.6322543968
 30
0.0
 10
108.9086840273
 20
260.6316750371
 30
0.0
 10
108.9107511108
 20
260.6304532846
 30
0.0
 10
108.9138970646
 20
260.6284062745
 30
0.0
 10
108.9160259097
 20
260.6269087352
 30
0.0
 10
108.9171244507
 20
260.6261216908
 30
0.0
  0
SPLINE
  5
428
100
AcDbEntity
  8
0
100
AcDbSpline
 62
7
  6
BYLAYER
 70
0
 71
3
 72
10
 73
6
 74
0
 42
0.0000001
 43
0.0000001
 44
0.0000000001
 40
0.0
 40
0.0
 40
0.0
 40
0.0
 40
0.3381137102
 40
0.67062841
 40
1.0
 40
1.0
 40
1.0
 40
1.0
 10
109.0897338231
 20
259.2155827784
 30
0.0
 10
109.091034464
 20
259.1999970097
 30
0.0
 10
109.0935504459
 20
259.1690789163
 30
0.0
 10
109.0977282223
 20
259.1230073401
 30
0.0
 10
109.0993126596
 20
259.0924238545
 30
0.0
 10
109.1005767751
 20
259.0772408233
 30
0.0
  0
SPLINE
  5
429
100
AcDbEntity
  8
0
100
AcDbSpline
 62
7
  6
BYLAYER
 70
0
 71
3
 72
10
 73
6
 74
0
 42
0.0000001
 43
0.0000001
 44
0.0000000001
 40
0.0
 40
0.0
 40
0.0
 40
0.0
 40
0.3551583601
 40
0.6882732076
 40
1.0
 40
1.0
 40
1.0
 40
1.0
 10
108.9171128518
 20
260.6261098957
 30
0.0
 10
108.8737126528
 20
260.6201179169
 30
0.0
 10
108.7898480974
 20
260.6066319269
 30
0.0
 10
108.6692210131
 20
260.580411483
 30
0.0
 10
108.5929342437
 20
260.5575231221
 30
0.0
 10
108.5565680331
 20
260.5450240914
 30
0.0
  0
SPLINE
  5
42A
100
AcDbEntity
  8
0
100
AcDbSpline
 62
7
  6
BYLAYER
 70
0
 71
3
 72
10
 73
6
 74
0
 42
0.0000001
 43
0.0000001
 44
0.0000000001
 40
0.0
 40
0.0
 40
0.0
 40
0.0
 40
0.3341633782
 40
0.6658366277
 40
1.0
 40
1.0
 40
1.0
 40
1.0
 10
108.5566794129
 20
260.5451563105
 30
0.0
 10
108.5618044386
 20
260.5451882385
 30
0.0
 10
108.5720101302
 20
260.5446741601
 30
0.0
 10
108.5873520687
 20
260.5446741605
 30
0.0
 10
108.5975577603
 20
260.5451882371
 30
0.0
 10
108.6026827859
 20
260.5451563091
 30
0.0
  0
LINE
  5
42B
100
AcDbEntity
  8
0
100
AcDbLine
 62
7
  6
BYLAYER
 10
108.6026827859
 20
260.5451563091
 11
108.5796812121
 21
260.5123632385
  0
LINE
  5
42C
100
AcDbEntity
  8
0
100
AcDbLine
 62
7
  6
BYLAYER
 10
108.5796812121
 20
260.5123632385
 11
108.5566794129
 21
260.5451563105
  0
SPLINE
  5
42D
100
AcDbEntity
  8
0
100
AcDbSpline
 62
7
  6
BYLAYER
 70
0
 71
3
 72
10
 73
6
 74
0
 42
0.0000001
 43
0.0000001
 44
0.0000000001
 40
0.0
 40
0.0
 40
0.0
 40
0.0
 40
0.3336694298
 40
0.6661902959
 40
1.0
 40
1.0
 40
1.0
 40
1.0
 10
108.6027583967
 20
260.5450240889
 30
0.0
 10
108.6550240797
 20
260.5571120917
 30
0.0
 10
108.7598329355
 20
260.5793493043
 30
0.0
 10
108.9184321529
 20
260.6059432059
 30
0.0
 10
109.0246635399
 20
260.6199511353
 30
0.0
 10
109.0779769351
 20
260.6261093415
 30
0.0
  0
SPLINE
  5
42E
100
AcDbEntity
  8
0
100
AcDbSpline
 62
7
  6
BYLAYER
 70
0
 71
3
 72
10
 73
6
 74
0
 42
0.0000001
 43
0.0000001
 44
0.0000000001
 40
0.0
 40
0.0
 40
0.0
 40
0.0
 40
0.3341437247
 40
0.6655544988
 40
1.0
 40
1.0
 40
1.0
 40
1.0
 10
109.1798492273
 20
259.0772329736
 30
0.0
 10
109.1695606425
 20
259.0924784643
 30
0.0
 10
109.1485213786
 20
259.1224782756
 30
0.0
 10
109.1190028967
 20
259.1689491342
 30
0.0
 10
109.0994526854
 20
259.1999483618
 30
0.0
 10
109.0897338231
 20
259.2155827784
 30
0.0
  0
LINE
  5
42F
100
AcDbEntity
  8
0
100
AcDbLine
 62
7
  6
BYLAYER
 10
109.0897338231
 20
259.2155827784
 11
108.940268131
 21
260.5123655758
  0
SPLINE
  5
430
100
AcDbEntity
  8
0
100
AcDbSpline
 62
7
  6
BYLAYER
 70
0
 71
3
 72
10
 73
6
 74
0
 42
0.0000001
 43
0.0000001
 44
0.0000000001
 40
0.0
 40
0.0
 40
0.0
 40
0.0
 40
0.3532635537
 40
0.6870685269
 40
1.0
 40
1.0
 40
1.0
 40
1.0
 10
109.9821641606
 20
259.7623682573
 30
0.0
 10
109.9828241283
 20
259.6817072569
 30
0.0
 10
109.9841181536
 20
259.5248283371
 30
0.0
 10
109.9860626491
 20
259.2964980251
 30
0.0
 10
109.9873995394
 20
259.1488291809
 30
0.0
 10
109.9880681791
 20
259.0773779794
 30
0.0
  0
SPLINE
  5
431
100
AcDbEntity
  8
0
100
AcDbSpline
 62
7
  6
BYLAYER
 70
0
 71
3
 72
10
 73
6
 74
0
 42
0.0000001
 43
0.0000001
 44
0.0000000001
 40
0.0
 40
0.0
 40
0.0
 40
0.0
 40
0.3113310238
 40
0.6452509311
 40
1.0
 40
1.0
 40
1.0
 40
1.0
 10
109.219843615
 20
259.0774012999
 30
0.0
 10
109.2206165979
 20
259.1484846427
 30
0.0
 10
109.2221644916
 20
259.2958094329
 30
0.0
 10
109.2244200102
 20
259.5241325816
 30
0.0
 10
109.225922206
 20
259.6813721429
 30
0.0
 10
109.2266900129
 20
259.7623698774
 30
0.0
  0
LINE
  5
432
100
AcDbEntity
  8
0
100
AcDbLine
 62
7
  6
BYLAYER
 10
109.9872544719
 20
259.7623613426
 11
109.98854143
 21
259.0646963411
  0
SPLINE
  5
433
100
AcDbEntity
  8
0
100
AcDbSpline
 62
7
  6
BYLAYER
 70
0
 71
3
 72
10
 73
6
 74
0
 42
0.0000001
 43
0.0000001
 44
0.0000000001
 40
0.0
 40
0.0
 40
0.0
 40
0.0
 40
0.3346652806
 40
0.6660657453
 40
1.0
 40
1.0
 40
1.0
 40
1.0
 10
110.120123092
 20
259.2153161878
 30
0.0
 10
110.1104175637
 20
259.199703161
 30
0.0
 10
110.0908991394
 20
259.1687580536
 30
0.0
 10
110.0614472511
 20
259.1223768712
 30
0.0
 10
110.0404540569
 20
259.0924500014
 30
0.0
 10
110.0301940537
 20
259.0772440365
 30
0.0
  0
SPLINE
  5
434
100
AcDbEntity
  8
0
100
AcDbSpline
 62
7
  6
BYLAYER
 70
0
 71
3
 72
10
 73
6
 74
0
 42
0.0000001
 43
0.0000001
 44
0.0000000001
 40
0.0
 40
0.0
 40
0.0
 40
0.0
 40
0.3337906878
 40
0.6663298565
 40
1.0
 40
1.0
 40
1.0
 40
1.0
 10
110.1319074124
 20
260.626118332
 30
0.0
 10
110.1852276944
 20
260.6199602997
 30
0.0
 10
110.2914783815
 20
260.6059489966
 30
0.0
 10
110.4501079265
 20
260.5793569052
 30
0.0
 10
110.5549389243
 20
260.5571140291
 30
0.0
 10
110.6072144133
 20
260.545024091
 30
0.0
  0
LINE
  5
435
100
AcDbEntity
  8
0
100
AcDbLine
 62
7
  6
BYLAYER
 10
110.6532915132
 20
260.5451563106
 11
110.6302904885
 21
260.5123632385
  0
LINE
  5
436
100
AcDbEntity
  8
0
100
AcDbLine
 62
7
  6
BYLAYER
 10
110.6302904885
 20
260.5123632385
 11
110.6072900189
 21
260.5451563103
  0
SPLINE
  5
437
100
AcDbEntity
  8
0
100
AcDbSpline
 62
7
  6
BYLAYER
 70
0
 71
3
 72
10
 73
6
 74
0
 42
0.0000001
 43
0.0000001
 44
0.0000000001
 40
0.0
 40
0.0
 40
0.0
 40
0.0
 40
0.3117332563
 40
0.6448195464
 40
1.0
 40
1.0
 40
1.0
 40
1.0
 10
110.6534028898
 20
260.5450240916
 30
0.0
 10
110.6170277117
 20
260.5575254447
 30
0.0
 10
110.5407260533
 20
260.5804154579
 30
0.0
 10
110.420072225
 20
260.6066404045
 30
0.0
 10
110.3361893299
 20
260.6201249158
 30
0.0
 10
110.2927767444
 20
260.6261174021
 30
0.0
  0
SPLINE
  5
438
100
AcDbEntity
  8
0
100
AcDbSpline
 62
7
  6
BYLAYER
 70
0
 71
3
 72
10
 73
6
 74
0
 42
0.0000001
 43
0.0000001
 44
0.0000000001
 40
0.0
 40
0.0
 40
0.0
 40
0.0
 40
0.3604898368
 40
0.6939271199
 40
1.0
 40
1.0
 40
1.0
 40
1.0
 10
110.2927652489
 20
260.6261293341
 30
0.0
 10
110.2938749565
 20
260.6269247244
 30
0.0
 10
110.2960245007
 20
260.6284375517
 30
0.0
 10
110.2992004857
 20
260.63050318
 30
0.0
 10
110.3012865338
 20
260.6317348482
 30
0.0
 10
110.3022882823
 20
260.6323181939
 30
0.0
  0
SPLINE
  5
439
100
AcDbEntity
  8
0
100
AcDbSpline
 62
7
  6
BYLAYER
 70
0
 71
3
 72
10
 73
6
 74
0
 42
0.0000001
 43
0.0000001
 44
0.0000000001
 40
0.0
 40
0.0
 40
0.0
 40
0.0
 40
0.3291148901
 40
0.6616165081
 40
1.0
 40
1.0
 40
1.0
 40
1.0
 10
110.1093334473
 20
259.077243979
 30
0.0
 10
110.1105945126
 20
259.0923853272
 30
0.0
 10
110.1121207416
 20
259.1229000085
 30
0.0
 10
110.1163167849
 20
259.1688791699
 30
0.0
 10
110.1188235652
 20
259.1997486715
 30
0.0
 10
110.120123092
 20
259.2153161878
 30
0.0
  0
LINE
  5
43A
100
AcDbEntity
  8
0
100
AcDbLine
 62
7
  6
BYLAYER
 10
110.120123092
 20
259.2153161878
 11
110.2696243172
 21
260.5123656796
  0
LINE
  5
43B
100
AcDbEntity
  8
0
100
AcDbLine
 62
7
  6
BYLAYER
 10
110.1093736964
 20
259.0636208294
 11
110.3022522048
 21
260.6323218762
  0
SPLINE
  5
43C
100
AcDbEntity
  8
0
100
AcDbSpline
 62
7
  6
BYLAYER
 70
0
 71
3
 72
10
 73
6
 74
0
 42
0.0000001
 43
0.0000001
 44
0.0000000001
 40
0.0
 40
0.0
 40
0.0
 40
0.0
 40
0.3247393578
 40
0.6571983155
 40
1.0
 40
1.0
 40
1.0
 40
1.0
 10
110.3022522048
 20
260.6323218762
 30
0.0
 10
110.3728669737
 20
260.6272941991
 30
0.0
 10
110.515665592
 20
260.6154374736
 30
0.0
 10
110.7323072637
 20
260.5907965488
 30
0.0
 10
110.8778770525
 20
260.5685365711
 30
0.0
 10
110.9514702013
 20
260.555544636
 30
0.0
  0
SPLINE
  5
43D
100
AcDbEntity
  8
0
100
AcDbSpline
 62
7
  6
BYLAYER
 70
0
 71
3
 72
10
 73
6
 74
0
 42
0.0000001
 43
0.0000001
 44
0.0000000001
 40
0.0
 40
0.0
 40
0.0
 40
0.0
 40
0.3045688695
 40
0.637749831
 40
1.0
 40
1.0
 40
1.0
 40
1.0
 10
110.1414622084
 20
259.0773777712
 30
0.0
 10
110.2315943104
 20
259.2228739817
 30
0.0
 10
110.410102529
 20
259.5338185161
 30
0.0
 10
110.6764996868
 20
260.0285992782
 30
0.0
 10
110.8576526942
 20
260.3748867633
 30
0.0
 10
110.9514702013
 20
260.555544636
 30
0.0
  0
SPLINE
  5
43E
100
AcDbEntity
  8
0
100
AcDbSpline
 62
7
  6
BYLAYER
 70
0
 71
3
 72
10
 73
6
 74
0
 42
0.0000001
 43
0.0000001
 44
0.0000000001
 40
0.0
 40
0.0
 40
0.0
 40
0.0
 40
0.3210962978
 40
0.6538915126
 40
1.0
 40
1.0
 40
1.0
 40
1.0
 10
110.1400138192
 20
259.0774008301
 30
0.0
 10
110.2353830797
 20
259.2306606686
 30
0.0
 10
110.4183334116
 20
259.549709427
 30
0.0
 10
110.6847081035
 20
260.0447412047
 30
0.0
 10
110.8616993738
 20
260.3828938853
 30
0.0
 10
110.951419087
 20
260.555544636
 30
0.0
  0
SPLINE
  5
43F
100
AcDbEntity
  8
0
100
AcDbSpline
 62
7
  6
BYLAYER
 70
0
 71
3
 72
10
 73
6
 74
0
 42
0.0000001
 43
0.0000001
 44
0.0000000001
 40
0.0
 40
0.0
 40
0.0
 40
0.0
 40
0.3491183467
 40
0.6819546817
 40
1.0
 40
1.0
 40
1.0
 40
1.0
 10
110.951419087
 20
260.555544636
 30
0.0
 10
110.8764688807
 20
260.5687672349
 30
0.0
 10
110.7294432489
 20
260.5911699673
 30
0.0
 10
110.512784876
 20
260.6156450469
 30
0.0
 10
110.3713568841
 20
260.6273410833
 30
0.0
 10
110.3021978063
 20
260.6322590822
 30
0.0
  0
SPLINE
  5
440
100
AcDbEntity
  8
0
100
AcDbSpline
 62
7
  6
BYLAYER
 70
0
 71
3
 72
10
 73
6
 74
0
 42
0.0000001
 43
0.0000001
 44
0.0000000001
 40
0.0
 40
0.0
 40
0.0
 40
0.0
 40
0.3404877747
 40
0.6741133953
 40
1.0
 40
1.0
 40
1.0
 40
1.0
 10
110.3021978063
 20
260.6322590822
 30
0.0
 10
110.2803213622
 20
260.4544094684
 30
0.0
 10
110.237033504
 20
260.1022916562
 30
0.0
 10
110.1727743629
 20
259.5799549106
 30
0.0
 10
110.1310516879
 20
259.2353870195
 30
0.0
 10
110.1101130629
 20
259.065164186
 30
0.0
  0
SPLINE
  5
441
100
AcDbEntity
  8
0
100
AcDbSpline
 62
7
  6
BYLAYER
 70
0
 71
3
 72
10
 73
6
 74
0
 42
0.0000001
 43
0.0000001
 44
0.0000000001
 40
0.0
 40
0.0
 40
0.0
 40
0.0
 40
0.3063984156
 40
0.6398337955
 40
1.0
 40
1.0
 40
1.0
 40
1.0
 10
110.3022388902
 20
260.6322543967
 30
0.0
 10
110.301245909
 20
260.6316750371
 30
0.0
 10
110.2991788256
 20
260.6304532846
 30
0.0
 10
110.2960328719
 20
260.6284062746
 30
0.0
 10
110.2939040268
 20
260.6269087356
 30
0.0
 10
110.2928054859
 20
260.6261216912
 30
0.0
  0
SPLINE
  5
442
100
AcDbEntity
  8
0
100
AcDbSpline
 62
7
  6
BYLAYER
 70
0
 71
3
 72
10
 73
6
 74
0
 42
0.0000001
 43
0.0000001
 44
0.0000000001
 40
0.0
 40
0.0
 40
0.0
 40
0.0
 40
0.3381137102
 40
0.67062841
 40
1.0
 40
1.0
 40
1.0
 40
1.0
 10
110.1201961132
 20
259.2155827784
 30
0.0
 10
110.1188954723
 20
259.1999970097
 30
0.0
 10
110.1163794904
 20
259.1690789163
 30
0.0
 10
110.112201714
 20
259.1230073401
 30
0.0
 10
110.1106172767
 20
259.0924238545
 30
0.0
 10
110.1093531612
 20
259.0772408233
 30
0.0
  0
SPLINE
  5
443
100
AcDbEntity
  8
0
100
AcDbSpline
 62
7
  6
BYLAYER
 70
0
 71
3
 72
10
 73
6
 74
0
 42
0.0000001
 43
0.0000001
 44
0.0000000001
 40
0.0
 40
0.0
 40
0.0
 40
0.0
 40
0.3551583631
 40
0.6882732087
 40
1.0
 40
1.0
 40
1.0
 40
1.0
 10
110.2928170839
 20
260.6261098968
 30
0.0
 10
110.3362172834
 20
260.620117918
 30
0.0
 10
110.4200818384
 20
260.606631924
 30
0.0
 10
110.5407089239
 20
260.5804114848
 30
0.0
 10
110.6169956927
 20
260.5575231221
 30
0.0
 10
110.6533619032
 20
260.5450240914
 30
0.0
  0
SPLINE
  5
444
100
AcDbEntity
  8
0
100
AcDbSpline
 62
7
  6
BYLAYER
 70
0
 71
3
 72
10
 73
6
 74
0
 42
0.0000001
 43
0.0000001
 44
0.0000000001
 40
0.0
 40
0.0
 40
0.0
 40
0.0
 40
0.3341633783
 40
0.6658366277
 40
1.0
 40
1.0
 40
1.0
 40
1.0
 10
110.6532505234
 20
260.5451563105
 30
0.0
 10
110.6481254977
 20
260.5451882385
 30
0.0
 10
110.6379198061
 20
260.5446741601
 30
0.0
 10
110.6225778676
 20
260.5446741604
 30
0.0
 10
110.612372176
 20
260.5451882371
 30
0.0
 10
110.6072471503
 20
260.5451563091
 30
0.0
  0
LINE
  5
445
100
AcDbEntity
  8
0
100
AcDbLine
 62
7
  6
BYLAYER
 10
110.6072471503
 20
260.5451563091
 11
110.6302487242
 21
260.5123632385
  0
LINE
  5
446
100
AcDbEntity
  8
0
100
AcDbLine
 62
7
  6
BYLAYER
 10
110.6302487242
 20
260.5123632385
 11
110.6532505234
 21
260.5451563105
  0
SPLINE
  5
447
100
AcDbEntity
  8
0
100
AcDbSpline
 62
7
  6
BYLAYER
 70
0
 71
3
 72
10
 73
6
 74
0
 42
0.0000001
 43
0.0000001
 44
0.0000000001
 40
0.0
 40
0.0
 40
0.0
 40
0.0
 40
0.3336725423
 40
0.6661939489
 40
1.0
 40
1.0
 40
1.0
 40
1.0
 10
110.6071715396
 20
260.5450240889
 30
0.0
 10
110.5549055148
 20
260.5571121708
 30
0.0
 10
110.4500963586
 20
260.579349315
 30
0.0
 10
110.2914976474
 20
260.6059436468
 30
0.0
 10
110.1852668667
 20
260.6199500594
 30
0.0
 10
110.1319542042
 20
260.6261081864
 30
0.0
  0
SPLINE
  5
448
100
AcDbEntity
  8
0
100
AcDbSpline
 62
7
  6
BYLAYER
 70
0
 71
3
 72
10
 73
6
 74
0
 42
0.0000001
 43
0.0000001
 44
0.0000000001
 40
0.0
 40
0.0
 40
0.0
 40
0.0
 40
0.3386679549
 40
0.6575853566
 40
1.0
 40
1.0
 40
1.0
 40
1.0
 10
109.9904397522
 20
259.064499409
 30
0.0
 10
109.9949188173
 20
259.0659124651
 30
0.0
 10
110.0035943978
 20
259.0687226741
 30
0.0
 10
110.0168023929
 20
259.0729528696
 30
0.0
 10
110.0254543404
 20
259.0759983267
 30
0.0
 10
110.0299561671
 20
259.0775093133
 30
0.0
  0
SPLINE
  5
449
100
AcDbEntity
  8
0
100
AcDbSpline
 62
7
  6
BYLAYER
 70
0
 71
3
 72
10
 73
6
 74
0
 42
0.0000001
 43
0.0000001
 44
0.0000000001
 40
0.0
 40
0.0
 40
0.0
 40
0.0
 40
0.3339659854
 40
0.6655300139
 40
1.0
 40
1.0
 40
1.0
 40
1.0
 10
110.0301962356
 20
259.0772609515
 30
0.0
 10
110.0404722342
 20
259.0924913077
 30
0.0
 10
110.0614093221
 20
259.1225354174
 30
0.0
 10
110.0909427706
 20
259.1689603762
 30
0.0
 10
110.1104817222
 20
259.1999555546
 30
0.0
 10
110.1201961132
 20
259.2155827784
 30
0.0
  0
LINE
  5
44A
100
AcDbEntity
  8
0
100
AcDbLine
 62
7
  6
BYLAYER
 10
110.1201961132
 20
259.2155827784
 11
110.2696618059
 21
260.5123656093
  0
LINE
  5
44B
100
AcDbEntity
  8
0
100
AcDbLine
 62
7
  6
BYLAYER
 10
109.9900857188
 20
259.0774077351
 11
109.9906213605
 21
259.0644376981
  0
LINE
  5
44C
100
AcDbEntity
  8
0
100
AcDbLine
 62
7
  6
BYLAYER
 10
109.9906213605
 20
259.0644376981
 11
109.9891207173
 21
259.7623619258
  0
SPLINE
  5
44D
100
AcDbEntity
  8
0
100
AcDbSpline
 62
7
  6
BYLAYER
 70
0
 71
3
 72
10
 73
6
 74
0
 42
0.0000001
 43
0.0000001
 44
0.0000000001
 40
0.0
 40
0.0
 40
0.0
 40
0.0
 40
0.3136366876
 40
0.6475796696
 40
1.0
 40
1.0
 40
1.0
 40
1.0
 10
110.1102068649
 20
259.0649446563
 30
0.0
 10
110.1101333023
 20
259.066269263
 30
0.0
 10
110.1088079008
 20
259.0688136216
 30
0.0
 10
110.1089671197
 20
259.0731193462
 30
0.0
 10
110.1091331484
 20
259.0760063644
 30
0.0
 10
110.1090555503
 20
259.0774950416
 30
0.0
  0
SPLINE
  5
44E
100
AcDbEntity
  8
0
100
AcDbSpline
 62
7
  6
BYLAYER
 70
0
 71
3
 72
10
 73
6
 74
0
 42
0.0000001
 43
0.0000001
 44
0.0000000001
 40
0.0
 40
0.0
 40
0.0
 40
0.0
 40
0.2964514582
 40
0.6536262088
 40
1.0
 40
1.0
 40
1.0
 40
1.0
 10
110.1090555503
 20
259.0774950416
 30
0.0
 10
110.1012386529
 20
259.0774950416
 30
0.0
 10
110.0840087802
 20
259.0780583091
 30
0.0
 10
110.0576369901
 20
259.0779504586
 30
0.0
 10
110.0390894276
 20
259.0775093133
 30
0.0
 10
110.0299561671
 20
259.0775093133
 30
0.0
  0
SPLINE
  5
44F
100
AcDbEntity
  8
0
100
AcDbSpline
 62
7
  6
BYLAYER
 70
0
 71
3
 72
10
 73
6
 74
0
 42
0.0000001
 43
0.0000001
 44
0.0000000001
 40
0.0
 40
0.0
 40
0.0
 40
0.0
 40
0.3082642362
 40
0.6499167904
 40
1.0
 40
1.0
 40
1.0
 40
1.0
 10
109.9902750794
 20
259.077528823
 30
0.0
 10
109.9506812039
 20
259.077528823
 30
0.0
 10
109.867205696
 20
259.0780199591
 30
0.0
 10
109.7387640397
 20
259.0778263785
 30
0.0
 10
109.6499166337
 20
259.077868369
 30
0.0
 10
109.6049514727
 20
259.077868369
 30
0.0
  0
SPLINE
  5
450
100
AcDbEntity
  8
0
100
AcDbSpline
 62
7
  6
BYLAYER
 70
0
 71
3
 72
10
 73
6
 74
0
 42
0.0000001
 43
0.0000001
 44
0.0000000001
 40
0.0
 40
0.0
 40
0.0
 40
0.0
 40
0.3510057668
 40
0.6902814381
 40
1.0
 40
1.0
 40
1.0
 40
1.0
 10
109.6049784636
 20
259.077868369
 30
0.0
 10
109.6498262566
 20
259.077868369
 30
0.0
 10
109.7380230139
 20
259.0778245582
 30
0.0
 10
109.8657927506
 20
259.078028517
 30
0.0
 10
109.9487135639
 20
259.0775040029
 30
0.0
 10
109.9882861159
 20
259.0775040029
 30
0.0
  0
LINE
  5
451
100
AcDbEntity
  8
0
100
AcDbLine
 62
7
  6
BYLAYER
 10
109.9880681791
 20
259.0773779794
 11
109.98854143
 21
259.0646963411
  0
SPLINE
  5
452
100
AcDbEntity
  8
0
100
AcDbSpline
 62
7
  6
BYLAYER
 70
0
 71
3
 72
10
 73
6
 74
0
 42
0.0000001
 43
0.0000001
 44
0.0000000001
 40
0.0
 40
0.0
 40
0.0
 40
0.0
 40
0.3323037866
 40
0.6458407197
 40
1.0
 40
1.0
 40
1.0
 40
1.0
 10
109.9889273958
 20
259.0643769329
 30
0.0
 10
109.9934779094
 20
259.0658070762
 30
0.0
 10
110.0024588962
 20
259.0681344695
 30
0.0
 10
110.016063969
 20
259.0727286653
 30
0.0
 10
110.0251167036
 20
259.0758726129
 30
0.0
 10
110.0299361791
 20
259.0774901427
 30
0.0
  0
SPLINE
  5
453
100
AcDbEntity
  8
0
100
AcDbSpline
 62
7
  6
BYLAYER
 70
0
 71
3
 72
10
 73
6
 74
0
 42
0.0000001
 43
0.0000001
 44
0.0000000001
 40
0.0
 40
0.0
 40
0.0
 40
0.0
 40
0.3501594846
 40
0.6657935493
 40
1.0
 40
1.0
 40
1.0
 40
1.0
 10
110.1090274921
 20
259.0774900666
 30
0.0
 10
110.1091108474
 20
259.0758870985
 30
0.0
 10
110.108774129
 20
259.0728306043
 30
0.0
 10
110.1092516697
 20
259.0682582843
 30
0.0
 10
110.1092310947
 20
259.0652769601
 30
0.0
 10
110.1093159319
 20
259.0637473059
 30
0.0
  0
SPLINE
  5
454
100
AcDbEntity
  8
0
100
AcDbSpline
 62
7
  6
BYLAYER
 70
0
 71
3
 72
10
 73
6
 74
0
 42
0.0000001
 43
0.0000001
 44
0.0000000001
 40
0.0
 40
0.0
 40
0.0
 40
0.0
 40
0.3451234999
 40
0.6602670802
 40
1.0
 40
1.0
 40
1.0
 40
1.0
 10
110.1093736964
 20
259.0636208294
 30
0.0
 10
110.1130789464
 20
259.0651713946
 30
0.0
 10
110.1200351292
 20
259.0684448432
 30
0.0
 10
110.1307873976
 20
259.0729018691
 30
0.0
 10
110.1378271975
 20
259.0758222049
 30
0.0
 10
110.1414622084
 20
259.0773777712
 30
0.0
  0
LINE
  5
455
100
AcDbEntity
  8
0
100
AcDbLine
 62
7
  6
BYLAYER
 10
110.1399674073
 20
259.0775187722
 11
110.2649562956
 21
259.0778760092
  0
SPLINE
  5
456
100
AcDbEntity
  8
0
100
AcDbSpline
 62
7
  6
BYLAYER
 70
0
 71
3
 72
10
 73
6
 74
0
 42
0.0000001
 43
0.0000001
 44
0.0000000001
 40
0.0
 40
0.0
 40
0.0
 40
0.0
 40
0.3407414944
 40
0.6607775305
 40
1.0
 40
1.0
 40
1.0
 40
1.0
 10
110.1400138192
 20
259.0774008301
 30
0.0
 10
110.136637613
 20
259.0759624968
 30
0.0
 10
110.130037344
 20
259.073300405
 30
0.0
 10
110.1201879075
 20
259.0689328799
 30
0.0
 10
110.1134851229
 20
259.0665702347
 30
0.0
 10
110.1101130629
 20
259.065164186
 30
0.0
  0
SPLINE
  5
457
100
AcDbEntity
  8
0
100
AcDbSpline
 62
7
  6
BYLAYER
 70
0
 71
3
 72
10
 73
6
 74
0
 42
0.0000001
 43
0.0000001
 44
0.0000000001
 40
0.0
 40
0.0
 40
0.0
 40
0.0
 40
0.3330934958
 40
0.6634304955
 40
1.0
 40
1.0
 40
1.0
 40
1.0
 10
109.2169152136
 20
259.0656922828
 30
0.0
 10
109.2128157657
 20
259.0669896518
 30
0.0
 10
109.204526406
 20
259.0691655778
 30
0.0
 10
109.1922933769
 20
259.0733028864
 30
0.0
 10
109.1841637151
 20
259.0761327432
 30
0.0
 10
109.1800447159
 20
259.0775149067
 30
0.0
  0
SPLINE
  5
458
100
AcDbEntity
  8
0
100
AcDbSpline
 62
7
  6
BYLAYER
 70
0
 71
3
 72
10
 73
6
 74
0
 42
0.0000001
 43
0.0000001
 44
0.0000000001
 40
0.0
 40
0.0
 40
0.0
 40
0.0
 40
0.3465318585
 40
0.7018981961
 40
1.0
 40
1.0
 40
1.0
 40
1.0
 10
109.1800447159
 20
259.0775149067
 30
0.0
 10
109.1708887694
 20
259.0775149067
 30
0.0
 10
109.1523473648
 20
259.0779978871
 30
0.0
 10
109.1259224829
 20
259.0780013209
 30
0.0
 10
109.1086609554
 20
259.0775117645
 30
0.0
 10
109.1007846113
 20
259.0775117645
 30
0.0
  0
SPLINE
  5
459
100
AcDbEntity
  8
0
100
AcDbSpline
 62
7
  6
BYLAYER
 70
0
 71
3
 72
10
 73
6
 74
0
 42
0.0000001
 43
0.0000001
 44
0.0000000001
 40
0.0
 40
0.0
 40
0.0
 40
0.0
 40
0.3313520082
 40
0.6613056437
 40
1.0
 40
1.0
 40
1.0
 40
1.0
 10
109.0996880761
 20
259.0661533199
 30
0.0
 10
109.0965716187
 20
259.0674477968
 30
0.0
 10
109.0900744555
 20
259.0693140489
 30
0.0
 10
109.0808126004
 20
259.0735857973
 30
0.0
 10
109.0744778602
 20
259.076083254
 30
0.0
 10
109.0713022673
 20
259.0774300524
 30
0.0
  0
LINE
  5
45A
100
AcDbEntity
  8
0
100
AcDbLine
 62
7
  6
BYLAYER
 10
109.0713463549
 20
259.0775430016
 11
108.9449671331
 21
259.0778751545
  0
SPLINE
  5
45B
100
AcDbEntity
  8
0
100
AcDbSpline
 62
7
  6
BYLAYER
 70
0
 71
3
 72
10
 73
6
 74
0
 42
0.0000001
 43
0.0000001
 44
0.0000000001
 40
0.0
 40
0.0
 40
0.0
 40
0.0
 40
0.3407391169
 40
0.66078102
 40
1.0
 40
1.0
 40
1.0
 40
1.0
 10
109.0699166358
 20
259.0774007894
 30
0.0
 10
109.0732927671
 20
259.075962489
 30
0.0
 10
109.0798928802
 20
259.073300209
 30
0.0
 10
109.0897421981
 20
259.068932827
 30
0.0
 10
109.0964448997
 20
259.0665701988
 30
0.0
 10
109.0998168734
 20
259.065164186
 30
0.0
  0
SPLINE
  5
45C
100
AcDbEntity
  8
0
100
AcDbSpline
 62
7
  6
BYLAYER
 70
0
 71
3
 72
10
 73
6
 74
0
 42
0.0000001
 43
0.0000001
 44
0.0000000001
 40
0.0
 40
0.0
 40
0.0
 40
0.0
 40
0.3063645317
 40
0.6396356423
 40
1.0
 40
1.0
 40
1.0
 40
1.0
 10
109.0997230714
 20
259.0649446563
 30
0.0
 10
109.0997949406
 20
259.0662387708
 30
0.0
 10
109.1011216342
 20
259.0687463558
 30
0.0
 10
109.1009685079
 20
259.0730554335
 30
0.0
 10
109.1007950252
 20
259.0759725479
 30
0.0
 10
109.1008743859
 20
259.0774950416
 30
0.0
  0
SPLINE
  5
45D
100
AcDbEntity
  8
0
100
AcDbSpline
 62
7
  6
BYLAYER
 70
0
 71
3
 72
10
 73
6
 74
0
 42
0.0000001
 43
0.0000001
 44
0.0000000001
 40
0.0
 40
0.0
 40
0.0
 40
0.0
 40
0.2963160513
 40
0.6534033017
 40
1.0
 40
1.0
 40
1.0
 40
1.0
 10
109.1008743859
 20
259.0774950416
 30
0.0
 10
109.1087007749
 20
259.0774950416
 30
0.0
 10
109.1259535484
 20
259.0780562064
 30
0.0
 10
109.1523695737
 20
259.0779596084
 30
0.0
 10
109.1709513374
 20
259.0774882671
 30
0.0
 10
109.1801057541
 20
259.0774882671
 30
0.0
  0
SPLINE
  5
45E
100
AcDbEntity
  8
0
100
AcDbSpline
 62
7
  6
BYLAYER
 70
0
 71
3
 72
10
 73
6
 74
0
 42
0.0000001
 43
0.0000001
 44
0.0000000001
 40
0.0
 40
0.0
 40
0.0
 40
0.0
 40
0.3542337537
 40
0.6698108296
 40
1.0
 40
1.0
 40
1.0
 40
1.0
 10
109.1801057541
 20
259.0774882671
 30
0.0
 10
109.1843564116
 20
259.0760619574
 30
0.0
 10
109.1923520862
 20
259.0732523767
 30
0.0
 10
109.2043196581
 20
259.0690900319
 30
0.0
 10
109.2123423165
 20
259.0674107599
 30
0.0
 10
109.2164614354
 20
259.066704424
 30
0.0
  0
LINE
  5
45F
100
AcDbEntity
  8
0
100
AcDbLine
 62
7
  6
BYLAYER
 10
109.2193459529
 20
259.0683520483
 11
109.219843615
 21
259.0774012999
  0
SPLINE
  5
460
100
AcDbEntity
  8
0
100
AcDbSpline
 62
7
  6
BYLAYER
 70
0
 71
3
 72
10
 73
6
 74
0
 42
0.0000001
 43
0.0000001
 44
0.0000000001
 40
0.0
 40
0.0
 40
0.0
 40
0.0
 40
0.3082376041
 40
0.6500054045
 40
1.0
 40
1.0
 40
1.0
 40
1.0
 10
109.2196339998
 20
259.0775208634
 30
0.0
 10
109.2592265998
 20
259.0775208634
 30
0.0
 10
109.3427179801
 20
259.0780238636
 30
0.0
 10
109.4711666109
 20
259.0778253019
 30
0.0
 10
109.5600222485
 20
259.077868369
 30
0.0
 10
109.6049784636
 20
259.077868369
 30
0.0
  0
SPLINE
  5
461
100
AcDbEntity
  8
0
100
AcDbSpline
 62
7
  6
BYLAYER
 70
0
 71
3
 72
10
 73
6
 74
0
 42
0.0000001
 43
0.0000001
 44
0.0000000001
 40
0.0
 40
0.0
 40
0.0
 40
0.0
 40
0.3517701243
 40
0.6910566565
 40
1.0
 40
1.0
 40
1.0
 40
1.0
 10
109.6049514727
 20
259.077868369
 30
0.0
 10
109.5595296951
 20
259.077868369
 30
0.0
 10
109.470298131
 20
259.0778284865
 30
0.0
 10
109.3411743847
 20
259.0780130573
 30
0.0
 10
109.2574733317
 20
259.0775390625
 30
0.0
 10
109.2175814965
 20
259.0775390625
 30
0.0
  0
LINE
  5
462
100
AcDbEntity
  8
0
100
AcDbLine
 62
7
  6
BYLAYER
 10
109.2177806952
 20
259.0774261856
 11
109.2172182795
 21
259.0659690509
  0
SPLINE
  5
463
100
AcDbEntity
  8
0
100
AcDbSpline
 62
7
  6
BYLAYER
 70
0
 71
3
 72
10
 73
6
 74
0
 42
0.0000001
 43
0.0000001
 44
0.0000000001
 40
0.0
 40
0.0
 40
0.0
 40
0.0
 40
0.3381762333
 40
0.670667895
 40
1.0
 40
1.0
 40
1.0
 40
1.0
 10
109.0896124019
 20
259.2158677057
 30
0.0
 10
109.0909160773
 20
259.2002501882
 30
0.0
 10
109.0934505569
 20
259.1692740336
 30
0.0
 10
109.0975969902
 20
259.1231140698
 30
0.0
 10
109.0992328428
 20
259.0924801936
 30
0.0
 10
109.1004995552
 20
259.0772708729
 30
0.0
  0
SPLINE
  5
464
100
AcDbEntity
  8
0
100
AcDbSpline
 62
7
  6
BYLAYER
 70
0
 71
3
 72
10
 73
6
 74
0
 42
0.0000001
 43
0.0000001
 44
0.0000000001
 40
0.0
 40
0.0
 40
0.0
 40
0.0
 40
0.3599794432
 40
0.6934035966
 40
1.0
 40
1.0
 40
1.0
 40
1.0
 10
108.917037521
 20
260.6261116525
 30
0.0
 10
108.915951042
 20
260.6268906363
 30
0.0
 10
108.9138460956
 20
260.6283746189
 30
0.0
 10
108.9107339464
 20
260.6304033552
 30
0.0
 10
108.9086875702
 20
260.6316132758
 30
0.0
 10
108.9077049209
 20
260.6321884945
 30
0.0
  0
SPLINE
  5
465
100
AcDbEntity
  8
0
100
AcDbSpline
 62
7
  6
BYLAYER
 70
0
 71
3
 72
10
 73
6
 74
0
 42
0.0000001
 43
0.0000001
 44
0.0000000001
 40
0.0
 40
0.0
 40
0.0
 40
0.0
 40
0.3146849059
 40
0.6309630497
 40
1.0
 40
1.0
 40
1.0
 40
1.0
 10
109.0995120874
 20
259.0657421231
 30
0.0
 10
109.0995812759
 20
259.0669949621
 30
0.0
 10
109.1011054208
 20
259.0692418235
 30
0.0
 10
109.1008529124
 20
259.0733350387
 30
0.0
 10
109.1007081836
 20
259.0760422839
 30
0.0
 10
109.1007846113
 20
259.0775117645
 30
0.0
  0
SPLINE
  5
466
100
AcDbEntity
  8
0
100
AcDbSpline
 62
7
  6
BYLAYER
 70
0
 71
3
 72
10
 73
6
 74
0
 42
0.0000001
 43
0.0000001
 44
0.0000000001
 40
0.0
 40
0.0
 40
0.0
 40
0.0
 40
0.3374840249
 40
0.6706192525
 40
1.0
 40
1.0
 40
1.0
 40
1.0
 10
109.0996880761
 20
259.0661533199
 30
0.0
 10
109.0780160378
 20
259.2423147133
 30
0.0
 10
109.0337057918
 20
259.5922139627
 30
0.0
 10
108.9711796267
 20
260.1144053033
 30
0.0
 10
108.928901725
 20
260.4602610132
 30
0.0
 10
108.9077504088
 20
260.6321926663
 30
0.0
  0
SPLINE
  5
467
100
AcDbEntity
  8
0
100
AcDbSpline
 62
7
  6
BYLAYER
 70
0
 71
3
 72
10
 73
6
 74
0
 42
0.0000001
 43
0.0000001
 44
0.0000000001
 40
0.0
 40
0.0
 40
0.0
 40
0.0
 40
0.3248141629
 40
0.6572347237
 40
1.0
 40
1.0
 40
1.0
 40
1.0
 10
108.9077504088
 20
260.6321926663
 30
0.0
 10
108.8371200588
 20
260.6271761961
 30
0.0
 10
108.6943140545
 20
260.6153504293
 30
0.0
 10
108.4776732276
 20
260.590744236
 30
0.0
 10
108.3321182301
 20
260.568517979
 30
0.0
 10
108.2585315332
 20
260.555544636
 30
0.0
  0
SPLINE
  5
468
100
AcDbEntity
  8
0
100
AcDbSpline
 62
7
  6
BYLAYER
 70
0
 71
3
 72
10
 73
6
 74
0
 42
0.0000001
 43
0.0000001
 44
0.0000000001
 40
0.0
 40
0.0
 40
0.0
 40
0.0
 40
0.3337970898
 40
0.6663384612
 40
1.0
 40
1.0
 40
1.0
 40
1.0
 10
109.0778703201
 20
260.6261006555
 30
0.0
 10
109.024566133
 20
260.6199428682
 30
0.0
 10
108.9183481975
 20
260.6059330175
 30
0.0
 10
108.7597695584
 20
260.5793463144
 30
0.0
 10
108.6549730627
 20
260.5571098777
 30
0.0
 10
108.6027155228
 20
260.5450240907
 30
0.0
  0
LINE
  5
469
100
AcDbEntity
  8
0
100
AcDbLine
 62
7
  6
BYLAYER
 10
108.5566384234
 20
260.5451563105
 11
108.5796394503
 21
260.5123632385
  0
LINE
  5
46A
100
AcDbEntity
  8
0
100
AcDbLine
 62
7
  6
BYLAYER
 10
108.5796394503
 20
260.5123632385
 11
108.6026399171
 21
260.5451563101
  0
LINE
  5
46B
100
AcDbEntity
  8
0
100
AcDbLine
 62
7
  6
BYLAYER
 10
109.2193459529
 20
259.0683520483
 11
109.2208092189
 21
259.7623619254
  0
SPLINE
  5
46C
100
AcDbEntity
  8
0
100
AcDbSpline
 62
7
  6
BYLAYER
 70
0
 71
3
 72
10
 73
6
 74
0
 42
0.0000001
 43
0.0000001
 44
0.0000000001
 40
0.0
 40
0.0
 40
0.0
 40
0.0
 40
0.3021373131
 40
0.658190268
 40
1.0
 40
1.0
 40
1.0
 40
1.0
 10
110.1093334473
 20
259.077243979
 30
0.0
 10
110.1013616175
 20
259.077243979
 30
0.0
 10
110.0840077595
 20
259.0780750149
 30
0.0
 10
110.0576131415
 20
259.078118848
 30
0.0
 10
110.0392126319
 20
259.0772440365
 30
0.0
 10
110.0301940537
 20
259.0772440365
 30
0.0
  0
SPLINE
  5
46D
100
AcDbEntity
  8
0
100
AcDbSpline
 62
7
  6
BYLAYER
 70
0
 71
3
 72
51
 73
47
 74
0
 42
0.0000001
 43
0.0000001
 44
0.0000000001
 40
0.0
 40
0.0
 40
0.0
 40
0.0
 40
0.0317677371
 40
0.0647643519
 40
0.0934371284
 40
0.1160663468
 40
0.1304002488
 40
0.1387146624
 40
0.1549634051
 40
0.1791437558
 40
0.2090987068
 40
0.242073658
 40
0.2727207036
 40
0.2981682601
 40
0.3153274185
 40
0.3239056852
 40
0.3361159541
 40
0.3557989404
 40
0.3828607649
 40
0.4151079977
 40
0.4472213419
 40
0.4750502939
 40
0.4965492152
 40
0.5091194625
 40
0.51739359
 40
0.5331692043
 40
0.5570539899
 40
0.586928616
 40
0.6196258187
 40
0.6499849853
 40
0.6748702328
 40
0.6928122442
 40
0.7017334228
 40
0.7131286089
 40
0.7328703956
 40
0.7600602531
 40
0.7925517014
 40
0.8246023156
 40
0.8531546383
 40
0.8750408618
 40
0.8873870921
 40
0.8961596641
 40
0.9121616428
 40
0.9365031073
 40
0.9672182685
 40
1.0
 40
1.0
 40
1.0
 40
1.0
 10
109.9950907309
 20
229.8231803559
 30
0.0
 10
109.8888910414
 20
229.8524988047
 30
0.0
 10
109.6706602732
 20
229.9081724798
 30
0.0
 10
109.3583540498
 20
229.9842652925
 30
0.0
 10
109.0678743503
 20
230.0600814821
 30
0.0
 10
108.8743232341
 20
230.1393283513
 30
0.0
 10
108.6921604558
 20
230.2098965801
 30
0.0
 10
108.7336232105
 20
230.3660982308
 30
0.0
 10
108.9086057578
 20
230.4217460208
 30
0.0
 10
109.1307735496
 20
230.5055108069
 30
0.0
 10
109.4268789003
 20
230.5792604552
 30
0.0
 10
109.7404025449
 20
230.6581467876
 30
0.0
 10
110.0422936143
 20
230.7295106349
 30
0.0
 10
110.2787736694
 20
230.8183718211
 30
0.0
 10
110.452845594
 20
230.8689549105
 30
0.0
 10
110.5286972559
 20
231.0092882601
 30
0.0
 10
110.3757226116
 20
231.098153676
 30
0.0
 10
110.2007299699
 20
231.165788535
 30
0.0
 10
109.9301300947
 20
231.2426039184
 30
0.0
 10
109.6244830333
 20
231.3195585441
 30
0.0
 10
109.31551522
 20
231.3945641003
 30
0.0
 10
109.0360199731
 20
231.4713721063
 30
0.0
 10
108.8531615673
 20
231.5452578966
 30
0.0
 10
108.6884099565
 20
231.6218200818
 30
0.0
 10
108.7396223791
 20
231.766099132
 30
0.0
 10
108.905964702
 20
231.8218168599
 30
0.0
 10
109.1280597085
 20
231.9043761167
 30
0.0
 10
109.4208287659
 20
231.9779699786
 30
0.0
 10
109.7328674321
 20
232.0558946595
 30
0.0
 10
110.0298061843
 20
232.1268519331
 30
0.0
 10
110.2691463844
 20
232.2138392025
 30
0.0
 10
110.4402795187
 20
232.2634823499
 30
0.0
 10
110.5318548296
 20
232.3975166751
 30
0.0
 10
110.3870964458
 20
232.4960055724
 30
0.0
 10
110.2126329167
 20
232.560714958
 30
0.0
 10
109.9415336646
 20
232.6402528112
 30
0.0
 10
109.6345981379
 20
232.7169733364
 30
0.0
 10
109.3225738264
 20
232.7925261658
 30
0.0
 10
109.0394788667
 20
232.8706599686
 30
0.0
 10
108.8537128152
 20
232.9443583446
 30
0.0
 10
108.6870413612
 20
233.023182562
 30
0.0
 10
108.7442598437
 20
233.1694544156
 30
0.0
 10
108.9132922527
 20
233.2245889193
 30
0.0
 10
109.1414750737
 20
233.3083014395
 30
0.0
 10
109.4387417343
 20
233.3824516765
 30
0.0
 10
109.6521378231
 20
233.4350043561
 30
0.0
 10
109.762475543
 20
233.4624043874
 30
0.0
  0
SPLINE
  5
46E
100
AcDbEntity
  8
0
100
AcDbSpline
 62
7
  6
BYLAYER
 70
0
 71
3
 72
15
 73
11
 74
0
 42
0.0000001
 43
0.0000001
 44
0.0000000001
 40
0.0
 40
0.0
 40
0.0
 40
0.0
 40
0.1238756205
 40
0.2770797813
 40
0.4448958755
 40
0.611804591
 40
0.7626009974
 40
0.8834637674
 40
0.9635774429
 40
1.0
 40
1.0
 40
1.0
 40
1.0
 10
110.777689714
 20
233.4624016701
 30
0.0
 10
110.6673145484
 20
233.4362103524
 30
0.0
 10
110.4179396346
 20
233.3885586538
 30
0.0
 10
110.0157833917
 20
233.3229641376
 30
0.0
 10
109.5739687878
 20
233.2583010857
 30
0.0
 10
109.133141041
 20
233.1919141277
 30
0.0
 10
108.7403261669
 20
233.128494932
 30
0.0
 10
108.4149798094
 20
233.0608073411
 30
0.0
 10
108.2247156571
 20
233.0094460337
 30
0.0
 10
108.1052149714
 20
232.9460052933
 30
0.0
 10
108.1051593937
 20
232.912651081
 30
0.0
  0
SPLINE
  5
46F
100
AcDbEntity
  8
0
100
AcDbSpline
 62
7
  6
BYLAYER
 70
0
 71
3
 72
17
 73
13
 74
0
 42
0.0000001
 43
0.0000001
 44
0.0000000001
 40
0.0
 40
0.0
 40
0.0
 40
0.0
 40
0.0329270141
 40
0.1053202916
 40
0.215338083
 40
0.3514202987
 40
0.501949645
 40
0.6525370811
 40
0.7881786386
 40
0.8961897489
 40
0.9675756507
 40
1.0
 40
1.0
 40
1.0
 40
1.0
 10
108.1051593937
 20
232.912651081
 30
0.0
 10
108.1051024245
 20
232.8784617189
 30
0.0
 10
108.2282316816
 20
232.8138004484
 30
0.0
 10
108.4240019621
 20
232.7624577449
 30
0.0
 10
108.7581573535
 20
232.6929784662
 30
0.0
 10
109.1610955466
 20
232.6285436777
 30
0.0
 10
109.6110376068
 20
232.5618125041
 30
0.0
 10
110.0603168043
 20
232.4942183322
 30
0.0
 10
110.461066181
 20
232.4305457635
 30
0.0
 10
110.7909585512
 20
232.3612823612
 30
0.0
 10
110.9843503942
 20
232.3100499
 30
0.0
 10
111.1042727063
 20
232.2461659943
 30
0.0
 10
111.1048272156
 20
232.2125030881
 30
0.0
  0
SPLINE
  5
470
100
AcDbEntity
  8
0
100
AcDbSpline
 62
7
  6
BYLAYER
 70
0
 71
3
 72
17
 73
13
 74
0
 42
0.0000001
 43
0.0000001
 44
0.0000000001
 40
0.0
 40
0.0
 40
0.0
 40
0.0
 40
0.0332799482
 40
0.1067200144
 40
0.2165807223
 40
0.3541016838
 40
0.5048602053
 40
0.6547029532
 40
0.7902208356
 40
0.8974733071
 40
0.9682584083
 40
1.0
 40
1.0
 40
1.0
 40
1.0
 10
111.1048272156
 20
232.2125030881
 30
0.0
 10
111.1053963718
 20
232.1779510008
 30
0.0
 10
110.9786739932
 20
232.1133641028
 30
0.0
 10
110.7831845545
 20
232.0616046871
 30
0.0
 10
110.4459789588
 20
231.9917150943
 30
0.0
 10
110.0416024199
 20
231.927890689
 30
0.0
 10
109.5907778383
 20
231.8601283495
 30
0.0
 10
109.1419748068
 20
231.7935389648
 30
0.0
 10
108.7431751407
 20
231.7291920937
 30
0.0
 10
108.4144503655
 20
231.6603018125
 30
0.0
 10
108.2237188419
 20
231.6093773307
 30
0.0
 10
108.104805072
 20
231.5453168752
 30
0.0
 10
108.1050221007
 20
231.5123581925
 30
0.0
  0
SPLINE
  5
471
100
AcDbEntity
  8
0
100
AcDbSpline
 62
7
  6
BYLAYER
 70
0
 71
3
 72
14
 73
10
 74
0
 42
0.0000001
 43
0.0000001
 44
0.0000000001
 40
0.0
 40
0.0
 40
0.0
 40
0.0
 40
0.0399221509
 40
0.1268805869
 40
0.2587291221
 40
0.4261636887
 40
0.6158118746
 40
0.813335976
 40
1.0
 40
1.0
 40
1.0
 40
1.0
 10
108.1050221007
 20
231.5123581925
 30
0.0
 10
108.1052163198
 20
231.4828634537
 30
0.0
 10
108.2052714507
 20
231.4228310643
 30
0.0
 10
108.3742617762
 20
231.374773116
 30
0.0
 10
108.6604915657
 20
231.3111730261
 30
0.0
 10
109.013938576
 20
231.2520961209
 30
0.0
 10
109.4198247704
 20
231.1893204212
 30
0.0
 10
109.8390878045
 20
231.1282680517
 30
0.0
 10
110.1196836146
 20
231.0849522212
 30
0.0
 10
110.2557450472
 20
231.0624381344
 30
0.0
  0
SPLINE
  5
472
100
AcDbEntity
  8
0
100
AcDbSpline
 62
7
  6
BYLAYER
 70
0
 71
3
 72
39
 73
35
 74
0
 42
0.0000001
 43
0.0000001
 44
0.0000000001
 40
0.0
 40
0.0
 40
0.0
 40
0.0
 40
0.0453059848
 40
0.0912030639
 40
0.1315313115
 40
0.1644624578
 40
0.1844239804
 40
0.1952085287
 40
0.2147242397
 40
0.2455705336
 40
0.2867564329
 40
0.3339399196
 40
0.378858873
 40
0.41621822
 40
0.4438815122
 40
0.4583731684
 40
0.47131794
 40
0.4963621151
 40
0.5323773742
 40
0.5770365716
 40
0.6231642931
 40
0.6654552283
 40
0.6993755062
 40
0.720986341
 40
0.7320889917
 40
0.7499299298
 40
0.7812196356
 40
0.82284536
 40
0.8690566786
 40
0.91279767
 40
0.950050172
 40
0.9767145161
 40
0.9920432409
 40
1.0
 40
1.0
 40
1.0
 40
1.0
 10
109.9952507872
 20
230.9015290589
 30
0.0
 10
109.8887920904
 20
230.9304666461
 30
0.0
 10
109.6727109237
 20
230.9835611129
 30
0.0
 10
109.363998537
 20
231.0620707496
 30
0.0
 10
109.0776143123
 20
231.1347441076
 30
0.0
 10
108.8783832669
 20
231.2146221782
 30
0.0
 10
108.7098336419
 20
231.2775939296
 30
0.0
 10
108.7108128413
 20
231.4221436773
 30
0.0
 10
108.8702877468
 20
231.4844463498
 30
0.0
 10
109.0661251567
 20
231.5658302931
 30
0.0
 10
109.3527350444
 20
231.6372418024
 30
0.0
 10
109.6663842754
 20
231.7163792896
 30
0.0
 10
109.9705818833
 20
231.7922128201
 30
0.0
 10
110.2329001249
 20
231.8716793604
 30
0.0
 10
110.4011191334
 20
231.9331556551
 30
0.0
 10
110.5334489235
 20
232.0367664399
 30
0.0
 10
110.4322184021
 20
232.1582374107
 30
0.0
 10
110.2689133287
 20
232.2158542183
 30
0.0
 10
110.0216902117
 20
232.2989247393
 30
0.0
 10
109.7221051971
 20
232.3705440783
 30
0.0
 10
109.4087993612
 20
232.4511212626
 30
0.0
 10
109.116934088
 20
232.5227894362
 30
0.0
 10
108.8999172848
 20
232.6064110951
 30
0.0
 10
108.7344432316
 20
232.6609622906
 30
0.0
 10
108.691916206
 20
232.8011896889
 30
0.0
 10
108.8524291247
 20
232.8800159602
 30
0.0
 10
109.0416855818
 20
232.9573473509
 30
0.0
 10
109.3297361274
 20
233.0318416128
 30
0.0
 10
109.638324471
 20
233.109010293
 30
0.0
 10
109.9388769986
 20
233.1854301313
 30
0.0
 10
110.1922302923
 20
233.2550915781
 30
0.0
 10
110.370734085
 20
233.3268339452
 30
0.0
 10
110.480532651
 20
233.3837045688
 30
0.0
 10
110.5074955129
 20
233.4433300426
 30
0.0
 10
110.5028669982
 20
233.4621440278
 30
0.0
  0
SPLINE
  5
473
100
AcDbEntity
  8
0
100
AcDbSpline
 62
7
  6
BYLAYER
 70
0
 71
3
 72
17
 73
13
 74
0
 42
0.0000001
 43
0.0000001
 44
0.0000000001
 40
0.0
 40
0.0
 40
0.0
 40
0.0
 40
0.0329051569
 40
0.1056723585
 40
0.2151692545
 40
0.3508758528
 40
0.5002803547
 40
0.6491059079
 40
0.7843662226
 40
0.8936528602
 40
0.9668060971
 40
1.0
 40
1.0
 40
1.0
 40
1.0
 10
108.1050222727
 20
228.7124200529
 30
0.0
 10
108.1050447624
 20
228.6782544561
 30
0.0
 10
108.2288511713
 20
228.6138996986
 30
0.0
 10
108.4240696432
 20
228.5618881369
 30
0.0
 10
108.7578623937
 20
228.4931804307
 30
0.0
 10
109.1586530754
 20
228.4288062247
 30
0.0
 10
109.6051929038
 20
228.3624310582
 30
0.0
 10
110.0512301258
 20
228.29578265
 30
0.0
 10
110.4507824415
 20
228.2318666716
 30
0.0
 10
110.7843593642
 20
228.1631779452
 30
0.0
 10
110.9797985646
 20
228.1112119288
 30
0.0
 10
111.1048846119
 20
228.0469103627
 30
0.0
 10
111.104912227
 20
228.012444963
 30
0.0
  0
SPLINE
  5
474
100
AcDbEntity
  8
0
100
AcDbSpline
 62
7
  6
BYLAYER
 70
0
 71
3
 72
10
 73
6
 74
0
 42
0.0000001
 43
0.0000001
 44
0.0000000001
 40
0.0
 40
0.0
 40
0.0
 40
0.0
 40
0.2660079943
 40
0.5884378975
 40
1.0
 40
1.0
 40
1.0
 40
1.0
 10
108.1050161538
 20
227.3123927389
 30
0.0
 10
108.1050129036
 20
227.3066578837
 30
0.0
 10
108.108748909
 20
227.2939425751
 30
0.0
 10
108.1226042655
 20
227.2770453437
 30
0.0
 10
108.1352318295
 20
227.2673503419
 30
0.0
 10
108.1426083743
 20
227.2624194105
 30
0.0
  0
SPLINE
  5
475
100
AcDbEntity
  8
0
100
AcDbSpline
 62
7
  6
BYLAYER
 70
0
 71
3
 72
53
 73
49
 74
0
 42
0.0000001
 43
0.0000001
 44
0.0000000001
 40
0.0
 40
0.0
 40
0.0
 40
0.0
 40
0.0079807449
 40
0.0209108194
 40
0.0427734876
 40
0.0711480552
 40
0.1036385457
 40
0.1355270419
 40
0.1629183437
 40
0.1821420257
 40
0.1923194322
 40
0.2014111671
 40
0.2191735252
 40
0.245503265
 40
0.2768826537
 40
0.3093728278
 40
0.3388645531
 40
0.3619311433
 40
0.3762929136
 40
0.384237546
 40
0.3977288129
 40
0.4201394209
 40
0.4493556186
 40
0.4816999102
 40
0.5131067647
 40
0.5396797052
 40
0.5583962444
 40
0.5684501382
 40
0.5780980321
 40
0.5964550806
 40
0.6230011715
 40
0.6543828524
 40
0.686866354
 40
0.7164372452
 40
0.739121743
 40
0.7528043651
 40
0.7607032114
 40
0.7748024141
 40
0.7975702462
 40
0.8270264813
 40
0.8598288287
 40
0.8912473982
 40
0.9173950406
 40
0.9353546523
 40
0.9447032632
 40
0.9547703038
 40
0.9733635516
 40
1.0
 40
1.0
 40
1.0
 40
1.0
 10
108.7279594584
 20
227.101515383
 30
0.0
 10
108.7093636293
 20
227.1223132084
 30
0.0
 10
108.6993696778
 20
227.2145710188
 30
0.0
 10
108.858586441
 20
227.2824184412
 30
0.0
 10
109.0525741449
 20
227.3602758698
 30
0.0
 10
109.3373645341
 20
227.4349038949
 30
0.0
 10
109.6507892516
 20
227.513235087
 30
0.0
 10
109.9609289176
 20
227.5890455778
 30
0.0
 10
110.2291985523
 20
227.6710608283
 30
0.0
 10
110.4037469054
 20
227.7325526212
 30
0.0
 10
110.5333423119
 20
227.8385583649
 30
0.0
 10
110.4329941035
 20
227.9622710502
 30
0.0
 10
110.2615205013
 20
228.0178740386
 30
0.0
 10
110.0087847606
 20
228.1025640888
 30
0.0
 10
109.7027268323
 20
228.1769059353
 30
0.0
 10
109.3873082846
 20
228.256036567
 30
0.0
 10
109.0947329308
 20
228.3295786089
 30
0.0
 10
108.886019551
 20
228.4112269716
 30
0.0
 10
108.7175406813
 20
228.4708566612
 30
0.0
 10
108.7027763664
 20
228.6190541629
 30
0.0
 10
108.8699592528
 20
228.6869889232
 30
0.0
 10
109.0690463219
 20
228.7654621864
 30
0.0
 10
109.358999677
 20
228.8402429344
 30
0.0
 10
109.6729274098
 20
228.9187595834
 30
0.0
 10
109.9784105875
 20
228.9933630867
 30
0.0
 10
110.239427786
 20
229.0753966965
 30
0.0
 10
110.4108086844
 20
229.1344198965
 30
0.0
 10
110.5356937556
 20
229.2465713153
 30
0.0
 10
110.4213432692
 20
229.3662559265
 30
0.0
 10
110.2491938818
 20
229.4231406638
 30
0.0
 10
109.9914692729
 20
229.5068837544
 30
0.0
 10
109.685187916
 20
229.5812650163
 30
0.0
 10
109.3696763388
 20
229.6603146176
 30
0.0
 10
109.077364994
 20
229.7350150447
 30
0.0
 10
108.8744981754
 20
229.8147868961
 30
0.0
 10
108.7071813402
 20
229.8801644746
 30
0.0
 10
108.7125589042
 20
230.0283223183
 30
0.0
 10
108.8805520631
 20
230.0901682281
 30
0.0
 10
109.0860137214
 20
230.1708827453
 30
0.0
 10
109.3788829335
 20
230.2451273208
 30
0.0
 10
109.6953374098
 20
230.3243799457
 30
0.0
 10
110.0015541455
 20
230.3989754787
 30
0.0
 10
110.2559774981
 20
230.4825487815
 30
0.0
 10
110.4256247596
 20
230.5389684107
 30
0.0
 10
110.5345722051
 20
230.6580754356
 30
0.0
 10
110.4107921333
 20
230.7685827123
 30
0.0
 10
110.2398514584
 20
230.8276093498
 30
0.0
 10
110.0850262834
 20
230.8768297872
 30
0.0
 10
109.9952439382
 20
230.901520087
 30
0.0
  0
SPLINE
  5
476
100
AcDbEntity
  8
0
100
AcDbSpline
 62
7
  6
BYLAYER
 70
0
 71
3
 72
11
 73
7
 74
0
 42
0.0000001
 43
0.0000001
 44
0.0000000001
 40
0.0
 40
0.0
 40
0.0
 40
0.0
 40
0.3947126254
 40
0.7025022556
 40
0.9045090563
 40
1.0
 40
1.0
 40
1.0
 40
1.0
 10
110.2557400966
 20
231.0624213849
 30
0.0
 10
110.3725611637
 20
231.0431462949
 30
0.0
 10
110.5781763556
 20
231.0082339574
 30
0.0
 10
110.8500128318
 20
230.9460369455
 30
0.0
 10
111.0104788658
 20
230.8996587501
 30
0.0
 10
111.1051307405
 20
230.841066614
 30
0.0
 10
111.1048964428
 20
230.8124234911
 30
0.0
  0
SPLINE
  5
477
100
AcDbEntity
  8
0
100
AcDbSpline
 62
7
  6
BYLAYER
 70
0
 71
3
 72
17
 73
13
 74
0
 42
0.0000001
 43
0.0000001
 44
0.0000000001
 40
0.0
 40
0.0
 40
0.0
 40
0.0
 40
0.0322683598
 40
0.103479849
 40
0.2119163347
 40
0.3468328784
 40
0.4958140938
 40
0.6460541577
 40
0.7831509223
 40
0.8938217673
 40
0.9670587865
 40
1.0
 40
1.0
 40
1.0
 40
1.0
 10
111.1048964428
 20
230.8124234911
 30
0.0
 10
111.1046223709
 20
230.7789179277
 30
0.0
 10
110.9848881607
 20
230.7148854175
 30
0.0
 10
110.7916456598
 20
230.6636269379
 30
0.0
 10
110.4620279018
 20
230.5946856351
 30
0.0
 10
110.0633292466
 20
230.5308263497
 30
0.0
 10
109.6166571127
 20
230.4640779256
 30
0.0
 10
109.1676242713
 20
230.3971854043
 30
0.0
 10
108.7633704377
 20
230.332631354
 30
0.0
 10
108.4261368757
 20
230.2634450913
 30
0.0
 10
108.2297108382
 20
230.2110536415
 30
0.0
 10
108.104857578
 20
230.1465848313
 30
0.0
 10
108.1049763433
 20
230.1123796782
 30
0.0
  0
SPLINE
  5
478
100
AcDbEntity
  8
0
100
AcDbSpline
 62
7
  6
BYLAYER
 70
0
 71
3
 72
14
 73
10
 74
0
 42
0.0000001
 43
0.0000001
 44
0.0000000001
 40
0.0
 40
0.0
 40
0.0
 40
0.0
 40
0.040179782
 40
0.1266422006
 40
0.2587285495
 40
0.4255634775
 40
0.6157692786
 40
0.8124745666
 40
1.0
 40
1.0
 40
1.0
 40
1.0
 10
108.1049763433
 20
230.1123796782
 30
0.0
 10
108.1050794232
 20
230.082692042
 30
0.0
 10
108.2051040008
 20
230.0226431266
 30
0.0
 10
108.3741597113
 20
229.9748658656
 30
0.0
 10
108.6597603616
 20
229.9111705008
 30
0.0
 10
109.0133318058
 20
229.8518097274
 30
0.0
 10
109.4187000559
 20
229.7896340395
 30
0.0
 10
109.8383665822
 20
229.7280826152
 30
0.0
 10
110.1190345538
 20
229.6849028689
 30
0.0
 10
110.2557484663
 20
229.6623738294
 30
0.0
  0
SPLINE
  5
479
100
AcDbEntity
  8
0
100
AcDbSpline
 62
7
  6
BYLAYER
 70
0
 71
3
 72
11
 73
7
 74
0
 42
0.0000001
 43
0.0000001
 44
0.0000000001
 40
0.0
 40
0.0
 40
0.0
 40
0.0
 40
0.3934024568
 40
0.7031551439
 40
0.9052621997
 40
1.0
 40
1.0
 40
1.0
 40
1.0
 10
110.2557484663
 20
229.6623738294
 30
0.0
 10
110.3721877242
 20
229.6431373945
 30
0.0
 10
110.5781373509
 20
229.6083474625
 30
0.0
 10
110.8499175621
 20
229.545958309
 30
0.0
 10
111.0113812985
 20
229.4995730595
 30
0.0
 10
111.1048741249
 20
229.4407788743
 30
0.0
 10
111.1049110722
 20
229.4123583266
 30
0.0
  0
SPLINE
  5
47A
100
AcDbEntity
  8
0
100
AcDbSpline
 62
7
  6
BYLAYER
 70
0
 71
3
 72
17
 73
13
 74
0
 42
0.0000001
 43
0.0000001
 44
0.0000000001
 40
0.0
 40
0.0
 40
0.0
 40
0.0
 40
0.0327780224
 40
0.1045763311
 40
0.2126563014
 40
0.3484788001
 40
0.4985663059
 40
0.6495977763
 40
0.7860496128
 40
0.8948546598
 40
0.9670776052
 40
1.0
 40
1.0
 40
1.0
 40
1.0
 10
108.1050222717
 20
228.7123443935
 30
0.0
 10
108.1049998688
 20
228.7463782588
 30
0.0
 10
108.2275374228
 20
228.8101921699
 30
0.0
 10
108.4203869029
 20
228.8620235484
 30
0.0
 10
108.7517518465
 20
228.9303658433
 30
0.0
 10
109.1518511487
 20
228.994925064
 30
0.0
 10
109.6014910321
 20
229.06176706
 30
0.0
 10
110.0517697141
 20
229.1288904128
 30
0.0
 10
110.4541904757
 20
229.1936120283
 30
0.0
 10
110.7876226316
 20
229.2619756076
 30
0.0
 10
110.9813792574
 20
229.3142955627
 30
0.0
 10
111.1049555093
 20
229.3781044863
 30
0.0
 10
111.1049110697
 20
229.4122882338
 30
0.0
  0
SPLINE
  5
47B
100
AcDbEntity
  8
0
100
AcDbSpline
 62
7
  6
BYLAYER
 70
0
 71
3
 72
117
 73
113
 74
0
 42
0.0000001
 43
0.0000001
 44
0.0000000001
 40
0.0
 40
0.0
 40
0.0
 40
0.0
 40
0.0141089434
 40
0.0264898518
 40
0.0368619622
 40
0.0450960634
 40
0.0511434476
 40
0.0554286844
 40
0.0595686983
 40
0.0652745602
 40
0.0731907644
 40
0.0833703231
 40
0.095689195
 40
0.109775304
 40
0.1250557797
 40
0.1410285916
 40
0.1572510945
 40
0.1732785426
 40
0.1886600419
 40
0.2027820646
 40
0.2151697869
 40
0.2254462369
 40
0.2334609326
 40
0.2392871961
 40
0.2434894596
 40
0.2477310557
 40
0.2536581687
 40
0.2617898739
 40
0.2721639862
 40
0.2845346137
 40
0.2987202295
 40
0.3141486081
 40
0.330334504
 40
0.3466236226
 40
0.3625953411
 40
0.3777466249
 40
0.3917103629
 40
0.4039393946
 40
0.4141311097
 40
0.4219464395
 40
0.4275498616
 40
0.4316225189
 40
0.435963234
 40
0.442100197
 40
0.4505501953
 40
0.4611964506
 40
0.4737827046
 40
0.4879188933
 40
0.5033655155
 40
0.519545283
 40
0.5360187598
 40
0.5519898646
 40
0.5670382796
 40
0.5806782156
 40
0.5926534623
 40
0.6026021103
 40
0.6103268
 40
0.615758718
 40
0.6197649186
 40
0.6241456001
 40
0.6304060135
 40
0.6389408162
 40
0.6498305408
 40
0.662626891
 40
0.676939536
 40
0.6922794641
 40
0.7083672883
 40
0.7246670304
 40
0.7407445745
 40
0.7557942243
 40
0.7694291178
 40
0.7811831064
 40
0.790918929
 40
0.7984433624
 40
0.8038164467
 40
0.8077962725
 40
0.8122847624
 40
0.8186630723
 40
0.8273111733
 40
0.8381585041
 40
0.8509431631
 40
0.8653129344
 40
0.8807931919
 40
0.8968771666
 40
0.9132424911
 40
0.9287726874
 40
0.9418900158
 40
0.9525407755
 40
0.9611663311
 40
0.9681101776
 40
0.97366712
 40
0.9781072548
 40
0.9816592312
 40
0.9845054466
 40
0.9867928339
 40
0.9886414556
 40
0.9901496223
 40
0.9913980445
 40
0.9924514091
 40
0.9933569462
 40
0.9941495936
 40
0.9948554602
 40
0.9954939258
 40
0.9960840316
 40
0.9966520936
 40
0.9972156312
 40
0.9977832747
 40
0.9983088203
 40
0.9987318234
 40
0.9990901736
 40
0.9994523504
 40
1.0
 40
1.0
 40
1.0
 40
1.0
 10
109.9952552792
 20
229.8232109571
 30
0.0
 10
110.043011661
 20
229.8100780859
 30
0.0
 10
110.1324222512
 20
229.7844601826
 30
0.0
 10
110.2554914954
 20
229.7443635505
 30
0.0
 10
110.3568890589
 20
229.7046407538
 30
0.0
 10
110.433831125
 20
229.6645146734
 30
0.0
 10
110.486466171
 20
229.6253558786
 30
0.0
 10
110.5113796322
 20
229.5761398921
 30
0.0
 10
110.4910132256
 20
229.5261729132
 30
0.0
 10
110.441814145
 20
229.4865868646
 30
0.0
 10
110.368184482
 20
229.4467455554
 30
0.0
 10
110.2690013444
 20
229.4067763978
 30
0.0
 10
110.147119931
 20
229.3661992356
 30
0.0
 10
110.0065014119
 20
229.3255865853
 30
0.0
 10
109.8526201352
 20
229.2849064581
 30
0.0
 10
109.6909703335
 20
229.2443265896
 30
0.0
 10
109.5266081788
 20
229.203800842
 30
0.0
 10
109.3644030091
 20
229.1631907425
 30
0.0
 10
109.2098382631
 20
229.1224621453
 30
0.0
 10
109.0685055048
 20
229.0817238737
 30
0.0
 10
108.9458452146
 20
229.0412631115
 30
0.0
 10
108.8456082766
 20
229.0014395127
 30
0.0
 10
108.7709018034
 20
228.9611861218
 30
0.0
 10
108.7204278446
 20
228.921945265
 30
0.0
 10
108.6982296057
 20
228.8720523709
 30
0.0
 10
108.7222248853
 20
228.8227198939
 30
0.0
 10
108.7733956907
 20
228.7832058144
 30
0.0
 10
108.849553854
 20
228.7431159797
 30
0.0
 10
108.9505116015
 20
228.703389868
 30
0.0
 10
109.07370998
 20
228.6628910122
 30
0.0
 10
109.2154124015
 20
228.6222707443
 30
0.0
 10
109.3709241143
 20
228.5814284967
 30
0.0
 10
109.5340605464
 20
228.5406094551
 30
0.0
 10
109.699181131
 20
228.4998753142
 30
0.0
 10
109.8606036178
 20
228.4593062758
 30
0.0
 10
110.013601555
 20
228.4187582491
 30
0.0
 10
110.1529933164
 20
228.3781927093
 30
0.0
 10
110.274101975
 20
228.3375781366
 30
0.0
 10
110.372679176
 20
228.2976520618
 30
0.0
 10
110.4452126898
 20
228.2572891304
 30
0.0
 10
110.4931911638
 20
228.2174586777
 30
0.0
 10
110.5114078961
 20
228.1669550936
 30
0.0
 10
110.4838935506
 20
228.1188811716
 30
0.0
 10
110.430320757
 20
228.0794328215
 30
0.0
 10
110.3510976662
 20
228.0389356552
 30
0.0
 10
110.247214101
 20
227.9990545611
 30
0.0
 10
110.1223245251
 20
227.9587504992
 30
0.0
 10
109.9799095202
 20
227.9182961282
 30
0.0
 10
109.82446302
 20
227.8777168558
 30
0.0
 10
109.6606276035
 20
227.836853418
 30
0.0
 10
109.4949026504
 20
227.7959657056
 30
0.0
 10
109.3332464415
 20
227.7551580617
 30
0.0
 10
109.1817795736
 20
227.7146932642
 30
0.0
 10
109.044782507
 20
227.6744280059
 30
0.0
 10
108.9266039324
 20
227.6341729622
 30
0.0
 10
108.830217802
 20
227.5942030041
 30
0.0
 10
108.7597106016
 20
227.5541185881
 30
0.0
 10
108.7134019443
 20
227.5133340763
 30
0.0
 10
108.6995188645
 20
227.4622606691
 30
0.0
 10
108.7293891766
 20
227.415659908
 30
0.0
 10
108.7842632102
 20
227.3767135712
 30
0.0
 10
108.8652697105
 20
227.336216449
 30
0.0
 10
108.9710581124
 20
227.2960654416
 30
0.0
 10
109.0982201299
 20
227.2555897879
 30
0.0
 10
109.2416660154
 20
227.2151862608
 30
0.0
 10
109.3970725218
 20
227.1747624583
 30
0.0
 10
109.5596584167
 20
227.1342916881
 30
0.0
 10
109.7248410425
 20
227.0935402855
 30
0.0
 10
109.8862520055
 20
227.0527036292
 30
0.0
 10
110.0380037308
 20
227.0119164311
 30
0.0
 10
110.1741665035
 20
226.9715851796
 30
0.0
 10
110.2907357969
 20
226.9314455964
 30
0.0
 10
110.3848463641
 20
226.891617825
 30
0.0
 10
110.4534122468
 20
226.8518247113
 30
0.0
 10
110.4987472765
 20
226.810775332
 30
0.0
 10
110.5094980026
 20
226.758839559
 30
0.0
 10
110.4776176299
 20
226.7130206188
 30
0.0
 10
110.4213635905
 20
226.6741017917
 30
0.0
 10
110.3393530292
 20
226.6341123629
 30
0.0
 10
110.2333031951
 20
226.594141257
 30
0.0
 10
110.1060510899
 20
226.5538878707
 30
0.0
 10
109.9619260903
 20
226.513503922
 30
0.0
 10
109.8058392827
 20
226.4729941568
 30
0.0
 10
109.6425591758
 20
226.4323775877
 30
0.0
 10
109.4790336553
 20
226.3920233635
 30
0.0
 10
109.3258484682
 20
226.3532358702
 30
0.0
 10
109.1925965245
 20
226.3174916042
 30
0.0
 10
109.0833683333
 20
226.2858196459
 30
0.0
 10
108.9956512938
 20
226.2578830364
 30
0.0
 10
108.9257446968
 20
226.2330676056
 30
0.0
 10
108.8705469769
 20
226.2108787516
 30
0.0
 10
108.8273075958
 20
226.1910113012
 30
0.0
 10
108.7936670813
 20
226.1731864682
 30
0.0
 10
108.7677046187
 20
226.1571485211
 30
0.0
 10
108.7479067514
 20
226.1426464516
 30
0.0
 10
108.7330720531
 20
226.1294596465
 30
0.0
 10
108.7222342108
 20
226.1174119541
 30
0.0
 10
108.714619671
 20
226.1063650954
 30
0.0
 10
108.7096049869
 20
226.0962397387
 30
0.0
 10
108.706610946
 20
226.0870204575
 30
0.0
 10
108.7051858432
 20
226.0786729469
 30
0.0
 10
108.7049734858
 20
226.0711506831
 30
0.0
 10
108.7056903453
 20
226.0643782171
 30
0.0
 10
108.7071385749
 20
226.0582256827
 30
0.0
 10
108.7091064517
 20
226.0525032792
 30
0.0
 10
108.7114433778
 20
226.0470121591
 30
0.0
 10
108.7138805019
 20
226.0417320322
 30
0.0
 10
108.7163643117
 20
226.0370145955
 30
0.0
 10
108.7192253982
 20
226.0333689043
 30
0.0
 10
108.7224260487
 20
226.030913006
 30
0.0
 10
108.7257333391
 20
226.027970347
 30
0.0
 10
108.7275815843
 20
226.0251257418
 30
0.0
 10
108.7279663842
 20
226.0232421299
 30
0.0
  0
SPLINE
  5
47C
100
AcDbEntity
  8
0
100
AcDbSpline
 62
7
  6
BYLAYER
 70
0
 71
3
 72
21
 73
17
 74
0
 42
0.0000001
 43
0.0000001
 44
0.0000000001
 40
0.0
 40
0.0
 40
0.0
 40
0.0
 40
0.0915358677
 40
0.1511174688
 40
0.1938920122
 40
0.2715500436
 40
0.3229045868
 40
0.3877411155
 40
0.4634424624
 40
0.5416401827
 40
0.617380466
 40
0.6912195606
 40
0.7644920945
 40
0.839040876
 40
0.9172406344
 40
1.0
 40
1.0
 40
1.0
 40
1.0
 10
108.142629015
 20
225.8623470579
 30
0.0
 10
108.1407795599
 20
225.8630758799
 30
0.0
 10
108.1378092765
 20
225.8644927382
 30
0.0
 10
108.1342116945
 20
225.8667077558
 30
0.0
 10
108.1312999752
 20
225.8693541027
 30
0.0
 10
108.1292301474
 20
225.8724894166
 30
0.0
 10
108.1263277257
 20
225.875549425
 30
0.0
 10
108.123268182
 20
225.8783795789
 30
0.0
 10
108.119701827
 20
225.8815170801
 30
0.0
 10
108.1161143032
 20
225.8849890332
 30
0.0
 10
108.1129213816
 20
225.8887792913
 30
0.0
 10
108.1102272677
 20
225.8928159923
 30
0.0
 10
108.1081090855
 20
225.8971497629
 30
0.0
 10
108.106515415
 20
225.9018225565
 30
0.0
 10
108.1057931769
 20
225.9068819557
 30
0.0
 10
108.1050075597
 20
225.9103327408
 30
0.0
 10
108.1050464007
 20
225.9121296018
 30
0.0
  0
SPLINE
  5
47D
100
AcDbEntity
  8
0
100
AcDbSpline
 62
7
  6
BYLAYER
 70
0
 71
3
 72
17
 73
13
 74
0
 42
0.0000001
 43
0.0000001
 44
0.0000000001
 40
0.0
 40
0.0
 40
0.0
 40
0.0
 40
0.0332437557
 40
0.1068106153
 40
0.2171852602
 40
0.3525405328
 40
0.5014184681
 40
0.6505308922
 40
0.7859455333
 40
0.8944143339
 40
0.9669717162
 40
1.0
 40
1.0
 40
1.0
 40
1.0
 10
108.1050464007
 20
225.9121296018
 30
0.0
 10
108.1057923759
 20
225.9466398409
 30
0.0
 10
108.2296116626
 20
226.011574033
 30
0.0
 10
108.427894549
 20
226.0635587464
 30
0.0
 10
108.7625745068
 20
226.1324218702
 30
0.0
 10
109.1636303546
 20
226.1966288058
 30
0.0
 10
109.6094990209
 20
226.2629345248
 30
0.0
 10
110.0554930894
 20
226.3295857926
 30
0.0
 10
110.4546195298
 20
226.3935268054
 30
0.0
 10
110.7869018958
 20
226.462138169
 30
0.0
 10
110.980743755
 20
226.5138888359
 30
0.0
 10
111.1050467335
 20
226.5779879273
 30
0.0
 10
111.1049046537
 20
226.6122822007
 30
0.0
  0
SPLINE
  5
47E
100
AcDbEntity
  8
0
100
AcDbSpline
 62
7
  6
BYLAYER
 70
0
 71
3
 72
16
 73
12
 74
0
 42
0.0000001
 43
0.0000001
 44
0.0000000001
 40
0.0
 40
0.0
 40
0.0
 40
0.0
 40
0.0351329744
 40
0.1137971355
 40
0.2321686198
 40
0.3779229926
 40
0.5372502399
 40
0.6933683497
 40
0.8308944783
 40
0.9362710626
 40
1.0
 40
1.0
 40
1.0
 40
1.0
 10
111.1049046537
 20
226.6122822007
 30
0.0
 10
111.1047564748
 20
226.6480486336
 30
0.0
 10
110.9723285586
 20
226.713979732
 30
0.0
 10
110.7662607353
 20
226.7675420758
 30
0.0
 10
110.4126912094
 20
226.8385887074
 30
0.0
 10
109.9910665982
 20
226.9051460662
 30
0.0
 10
109.5251981081
 20
226.9739339087
 30
0.0
 10
109.0698499713
 20
227.0425352288
 30
0.0
 10
108.6680653812
 20
227.1091967127
 30
0.0
 10
108.3652939595
 20
227.1763850752
 30
0.0
 10
108.1966536415
 20
227.2264538497
 30
0.0
 10
108.1426111768
 20
227.262351452
 30
0.0
  0
SPLINE
  5
47F
100
AcDbEntity
  8
0
100
AcDbSpline
 62
7
  6
BYLAYER
 70
0
 71
3
 72
17
 73
13
 74
0
 42
0.0000001
 43
0.0000001
 44
0.0000000001
 40
0.0
 40
0.0
 40
0.0
 40
0.0
 40
0.0323831325
 40
0.1050599777
 40
0.2153975979
 40
0.3520066171
 40
0.5023103881
 40
0.6522807327
 40
0.7881942792
 40
0.8970122162
 40
0.9681451574
 40
1.0
 40
1.0
 40
1.0
 40
1.0
 10
108.1050161392
 20
227.3123212632
 30
0.0
 10
108.1050351977
 20
227.345949231
 30
0.0
 10
108.2273442868
 20
227.4106470644
 30
0.0
 10
108.4232405633
 20
227.4623445053
 30
0.0
 10
108.7585680344
 20
227.5319937591
 30
0.0
 10
109.1622523738
 20
227.5961883907
 30
0.0
 10
109.6118111055
 20
227.6634444773
 30
0.0
 10
110.0606642472
 20
227.7303546059
 30
0.0
 10
110.4617750923
 20
227.7945093619
 30
0.0
 10
110.792788871
 20
227.8640457316
 30
0.0
 10
110.9859082902
 20
227.9148901697
 30
0.0
 10
111.1049387338
 20
227.9792960528
 30
0.0
 10
111.1049122292
 20
228.0123754175
 30
0.0
  0
SPLINE
  5
480
100
AcDbEntity
  8
0
100
AcDbSpline
 62
7
  6
BYLAYER
 70
0
 71
3
 72
38
 73
34
 74
0
 42
0.0000001
 43
0.0000001
 44
0.0000000001
 40
0.0
 40
0.0
 40
0.0
 40
0.0
 40
0.0391984717
 40
0.0860466629
 40
0.1307333973
 40
0.1686082878
 40
0.1967764497
 40
0.2125813719
 40
0.2244173959
 40
0.2481836864
 40
0.2819161467
 40
0.3251663289
 40
0.3724310092
 40
0.4143807384
 40
0.4484908258
 40
0.4705850534
 40
0.4817234747
 40
0.4986653459
 40
0.5281923473
 40
0.5668237345
 40
0.6121463228
 40
0.6575900235
 40
0.6961370052
 40
0.7250621643
 40
0.7409213761
 40
0.7533292456
 40
0.7774068242
 40
0.8118738977
 40
0.8580206167
 40
0.9049392912
 40
0.9461467292
 40
0.9791532179
 40
1.0
 40
1.0
 40
1.0
 40
1.0
 10
109.0122702467
 20
223.4624323058
 30
0.0
 10
109.1048067627
 20
223.4927522221
 30
0.0
 10
109.3106499739
 20
223.5503411589
 30
0.0
 10
109.626273325
 20
223.6298942796
 30
0.0
 10
109.936238481
 20
223.7048094345
 30
0.0
 10
110.2078982456
 20
223.7834449235
 30
0.0
 10
110.3807952227
 20
223.8519460804
 30
0.0
 10
110.5300151852
 20
223.9419657999
 30
0.0
 10
110.4507503608
 20
224.0758389592
 30
0.0
 10
110.2863987149
 20
224.1293970159
 30
0.0
 10
110.050557276
 20
224.2126989856
 30
0.0
 10
109.7504965024
 20
224.2874401011
 30
0.0
 10
109.432163803
 20
224.3674330658
 30
0.0
 10
109.1319828353
 20
224.439423153
 30
0.0
 10
108.9088129211
 20
224.5262941237
 30
0.0
 10
108.7401715905
 20
224.5798830821
 30
0.0
 10
108.6885440281
 20
224.7198987531
 30
0.0
 10
108.8448741326
 20
224.8005557509
 30
0.0
 10
109.0261810162
 20
224.8722806002
 30
0.0
 10
109.3048674768
 20
224.9486144806
 30
0.0
 10
109.6148889319
 20
225.0269624873
 30
0.0
 10
109.9251986788
 20
225.1019923207
 30
0.0
 10
110.2023381429
 20
225.1816320922
 30
0.0
 10
110.3783433064
 20
225.2504638375
 30
0.0
 10
110.5316649819
 20
225.3427481092
 30
0.0
 10
110.4466376039
 20
225.4782798956
 30
0.0
 10
110.2796438858
 20
225.5318544083
 30
0.0
 10
110.0336034474
 20
225.6178217834
 30
0.0
 10
109.7257976513
 20
225.693837549
 30
0.0
 10
109.4023672723
 20
225.7737421089
 30
0.0
 10
109.1097717626
 20
225.8488027988
 30
0.0
 10
108.8890290908
 20
225.9262005349
 30
0.0
 10
108.7638370361
 20
225.985470046
 30
0.0
 10
108.7283346867
 20
226.0231735158
 30
0.0
  0
SPLINE
  5
481
100
AcDbEntity
  8
0
100
AcDbSpline
 62
7
  6
BYLAYER
 70
0
 71
3
 72
51
 73
47
 74
0
 42
0.0000001
 43
0.0000001
 44
0.0000000001
 40
0.0
 40
0.0
 40
0.0
 40
0.0
 40
0.0154811687
 40
0.0400110298
 40
0.0701558842
 40
0.1040538752
 40
0.1382944997
 40
0.1643187854
 40
0.181799999
 40
0.1904162388
 40
0.2023934102
 40
0.2238669559
 40
0.2521538514
 40
0.2850730673
 40
0.3187992011
 40
0.3472546769
 40
0.3687499815
 40
0.3806508117
 40
0.3891567711
 40
0.4061552569
 40
0.4312483829
 40
0.4616584719
 40
0.495250867
 40
0.5267763988
 40
0.5521463841
 40
0.5693021832
 40
0.5778491754
 40
0.5897438295
 40
0.6108146001
 40
0.6388160666
 40
0.6711579737
 40
0.7047917794
 40
0.7337061978
 40
0.7557348333
 40
0.767988193
 40
0.7764418448
 40
0.7932804281
 40
0.8179679382
 40
0.8491593697
 40
0.8834973027
 40
0.9142887193
 40
0.9405837142
 40
0.9573638733
 40
0.9658535913
 40
0.9785536641
 40
1.0
 40
1.0
 40
1.0
 40
1.0
 10
108.7283337393
 20
227.1015430284
 30
0.0
 10
108.763974613
 20
227.0630928897
 30
0.0
 10
108.8901850914
 20
227.0015912125
 30
0.0
 10
109.113507812
 20
226.9271380236
 30
0.0
 10
109.4046475571
 20
226.8506692838
 30
0.0
 10
109.7267056448
 20
226.7692044206
 30
0.0
 10
110.0385388344
 20
226.6965017457
 30
0.0
 10
110.2840934983
 20
226.6062425196
 30
0.0
 10
110.4563096133
 20
226.5520969132
 30
0.0
 10
110.5272659395
 20
226.4128172095
 30
0.0
 10
110.372073525
 20
226.3257402404
 30
0.0
 10
110.1937699874
 20
226.2559783216
 30
0.0
 10
109.9166976368
 20
226.1790695059
 30
0.0
 10
109.6068204806
 20
226.1006899944
 30
0.0
 10
109.2958626787
 20
226.0246398788
 30
0.0
 10
109.0152538657
 20
225.9469825233
 30
0.0
 10
108.8375049772
 20
225.8749886007
 30
0.0
 10
108.6828800998
 20
225.7886896922
 30
0.0
 10
108.7518562525
 20
225.6515878136
 30
0.0
 10
108.9187440797
 20
225.5979215273
 30
0.0
 10
109.1479866011
 20
225.5147451277
 30
0.0
 10
109.4419458197
 20
225.4420916912
 30
0.0
 10
109.7548674199
 20
225.3624494047
 30
0.0
 10
110.0541954393
 20
225.2917013931
 30
0.0
 10
110.2879053955
 20
225.2045117734
 30
0.0
 10
110.4561032118
 20
225.1514046292
 30
0.0
 10
110.5276567957
 20
225.0148055664
 30
0.0
 10
110.3755585409
 20
224.9268134966
 30
0.0
 10
110.1992037933
 20
224.8580778461
 30
0.0
 10
109.9266636574
 20
224.7815343424
 30
0.0
 10
109.6199026887
 20
224.7038123512
 30
0.0
 10
109.309538305
 20
224.6282856953
 30
0.0
 10
109.0257070121
 20
224.5504687912
 30
0.0
 10
108.8441036719
 20
224.4770335456
 30
0.0
 10
108.6843816795
 20
224.3933950453
 30
0.0
 10
108.7477256545
 20
224.2534081773
 30
0.0
 10
108.9144527822
 20
224.1997818174
 30
0.0
 10
109.143213898
 20
224.115846358
 30
0.0
 10
109.4413154621
 20
224.0421409803
 30
0.0
 10
109.7565066083
 20
223.9621769893
 30
0.0
 10
110.0598085071
 20
223.8904823053
 30
0.0
 10
110.289935763
 20
223.802079529
 30
0.0
 10
110.4647757123
 20
223.7485039927
 30
0.0
 10
110.5239233802
 20
223.6052537154
 30
0.0
 10
110.3633411524
 20
223.5234324846
 30
0.0
 10
110.2678173703
 20
223.4850859762
 30
0.0
 10
110.1988363423
 20
223.4623564191
 30
0.0
  0
SPLINE
  5
482
100
AcDbEntity
  8
0
100
AcDbSpline
 62
7
  6
BYLAYER
 70
0
 71
3
 72
17
 73
13
 74
0
 42
0.0000001
 43
0.0000001
 44
0.0000000001
 40
0.0
 40
0.0
 40
0.0
 40
0.0
 40
0.0333059358
 40
0.0920050708
 40
0.1867352043
 40
0.3096564639
 40
0.4493256321
 40
0.5976239651
 40
0.7418285152
 40
0.8622762405
 40
0.9512106471
 40
1.0
 40
1.0
 40
1.0
 40
1.0
 10
110.5966633942
 20
223.6764957779
 30
0.0
 10
110.6076516616
 20
223.7021395434
 30
0.0
 10
110.573244598
 20
223.7897116394
 30
0.0
 10
110.4248328745
 20
223.8507652575
 30
0.0
 10
110.2093581535
 20
223.9304434752
 30
0.0
 10
109.9175162814
 20
224.0022348034
 30
0.0
 10
109.5820988015
 20
224.0773511068
 30
0.0
 10
109.2273497904
 20
224.1517142521
 30
0.0
 10
108.8907108253
 20
224.225995402
 30
0.0
 10
108.6003392332
 20
224.2998642217
 30
0.0
 10
108.4028484945
 20
224.3682986728
 30
0.0
 10
108.2905462326
 20
224.4293862572
 30
0.0
 10
108.2744511406
 20
224.4669520366
 30
0.0
  0
SPLINE
  5
483
100
AcDbEntity
  8
0
100
AcDbSpline
 62
7
  6
BYLAYER
 70
0
 71
3
 72
10
 73
6
 74
0
 42
0.0000001
 43
0.0000001
 44
0.0000000001
 40
0.0
 40
0.0
 40
0.0
 40
0.0
 40
0.2079621421
 40
0.5525843441
 40
1.0
 40
1.0
 40
1.0
 40
1.0
 10
110.5966633942
 20
223.6764957779
 30
0.0
 10
110.5841630625
 20
223.6473232463
 30
0.0
 10
110.5150582696
 20
223.5900672311
 30
0.0
 10
110.378643278
 20
223.5257165641
 30
0.0
 10
110.2643082651
 20
223.4841884173
 30
0.0
 10
110.1996084108
 20
223.4623632385
 30
0.0
  0
SPLINE
  5
484
100
AcDbEntity
  8
0
100
AcDbSpline
 62
7
  6
BYLAYER
 70
0
 71
3
 72
12
 73
8
 74
0
 42
0.0000001
 43
0.0000001
 44
0.0000000001
 40
0.0
 40
0.0
 40
0.0
 40
0.0
 40
0.3181196809
 40
0.5925930224
 40
0.8066465073
 40
0.9399892442
 40
1.0
 40
1.0
 40
1.0
 40
1.0
 10
109.6050309628
 20
224.8622281321
 30
0.0
 10
109.4558424403
 20
224.8371820698
 30
0.0
 10
109.1781844892
 20
224.7884927295
 30
0.0
 10
108.8010947033
 20
224.7200572865
 30
0.0
 10
108.5155965402
 20
224.6342626319
 30
0.0
 10
108.331081697
 20
224.590120409
 30
0.0
 10
108.2632125064
 20
224.4931828936
 30
0.0
 10
108.2744511401
 20
224.4669520378
 30
0.0
  0
SPLINE
  5
485
100
AcDbEntity
  8
0
100
AcDbSpline
 62
7
  6
BYLAYER
 70
0
 71
3
 72
14
 73
10
 74
0
 42
0.0000001
 43
0.0000001
 44
0.0000000001
 40
0.0
 40
0.0
 40
0.0
 40
0.0
 40
0.1389990516
 40
0.3175683451
 40
0.5002896019
 40
0.6772721404
 40
0.8290755623
 40
0.9375173264
 40
1.0
 40
1.0
 40
1.0
 40
1.0
 10
109.0118198847
 20
223.4623632385
 30
0.0
 10
109.0894794554
 20
223.4873251212
 30
0.0
 10
109.2699268044
 20
223.5347676169
 30
0.0
 10
109.5566595391
 20
223.5974151092
 30
0.0
 10
109.8667313073
 20
223.6596272365
 30
0.0
 10
110.1592750859
 20
223.7213443714
 30
0.0
 10
110.4124959666
 20
223.7809879065
 30
0.0
 10
110.5850992925
 20
223.8383012447
 30
0.0
 10
110.6868256436
 20
223.8868265487
 30
0.0
 10
110.7012653757
 20
223.9205321789
 30
0.0
  0
SPLINE
  5
486
100
AcDbEntity
  8
0
100
AcDbSpline
 62
7
  6
BYLAYER
 70
0
 71
3
 72
17
 73
13
 74
0
 42
0.0000001
 43
0.0000001
 44
0.0000000001
 40
0.0
 40
0.0
 40
0.0
 40
0.0
 40
0.0270665192
 40
0.0859420648
 40
0.1802984898
 40
0.3029687572
 40
0.4450183624
 40
0.6004502814
 40
0.7496894434
 40
0.8719388563
 40
0.9580559915
 40
1.0
 40
1.0
 40
1.0
 40
1.0
 10
110.7012653757
 20
223.9205321789
 30
0.0
 10
110.7104329326
 20
223.9419313489
 30
0.0
 10
110.6509911834
 20
224.0180840143
 30
0.0
 10
110.5058198985
 20
224.052174551
 30
0.0
 10
110.2746671388
 20
224.1189151312
 30
0.0
 10
109.9714872757
 20
224.1731595585
 30
0.0
 10
109.6149779578
 20
224.2333149115
 30
0.0
 10
109.2350015182
 20
224.2934298714
 30
0.0
 10
108.8747729096
 20
224.3541055431
 30
0.0
 10
108.567339846
 20
224.412830989
 30
0.0
 10
108.3710329578
 20
224.4692855504
 30
0.0
 10
108.2538326822
 20
224.5150367305
 30
0.0
 10
108.2396263082
 20
224.5481983631
 30
0.0
  0
SPLINE
  5
487
100
AcDbEntity
  8
0
100
AcDbSpline
 62
7
  6
BYLAYER
 70
0
 71
3
 72
12
 73
8
 74
0
 42
0.0000001
 43
0.0000001
 44
0.0000000001
 40
0.0
 40
0.0
 40
0.0
 40
0.0
 40
0.0549994313
 40
0.1910309217
 40
0.4052218151
 40
0.6788441244
 40
1.0
 40
1.0
 40
1.0
 40
1.0
 10
108.2396263101
 20
224.5481983589
 30
0.0
 10
108.2293332495
 20
224.5722252283
 30
0.0
 10
108.32642127
 20
224.6527948904
 30
0.0
 10
108.4969651067
 20
224.6786801408
 30
0.0
 10
108.7957975046
 20
224.7501915817
 30
0.0
 10
109.1727808571
 20
224.8025071128
 30
0.0
 10
109.4537515387
 20
224.8419588834
 30
0.0
 10
109.6050309628
 20
224.8622281321
 30
0.0
  0
SPLINE
  5
488
100
AcDbEntity
  8
0
100
AcDbSpline
 62
7
  6
BYLAYER
 70
0
 71
3
 72
12
 73
8
 74
0
 42
0.0000001
 43
0.0000001
 44
0.0000000001
 40
0.0
 40
0.0
 40
0.0
 40
0.0
 40
0.3049451894
 40
0.5750594183
 40
0.7925170652
 40
0.9358982675
 40
1.0
 40
1.0
 40
1.0
 40
1.0
 10
109.6050462409
 20
224.8621351566
 30
0.0
 10
109.7616447364
 20
224.885467048
 30
0.0
 10
110.0578542272
 20
224.9300664016
 30
0.0
 10
110.4605758699
 20
224.993900767
 30
0.0
 10
110.790961596
 20
225.0634720249
 30
0.0
 10
110.9850092496
 20
225.1145677922
 30
0.0
 10
111.1045376344
 20
225.178991904
 30
0.0
 10
111.1049062104
 20
225.2122713865
 30
0.0
  0
SPLINE
  5
489
100
AcDbEntity
  8
0
100
AcDbSpline
 62
7
  6
BYLAYER
 70
0
 71
3
 72
16
 73
12
 74
0
 42
0.0000001
 43
0.0000001
 44
0.0000000001
 40
0.0
 40
0.0
 40
0.0
 40
0.0
 40
0.0353857343
 40
0.1140952282
 40
0.2314512071
 40
0.3786040561
 40
0.5381636753
 40
0.6941395517
 40
0.8327130674
 40
0.9374718647
 40
1.0
 40
1.0
 40
1.0
 40
1.0
 10
111.1049062104
 20
225.2122713865
 30
0.0
 10
111.1053051404
 20
225.2482915873
 30
0.0
 10
110.9707426842
 20
225.3137411642
 30
0.0
 10
110.7666429407
 20
225.3674853706
 30
0.0
 10
110.4121486589
 20
225.438750759
 30
0.0
 10
109.9900799291
 20
225.5048062061
 30
0.0
 10
109.5227727832
 20
225.5745209623
 30
0.0
 10
109.0661897358
 20
225.6425509591
 30
0.0
 10
108.6642905581
 20
225.7100122756
 30
0.0
 10
108.3621572828
 20
225.7768042361
 30
0.0
 10
108.1956833877
 20
225.8271110055
 30
0.0
 10
108.142636937
 20
225.862293387
 30
0.0
  0
SPLINE
  5
48A
100
AcDbEntity
  8
0
100
AcDbSpline
 62
7
  6
BYLAYER
 70
0
 71
3
 72
10
 73
6
 74
0
 42
0.0000001
 43
0.0000001
 44
0.0000000001
 40
0.0
 40
0.0
 40
0.0
 40
0.0
 40
0.3457648406
 40
0.706356069
 40
1.0
 40
1.0
 40
1.0
 40
1.0
 10
112.2737287304
 20
259.9624002997
 30
0.0
 10
112.1581903869
 20
260.0981578348
 30
0.0
 10
111.8834980297
 20
260.2916283187
 30
0.0
 10
111.4455879247
 20
260.4591837371
 30
0.0
 10
111.1411656628
 20
260.5299184089
 30
0.0
 10
111.0017177478
 20
260.5555658367
 30
0.0
  0
SPLINE
  5
48B
100
AcDbEntity
  8
0
100
AcDbSpline
 62
7
  6
BYLAYER
 70
0
 71
3
 72
10
 73
6
 74
0
 42
0.0000001
 43
0.0000001
 44
0.0000000001
 40
0.0
 40
0.0
 40
0.0
 40
0.0
 40
0.3457648406
 40
0.706356069
 40
1.0
 40
1.0
 40
1.0
 40
1.0
 10
106.9362012059
 20
259.9624002997
 30
0.0
 10
107.0517395493
 20
260.0981578348
 30
0.0
 10
107.3264319066
 20
260.2916283187
 30
0.0
 10
107.7643420116
 20
260.4591837371
 30
0.0
 10
108.0687642735
 20
260.5299184089
 30
0.0
 10
108.2082121885
 20
260.5555658367
 30
0.0
  0
ENDSEC
  0
SECTION
  2
OBJECTS
  0
DICTIONARY
  5
C
100
AcDbDictionary
280
0
281
1
  3
ACAD_GROUP
350
D
  3
ACAD_MLINESTYLE
350
17
  3
ACAD_LAYOUT
350
1A
  3
ACAD_PLOTSETTINGS
350
19
  3
ACAD_PLOTSTYLENAME
350
E
  0
DICTIONARY
  5
D
102
{ACAD_REACTORS
330
C
102
}
100
AcDbDictionary
280
0
281
1
  0
ACDBDICTIONARYWDFLT
  5
E
102
{ACAD_REACTORS
330
C
102
}
100
AcDbDictionary
281
1
  3
Normal
350
F
100
AcDbDictionaryWithDefault
340
F
  0
DICTIONARY
  5
17
102
{ACAD_REACTORS
330
C
102
}
100
AcDbDictionary
280
0
281
1
  3
Standard
350
18
  0
DICTIONARY
  5
19
102
{ACAD_REACTORS
330
C
102
}
100
AcDbDictionary
281
1
  0
DICTIONARY
  5
1A
102
{ACAD_REACTORS
330
C
102
}
100
AcDbDictionary
281
1
  3
Model
350
48C
  3
Layout1
350
48D
  0
ACDBPLACEHOLDER
  5
F
102
{ACAD_REACTORS
330
E
102
}
  0
MLINESTYLE
  5
18
102
{ACAD_REACTORS
330
17
102
}
100
AcDbMlineStyle
  2
STANDARD
 70
0
  3

 62
256
 51
90.0
 52
90.0
 71
2
 49
0.5
 62
256
  6
BYLAYER
 49
-0.5
 62
256
  6
BYLAYER
  0
LAYOUT
  5
48C
102
{ACAD_REACTORS
330
1A
102
}
100
AcDbPlotSettings
  1

  2
none_device
  4

  6

 40
0.0
 41
0.0
 42
0.0
 43
0.0
 44
210.0
 45
297.0
 46
0.0
 47
0.0
 48
0.0
 49
0.0
140
0.0
141
0.0
142
1.0
143
1.0
 70
1024
 72
1
 73
0
 74
0
  7

 75
0
147
1.0
148
0.0
149
0.0
100
AcDbLayout
  1
Model
 70
0
 71
0
 10
0.0
 20
0.0
 11
210.0
 21
297.0
 12
0.0
 22
0.0
 32
0.0
 14
0.0
 24
0.0
 34
0.0
 15
0.0
 25
0.0
 35
0.0
146
0.0
 13
0.0
 23
0.0
 33
0.0
 16
1.0
 26
0.0
 36
0.0
 17
0.0
 27
1.0
 37
0.0
 76
0
330
210
345
0
346
0
  0
LAYOUT
  5
48D
102
{ACAD_REACTORS
330
1A
102
}
100
AcDbPlotSettings
  1

  2
none_device
  4

  6

 40
0.0
 41
0.0
 42
0.0
 43
0.0
 44
210.0
 45
297.0
 46
0.0
 47
0.0
 48
0.0
 49
0.0
140
0.0
141
0.0
142
1.0
143
1.0
 70
0
 72
1
 73
0
 74
0
  7

 75
0
147
1.0
148
0.0
149
0.0
100
AcDbLayout
  1
Layout1
 70
0
 71
1
 10
0.0
 20
0.0
 11
210.0
 21
297.0
 12
0.0
 22
0.0
 32
0.0
 14
0.0
 24
0.0
 34
0.0
 15
0.0
 25
0.0
 35
0.0
146
0.0
 13
0.0
 23
0.0
 33
0.0
 16
1.0
 26
0.0
 36
0.0
 17
0.0
 27
1.0
 37
0.0
 76
0
330
211
345
0
346
0
  0
ENDSEC
  0
EOF
