999
DXF file: C:\Users\sesa63760\Dev\_Creo\CAD\MCADUE0001818_3D-CAD\drw0001_1.dxf
999
Pro/ENGINEER 2019471 by Parametric Technology Corporation
  0
SECTION
  2
HEADER
  9
$ACADVER
  1
AC1024
  9
$DWGCODEPAGE
  3
ANSI_1252
  9
$EXTMAX
 10
1906.069760238
 20
2695.7272323366
 30
0.0
  9
$EXTMIN
 10
-0.0
 20
0.0
 30
0.0
  9
$LIMMIN
 10
-0.0
 20
0.0
  9
$LIMMAX
 10
1906.069760238
 20
2695.7272323366
  9
$VIEWCTR
 10
953.034880119
 20
1347.8636161683
  9
$VIEWSIZE
 40
2695.7272323366
  9
$CLAYER
  8
0
  9
$LTSCALE
 40
175.7214788486
  9
$CELTYPE
  6
BYLAYER
  9
$DIMSCALE
 40
1.0
  9
$DIMASZ
 40
22.6913066695
  9
$DIMEXO
 40
1.0
  9
$DIMDLI
 40
121.4075672045
  9
$DIMEXE
 40
1.0
  9
$DIMCEN
 40
28.7544238116
  9
$DIMLFAC
 40
1.0
  9
$DIMBLK
  1
_FILLED
  9
$DIMALT
 70
0
  9
$DIMALTF
 40
0.0393700787
  9
$DIMTXT
 40
31.7678293373
  9
$DIMTOL
 70
1
  9
$DIMLIM
 70
0
  9
$DIMTFAC
 40
1.0
  9
$DIMTP
 40
0.01
  9
$DIMTM
 40
0.01
  9
$DIMGAP
 40
0.625
  9
$DIMDSEP
 70
46
  9
$AUNITS
 70
0
  9
$PDMODE
 70
3
  9
$PDSIZE
 40
0.3125
  9
$HANDSEED
  5
2A2
  9
$TILEMODE
 70
1
  9
$MEASUREMENT
 70
1
  9
$INSUNITS
 70
4
  0
ENDSEC
  0
SECTION
  2
CLASSES
  0
CLASS
  1
ACDBDICTIONARYWDFLT
  2
AcDbDictionaryWithDefault
  3
AutoCAD 2000
 90
0
 91
1
280
0
281
0
  0
CLASS
  1
ACDBPLACEHOLDER
  2
AcDbPlaceHolder
  3
AutoCAD 2000
 90
0
 91
1
280
0
281
0
  0
CLASS
  1
LAYOUT
  2
AcDbLayout
  3
AutoCAD 2000
 90
0
 91
0
280
0
281
0
  0
ENDSEC
  0
SECTION
  2
TABLES
  0
TABLE
  2
VPORT
  5
8
100
AcDbSymbolTable
 70
2
  0
VPORT
  5
1F4
100
AcDbSymbolTableRecord
100
AcDbViewportTableRecord
  2
*ACTIVE
 70
0
 10
0.0
 20
0.0
 11
1.0
 21
1.0
 12
953.034880119
 22
1347.8636161683
 13
0.0
 23
0.0
 14
1.0
 24
1.0
 15
0.0
 25
0.0
 16
0.0
 26
0.0
 36
1.0
 17
0.0
 27
0.0
 37
0.0
 40
2695.7272323366
 41
0.7070707071
 42
50.0
 43
0.0
 44
0.0
 50
0.0
 51
0.0
 71
0
 72
100
 73
1
 74
1
 75
0
 76
0
 77
0
 78
0
  0
ENDTAB
  0
TABLE
  2
LTYPE
  5
5
100
AcDbSymbolTable
 70
6
  0
LTYPE
  5
14
100
AcDbSymbolTableRecord
100
AcDbLinetypeTableRecord
  2
BYBLOCK
 70
0
  3

 72
65
 73
0
 40
0.0
  0
LTYPE
  5
15
100
AcDbSymbolTableRecord
100
AcDbLinetypeTableRecord
  2
BYLAYER
 70
0
  3

 72
65
 73
0
 40
0.0
  0
LTYPE
  5
16
100
AcDbSymbolTableRecord
100
AcDbLinetypeTableRecord
  2
CONTINUOUS
 70
64
  3
Solid line
 72
65
 73
0
 40
0.0
  0
LTYPE
  5
1F5
100
AcDbSymbolTableRecord
100
AcDbLinetypeTableRecord
  2
CENTER
 70
64
  3
____ _ ____ _ ____ _ ____ _ ____ _ ____ _ ____
 72
65
 73
4
 40
0.6
 49
0.375
 74
0
 49
-0.075
 74
0
 49
0.075
 74
0
 49
-0.075
 74
0
  0
LTYPE
  5
1F6
100
AcDbSymbolTableRecord
100
AcDbLinetypeTableRecord
  2
HIDDEN
 70
64
  3
- - - - - - - - - - - - - - - - - - - -
 72
65
 73
2
 40
0.2
 49
0.1
 74
0
 49
-0.1
 74
0
  0
LTYPE
  5
1F7
100
AcDbSymbolTableRecord
100
AcDbLinetypeTableRecord
  2
PHANTOM
 70
64
  3
_____ _ _ _____ _ _ _____ _ _ _____
 72
65
 73
6
 40
0.8
 49
0.45
 74
0
 49
-0.05
 74
0
 49
0.1
 74
0
 49
-0.05
 74
0
 49
0.1
 74
0
 49
-0.05
 74
0
  0
LTYPE
  5
1F8
100
AcDbSymbolTableRecord
100
AcDbLinetypeTableRecord
  2
DOT
 70
64
  3
. . . . . . . . . . . . . . . . . . . .
 72
65
 73
2
 40
0.2
 49
0.1
 74
0
 49
-0.1
 74
0
  0
LTYPE
  5
1F9
100
AcDbSymbolTableRecord
100
AcDbLinetypeTableRecord
  2
DASHED
 70
64
  3
- - - - - - - - - - - - - - - - - - - -
 72
65
 73
2
 40
0.2
 49
0.1
 74
0
 49
-0.1
 74
0
  0
ENDTAB
  0
TABLE
  2
LAYER
  5
2
100
AcDbSymbolTable
 70
36
  0
LAYER
  5
10
100
AcDbSymbolTableRecord
100
AcDbLayerTableRecord
  2
0
 70
0
 62
7
  6
CONTINUOUS
370
-3
390
F
  0
LAYER
  5
1FA
100
AcDbSymbolTableRecord
100
AcDbLayerTableRecord
  2
DEFAULT_1
 70
0
 62
7
  6
CENTER
370
-3
390
F
  0
LAYER
  5
1FB
100
AcDbSymbolTableRecord
100
AcDbLayerTableRecord
  2
DEFAULT_2
 70
0
 62
8
  6
HIDDEN
370
-3
390
F
  0
LAYER
  5
1FC
100
AcDbSymbolTableRecord
100
AcDbLayerTableRecord
  2
DEFAULT_3
 70
0
 62
7
  6
PHANTOM
370
-3
390
F
  0
LAYER
  5
1FD
100
AcDbSymbolTableRecord
100
AcDbLayerTableRecord
  2
00_COMPONENTS
 70
0
 62
7
  6
CONTINUOUS
370
-3
390
F
  0
LAYER
  5
1FE
100
AcDbSymbolTableRecord
100
AcDbLayerTableRecord
  2
01_1_DEFAULT_DATUMS
 70
0
 62
7
  6
CONTINUOUS
370
-3
390
F
  0
LAYER
  5
1FF
100
AcDbSymbolTableRecord
100
AcDbLayerTableRecord
  2
01_PLANES
 70
0
 62
7
  6
CONTINUOUS
370
-3
390
F
  0
LAYER
  5
200
100
AcDbSymbolTableRecord
100
AcDbLayerTableRecord
  2
02_COORD_SYS
 70
0
 62
7
  6
CONTINUOUS
370
-3
390
F
  0
LAYER
  5
201
100
AcDbSymbolTableRecord
100
AcDbLayerTableRecord
  2
03_AXES
 70
0
 62
7
  6
CONTINUOUS
370
-3
390
F
  0
LAYER
  5
202
100
AcDbSymbolTableRecord
100
AcDbLayerTableRecord
  2
04_POINTS
 70
0
 62
7
  6
CONTINUOUS
370
-3
390
F
  0
LAYER
  5
203
100
AcDbSymbolTableRecord
100
AcDbLayerTableRecord
  2
05_CURVES
 70
0
 62
7
  6
CONTINUOUS
370
-3
390
F
  0
LAYER
  5
204
100
AcDbSymbolTableRecord
100
AcDbLayerTableRecord
  2
06_SURFS
 70
0
 62
7
  6
CONTINUOUS
370
-3
390
F
  0
LAYER
  5
205
100
AcDbSymbolTableRecord
100
AcDbLayerTableRecord
  2
07_COSMETICS
 70
0
 62
7
  6
CONTINUOUS
370
-3
390
F
  0
LAYER
  5
206
100
AcDbSymbolTableRecord
100
AcDbLayerTableRecord
  2
10_NOTES
 70
0
 62
7
  6
CONTINUOUS
370
-3
390
F
  0
LAYER
  5
207
100
AcDbSymbolTableRecord
100
AcDbLayerTableRecord
  2
11_NOTES_PUB
 70
0
 62
7
  6
CONTINUOUS
370
-3
390
F
  0
LAYER
  5
208
100
AcDbSymbolTableRecord
100
AcDbLayerTableRecord
  2
13_REF_GTOL
 70
0
 62
7
  6
CONTINUOUS
370
-3
390
F
  0
LAYER
  5
209
100
AcDbSymbolTableRecord
100
AcDbLayerTableRecord
  2
16_MISC
 70
0
 62
7
  6
CONTINUOUS
370
-3
390
F
  0
LAYER
  5
20A
100
AcDbSymbolTableRecord
100
AcDbLayerTableRecord
  2
17_NO_PRINT
 70
0
 62
7
  6
CONTINUOUS
370
-3
390
F
  0
LAYER
  5
20B
100
AcDbSymbolTableRecord
100
AcDbLayerTableRecord
  2
18_DATUM_CAMS_JOINTS
 70
0
 62
7
  6
CONTINUOUS
370
-3
390
F
  0
LAYER
  5
20C
100
AcDbSymbolTableRecord
100
AcDbLayerTableRecord
  2
19_DATUM_FUNCTIONAL
 70
0
 62
7
  6
CONTINUOUS
370
-3
390
F
  0
LAYER
  5
20D
100
AcDbSymbolTableRecord
100
AcDbLayerTableRecord
  2
20_DATUM_KINEMATIC_SCHEME
 70
0
 62
7
  6
CONTINUOUS
370
-3
390
F
  0
ENDTAB
  0
TABLE
  2
STYLE
  5
3
100
AcDbSymbolTable
 70
1
  0
STYLE
  5
11
100
AcDbSymbolTableRecord
100
AcDbTextStyleTableRecord
  2
STANDARD
 70
0
 40
0.0
 41
0.8
 50
0.0
 71
0
 42
0.2
  3
txt
  4

  0
STYLE
  5
20E
100
AcDbSymbolTableRecord
100
AcDbTextStyleTableRecord
  2
TEXTSTYLE_1
 70
0
 40
0.0
 41
0.8
 50
0.0
 71
0
 42
0.2
  3
gdt
  4

  0
ENDTAB
  0
TABLE
  2
VIEW
  5
6
100
AcDbSymbolTable
 70
0
  0
ENDTAB
  0
TABLE
  2
UCS
  5
7
100
AcDbSymbolTable
 70
0
  0
ENDTAB
  0
TABLE
  2
APPID
  5
9
100
AcDbSymbolTable
 70
1
  0
APPID
  5
20F
100
AcDbSymbolTableRecord
100
AcDbRegAppTableRecord
  2
ACAD
 70
0
  0
ENDTAB
  0
TABLE
  2
BLOCK_RECORD
  5
1
100
AcDbSymbolTable
 70
0
  0
BLOCK_RECORD
  5
210
100
AcDbSymbolTableRecord
100
AcDbBlockTableRecord
  2
*Model_Space
  0
BLOCK_RECORD
  5
211
100
AcDbSymbolTableRecord
100
AcDbBlockTableRecord
  2
*Paper_Space
  0
BLOCK_RECORD
  5
212
100
AcDbSymbolTableRecord
100
AcDbBlockTableRecord
  2
_FILLED
  0
ENDTAB
  0
TABLE
  2
DIMSTYLE
  5
A
100
AcDbSymbolTable
 70
1
100
AcDbDimStyleTable
 71
0
  0
DIMSTYLE
105
213
100
AcDbSymbolTableRecord
100
AcDbDimStyleTableRecord
  2
STANDARD
 70
0
  3

  4

 40
1.0
 41
22.6913066695
 42
1.0
 43
0.38
 44
1.0
 45
0.0
 46
0.0
 47
0.01
 48
0.01
140
31.7678293373
141
0.09
142
0.0
143
25.4
144
1.0
145
0.0
146
1.0
147
0.625
 71
1
 72
0
 73
0
 74
0
 75
0
 76
0
 77
1
 78
8
 79
2
170
0
171
1
172
0
173
0
174
0
175
0
176
0
177
0
178
0
270
2
179
2
271
2
272
2
273
2
274
2
275
0
280
0
281
0
282
0
283
1
284
8
285
0
286
0
287
3
288
0
340
11
278
46
341
212
342
212
343
212
344
212
  0
ENDTAB
  0
ENDSEC
  0
SECTION
  2
BLOCKS
  0
BLOCK
  5
20
100
AcDbEntity
  8
0
100
AcDbBlockBegin
  2
*Model_Space
 70
0
 10
0.0
 20
0.0
 30
0.0
  3
*Model_Space
  1

  0
ENDBLK
  5
21
100
AcDbEntity
  8
0
100
AcDbBlockEnd
  0
BLOCK
  5
1C
100
AcDbEntity
  8
0
100
AcDbBlockBegin
  2
*Paper_Space
 70
0
 10
0.0
 20
0.0
 30
0.0
  3
*Paper_Space
  1

  0
ENDBLK
  5
1D
100
AcDbEntity
  8
0
100
AcDbBlockEnd
  0
BLOCK
  5
214
100
AcDbEntity
  8
0
100
AcDbBlockBegin
  2
_FILLED
 70
64
 10
0.0
 20
0.0
  3
_FILLED
  1

  0
SOLID
  5
215
100
AcDbEntity
  8
0
  6
BYBLOCK
 62
0
100
AcDbTrace
 10
0.0
 20
0.0
 11
-1.0
 21
0.25
 12
-1.0
 22
-0.25
 13
-1.0
 23
-0.25
  0
ENDBLK
  5
216
100
AcDbEntity
  8
0
  6
BYBLOCK
 62
0
100
AcDbBlockEnd
  0
ENDSEC
  0
SECTION
  2
ENTITIES
  0
LINE
  5
217
100
AcDbEntity
  8
0
100
AcDbLine
 62
7
  6
CONTINUOUS
 10
543.5705185064
 20
2494.2467039893
 11
260.7289836209
 21
2330.9490424407
  0
LINE
  5
218
100
AcDbEntity
  8
0
100
AcDbLine
 62
7
  6
CONTINUOUS
 10
275.719773334
 20
2312.4962727553
 11
268.3657992697
 21
2308.2504791936
  0
LINE
  5
219
100
AcDbEntity
  8
0
100
AcDbLine
 62
7
  6
CONTINUOUS
 10
260.7289836209
 20
861.2446916075
 11
260.7289836209
 21
2330.9490424407
  0
LINE
  5
21A
100
AcDbEntity
  8
0
100
AcDbLine
 62
7
  6
CONTINUOUS
 10
1392.1045438561
 20
208.059484375
 11
260.7289836209
 21
861.2446916075
  0
LINE
  5
21B
100
AcDbEntity
  8
0
100
AcDbLine
 62
7
  6
CONTINUOUS
 10
269.2143003227
 20
866.1438315588
 11
1383.6192271543
 21
222.7564024348
  0
LINE
  5
21C
100
AcDbEntity
  8
0
100
AcDbLine
 62
7
  6
CONTINUOUS
 10
1377.1138483002
 20
226.7572591469
 11
833.3464696622
 21
540.694399373
  0
LINE
  5
21D
100
AcDbEntity
  8
0
100
AcDbLine
 62
7
  6
CONTINUOUS
 10
829.8109210364
 20
542.7356031456
 11
268.3657992697
 21
866.8787622348
  0
LINE
  5
21E
100
AcDbEntity
  8
0
100
AcDbLine
 62
7
  6
CONTINUOUS
 10
268.3657992697
 20
866.8787622348
 11
268.3657992697
 21
2308.2504791936
  0
LINE
  5
21F
100
AcDbEntity
  8
0
100
AcDbLine
 62
7
  6
CONTINUOUS
 10
269.2143003227
 20
2316.2521243809
 11
269.2143003227
 21
2308.7403585807
  0
LINE
  5
220
100
AcDbEntity
  8
0
100
AcDbLine
 62
7
  6
CONTINUOUS
 10
837.1648951007
 20
1988.3531136662
 11
829.8109210364
 21
1984.1073201045
  0
LINE
  5
221
100
AcDbEntity
  8
0
100
AcDbLine
 62
7
  6
CONTINUOUS
 10
840.7004437265
 20
1986.3119098936
 11
833.3464696622
 21
1982.0661163319
  0
LINE
  5
222
100
AcDbEntity
  8
0
100
AcDbLine
 62
7
  6
CONTINUOUS
 10
815.1529353865
 20
1133.2694875436
 11
841.3159952169
 21
1118.1645796263
  0
LINE
  5
223
100
AcDbEntity
  8
0
100
AcDbLine
 62
7
  6
CONTINUOUS
 10
829.8109210364
 20
1984.1073201045
 11
829.8109210364
 21
1364.4928164806
  0
LINE
  5
224
100
AcDbEntity
  8
0
100
AcDbLine
 62
7
  6
CONTINUOUS
 10
829.8109210364
 20
1124.8068870324
 11
829.8109210364
 21
542.7356031456
  0
LINE
  5
225
100
AcDbEntity
  8
0
100
AcDbLine
 62
7
  6
CONTINUOUS
 10
833.3464696622
 20
540.694399373
 11
833.3464696622
 21
1122.7656832598
  0
LINE
  5
226
100
AcDbEntity
  8
0
100
AcDbLine
 62
7
  6
CONTINUOUS
 10
833.3464696622
 20
1365.2075392669
 11
833.3464696622
 21
1982.0661163319
  0
LINE
  5
227
100
AcDbEntity
  8
0
100
AcDbLine
 62
7
  6
CONTINUOUS
 10
861.2801779926
 20
1349.7879684288
 11
861.2801919558
 21
1350.460576592
  0
LINE
  5
228
100
AcDbEntity
  8
0
100
AcDbLine
 62
7
  6
CONTINUOUS
 10
861.9844135306
 20
1139.2535072844
 11
861.9844135306
 21
1350.1945565792
  0
LINE
  5
229
100
AcDbEntity
  8
0
100
AcDbLine
 62
7
  6
CONTINUOUS
 10
1674.9460787416
 20
1841.0614967568
 11
1392.1045438561
 21
1677.7638352082
  0
LINE
  5
22A
100
AcDbEntity
  8
0
100
AcDbLine
 62
7
  6
CONTINUOUS
 10
1383.6192271543
 20
1671.8848359189
 11
1377.1138483002
 21
1668.1289761058
  0
LINE
  5
22B
100
AcDbEntity
  8
0
100
AcDbLine
 62
7
  6
CONTINUOUS
 10
861.9844135306
 20
1350.1945565792
 11
861.2801779926
 21
1349.7879684288
  0
LINE
  5
22C
100
AcDbEntity
  8
0
100
AcDbLine
 62
7
  6
CONTINUOUS
 10
823.1637212357
 20
1362.2252104288
 11
849.3267810662
 21
1347.1203025115
  0
LINE
  5
22D
100
AcDbEntity
  8
0
100
AcDbLine
 62
7
  6
CONTINUOUS
 10
850.232460319
 20
1348.2272412955
 11
824.0694004885
 21
1363.3321492127
  0
LINE
  5
22E
100
AcDbEntity
  8
0
100
AcDbLine
 62
7
  6
CONTINUOUS
 10
835.1171321254
 20
1365.5654845092
 11
861.2801919558
 21
1350.460576592
  0
LINE
  5
22F
100
AcDbEntity
  8
0
100
AcDbLine
 62
7
  6
CONTINUOUS
 10
861.9844132163
 20
1350.1945563977
 11
835.8213533858
 21
1365.299464315
  0
LINE
  5
230
100
AcDbEntity
  8
0
100
AcDbLine
 62
7
  6
CONTINUOUS
 10
841.3159952169
 20
1118.1645796263
 11
861.1565703241
 21
1138.7755546393
  0
LINE
  5
231
100
AcDbEntity
  8
0
100
AcDbLine
 62
7
  6
CONTINUOUS
 10
861.2801919558
 20
1350.460576592
 11
850.232460319
 21
1348.2272412955
  0
LINE
  5
232
100
AcDbEntity
  8
0
100
AcDbLine
 62
7
  6
CONTINUOUS
 10
824.0694004885
 20
1363.3321492127
 11
835.1171321254
 21
1365.5654845092
  0
LINE
  5
233
100
AcDbEntity
  8
0
100
AcDbLine
 62
7
  6
CONTINUOUS
 10
861.1565703241
 20
1138.7755546393
 11
861.9844135306
 21
1139.2535072844
  0
LINE
  5
234
100
AcDbEntity
  8
0
100
AcDbLine
 62
7
  6
CONTINUOUS
 10
1377.1138483002
 20
1668.1289761058
 11
1377.1138483002
 21
226.7572591469
  0
LINE
  5
235
100
AcDbEntity
  8
0
100
AcDbLine
 62
7
  6
CONTINUOUS
 10
1383.6192271543
 20
222.7564024348
 11
1383.6192271543
 21
1672.8646952569
  0
LINE
  5
236
100
AcDbEntity
  8
0
100
AcDbLine
 62
7
  6
CONTINUOUS
 10
1392.1045438561
 20
1677.7638352082
 11
1392.1045438561
 21
208.059484375
  0
LINE
  5
237
100
AcDbEntity
  8
0
100
AcDbLine
 62
7
  6
CONTINUOUS
 10
268.3657992697
 20
2308.2504791936
 11
829.8109210364
 21
1984.1073201045
  0
LINE
  5
238
100
AcDbEntity
  8
0
100
AcDbLine
 62
7
  6
CONTINUOUS
 10
833.3464696622
 20
1982.0661163319
 11
1377.1138483002
 21
1668.1289761058
  0
LINE
  5
239
100
AcDbEntity
  8
0
100
AcDbLine
 62
7
  6
CONTINUOUS
 10
1383.6192271543
 20
1672.8646952569
 11
269.2143003227
 21
2316.2521243809
  0
LINE
  5
23A
100
AcDbEntity
  8
0
100
AcDbLine
 62
7
  6
CONTINUOUS
 10
260.7289836209
 20
2330.9490424407
 11
1392.1045438561
 21
1677.7638352082
  0
LINE
  5
23B
100
AcDbEntity
  8
0
100
AcDbLine
 62
7
  6
CONTINUOUS
 10
833.3464696622
 20
544.7768409119
 11
829.8109210364
 21
542.7356031456
  0
LINE
  5
23C
100
AcDbEntity
  8
0
100
AcDbLine
 62
7
  6
CONTINUOUS
 10
1674.9460787416
 20
371.3571459236
 11
1674.9460787416
 21
1841.0614967568
  0
LINE
  5
23D
100
AcDbEntity
  8
0
100
AcDbLine
 62
7
  6
CONTINUOUS
 10
1674.9460787416
 20
1841.0614967568
 11
543.5705185064
 21
2494.2467039893
  0
LINE
  5
23E
100
AcDbEntity
  8
0
100
AcDbLine
 62
7
  6
CONTINUOUS
 10
1383.6192271543
 20
230.5131189601
 11
1377.1138483002
 21
226.7572591469
  0
LINE
  5
23F
100
AcDbEntity
  8
0
100
AcDbLine
 62
7
  6
CONTINUOUS
 10
1674.9460787416
 20
371.3571459236
 11
1392.1045438561
 21
208.059484375
  0
ARC
  5
240
100
AcDbEntity
  8
0
100
AcDbCircle
 62
7
  6
CONTINUOUS
 10
347.9014630173
 20
2325.6990736021
 40
6.7672328313
100
AcDbArc
 50
116.8344290323
 51
119.9680507444
  0
ARC
  5
241
100
AcDbEntity
  8
0
100
AcDbCircle
 62
7
  6
CONTINUOUS
 10
1390.8883076099
 20
1723.5439606831
 40
6.7672328332
100
AcDbArc
 50
116.8344290327
 51
119.968050744
  0
ARC
  5
242
100
AcDbEntity
  8
0
100
AcDbCircle
 62
7
  6
CONTINUOUS
 10
1582.4109164391
 20
1841.0616087062
 40
2.1029582205
100
AcDbArc
 50
180.0091400597
 51
192.9348014924
  0
ARC
  5
243
100
AcDbEntity
  8
0
100
AcDbCircle
 62
7
  6
CONTINUOUS
 10
539.4240718472
 20
2443.2167216236
 40
2.1029582205
100
AcDbArc
 50
180.0091400595
 51
192.9348014926
  0
ARC
  5
244
100
AcDbEntity
  8
0
100
AcDbCircle
 62
7
  6
CONTINUOUS
 10
1387.9560378754
 20
1728.7943728473
 40
2.1016348778
100
AcDbArc
 50
180.0065955656
 51
192.5404167181
  0
ARC
  5
245
100
AcDbEntity
  8
0
100
AcDbCircle
 62
7
  6
CONTINUOUS
 10
344.9691932835
 20
2330.9494857647
 40
2.1016348778
100
AcDbArc
 50
180.0065955655
 51
192.5404167181
  0
SPLINE
  5
246
100
AcDbEntity
  8
0
100
AcDbSpline
 62
7
  6
CONTINUOUS
 70
0
 71
3
 72
8
 73
4
 74
0
 42
0.0000001
 43
0.0000001
 44
0.0000000001
 40
0.0
 40
0.0
 40
0.0
 40
0.0
 40
1.0
 40
1.0
 40
1.0
 40
1.0
 10
823.1637212357
 20
1362.2252104288
 30
0.0
 10
823.2282485658
 20
1362.5696112556
 30
0.0
 10
823.6152968765
 20
1363.295319598
 30
0.0
 10
823.8420782219
 20
1363.028213014
 30
0.0
  0
SPLINE
  5
247
100
AcDbEntity
  8
0
100
AcDbSpline
 62
7
  6
CONTINUOUS
 70
0
 71
3
 72
9
 73
5
 74
0
 42
0.0000001
 43
0.0000001
 44
0.0000000001
 40
0.0
 40
0.0
 40
0.0
 40
0.0
 40
0.2402701988
 40
1.0
 40
1.0
 40
1.0
 40
1.0
 10
809.147614172
 20
1218.7686821714
 30
0.0
 10
809.147614172
 20
1230.3222980797
 30
0.0
 10
810.4054181893
 20
1278.4055251888
 30
0.0
 10
816.4359496904
 20
1326.3177314388
 30
0.0
 10
823.1637212357
 20
1362.2252104288
 30
0.0
  0
SPLINE
  5
248
100
AcDbEntity
  8
0
100
AcDbSpline
 62
7
  6
CONTINUOUS
 70
0
 71
3
 72
9
 73
5
 74
0
 42
0.0000001
 43
0.0000001
 44
0.0000000001
 40
0.0
 40
0.0
 40
0.0
 40
0.0
 40
0.2422593448
 40
1.0
 40
1.0
 40
1.0
 40
1.0
 10
815.1529353865
 20
1133.2694875436
 30
0.0
 10
814.1432197602
 20
1140.1203520059
 30
0.0
 10
810.5440572237
 20
1168.4820332203
 30
0.0
 10
809.147614172
 20
1197.1090099844
 30
0.0
 10
809.147614172
 20
1218.7686821714
 30
0.0
  0
SPLINE
  5
249
100
AcDbEntity
  8
0
100
AcDbSpline
 62
7
  6
CONTINUOUS
 70
0
 71
3
 72
9
 73
5
 74
0
 42
0.0000001
 43
0.0000001
 44
0.0000000001
 40
0.0
 40
0.0
 40
0.0
 40
0.0
 40
0.2578575866
 40
1.0
 40
1.0
 40
1.0
 40
1.0
 10
835.3106740024
 20
1203.6637742542
 30
0.0
 10
835.3106740024
 20
1196.2931859585
 30
0.0
 10
835.7872981749
 20
1167.7130856016
 30
0.0
 10
838.2228754209
 20
1139.1512257049
 30
0.0
 10
841.3159952169
 20
1118.1645796263
 30
0.0
  0
SPLINE
  5
24A
100
AcDbEntity
  8
0
100
AcDbSpline
 62
7
  6
CONTINUOUS
 70
0
 71
3
 72
9
 73
5
 74
0
 42
0.0000001
 43
0.0000001
 44
0.0000000001
 40
0.0
 40
0.0
 40
0.0
 40
0.0
 40
0.2596309626
 40
1.0
 40
1.0
 40
1.0
 40
1.0
 10
849.3267810662
 20
1347.1203025115
 30
0.0
 10
847.0277195302
 20
1334.8497455753
 30
0.0
 10
839.1550618413
 20
1287.4159016278
 30
0.0
 10
835.3106740024
 20
1239.2636354641
 30
0.0
 10
835.3106740024
 20
1203.6637742542
 30
0.0
  0
SPLINE
  5
24B
100
AcDbEntity
  8
0
100
AcDbSpline
 62
7
  6
CONTINUOUS
 70
0
 71
3
 72
8
 73
4
 74
0
 42
0.0000001
 43
0.0000001
 44
0.0000000001
 40
0.0
 40
0.0
 40
0.0
 40
0.0
 40
1.0
 40
1.0
 40
1.0
 40
1.0
 10
850.232460319
 20
1348.2272412955
 30
0.0
 10
849.8857443096
 20
1348.1571497156
 30
0.0
 10
849.4083473617
 20
1347.7084509196
 30
0.0
 10
849.5733463918
 20
1347.3955609377
 30
0.0
  0
SPLINE
  5
24C
100
AcDbEntity
  8
0
100
AcDbSpline
 62
7
  6
CONTINUOUS
 70
0
 71
3
 72
8
 73
4
 74
0
 42
0.0000001
 43
0.0000001
 44
0.0000000001
 40
0.0
 40
0.0
 40
0.0
 40
0.0
 40
1.0
 40
1.0
 40
1.0
 40
1.0
 10
1396.5236116424
 20
1726.2426372669
 30
0.0
 10
1395.7885382661
 20
1725.8182449885
 30
0.0
 10
1394.9603410334
 20
1725.5452195441
 30
0.0
 10
1394.1277529413
 20
1725.3801779025
 30
0.0
  0
SPLINE
  5
24D
100
AcDbEntity
  8
0
100
AcDbSpline
 62
7
  6
CONTINUOUS
 70
0
 71
3
 72
8
 73
4
 74
0
 42
0.0000001
 43
0.0000001
 44
0.0000000001
 40
0.0
 40
0.0
 40
0.0
 40
0.0
 40
1.0
 40
1.0
 40
1.0
 40
1.0
 10
1394.1277529413
 20
1725.3801779025
 30
0.0
 10
1392.3818614853
 20
1725.0340946535
 30
0.0
 10
1390.4746205241
 20
1725.1292886688
 30
0.0
 10
1388.7997365229
 20
1725.7315130239
 30
0.0
  0
SPLINE
  5
24E
100
AcDbEntity
  8
0
100
AcDbSpline
 62
7
  6
CONTINUOUS
 70
0
 71
3
 72
9
 73
5
 74
0
 42
0.0000001
 43
0.0000001
 44
0.0000000001
 40
0.0
 40
0.0
 40
0.0
 40
0.0
 40
0.3001701106
 40
1.0
 40
1.0
 40
1.0
 40
1.0
 10
1388.7997365229
 20
1725.7315130239
 30
0.0
 10
1388.4255654019
 20
1725.8660506765
 30
0.0
 10
1387.230402943
 20
1726.3876614805
 30
0.0
 10
1386.1051314433
 20
1727.4329733482
 30
0.0
 10
1385.9045415186
 20
1728.3380485569
 30
0.0
  0
SPLINE
  5
24F
100
AcDbEntity
  8
0
100
AcDbSpline
 62
7
  6
CONTINUOUS
 70
0
 71
3
 72
8
 73
4
 74
0
 42
0.0000001
 43
0.0000001
 44
0.0000000001
 40
0.0
 40
0.0
 40
0.0
 40
0.0
 40
1.0
 40
1.0
 40
1.0
 40
1.0
 10
1590.9771668762
 20
1838.5097795816
 30
0.0
 10
1590.2420934999
 20
1838.0853873032
 30
0.0
 10
1589.4138962672
 20
1837.8123618587
 30
0.0
 10
1588.5813081751
 20
1837.6473202171
 30
0.0
  0
SPLINE
  5
250
100
AcDbEntity
  8
0
100
AcDbSpline
 62
7
  6
CONTINUOUS
 70
0
 71
3
 72
8
 73
4
 74
0
 42
0.0000001
 43
0.0000001
 44
0.0000000001
 40
0.0
 40
0.0
 40
0.0
 40
0.0
 40
1.0
 40
1.0
 40
1.0
 40
1.0
 10
1588.5813081751
 20
1837.6473202171
 30
0.0
 10
1586.8354167191
 20
1837.3012369682
 30
0.0
 10
1584.9281757579
 20
1837.3964309835
 30
0.0
 10
1583.2532917567
 20
1837.9986553385
 30
0.0
  0
SPLINE
  5
251
100
AcDbEntity
  8
0
100
AcDbSpline
 62
7
  6
CONTINUOUS
 70
0
 71
3
 72
9
 73
5
 74
0
 42
0.0000001
 43
0.0000001
 44
0.0000000001
 40
0.0
 40
0.0
 40
0.0
 40
0.0
 40
0.2998841817
 40
1.0
 40
1.0
 40
1.0
 40
1.0
 10
1583.2532917567
 20
1837.9986553385
 30
0.0
 10
1582.8807217721
 20
1838.1326172837
 30
0.0
 10
1581.6892213468
 20
1838.6525650608
 30
0.0
 10
1580.5674450322
 20
1839.6898264501
 30
0.0
 10
1580.3613199167
 20
1840.5908780265
 30
0.0
  0
SPLINE
  5
252
100
AcDbEntity
  8
0
100
AcDbSpline
 62
7
  6
CONTINUOUS
 70
0
 71
3
 72
8
 73
4
 74
0
 42
0.0000001
 43
0.0000001
 44
0.0000000001
 40
0.0
 40
0.0
 40
0.0
 40
0.0
 40
1.0
 40
1.0
 40
1.0
 40
1.0
 10
353.5367670506
 20
2328.3977501844
 30
0.0
 10
352.8016936743
 20
2327.973357906
 30
0.0
 10
351.9734964416
 20
2327.7003324615
 30
0.0
 10
351.1409083495
 20
2327.5352908199
 30
0.0
  0
SPLINE
  5
253
100
AcDbEntity
  8
0
100
AcDbSpline
 62
7
  6
CONTINUOUS
 70
0
 71
3
 72
8
 73
4
 74
0
 42
0.0000001
 43
0.0000001
 44
0.0000000001
 40
0.0
 40
0.0
 40
0.0
 40
0.0
 40
1.0
 40
1.0
 40
1.0
 40
1.0
 10
351.1409083495
 20
2327.5352908199
 30
0.0
 10
349.3950168935
 20
2327.189207571
 30
0.0
 10
347.4877759323
 20
2327.2844015863
 30
0.0
 10
345.8128919311
 20
2327.8866259413
 30
0.0
  0
SPLINE
  5
254
100
AcDbEntity
  8
0
100
AcDbSpline
 62
7
  6
CONTINUOUS
 70
0
 71
3
 72
9
 73
5
 74
0
 42
0.0000001
 43
0.0000001
 44
0.0000000001
 40
0.0
 40
0.0
 40
0.0
 40
0.0
 40
0.3001701106
 40
1.0
 40
1.0
 40
1.0
 40
1.0
 10
345.8128919311
 20
2327.8866259413
 30
0.0
 10
345.4387208101
 20
2328.021163594
 30
0.0
 10
344.2435583512
 20
2328.542774398
 30
0.0
 10
343.1182868515
 20
2329.5880862656
 30
0.0
 10
342.9176969268
 20
2330.4931614743
 30
0.0
  0
SPLINE
  5
255
100
AcDbEntity
  8
0
100
AcDbSpline
 62
7
  6
CONTINUOUS
 70
0
 71
3
 72
8
 73
4
 74
0
 42
0.0000001
 43
0.0000001
 44
0.0000000001
 40
0.0
 40
0.0
 40
0.0
 40
0.0
 40
1.0
 40
1.0
 40
1.0
 40
1.0
 10
547.9903222844
 20
2440.6648924991
 30
0.0
 10
547.2552489081
 20
2440.2405002206
 30
0.0
 10
546.4270516754
 20
2439.9674747762
 30
0.0
 10
545.5944635833
 20
2439.8024331346
 30
0.0
  0
SPLINE
  5
256
100
AcDbEntity
  8
0
100
AcDbSpline
 62
7
  6
CONTINUOUS
 70
0
 71
3
 72
8
 73
4
 74
0
 42
0.0000001
 43
0.0000001
 44
0.0000000001
 40
0.0
 40
0.0
 40
0.0
 40
0.0
 40
1.0
 40
1.0
 40
1.0
 40
1.0
 10
545.5944635833
 20
2439.8024331346
 30
0.0
 10
543.8485721273
 20
2439.4563498856
 30
0.0
 10
541.9413311661
 20
2439.5515439009
 30
0.0
 10
540.2664471649
 20
2440.153768256
 30
0.0
  0
SPLINE
  5
257
100
AcDbEntity
  8
0
100
AcDbSpline
 62
7
  6
CONTINUOUS
 70
0
 71
3
 72
9
 73
5
 74
0
 42
0.0000001
 43
0.0000001
 44
0.0000000001
 40
0.0
 40
0.0
 40
0.0
 40
0.0
 40
0.2998841817
 40
1.0
 40
1.0
 40
1.0
 40
1.0
 10
540.2664471649
 20
2440.153768256
 30
0.0
 10
539.8938771802
 20
2440.2877302011
 30
0.0
 10
538.702376755
 20
2440.8076779782
 30
0.0
 10
537.5806004404
 20
2441.8449393676
 30
0.0
 10
537.3744753249
 20
2442.745990944
 30
0.0
  0
SPLINE
  5
258
100
AcDbEntity
  8
0
100
AcDbSpline
 62
7
  6
CONTINUOUS
 70
0
 71
3
 72
8
 73
4
 74
0
 42
0.0000001
 43
0.0000001
 44
0.0000000001
 40
0.0
 40
0.0
 40
0.0
 40
0.0
 40
1.0
 40
1.0
 40
1.0
 40
1.0
 10
1387.6847400781
 20
1730.1208930728
 30
0.0
 10
1387.0862078643
 20
1729.7753324007
 30
0.0
 10
1386.5157657651
 20
1729.3029554013
 30
0.0
 10
1386.17115567
 20
1728.7038753805
 30
0.0
  0
SPLINE
  5
259
100
AcDbEntity
  8
0
100
AcDbSpline
 62
7
  6
CONTINUOUS
 70
0
 71
3
 72
8
 73
4
 74
0
 42
0.0000001
 43
0.0000001
 44
0.0000000001
 40
0.0
 40
0.0
 40
0.0
 40
0.0
 40
1.0
 40
1.0
 40
1.0
 40
1.0
 10
1387.5079597028
 20
1729.4064420899
 30
0.0
 10
1386.9646965935
 20
1729.0927908597
 30
0.0
 10
1386.4516729992
 20
1728.6915470489
 30
0.0
 10
1386.0668590272
 20
1728.1961380188
 30
0.0
  0
SPLINE
  5
25A
100
AcDbEntity
  8
0
100
AcDbSpline
 62
7
  6
CONTINUOUS
 70
0
 71
3
 72
8
 73
4
 74
0
 42
0.0000001
 43
0.0000001
 44
0.0000000001
 40
0.0
 40
0.0
 40
0.0
 40
0.0
 40
1.0
 40
1.0
 40
1.0
 40
1.0
 10
1581.2544110994
 20
1841.2653402507
 30
0.0
 10
1580.9511653692
 20
1841.0902622918
 30
0.0
 10
1580.6606049348
 20
1840.8893798703
 30
0.0
 10
1580.3952419903
 20
1840.6609224951
 30
0.0
  0
SPLINE
  5
25B
100
AcDbEntity
  8
0
100
AcDbSpline
 62
7
  6
CONTINUOUS
 70
0
 71
3
 72
8
 73
4
 74
0
 42
0.0000001
 43
0.0000001
 44
0.0000000001
 40
0.0
 40
0.0
 40
0.0
 40
0.0
 40
1.0
 40
1.0
 40
1.0
 40
1.0
 10
1582.1382953119
 20
1842.3880353874
 30
0.0
 10
1581.5397016213
 20
1842.042439222
 30
0.0
 10
1580.9692053999
 20
1841.5699902817
 30
0.0
 10
1580.6245977401
 20
1840.9708269677
 30
0.0
  0
SPLINE
  5
25C
100
AcDbEntity
  8
0
100
AcDbSpline
 62
7
  6
CONTINUOUS
 70
0
 71
3
 72
8
 73
4
 74
0
 42
0.0000001
 43
0.0000001
 44
0.0000000001
 40
0.0
 40
0.0
 40
0.0
 40
0.0
 40
1.0
 40
1.0
 40
1.0
 40
1.0
 10
344.6978954863
 20
2332.2760059902
 30
0.0
 10
344.0993632725
 20
2331.9304453182
 30
0.0
 10
343.5289211733
 20
2331.4580683187
 30
0.0
 10
343.1843110782
 20
2330.858988298
 30
0.0
  0
SPLINE
  5
25D
100
AcDbEntity
  8
0
100
AcDbSpline
 62
7
  6
CONTINUOUS
 70
0
 71
3
 72
8
 73
4
 74
0
 42
0.0000001
 43
0.0000001
 44
0.0000000001
 40
0.0
 40
0.0
 40
0.0
 40
0.0
 40
1.0
 40
1.0
 40
1.0
 40
1.0
 10
538.2675665076
 20
2443.4204531681
 30
0.0
 10
537.9643207774
 20
2443.2453752092
 30
0.0
 10
537.673760343
 20
2443.0444927877
 30
0.0
 10
537.4083973985
 20
2442.8160354125
 30
0.0
  0
SPLINE
  5
25E
100
AcDbEntity
  8
0
100
AcDbSpline
 62
7
  6
CONTINUOUS
 70
0
 71
3
 72
8
 73
4
 74
0
 42
0.0000001
 43
0.0000001
 44
0.0000000001
 40
0.0
 40
0.0
 40
0.0
 40
0.0
 40
1.0
 40
1.0
 40
1.0
 40
1.0
 10
344.521115111
 20
2331.5615550073
 30
0.0
 10
343.9778520017
 20
2331.2479037772
 30
0.0
 10
343.4648284074
 20
2330.8466599664
 30
0.0
 10
343.0800144354
 20
2330.3512509362
 30
0.0
  0
SPLINE
  5
25F
100
AcDbEntity
  8
0
100
AcDbSpline
 62
7
  6
CONTINUOUS
 70
0
 71
3
 72
8
 73
4
 74
0
 42
0.0000001
 43
0.0000001
 44
0.0000000001
 40
0.0
 40
0.0
 40
0.0
 40
0.0
 40
1.0
 40
1.0
 40
1.0
 40
1.0
 10
549.820659351
 20
2443.2164082786
 30
0.0
 10
549.8205850114
 20
2442.9492633537
 30
0.0
 10
549.7667012776
 20
2442.6783621368
 30
0.0
 10
549.670364827
 20
2442.4291921051
 30
0.0
  0
SPLINE
  5
260
100
AcDbEntity
  8
0
100
AcDbSpline
 62
7
  6
CONTINUOUS
 70
0
 71
3
 72
9
 73
5
 74
0
 42
0.0000001
 43
0.0000001
 44
0.0000000001
 40
0.0
 40
0.0
 40
0.0
 40
0.0
 40
0.4936921974
 40
1.0
 40
1.0
 40
1.0
 40
1.0
 10
549.670364827
 20
2442.4291921051
 30
0.0
 10
549.6458316329
 20
2442.3657380677
 30
0.0
 10
549.5905923278
 20
2442.2392938746
 30
0.0
 10
549.5252004135
 20
2442.1178098302
 30
0.0
 10
549.4897810909
 20
2442.0576988895
 30
0.0
  0
SPLINE
  5
261
100
AcDbEntity
  8
0
100
AcDbSpline
 62
7
  6
CONTINUOUS
 70
0
 71
3
 72
9
 73
5
 74
0
 42
0.0000001
 43
0.0000001
 44
0.0000000001
 40
0.0
 40
0.0
 40
0.0
 40
0.0
 40
0.4925464587
 40
1.0
 40
1.0
 40
1.0
 40
1.0
 10
549.4897810909
 20
2442.0576988895
 30
0.0
 10
549.4532185368
 20
2441.9956477447
 30
0.0
 10
549.3739355534
 20
2441.8725917829
 30
0.0
 10
549.2858915362
 20
2441.7556793907
 30
0.0
 10
549.2392941617
 20
2441.6979335374
 30
0.0
  0
SPLINE
  5
262
100
AcDbEntity
  8
0
100
AcDbSpline
 62
7
  6
CONTINUOUS
 70
0
 71
3
 72
8
 73
4
 74
0
 42
0.0000001
 43
0.0000001
 44
0.0000000001
 40
0.0
 40
0.0
 40
0.0
 40
0.0
 40
1.0
 40
1.0
 40
1.0
 40
1.0
 10
549.2392941617
 20
2441.6979335374
 30
0.0
 10
548.9000090878
 20
2441.2774740949
 30
0.0
 10
548.4582176055
 20
2440.9350303761
 30
0.0
 10
547.9903222844
 20
2440.6648924991
 30
0.0
  0
SPLINE
  5
263
100
AcDbEntity
  8
0
100
AcDbSpline
 62
7
  6
CONTINUOUS
 70
0
 71
3
 72
9
 73
5
 74
0
 42
0.0000001
 43
0.0000001
 44
0.0000000001
 40
0.0
 40
0.0
 40
0.0
 40
0.0
 40
0.2109419612
 40
1.0
 40
1.0
 40
1.0
 40
1.0
 10
549.7696837062
 20
2442.4514794041
 30
0.0
 10
549.709083158
 20
2442.7223822152
 30
0.0
 10
549.1643193404
 20
2443.9529093336
 30
0.0
 10
547.893425184
 20
2444.6816684182
 30
0.0
 10
546.9183244832
 20
2445.0386598959
 30
0.0
  0
SPLINE
  5
264
100
AcDbEntity
  8
0
100
AcDbSpline
 62
7
  6
CONTINUOUS
 70
0
 71
3
 72
8
 73
4
 74
0
 42
0.0000001
 43
0.0000001
 44
0.0000000001
 40
0.0
 40
0.0
 40
0.0
 40
0.0
 40
1.0
 40
1.0
 40
1.0
 40
1.0
 10
546.9183244832
 20
2445.0386598959
 30
0.0
 10
545.2383015147
 20
2445.6537285566
 30
0.0
 10
543.3194171102
 20
2445.7536657471
 30
0.0
 10
541.5638841558
 20
2445.4088604719
 30
0.0
  0
SPLINE
  5
265
100
AcDbEntity
  8
0
100
AcDbSpline
 62
7
  6
CONTINUOUS
 70
0
 71
3
 72
8
 73
4
 74
0
 42
0.0000001
 43
0.0000001
 44
0.0000000001
 40
0.0
 40
0.0
 40
0.0
 40
0.0
 40
1.0
 40
1.0
 40
1.0
 40
1.0
 10
541.5638841558
 20
2445.4088604719
 30
0.0
 10
540.7255470796
 20
2445.2442021865
 30
0.0
 10
539.8913444199
 20
2444.9703235817
 30
0.0
 10
539.1514507201
 20
2444.5431483049
 30
0.0
  0
SPLINE
  5
266
100
AcDbEntity
  8
0
100
AcDbSpline
 62
7
  6
CONTINUOUS
 70
0
 71
3
 72
9
 73
5
 74
0
 42
0.0000001
 43
0.0000001
 44
0.0000000001
 40
0.0
 40
0.0
 40
0.0
 40
0.0
 40
0.2205538293
 40
1.0
 40
1.0
 40
1.0
 40
1.0
 10
549.6909417619
 20
2442.0986358322
 30
0.0
 10
549.5487980058
 20
2442.2986618349
 30
0.0
 10
548.8057270723
 20
2443.136097668
 30
0.0
 10
547.7808161076
 20
2443.6772863155
 30
0.0
 10
546.9664651223
 20
2443.9754261501
 30
0.0
  0
SPLINE
  5
267
100
AcDbEntity
  8
0
100
AcDbSpline
 62
7
  6
CONTINUOUS
 70
0
 71
3
 72
8
 73
4
 74
0
 42
0.0000001
 43
0.0000001
 44
0.0000000001
 40
0.0
 40
0.0
 40
0.0
 40
0.0
 40
1.0
 40
1.0
 40
1.0
 40
1.0
 10
546.9664651223
 20
2443.9754261501
 30
0.0
 10
545.0848393976
 20
2444.6643030501
 30
0.0
 10
542.9356888645
 20
2444.7762327035
 30
0.0
 10
540.9694919556
 20
2444.3900507952
 30
0.0
  0
SPLINE
  5
268
100
AcDbEntity
  8
0
100
AcDbSpline
 62
7
  6
CONTINUOUS
 70
0
 71
3
 72
8
 73
4
 74
0
 42
0.0000001
 43
0.0000001
 44
0.0000000001
 40
0.0
 40
0.0
 40
0.0
 40
0.0
 40
1.0
 40
1.0
 40
1.0
 40
1.0
 10
540.9694919556
 20
2444.3900507952
 30
0.0
 10
540.0305544303
 20
2444.2056335155
 30
0.0
 10
539.0962474514
 20
2443.8988894782
 30
0.0
 10
538.2675665076
 20
2443.4204531681
 30
0.0
  0
SPLINE
  5
269
100
AcDbEntity
  8
0
100
AcDbSpline
 62
7
  6
CONTINUOUS
 70
0
 71
3
 72
8
 73
4
 74
0
 42
0.0000001
 43
0.0000001
 44
0.0000000001
 40
0.0
 40
0.0
 40
0.0
 40
0.0
 40
1.0
 40
1.0
 40
1.0
 40
1.0
 10
539.1514507201
 20
2444.5431483049
 30
0.0
 10
538.5528570295
 20
2444.1975521394
 30
0.0
 10
537.9823608081
 20
2443.7251031991
 30
0.0
 10
537.6377531483
 20
2443.1259398852
 30
0.0
  0
SPLINE
  5
26A
100
AcDbEntity
  8
0
100
AcDbSpline
 62
7
  6
CONTINUOUS
 70
0
 71
3
 72
8
 73
4
 74
0
 42
0.0000001
 43
0.0000001
 44
0.0000000001
 40
0.0
 40
0.0
 40
0.0
 40
0.0
 40
1.0
 40
1.0
 40
1.0
 40
1.0
 10
354.6944381482
 20
2331.3934118357
 30
0.0
 10
354.2348047739
 20
2331.6907068258
 30
0.0
 10
353.7340478285
 20
2331.9283363555
 30
0.0
 10
353.2200137257
 20
2332.1165279893
 30
0.0
  0
SPLINE
  5
26B
100
AcDbEntity
  8
0
100
AcDbSpline
 62
7
  6
CONTINUOUS
 70
0
 71
3
 72
8
 73
4
 74
0
 42
0.0000001
 43
0.0000001
 44
0.0000000001
 40
0.0
 40
0.0
 40
0.0
 40
0.0
 40
1.0
 40
1.0
 40
1.0
 40
1.0
 10
353.2200137257
 20
2332.1165279893
 30
0.0
 10
351.338388001
 20
2332.8054048893
 30
0.0
 10
349.1892374679
 20
2332.9173345427
 30
0.0
 10
347.223040559
 20
2332.5311526344
 30
0.0
  0
SPLINE
  5
26C
100
AcDbEntity
  8
0
100
AcDbSpline
 62
7
  6
CONTINUOUS
 70
0
 71
3
 72
8
 73
4
 74
0
 42
0.0000001
 43
0.0000001
 44
0.0000000001
 40
0.0
 40
0.0
 40
0.0
 40
0.0
 40
1.0
 40
1.0
 40
1.0
 40
1.0
 10
347.223040559
 20
2332.5311526344
 30
0.0
 10
346.4035633435
 20
2332.3701986255
 30
0.0
 10
345.5916445643
 20
2332.1149585229
 30
0.0
 10
344.8466406343
 20
2331.7375751052
 30
0.0
  0
SPLINE
  5
26D
100
AcDbEntity
  8
0
100
AcDbSpline
 62
7
  6
CONTINUOUS
 70
0
 71
3
 72
8
 73
4
 74
0
 42
0.0000001
 43
0.0000001
 44
0.0000000001
 40
0.0
 40
0.0
 40
0.0
 40
0.0
 40
1.0
 40
1.0
 40
1.0
 40
1.0
 10
355.3671041172
 20
2330.9492659639
 30
0.0
 10
355.3670297776
 20
2330.682121039
 30
0.0
 10
355.3131460438
 20
2330.4112198221
 30
0.0
 10
355.2168095932
 20
2330.1620497904
 30
0.0
  0
SPLINE
  5
26E
100
AcDbEntity
  8
0
100
AcDbSpline
 62
7
  6
CONTINUOUS
 70
0
 71
3
 72
9
 73
5
 74
0
 42
0.0000001
 43
0.0000001
 44
0.0000000001
 40
0.0
 40
0.0
 40
0.0
 40
0.0
 40
0.4936921974
 40
1.0
 40
1.0
 40
1.0
 40
1.0
 10
355.2168095932
 20
2330.1620497904
 30
0.0
 10
355.1922763991
 20
2330.098595753
 30
0.0
 10
355.1370370939
 20
2329.97215156
 30
0.0
 10
355.0716451797
 20
2329.8506675156
 30
0.0
 10
355.0362258571
 20
2329.7905565749
 30
0.0
  0
SPLINE
  5
26F
100
AcDbEntity
  8
0
100
AcDbSpline
 62
7
  6
CONTINUOUS
 70
0
 71
3
 72
8
 73
4
 74
0
 42
0.0000001
 43
0.0000001
 44
0.0000000001
 40
0.0
 40
0.0
 40
0.0
 40
0.0
 40
1.0
 40
1.0
 40
1.0
 40
1.0
 10
355.0362258571
 20
2329.7905565749
 30
0.0
 10
354.6899131513
 20
2329.2028213792
 30
0.0
 10
354.127550348
 20
2328.7388370442
 30
0.0
 10
353.5367670506
 20
2328.3977501844
 30
0.0
  0
SPLINE
  5
270
100
AcDbEntity
  8
0
100
AcDbSpline
 62
7
  6
CONTINUOUS
 70
0
 71
3
 72
8
 73
4
 74
0
 42
0.0000001
 43
0.0000001
 44
0.0000000001
 40
0.0
 40
0.0
 40
0.0
 40
0.0
 40
1.0
 40
1.0
 40
1.0
 40
1.0
 10
354.6848833816
 20
2331.3633284136
 30
0.0
 10
354.1055120867
 20
2332.0208374855
 30
0.0
 10
353.2877021678
 20
2332.4702358384
 30
0.0
 10
352.4647692494
 20
2332.7715175813
 30
0.0
  0
SPLINE
  5
271
100
AcDbEntity
  8
0
100
AcDbSpline
 62
7
  6
CONTINUOUS
 70
0
 71
3
 72
8
 73
4
 74
0
 42
0.0000001
 43
0.0000001
 44
0.0000000001
 40
0.0
 40
0.0
 40
0.0
 40
0.0
 40
1.0
 40
1.0
 40
1.0
 40
1.0
 10
352.4647692494
 20
2332.7715175813
 30
0.0
 10
350.7847462809
 20
2333.3865862419
 30
0.0
 10
348.8658618764
 20
2333.4865234325
 30
0.0
 10
347.110328922
 20
2333.1417181572
 30
0.0
  0
SPLINE
  5
272
100
AcDbEntity
  8
0
100
AcDbSpline
 62
7
  6
CONTINUOUS
 70
0
 71
3
 72
8
 73
4
 74
0
 42
0.0000001
 43
0.0000001
 44
0.0000000001
 40
0.0
 40
0.0
 40
0.0
 40
0.0
 40
1.0
 40
1.0
 40
1.0
 40
1.0
 10
347.110328922
 20
2333.1417181572
 30
0.0
 10
346.2719918458
 20
2332.9770598718
 30
0.0
 10
345.4377891861
 20
2332.7031812671
 30
0.0
 10
344.6978954863
 20
2332.2760059902
 30
0.0
  0
SPLINE
  5
273
100
AcDbEntity
  8
0
100
AcDbSpline
 62
7
  6
CONTINUOUS
 70
0
 71
3
 72
8
 73
4
 74
0
 42
0.0000001
 43
0.0000001
 44
0.0000000001
 40
0.0
 40
0.0
 40
0.0
 40
0.0
 40
1.0
 40
1.0
 40
1.0
 40
1.0
 10
1592.8075039428
 20
1841.0612953611
 30
0.0
 10
1592.8074296032
 20
1840.7941504362
 30
0.0
 10
1592.7535458694
 20
1840.5232492194
 30
0.0
 10
1592.6572094188
 20
1840.2740791877
 30
0.0
  0
SPLINE
  5
274
100
AcDbEntity
  8
0
100
AcDbSpline
 62
7
  6
CONTINUOUS
 70
0
 71
3
 72
9
 73
5
 74
0
 42
0.0000001
 43
0.0000001
 44
0.0000000001
 40
0.0
 40
0.0
 40
0.0
 40
0.0
 40
0.4936921974
 40
1.0
 40
1.0
 40
1.0
 40
1.0
 10
1592.6572094188
 20
1840.2740791877
 30
0.0
 10
1592.6326762248
 20
1840.2106251502
 30
0.0
 10
1592.5774369196
 20
1840.0841809572
 30
0.0
 10
1592.5120450053
 20
1839.9626969128
 30
0.0
 10
1592.4766256827
 20
1839.9025859721
 30
0.0
  0
SPLINE
  5
275
100
AcDbEntity
  8
0
100
AcDbSpline
 62
7
  6
CONTINUOUS
 70
0
 71
3
 72
9
 73
5
 74
0
 42
0.0000001
 43
0.0000001
 44
0.0000000001
 40
0.0
 40
0.0
 40
0.0
 40
0.0
 40
0.4925464587
 40
1.0
 40
1.0
 40
1.0
 40
1.0
 10
1592.4766256827
 20
1839.9025859721
 30
0.0
 10
1592.4400631286
 20
1839.8405348272
 30
0.0
 10
1592.3607801452
 20
1839.7174788654
 30
0.0
 10
1592.272736128
 20
1839.6005664733
 30
0.0
 10
1592.2261387535
 20
1839.54282062
 30
0.0
  0
SPLINE
  5
276
100
AcDbEntity
  8
0
100
AcDbSpline
 62
7
  6
CONTINUOUS
 70
0
 71
3
 72
8
 73
4
 74
0
 42
0.0000001
 43
0.0000001
 44
0.0000000001
 40
0.0
 40
0.0
 40
0.0
 40
0.0
 40
1.0
 40
1.0
 40
1.0
 40
1.0
 10
1592.2261387535
 20
1839.54282062
 30
0.0
 10
1591.8868536796
 20
1839.1223611775
 30
0.0
 10
1591.4450621973
 20
1838.7799174587
 30
0.0
 10
1590.9771668762
 20
1838.5097795816
 30
0.0
  0
SPLINE
  5
277
100
AcDbEntity
  8
0
100
AcDbSpline
 62
7
  6
CONTINUOUS
 70
0
 71
3
 72
9
 73
5
 74
0
 42
0.0000001
 43
0.0000001
 44
0.0000000001
 40
0.0
 40
0.0
 40
0.0
 40
0.0
 40
0.2109419612
 40
1.0
 40
1.0
 40
1.0
 40
1.0
 10
1592.756528298
 20
1840.2963664867
 30
0.0
 10
1592.6959277498
 20
1840.5672692977
 30
0.0
 10
1592.1511639322
 20
1841.7977964161
 30
0.0
 10
1590.8802697758
 20
1842.5265555008
 30
0.0
 10
1589.905169075
 20
1842.8835469785
 30
0.0
  0
SPLINE
  5
278
100
AcDbEntity
  8
0
100
AcDbSpline
 62
7
  6
CONTINUOUS
 70
0
 71
3
 72
8
 73
4
 74
0
 42
0.0000001
 43
0.0000001
 44
0.0000000001
 40
0.0
 40
0.0
 40
0.0
 40
0.0
 40
1.0
 40
1.0
 40
1.0
 40
1.0
 10
1589.905169075
 20
1842.8835469785
 30
0.0
 10
1588.2251461066
 20
1843.4986156392
 30
0.0
 10
1586.306261702
 20
1843.5985528297
 30
0.0
 10
1584.5507287476
 20
1843.2537475544
 30
0.0
  0
SPLINE
  5
279
100
AcDbEntity
  8
0
100
AcDbSpline
 62
7
  6
CONTINUOUS
 70
0
 71
3
 72
8
 73
4
 74
0
 42
0.0000001
 43
0.0000001
 44
0.0000000001
 40
0.0
 40
0.0
 40
0.0
 40
0.0
 40
1.0
 40
1.0
 40
1.0
 40
1.0
 10
1584.5507287476
 20
1843.2537475544
 30
0.0
 10
1583.7123916714
 20
1843.089089269
 30
0.0
 10
1582.8781890117
 20
1842.8152106643
 30
0.0
 10
1582.1382953119
 20
1842.3880353874
 30
0.0
  0
SPLINE
  5
27A
100
AcDbEntity
  8
0
100
AcDbSpline
 62
7
  6
CONTINUOUS
 70
0
 71
3
 72
9
 73
5
 74
0
 42
0.0000001
 43
0.0000001
 44
0.0000000001
 40
0.0
 40
0.0
 40
0.0
 40
0.0
 40
0.2205538293
 40
1.0
 40
1.0
 40
1.0
 40
1.0
 10
1592.6777863537
 20
1839.9435229148
 30
0.0
 10
1592.5356425976
 20
1840.1435489175
 30
0.0
 10
1591.7925716641
 20
1840.9809847506
 30
0.0
 10
1590.7676606994
 20
1841.5221733981
 30
0.0
 10
1589.9533097141
 20
1841.8203132326
 30
0.0
  0
SPLINE
  5
27B
100
AcDbEntity
  8
0
100
AcDbSpline
 62
7
  6
CONTINUOUS
 70
0
 71
3
 72
8
 73
4
 74
0
 42
0.0000001
 43
0.0000001
 44
0.0000000001
 40
0.0
 40
0.0
 40
0.0
 40
0.0
 40
1.0
 40
1.0
 40
1.0
 40
1.0
 10
1589.9533097141
 20
1841.8203132326
 30
0.0
 10
1588.0716839894
 20
1842.5091901326
 30
0.0
 10
1585.9225334563
 20
1842.621119786
 30
0.0
 10
1583.9563365474
 20
1842.2349378778
 30
0.0
  0
SPLINE
  5
27C
100
AcDbEntity
  8
0
100
AcDbSpline
 62
7
  6
CONTINUOUS
 70
0
 71
3
 72
8
 73
4
 74
0
 42
0.0000001
 43
0.0000001
 44
0.0000000001
 40
0.0
 40
0.0
 40
0.0
 40
0.0
 40
1.0
 40
1.0
 40
1.0
 40
1.0
 10
1583.9563365474
 20
1842.2349378778
 30
0.0
 10
1583.0173990221
 20
1842.0505205981
 30
0.0
 10
1582.0830920432
 20
1841.7437765608
 30
0.0
 10
1581.2544110994
 20
1841.2653402507
 30
0.0
  0
SPLINE
  5
27D
100
AcDbEntity
  8
0
100
AcDbSpline
 62
7
  6
CONTINUOUS
 70
0
 71
3
 72
8
 73
4
 74
0
 42
0.0000001
 43
0.0000001
 44
0.0000000001
 40
0.0
 40
0.0
 40
0.0
 40
0.0
 40
1.0
 40
1.0
 40
1.0
 40
1.0
 10
1397.68128274
 20
1729.2382989182
 30
0.0
 10
1397.2216493657
 20
1729.5355939084
 30
0.0
 10
1396.7208924204
 20
1729.7732234381
 30
0.0
 10
1396.2068583175
 20
1729.9614150719
 30
0.0
  0
SPLINE
  5
27E
100
AcDbEntity
  8
0
100
AcDbSpline
 62
7
  6
CONTINUOUS
 70
0
 71
3
 72
8
 73
4
 74
0
 42
0.0000001
 43
0.0000001
 44
0.0000000001
 40
0.0
 40
0.0
 40
0.0
 40
0.0
 40
1.0
 40
1.0
 40
1.0
 40
1.0
 10
1396.2068583175
 20
1729.9614150719
 30
0.0
 10
1394.3252325929
 20
1730.6502919718
 30
0.0
 10
1392.1760820597
 20
1730.7622216252
 30
0.0
 10
1390.2098851508
 20
1730.376039717
 30
0.0
  0
SPLINE
  5
27F
100
AcDbEntity
  8
0
100
AcDbSpline
 62
7
  6
CONTINUOUS
 70
0
 71
3
 72
8
 73
4
 74
0
 42
0.0000001
 43
0.0000001
 44
0.0000000001
 40
0.0
 40
0.0
 40
0.0
 40
0.0
 40
1.0
 40
1.0
 40
1.0
 40
1.0
 10
1390.2098851508
 20
1730.376039717
 30
0.0
 10
1389.3904079353
 20
1730.215085708
 30
0.0
 10
1388.5784891561
 20
1729.9598456055
 30
0.0
 10
1387.8334852261
 20
1729.5824621877
 30
0.0
  0
SPLINE
  5
280
100
AcDbEntity
  8
0
100
AcDbSpline
 62
7
  6
CONTINUOUS
 70
0
 71
3
 72
8
 73
4
 74
0
 42
0.0000001
 43
0.0000001
 44
0.0000000001
 40
0.0
 40
0.0
 40
0.0
 40
0.0
 40
1.0
 40
1.0
 40
1.0
 40
1.0
 10
1398.353948709
 20
1728.7941530464
 30
0.0
 10
1398.3538743694
 20
1728.5270081216
 30
0.0
 10
1398.2999906356
 20
1728.2561069047
 30
0.0
 10
1398.203654185
 20
1728.006936873
 30
0.0
  0
SPLINE
  5
281
100
AcDbEntity
  8
0
100
AcDbSpline
 62
7
  6
CONTINUOUS
 70
0
 71
3
 72
9
 73
5
 74
0
 42
0.0000001
 43
0.0000001
 44
0.0000000001
 40
0.0
 40
0.0
 40
0.0
 40
0.0
 40
0.4936921974
 40
1.0
 40
1.0
 40
1.0
 40
1.0
 10
1398.203654185
 20
1728.006936873
 30
0.0
 10
1398.1791209909
 20
1727.9434828356
 30
0.0
 10
1398.1238816857
 20
1727.8170386425
 30
0.0
 10
1398.0584897715
 20
1727.6955545981
 30
0.0
 10
1398.0230704489
 20
1727.6354436574
 30
0.0
  0
SPLINE
  5
282
100
AcDbEntity
  8
0
100
AcDbSpline
 62
7
  6
CONTINUOUS
 70
0
 71
3
 72
8
 73
4
 74
0
 42
0.0000001
 43
0.0000001
 44
0.0000000001
 40
0.0
 40
0.0
 40
0.0
 40
0.0
 40
1.0
 40
1.0
 40
1.0
 40
1.0
 10
1398.0230704489
 20
1727.6354436574
 30
0.0
 10
1397.6767577431
 20
1727.0477084618
 30
0.0
 10
1397.1143949398
 20
1726.5837241267
 30
0.0
 10
1396.5236116424
 20
1726.2426372669
 30
0.0
  0
SPLINE
  5
283
100
AcDbEntity
  8
0
100
AcDbSpline
 62
7
  6
CONTINUOUS
 70
0
 71
3
 72
8
 73
4
 74
0
 42
0.0000001
 43
0.0000001
 44
0.0000000001
 40
0.0
 40
0.0
 40
0.0
 40
0.0
 40
1.0
 40
1.0
 40
1.0
 40
1.0
 10
1397.6717279734
 20
1729.2082154961
 30
0.0
 10
1397.0923566785
 20
1729.865724568
 30
0.0
 10
1396.2745467596
 20
1730.3151229209
 30
0.0
 10
1395.4516138412
 20
1730.6164046638
 30
0.0
  0
SPLINE
  5
284
100
AcDbEntity
  8
0
100
AcDbSpline
 62
7
  6
CONTINUOUS
 70
0
 71
3
 72
8
 73
4
 74
0
 42
0.0000001
 43
0.0000001
 44
0.0000000001
 40
0.0
 40
0.0
 40
0.0
 40
0.0
 40
1.0
 40
1.0
 40
1.0
 40
1.0
 10
1395.4516138412
 20
1730.6164046638
 30
0.0
 10
1393.7715908727
 20
1731.2314733245
 30
0.0
 10
1391.8527064682
 20
1731.331410515
 30
0.0
 10
1390.0971735138
 20
1730.9866052398
 30
0.0
  0
SPLINE
  5
285
100
AcDbEntity
  8
0
100
AcDbSpline
 62
7
  6
CONTINUOUS
 70
0
 71
3
 72
8
 73
4
 74
0
 42
0.0000001
 43
0.0000001
 44
0.0000000001
 40
0.0
 40
0.0
 40
0.0
 40
0.0
 40
1.0
 40
1.0
 40
1.0
 40
1.0
 10
1390.0971735138
 20
1730.9866052398
 30
0.0
 10
1389.2588364376
 20
1730.8219469544
 30
0.0
 10
1388.4246337779
 20
1730.5480683496
 30
0.0
 10
1387.6847400781
 20
1730.1208930728
 30
0.0
  0
SPLINE
  5
286
100
AcDbEntity
  8
0
100
AcDbSpline
 62
7
  6
CONTINUOUS
 70
0
 71
3
 72
8
 73
4
 74
0
 42
0.0000001
 43
0.0000001
 44
0.0000000001
 40
0.0
 40
0.0
 40
0.0
 40
0.0
 40
1.0
 40
1.0
 40
1.0
 40
1.0
 10
342.8675584197
 20
2330.9492438364
 30
0.0
 10
342.8676701957
 20
2331.3509191833
 30
0.0
 10
342.9945228454
 20
2331.7618864039
 30
0.0
 10
343.1984366798
 20
2332.1079532254
 30
0.0
  0
SPLINE
  5
287
100
AcDbEntity
  8
0
100
AcDbSpline
 62
7
  6
CONTINUOUS
 70
0
 71
3
 72
9
 73
5
 74
0
 42
0.0000001
 43
0.0000001
 44
0.0000000001
 40
0.0
 40
0.0
 40
0.0
 40
0.0
 40
0.4907775226
 40
1.0
 40
1.0
 40
1.0
 40
1.0
 10
343.1984366798
 20
2332.1079532254
 30
0.0
 10
343.243614622
 20
2332.1846257422
 30
0.0
 10
343.3434126911
 20
2332.3363810509
 30
0.0
 10
343.4561965225
 20
2332.478670148
 30
0.0
 10
343.5163849643
 20
2332.548695537
 30
0.0
  0
SPLINE
  5
288
100
AcDbEntity
  8
0
100
AcDbSpline
 62
7
  6
CONTINUOUS
 70
0
 71
3
 72
9
 73
5
 74
0
 42
0.0000001
 43
0.0000001
 44
0.0000000001
 40
0.0
 40
0.0
 40
0.0
 40
0.0
 40
0.4903667131
 40
1.0
 40
1.0
 40
1.0
 40
1.0
 10
343.5163849643
 20
2332.548695537
 30
0.0
 10
343.5825292675
 20
2332.6256501884
 30
0.0
 10
343.7243274644
 20
2332.7767363932
 30
0.0
 10
343.8775271984
 20
2332.9161696944
 30
0.0
 10
343.9580059072
 20
2332.9843261927
 30
0.0
  0
SPLINE
  5
289
100
AcDbEntity
  8
0
100
AcDbSpline
 62
7
  6
CONTINUOUS
 70
0
 71
3
 72
8
 73
4
 74
0
 42
0.0000001
 43
0.0000001
 44
0.0000000001
 40
0.0
 40
0.0
 40
0.0
 40
0.0
 40
1.0
 40
1.0
 40
1.0
 40
1.0
 10
343.9580059072
 20
2332.9843261927
 30
0.0
 10
344.187523146
 20
2333.178701718
 30
0.0
 10
344.4374243587
 20
2333.3503774379
 30
0.0
 10
344.6978954863
 20
2333.5007596159
 30
0.0
  0
SPLINE
  5
28A
100
AcDbEntity
  8
0
100
AcDbSpline
 62
7
  6
CONTINUOUS
 70
0
 71
3
 72
8
 73
4
 74
0
 42
0.0000001
 43
0.0000001
 44
0.0000000001
 40
0.0
 40
0.0
 40
0.0
 40
0.0
 40
1.0
 40
1.0
 40
1.0
 40
1.0
 10
1580.3079582453
 20
1841.0612732336
 30
0.0
 10
1580.3080700213
 20
1841.4629485805
 30
0.0
 10
1580.434922671
 20
1841.8739158011
 30
0.0
 10
1580.6388365054
 20
1842.2199826226
 30
0.0
  0
SPLINE
  5
28B
100
AcDbEntity
  8
0
100
AcDbSpline
 62
7
  6
CONTINUOUS
 70
0
 71
3
 72
8
 73
4
 74
0
 42
0.0000001
 43
0.0000001
 44
0.0000000001
 40
0.0
 40
0.0
 40
0.0
 40
0.0
 40
1.0
 40
1.0
 40
1.0
 40
1.0
 10
1580.6388365054
 20
1842.2199826226
 30
0.0
 10
1580.8350854574
 20
1842.5530411975
 30
0.0
 10
1581.1034051665
 20
1842.8465229833
 30
0.0
 10
1581.3984057328
 20
1843.0963555899
 30
0.0
  0
SPLINE
  5
28C
100
AcDbEntity
  8
0
100
AcDbSpline
 62
7
  6
CONTINUOUS
 70
0
 71
3
 72
8
 73
4
 74
0
 42
0.0000001
 43
0.0000001
 44
0.0000000001
 40
0.0
 40
0.0
 40
0.0
 40
0.0
 40
1.0
 40
1.0
 40
1.0
 40
1.0
 10
1581.3984057328
 20
1843.0963555899
 30
0.0
 10
1581.6279229716
 20
1843.2907311152
 30
0.0
 10
1581.8778241843
 20
1843.4624068351
 30
0.0
 10
1582.1382953119
 20
1843.6127890131
 30
0.0
  0
SPLINE
  5
28D
100
AcDbEntity
  8
0
100
AcDbSpline
 62
7
  6
CONTINUOUS
 70
0
 71
3
 72
8
 73
4
 74
0
 42
0.0000001
 43
0.0000001
 44
0.0000000001
 40
0.0
 40
0.0
 40
0.0
 40
0.0
 40
1.0
 40
1.0
 40
1.0
 40
1.0
 10
1385.8544030115
 20
1728.794130919
 30
0.0
 10
1385.8545147875
 20
1729.1958062659
 30
0.0
 10
1385.9813674372
 20
1729.6067734864
 30
0.0
 10
1386.1852812716
 20
1729.952840308
 30
0.0
  0
SPLINE
  5
28E
100
AcDbEntity
  8
0
100
AcDbSpline
 62
7
  6
CONTINUOUS
 70
0
 71
3
 72
9
 73
5
 74
0
 42
0.0000001
 43
0.0000001
 44
0.0000000001
 40
0.0
 40
0.0
 40
0.0
 40
0.0
 40
0.4907775226
 40
1.0
 40
1.0
 40
1.0
 40
1.0
 10
1386.1852812716
 20
1729.952840308
 30
0.0
 10
1386.2304592139
 20
1730.0295128247
 30
0.0
 10
1386.3302572829
 20
1730.1812681335
 30
0.0
 10
1386.4430411143
 20
1730.3235572305
 30
0.0
 10
1386.5032295561
 20
1730.3935826196
 30
0.0
  0
SPLINE
  5
28F
100
AcDbEntity
  8
0
100
AcDbSpline
 62
7
  6
CONTINUOUS
 70
0
 71
3
 72
9
 73
5
 74
0
 42
0.0000001
 43
0.0000001
 44
0.0000000001
 40
0.0
 40
0.0
 40
0.0
 40
0.0
 40
0.4903667131
 40
1.0
 40
1.0
 40
1.0
 40
1.0
 10
1386.5032295561
 20
1730.3935826196
 30
0.0
 10
1386.5693738593
 20
1730.470537271
 30
0.0
 10
1386.7111720562
 20
1730.6216234758
 30
0.0
 10
1386.8643717902
 20
1730.761056777
 30
0.0
 10
1386.944850499
 20
1730.8292132753
 30
0.0
  0
SPLINE
  5
290
100
AcDbEntity
  8
0
100
AcDbSpline
 62
7
  6
CONTINUOUS
 70
0
 71
3
 72
8
 73
4
 74
0
 42
0.0000001
 43
0.0000001
 44
0.0000000001
 40
0.0
 40
0.0
 40
0.0
 40
0.0
 40
1.0
 40
1.0
 40
1.0
 40
1.0
 10
1386.944850499
 20
1730.8292132753
 30
0.0
 10
1387.1743677378
 20
1731.0235888005
 30
0.0
 10
1387.4242689505
 20
1731.1952645205
 30
0.0
 10
1387.6847400781
 20
1731.3456466985
 30
0.0
  0
SPLINE
  5
291
100
AcDbEntity
  8
0
100
AcDbSpline
 62
7
  6
CONTINUOUS
 70
0
 71
3
 72
8
 73
4
 74
0
 42
0.0000001
 43
0.0000001
 44
0.0000000001
 40
0.0
 40
0.0
 40
0.0
 40
0.0
 40
1.0
 40
1.0
 40
1.0
 40
1.0
 10
537.3211136535
 20
2443.2163861511
 30
0.0
 10
537.3212254295
 20
2443.618061498
 30
0.0
 10
537.4480780792
 20
2444.0290287186
 30
0.0
 10
537.6519919136
 20
2444.3750955401
 30
0.0
  0
SPLINE
  5
292
100
AcDbEntity
  8
0
100
AcDbSpline
 62
7
  6
CONTINUOUS
 70
0
 71
3
 72
8
 73
4
 74
0
 42
0.0000001
 43
0.0000001
 44
0.0000000001
 40
0.0
 40
0.0
 40
0.0
 40
0.0
 40
1.0
 40
1.0
 40
1.0
 40
1.0
 10
537.6519919136
 20
2444.3750955401
 30
0.0
 10
537.8482408656
 20
2444.7081541149
 30
0.0
 10
538.1165605747
 20
2445.0016359008
 30
0.0
 10
538.411561141
 20
2445.2514685074
 30
0.0
  0
SPLINE
  5
293
100
AcDbEntity
  8
0
100
AcDbSpline
 62
7
  6
CONTINUOUS
 70
0
 71
3
 72
8
 73
4
 74
0
 42
0.0000001
 43
0.0000001
 44
0.0000000001
 40
0.0
 40
0.0
 40
0.0
 40
0.0
 40
1.0
 40
1.0
 40
1.0
 40
1.0
 10
538.411561141
 20
2445.2514685074
 30
0.0
 10
538.6410783798
 20
2445.4458440327
 30
0.0
 10
538.8909795925
 20
2445.6175197526
 30
0.0
 10
539.1514507201
 20
2445.7679019306
 30
0.0
  0
SPLINE
  5
294
100
AcDbEntity
  8
0
100
AcDbSpline
 62
7
  6
CONTINUOUS
 70
0
 71
3
 72
8
 73
4
 74
0
 42
0.0000001
 43
0.0000001
 44
0.0000000001
 40
0.0
 40
0.0
 40
0.0
 40
0.0
 40
1.0
 40
1.0
 40
1.0
 40
1.0
 10
1387.6847400781
 20
1731.3456466985
 30
0.0
 10
1388.4198134544
 20
1731.7700389769
 30
0.0
 10
1389.2480106871
 20
1732.0430644213
 30
0.0
 10
1390.0805987792
 20
1732.2081060629
 30
0.0
  0
SPLINE
  5
295
100
AcDbEntity
  8
0
100
AcDbSpline
 62
7
  6
CONTINUOUS
 70
0
 71
3
 72
8
 73
4
 74
0
 42
0.0000001
 43
0.0000001
 44
0.0000000001
 40
0.0
 40
0.0
 40
0.0
 40
0.0
 40
1.0
 40
1.0
 40
1.0
 40
1.0
 10
1390.0805987792
 20
1732.2081060629
 30
0.0
 10
1391.8264902352
 20
1732.5541893119
 30
0.0
 10
1393.7337311964
 20
1732.4589952966
 30
0.0
 10
1395.4086151976
 20
1731.8567709415
 30
0.0
  0
SPLINE
  5
296
100
AcDbEntity
  8
0
100
AcDbSpline
 62
7
  6
CONTINUOUS
 70
0
 71
3
 72
9
 73
5
 74
0
 42
0.0000001
 43
0.0000001
 44
0.0000000001
 40
0.0
 40
0.0
 40
0.0
 40
0.0
 40
0.3091633815
 40
1.0
 40
1.0
 40
1.0
 40
1.0
 10
1395.4086151976
 20
1731.8567709415
 30
0.0
 10
1395.8330705694
 20
1731.7041529917
 30
0.0
 10
1397.1412090854
 20
1731.1373997242
 30
0.0
 10
1398.3542291843
 20
1729.8020613943
 30
0.0
 10
1398.353948709
 20
1728.7941530464
 30
0.0
  0
SPLINE
  5
297
100
AcDbEntity
  8
0
100
AcDbSpline
 62
7
  6
CONTINUOUS
 70
0
 71
3
 72
8
 73
4
 74
0
 42
0.0000001
 43
0.0000001
 44
0.0000000001
 40
0.0
 40
0.0
 40
0.0
 40
0.0
 40
1.0
 40
1.0
 40
1.0
 40
1.0
 10
1582.1382953119
 20
1843.6127890131
 30
0.0
 10
1582.8733686882
 20
1844.0371812915
 30
0.0
 10
1583.7015659209
 20
1844.310206736
 30
0.0
 10
1584.534154013
 20
1844.4752483776
 30
0.0
  0
SPLINE
  5
298
100
AcDbEntity
  8
0
100
AcDbSpline
 62
7
  6
CONTINUOUS
 70
0
 71
3
 72
8
 73
4
 74
0
 42
0.0000001
 43
0.0000001
 44
0.0000000001
 40
0.0
 40
0.0
 40
0.0
 40
0.0
 40
1.0
 40
1.0
 40
1.0
 40
1.0
 10
1584.534154013
 20
1844.4752483776
 30
0.0
 10
1586.280045469
 20
1844.8213316265
 30
0.0
 10
1588.1872864302
 20
1844.7261376112
 30
0.0
 10
1589.8621704314
 20
1844.1239132562
 30
0.0
  0
SPLINE
  5
299
100
AcDbEntity
  8
0
100
AcDbSpline
 62
7
  6
CONTINUOUS
 70
0
 71
3
 72
9
 73
5
 74
0
 42
0.0000001
 43
0.0000001
 44
0.0000000001
 40
0.0
 40
0.0
 40
0.0
 40
0.0
 40
0.3091633815
 40
1.0
 40
1.0
 40
1.0
 40
1.0
 10
1589.8621704314
 20
1844.1239132562
 30
0.0
 10
1590.2866258032
 20
1843.9712953063
 30
0.0
 10
1591.5947643192
 20
1843.4045420388
 30
0.0
 10
1592.8077844181
 20
1842.0692037089
 30
0.0
 10
1592.8075039428
 20
1841.0612953611
 30
0.0
  0
SPLINE
  5
29A
100
AcDbEntity
  8
0
100
AcDbSpline
 62
7
  6
CONTINUOUS
 70
0
 71
3
 72
8
 73
4
 74
0
 42
0.0000001
 43
0.0000001
 44
0.0000000001
 40
0.0
 40
0.0
 40
0.0
 40
0.0
 40
1.0
 40
1.0
 40
1.0
 40
1.0
 10
344.6978954863
 20
2333.5007596159
 30
0.0
 10
345.4329688626
 20
2333.9251518943
 30
0.0
 10
346.2611660953
 20
2334.1981773388
 30
0.0
 10
347.0937541874
 20
2334.3632189804
 30
0.0
  0
SPLINE
  5
29B
100
AcDbEntity
  8
0
100
AcDbSpline
 62
7
  6
CONTINUOUS
 70
0
 71
3
 72
8
 73
4
 74
0
 42
0.0000001
 43
0.0000001
 44
0.0000000001
 40
0.0
 40
0.0
 40
0.0
 40
0.0
 40
1.0
 40
1.0
 40
1.0
 40
1.0
 10
347.0937541874
 20
2334.3632189804
 30
0.0
 10
348.8396456434
 20
2334.7093022293
 30
0.0
 10
350.7468866046
 20
2334.614108214
 30
0.0
 10
352.4217706058
 20
2334.011883859
 30
0.0
  0
SPLINE
  5
29C
100
AcDbEntity
  8
0
100
AcDbSpline
 62
7
  6
CONTINUOUS
 70
0
 71
3
 72
9
 73
5
 74
0
 42
0.0000001
 43
0.0000001
 44
0.0000000001
 40
0.0
 40
0.0
 40
0.0
 40
0.0
 40
0.3091633815
 40
1.0
 40
1.0
 40
1.0
 40
1.0
 10
352.4217706058
 20
2334.011883859
 30
0.0
 10
352.8462259776
 20
2333.8592659091
 30
0.0
 10
354.1543644936
 20
2333.2925126416
 30
0.0
 10
355.3673845925
 20
2331.9571743117
 30
0.0
 10
355.3671041172
 20
2330.9492659639
 30
0.0
  0
SPLINE
  5
29D
100
AcDbEntity
  8
0
100
AcDbSpline
 62
7
  6
CONTINUOUS
 70
0
 71
3
 72
8
 73
4
 74
0
 42
0.0000001
 43
0.0000001
 44
0.0000000001
 40
0.0
 40
0.0
 40
0.0
 40
0.0
 40
1.0
 40
1.0
 40
1.0
 40
1.0
 10
539.1514507201
 20
2445.7679019306
 30
0.0
 10
539.8865240964
 20
2446.192294209
 30
0.0
 10
540.7147213291
 20
2446.4653196535
 30
0.0
 10
541.5473094212
 20
2446.630361295
 30
0.0
  0
SPLINE
  5
29E
100
AcDbEntity
  8
0
100
AcDbSpline
 62
7
  6
CONTINUOUS
 70
0
 71
3
 72
8
 73
4
 74
0
 42
0.0000001
 43
0.0000001
 44
0.0000000001
 40
0.0
 40
0.0
 40
0.0
 40
0.0
 40
1.0
 40
1.0
 40
1.0
 40
1.0
 10
541.5473094212
 20
2446.630361295
 30
0.0
 10
543.2932008772
 20
2446.976444544
 30
0.0
 10
545.2004418384
 20
2446.8812505287
 30
0.0
 10
546.8753258396
 20
2446.2790261736
 30
0.0
  0
SPLINE
  5
29F
100
AcDbEntity
  8
0
100
AcDbSpline
 62
7
  6
CONTINUOUS
 70
0
 71
3
 72
9
 73
5
 74
0
 42
0.0000001
 43
0.0000001
 44
0.0000000001
 40
0.0
 40
0.0
 40
0.0
 40
0.0
 40
0.3091633815
 40
1.0
 40
1.0
 40
1.0
 40
1.0
 10
546.8753258396
 20
2446.2790261736
 30
0.0
 10
547.2997812114
 20
2446.1264082238
 30
0.0
 10
548.6079197274
 20
2445.5596549563
 30
0.0
 10
549.8209398263
 20
2444.2243166264
 30
0.0
 10
549.820659351
 20
2443.2164082786
 30
0.0
  0
ENDSEC
  0
SECTION
  2
OBJECTS
  0
DICTIONARY
  5
C
100
AcDbDictionary
280
0
281
1
  3
ACAD_GROUP
350
D
  3
ACAD_MLINESTYLE
350
17
  3
ACAD_LAYOUT
350
1A
  3
ACAD_PLOTSETTINGS
350
19
  3
ACAD_PLOTSTYLENAME
350
E
  0
DICTIONARY
  5
D
102
{ACAD_REACTORS
330
C
102
}
100
AcDbDictionary
280
0
281
1
  0
ACDBDICTIONARYWDFLT
  5
E
102
{ACAD_REACTORS
330
C
102
}
100
AcDbDictionary
281
1
  3
Normal
350
F
100
AcDbDictionaryWithDefault
340
F
  0
DICTIONARY
  5
17
102
{ACAD_REACTORS
330
C
102
}
100
AcDbDictionary
280
0
281
1
  3
Standard
350
18
  0
DICTIONARY
  5
19
102
{ACAD_REACTORS
330
C
102
}
100
AcDbDictionary
281
1
  0
DICTIONARY
  5
1A
102
{ACAD_REACTORS
330
C
102
}
100
AcDbDictionary
281
1
  3
Model
350
2A0
  3
Layout1
350
2A1
  0
ACDBPLACEHOLDER
  5
F
102
{ACAD_REACTORS
330
E
102
}
  0
MLINESTYLE
  5
18
102
{ACAD_REACTORS
330
17
102
}
100
AcDbMlineStyle
  2
STANDARD
 70
0
  3

 62
256
 51
90.0
 52
90.0
 71
2
 49
0.5
 62
256
  6
BYLAYER
 49
-0.5
 62
256
  6
BYLAYER
  0
LAYOUT
  5
2A0
102
{ACAD_REACTORS
330
1A
102
}
100
AcDbPlotSettings
  1

  2
none_device
  4

  6

 40
0.0
 41
0.0
 42
0.0
 43
0.0
 44
210.0
 45
297.0
 46
0.0
 47
0.0
 48
0.0
 49
0.0
140
0.0
141
0.0
142
1.0
143
1.0
 70
1024
 72
1
 73
0
 74
0
  7

 75
0
147
1.0
148
0.0
149
0.0
100
AcDbLayout
  1
Model
 70
0
 71
0
 10
0.0
 20
0.0
 11
210.0
 21
297.0
 12
0.0
 22
0.0
 32
0.0
 14
0.0
 24
0.0
 34
0.0
 15
0.0
 25
0.0
 35
0.0
146
0.0
 13
0.0
 23
0.0
 33
0.0
 16
1.0
 26
0.0
 36
0.0
 17
0.0
 27
1.0
 37
0.0
 76
0
330
210
345
0
346
0
  0
LAYOUT
  5
2A1
102
{ACAD_REACTORS
330
1A
102
}
100
AcDbPlotSettings
  1

  2
none_device
  4

  6

 40
0.0
 41
0.0
 42
0.0
 43
0.0
 44
210.0
 45
297.0
 46
0.0
 47
0.0
 48
0.0
 49
0.0
140
0.0
141
0.0
142
1.0
143
1.0
 70
0
 72
1
 73
0
 74
0
  7

 75
0
147
1.0
148
0.0
149
0.0
100
AcDbLayout
  1
Layout1
 70
0
 71
1
 10
0.0
 20
0.0
 11
210.0
 21
297.0
 12
0.0
 22
0.0
 32
0.0
 14
0.0
 24
0.0
 34
0.0
 15
0.0
 25
0.0
 35
0.0
146
0.0
 13
0.0
 23
0.0
 33
0.0
 16
1.0
 26
0.0
 36
0.0
 17
0.0
 27
1.0
 37
0.0
 76
0
330
211
345
0
346
0
  0
ENDSEC
  0
EOF
