999
DXF file: C:\Users\sesa63760\Dev\_Creo\CAD\MCADPP0003199_3D-CAD\drw0001_1.dxf
999
Pro/ENGINEER 2019471 by Parametric Technology Corporation
  0
SECTION
  2
HEADER
  9
$ACADVER
  1
AC1024
  9
$DWGCODEPAGE
  3
ANSI_1252
  9
$EXTMAX
 10
258.9945342477
 20
366.2922698647
 30
0.0
  9
$EXTMIN
 10
0.0
 20
0.0
 30
0.0
  9
$LIMMIN
 10
0.0
 20
0.0
  9
$LIMMAX
 10
258.9945342477
 20
366.2922698647
  9
$VIEWCTR
 10
129.4972671239
 20
183.1461349323
  9
$VIEWSIZE
 40
366.2922698647
  9
$CLAYER
  8
0
  9
$LTSCALE
 40
23.876829443
  9
$CELTYPE
  6
BYLAYER
  9
$DIMSCALE
 40
1.0
  9
$DIMASZ
 40
3.0832682649
  9
$DIMEXO
 40
1.0
  9
$DIMDLI
 40
16.4967185243
  9
$DIMEXE
 40
1.0
  9
$DIMCEN
 40
3.9071175452
  9
$DIMLFAC
 40
1.0
  9
$DIMBLK
  1
_FILLED
  9
$DIMALT
 70
0
  9
$DIMALTF
 40
0.0393700787
  9
$DIMTXT
 40
4.3165755708
  9
$DIMTOL
 70
1
  9
$DIMLIM
 70
0
  9
$DIMTFAC
 40
1.0
  9
$DIMTP
 40
0.01
  9
$DIMTM
 40
0.01
  9
$DIMGAP
 40
0.625
  9
$DIMDSEP
 70
46
  9
$AUNITS
 70
0
  9
$PDMODE
 70
3
  9
$PDSIZE
 40
0.3125
  9
$HANDSEED
  5
5E3
  9
$TILEMODE
 70
1
  9
$MEASUREMENT
 70
1
  9
$INSUNITS
 70
4
  0
ENDSEC
  0
SECTION
  2
CLASSES
  0
CLASS
  1
ACDBDICTIONARYWDFLT
  2
AcDbDictionaryWithDefault
  3
AutoCAD 2000
 90
0
 91
1
280
0
281
0
  0
CLASS
  1
ACDBPLACEHOLDER
  2
AcDbPlaceHolder
  3
AutoCAD 2000
 90
0
 91
1
280
0
281
0
  0
CLASS
  1
LAYOUT
  2
AcDbLayout
  3
AutoCAD 2000
 90
0
 91
0
280
0
281
0
  0
ENDSEC
  0
SECTION
  2
TABLES
  0
TABLE
  2
VPORT
  5
8
100
AcDbSymbolTable
 70
2
  0
VPORT
  5
1F4
100
AcDbSymbolTableRecord
100
AcDbViewportTableRecord
  2
*ACTIVE
 70
0
 10
0.0
 20
0.0
 11
1.0
 21
1.0
 12
129.4972671239
 22
183.1461349323
 13
0.0
 23
0.0
 14
1.0
 24
1.0
 15
0.0
 25
0.0
 16
0.0
 26
0.0
 36
1.0
 17
0.0
 27
0.0
 37
0.0
 40
366.2922698647
 41
0.7070707071
 42
50.0
 43
0.0
 44
0.0
 50
0.0
 51
0.0
 71
0
 72
100
 73
1
 74
1
 75
0
 76
0
 77
0
 78
0
  0
ENDTAB
  0
TABLE
  2
LTYPE
  5
5
100
AcDbSymbolTable
 70
6
  0
LTYPE
  5
14
100
AcDbSymbolTableRecord
100
AcDbLinetypeTableRecord
  2
BYBLOCK
 70
0
  3

 72
65
 73
0
 40
0.0
  0
LTYPE
  5
15
100
AcDbSymbolTableRecord
100
AcDbLinetypeTableRecord
  2
BYLAYER
 70
0
  3

 72
65
 73
0
 40
0.0
  0
LTYPE
  5
16
100
AcDbSymbolTableRecord
100
AcDbLinetypeTableRecord
  2
CONTINUOUS
 70
64
  3
Solid line
 72
65
 73
0
 40
0.0
  0
LTYPE
  5
1F5
100
AcDbSymbolTableRecord
100
AcDbLinetypeTableRecord
  2
CENTER
 70
64
  3
____ _ ____ _ ____ _ ____ _ ____ _ ____ _ ____
 72
65
 73
4
 40
0.6
 49
0.375
 74
0
 49
-0.075
 74
0
 49
0.075
 74
0
 49
-0.075
 74
0
  0
LTYPE
  5
1F6
100
AcDbSymbolTableRecord
100
AcDbLinetypeTableRecord
  2
HIDDEN
 70
64
  3
- - - - - - - - - - - - - - - - - - - -
 72
65
 73
2
 40
0.2
 49
0.1
 74
0
 49
-0.1
 74
0
  0
LTYPE
  5
1F7
100
AcDbSymbolTableRecord
100
AcDbLinetypeTableRecord
  2
PHANTOM
 70
64
  3
_____ _ _ _____ _ _ _____ _ _ _____
 72
65
 73
6
 40
0.8
 49
0.45
 74
0
 49
-0.05
 74
0
 49
0.1
 74
0
 49
-0.05
 74
0
 49
0.1
 74
0
 49
-0.05
 74
0
  0
LTYPE
  5
1F8
100
AcDbSymbolTableRecord
100
AcDbLinetypeTableRecord
  2
DOT
 70
64
  3
. . . . . . . . . . . . . . . . . . . .
 72
65
 73
2
 40
0.2
 49
0.1
 74
0
 49
-0.1
 74
0
  0
LTYPE
  5
1F9
100
AcDbSymbolTableRecord
100
AcDbLinetypeTableRecord
  2
DASHED
 70
64
  3
- - - - - - - - - - - - - - - - - - - -
 72
65
 73
2
 40
0.2
 49
0.1
 74
0
 49
-0.1
 74
0
  0
ENDTAB
  0
TABLE
  2
LAYER
  5
2
100
AcDbSymbolTable
 70
36
  0
LAYER
  5
10
100
AcDbSymbolTableRecord
100
AcDbLayerTableRecord
  2
0
 70
0
 62
7
  6
CONTINUOUS
370
-3
390
F
  0
LAYER
  5
1FA
100
AcDbSymbolTableRecord
100
AcDbLayerTableRecord
  2
DEFAULT_1
 70
0
 62
7
  6
CENTER
370
-3
390
F
  0
LAYER
  5
1FB
100
AcDbSymbolTableRecord
100
AcDbLayerTableRecord
  2
DEFAULT_2
 70
0
 62
8
  6
HIDDEN
370
-3
390
F
  0
LAYER
  5
1FC
100
AcDbSymbolTableRecord
100
AcDbLayerTableRecord
  2
DEFAULT_3
 70
0
 62
7
  6
PHANTOM
370
-3
390
F
  0
LAYER
  5
1FD
100
AcDbSymbolTableRecord
100
AcDbLayerTableRecord
  2
00_COMPONENTS
 70
0
 62
7
  6
CONTINUOUS
370
-3
390
F
  0
LAYER
  5
1FE
100
AcDbSymbolTableRecord
100
AcDbLayerTableRecord
  2
01_1_DEFAULT_DATUMS
 70
0
 62
7
  6
CONTINUOUS
370
-3
390
F
  0
LAYER
  5
1FF
100
AcDbSymbolTableRecord
100
AcDbLayerTableRecord
  2
01_PLANES
 70
0
 62
7
  6
CONTINUOUS
370
-3
390
F
  0
LAYER
  5
200
100
AcDbSymbolTableRecord
100
AcDbLayerTableRecord
  2
02_COORD_SYS
 70
0
 62
7
  6
CONTINUOUS
370
-3
390
F
  0
LAYER
  5
201
100
AcDbSymbolTableRecord
100
AcDbLayerTableRecord
  2
03_AXES
 70
0
 62
7
  6
CONTINUOUS
370
-3
390
F
  0
LAYER
  5
202
100
AcDbSymbolTableRecord
100
AcDbLayerTableRecord
  2
04_POINTS
 70
0
 62
7
  6
CONTINUOUS
370
-3
390
F
  0
LAYER
  5
203
100
AcDbSymbolTableRecord
100
AcDbLayerTableRecord
  2
05_CURVES
 70
0
 62
7
  6
CONTINUOUS
370
-3
390
F
  0
LAYER
  5
204
100
AcDbSymbolTableRecord
100
AcDbLayerTableRecord
  2
06_SURFS
 70
0
 62
7
  6
CONTINUOUS
370
-3
390
F
  0
LAYER
  5
205
100
AcDbSymbolTableRecord
100
AcDbLayerTableRecord
  2
07_COSMETICS
 70
0
 62
7
  6
CONTINUOUS
370
-3
390
F
  0
LAYER
  5
206
100
AcDbSymbolTableRecord
100
AcDbLayerTableRecord
  2
10_NOTES
 70
0
 62
7
  6
CONTINUOUS
370
-3
390
F
  0
LAYER
  5
207
100
AcDbSymbolTableRecord
100
AcDbLayerTableRecord
  2
11_NOTES_PUB
 70
0
 62
7
  6
CONTINUOUS
370
-3
390
F
  0
LAYER
  5
208
100
AcDbSymbolTableRecord
100
AcDbLayerTableRecord
  2
13_REF_GTOL
 70
0
 62
7
  6
CONTINUOUS
370
-3
390
F
  0
LAYER
  5
209
100
AcDbSymbolTableRecord
100
AcDbLayerTableRecord
  2
16_MISC
 70
0
 62
7
  6
CONTINUOUS
370
-3
390
F
  0
LAYER
  5
20A
100
AcDbSymbolTableRecord
100
AcDbLayerTableRecord
  2
17_NO_PRINT
 70
0
 62
7
  6
CONTINUOUS
370
-3
390
F
  0
LAYER
  5
20B
100
AcDbSymbolTableRecord
100
AcDbLayerTableRecord
  2
18_DATUM_CAMS_JOINTS
 70
0
 62
7
  6
CONTINUOUS
370
-3
390
F
  0
LAYER
  5
20C
100
AcDbSymbolTableRecord
100
AcDbLayerTableRecord
  2
19_DATUM_FUNCTIONAL
 70
0
 62
7
  6
CONTINUOUS
370
-3
390
F
  0
LAYER
  5
20D
100
AcDbSymbolTableRecord
100
AcDbLayerTableRecord
  2
20_DATUM_KINEMATIC_SCHEME
 70
0
 62
7
  6
CONTINUOUS
370
-3
390
F
  0
ENDTAB
  0
TABLE
  2
STYLE
  5
3
100
AcDbSymbolTable
 70
1
  0
STYLE
  5
11
100
AcDbSymbolTableRecord
100
AcDbTextStyleTableRecord
  2
STANDARD
 70
0
 40
0.0
 41
0.8
 50
0.0
 71
0
 42
0.2
  3
txt
  4

  0
STYLE
  5
20E
100
AcDbSymbolTableRecord
100
AcDbTextStyleTableRecord
  2
TEXTSTYLE_1
 70
0
 40
0.0
 41
0.8
 50
0.0
 71
0
 42
0.2
  3
gdt
  4

  0
ENDTAB
  0
TABLE
  2
VIEW
  5
6
100
AcDbSymbolTable
 70
0
  0
ENDTAB
  0
TABLE
  2
UCS
  5
7
100
AcDbSymbolTable
 70
0
  0
ENDTAB
  0
TABLE
  2
APPID
  5
9
100
AcDbSymbolTable
 70
1
  0
APPID
  5
20F
100
AcDbSymbolTableRecord
100
AcDbRegAppTableRecord
  2
ACAD
 70
0
  0
ENDTAB
  0
TABLE
  2
BLOCK_RECORD
  5
1
100
AcDbSymbolTable
 70
0
  0
BLOCK_RECORD
  5
210
100
AcDbSymbolTableRecord
100
AcDbBlockTableRecord
  2
*Model_Space
  0
BLOCK_RECORD
  5
211
100
AcDbSymbolTableRecord
100
AcDbBlockTableRecord
  2
*Paper_Space
  0
BLOCK_RECORD
  5
212
100
AcDbSymbolTableRecord
100
AcDbBlockTableRecord
  2
_FILLED
  0
ENDTAB
  0
TABLE
  2
DIMSTYLE
  5
A
100
AcDbSymbolTable
 70
1
100
AcDbDimStyleTable
 71
0
  0
DIMSTYLE
105
213
100
AcDbSymbolTableRecord
100
AcDbDimStyleTableRecord
  2
STANDARD
 70
0
  3

  4

 40
1.0
 41
3.0832682649
 42
1.0
 43
0.38
 44
1.0
 45
0.0
 46
0.0
 47
0.01
 48
0.01
140
4.3165755708
141
0.09
142
0.0
143
25.4
144
1.0
145
0.0
146
1.0
147
0.625
 71
1
 72
0
 73
0
 74
0
 75
0
 76
0
 77
1
 78
8
 79
2
170
0
171
1
172
0
173
0
174
0
175
0
176
0
177
0
178
0
270
2
179
2
271
2
272
2
273
2
274
2
275
0
280
0
281
0
282
0
283
1
284
8
285
0
286
0
287
3
288
0
340
11
278
46
341
212
342
212
343
212
344
212
  0
ENDTAB
  0
ENDSEC
  0
SECTION
  2
BLOCKS
  0
BLOCK
  5
20
100
AcDbEntity
  8
0
100
AcDbBlockBegin
  2
*Model_Space
 70
0
 10
0.0
 20
0.0
 30
0.0
  3
*Model_Space
  1

  0
ENDBLK
  5
21
100
AcDbEntity
  8
0
100
AcDbBlockEnd
  0
BLOCK
  5
1C
100
AcDbEntity
  8
0
100
AcDbBlockBegin
  2
*Paper_Space
 70
0
 10
0.0
 20
0.0
 30
0.0
  3
*Paper_Space
  1

  0
ENDBLK
  5
1D
100
AcDbEntity
  8
0
100
AcDbBlockEnd
  0
BLOCK
  5
214
100
AcDbEntity
  8
0
100
AcDbBlockBegin
  2
_FILLED
 70
64
 10
0.0
 20
0.0
  3
_FILLED
  1

  0
SOLID
  5
215
100
AcDbEntity
  8
0
  6
BYBLOCK
 62
0
100
AcDbTrace
 10
0.0
 20
0.0
 11
-1.0
 21
0.25
 12
-1.0
 22
-0.25
 13
-1.0
 23
-0.25
  0
ENDBLK
  5
216
100
AcDbEntity
  8
0
  6
BYBLOCK
 62
0
100
AcDbBlockEnd
  0
ENDSEC
  0
SECTION
  2
ENTITIES
  0
LINE
  5
217
100
AcDbEntity
  8
0
100
AcDbLine
 62
7
  6
CONTINUOUS
 10
90.4964098524
 20
58.0315364016
 11
101.1030557296
 21
51.9079250838
  0
LINE
  5
218
100
AcDbEntity
  8
0
100
AcDbLine
 62
7
  6
CONTINUOUS
 10
127.9732252852
 20
36.394776412
 11
138.5798711624
 21
30.2711650942
  0
LINE
  5
219
100
AcDbEntity
  8
0
100
AcDbLine
 62
7
  6
CONTINUOUS
 10
139.9940853135
 20
30.1895200027
 11
139.2162646159
 21
30.6385848327
  0
LINE
  5
21A
100
AcDbEntity
  8
0
100
AcDbLine
 62
7
  6
CONTINUOUS
 10
127.9732252852
 20
37.1296097702
 11
127.831798041
 21
37.2112609805
  0
LINE
  5
21B
100
AcDbEntity
  8
0
100
AcDbLine
 62
7
  6
CONTINUOUS
 10
102.5172698807
 20
51.8262799923
 11
101.7394491831
 21
52.2753448223
  0
LINE
  5
21C
100
AcDbEntity
  8
0
100
AcDbLine
 62
7
  6
CONTINUOUS
 10
90.4964098524
 20
58.7663697597
 11
90.3549826082
 21
58.84802097
  0
LINE
  5
21D
100
AcDbEntity
  8
0
100
AcDbLine
 62
7
  6
CONTINUOUS
 10
103.719346404
 20
52.5202950539
 11
104.3557451566
 21
52.1528783748
  0
LINE
  5
21E
100
AcDbEntity
  8
0
100
AcDbLine
 62
7
  6
CONTINUOUS
 10
141.1961618368
 20
30.8835350643
 11
141.8325605894
 21
30.5161183852
  0
LINE
  5
21F
100
AcDbEntity
  8
0
100
AcDbLine
 62
7
  6
CONTINUOUS
 10
157.3182347193
 20
28.2708798889
 11
145.2973693918
 21
35.2109727157
  0
LINE
  5
220
100
AcDbEntity
  8
0
100
AcDbLine
 62
7
  6
CONTINUOUS
 10
127.831798041
 20
45.2944969168
 11
107.820553959
 21
56.8477327053
  0
LINE
  5
221
100
AcDbEntity
  8
0
100
AcDbLine
 62
7
  6
CONTINUOUS
 10
90.3549826082
 20
66.9312569064
 11
82.3646038537
 21
71.544399868
  0
LINE
  5
222
100
AcDbEntity
  8
0
100
AcDbLine
 62
7
  6
CONTINUOUS
 10
126.7567122885
 20
329.0664828545
 11
125.0738010344
 21
327.653938207
  0
LINE
  5
223
100
AcDbEntity
  8
0
100
AcDbLine
 62
7
  6
CONTINUOUS
 10
72.111601158
 20
81.1384143167
 11
108.8813068657
 21
59.9098950817
  0
LINE
  5
224
100
AcDbEntity
  8
0
100
AcDbLine
 62
7
  6
CONTINUOUS
 10
109.5884165908
 20
59.5016543272
 11
146.3581222985
 21
38.2731350921
  0
LINE
  5
225
100
AcDbEntity
  8
0
100
AcDbLine
 62
7
  6
CONTINUOUS
 10
83.4253567604
 20
76.6478182872
 11
97.5675512633
 21
68.4830031968
  0
LINE
  5
226
100
AcDbEntity
  8
0
100
AcDbLine
 62
7
  6
CONTINUOUS
 10
120.9021721932
 20
55.0110582977
 11
135.0443666961
 21
46.8462432072
  0
LINE
  5
227
100
AcDbEntity
  8
0
100
AcDbLine
 62
7
  6
CONTINUOUS
 10
135.0443666961
 20
48.0709968329
 11
120.9021721932
 21
56.2358119233
  0
LINE
  5
228
100
AcDbEntity
  8
0
100
AcDbLine
 62
7
  6
CONTINUOUS
 10
97.5675512633
 20
69.7077568225
 11
83.4253567604
 21
77.8725719129
  0
LINE
  5
229
100
AcDbEntity
  8
0
100
AcDbLine
 62
7
  6
CONTINUOUS
 10
72.111601158
 20
85.6291776109
 11
108.8813068657
 21
64.4006583759
  0
LINE
  5
22A
100
AcDbEntity
  8
0
100
AcDbLine
 62
7
  6
CONTINUOUS
 10
109.5884165908
 20
63.9924176214
 11
146.3581222985
 21
42.7638983863
  0
LINE
  5
22B
100
AcDbEntity
  8
0
100
AcDbLine
 62
7
  6
CONTINUOUS
 10
132.923011025
 20
54.19465481
 11
129.3874623993
 21
56.2358585826
  0
LINE
  5
22C
100
AcDbEntity
  8
0
100
AcDbLine
 62
7
  6
CONTINUOUS
 10
95.4461955922
 20
75.8314147995
 11
91.9106469665
 21
77.8726185721
  0
LINE
  5
22D
100
AcDbEntity
  8
0
100
AcDbLine
 62
7
  6
CONTINUOUS
 10
91.9106469665
 20
79.0157219561
 11
95.4461955922
 21
76.9745181835
  0
LINE
  5
22E
100
AcDbEntity
  8
0
100
AcDbLine
 62
7
  6
CONTINUOUS
 10
129.3874623993
 20
57.3789619665
 11
132.923011025
 21
55.3377581939
  0
LINE
  5
22F
100
AcDbEntity
  8
0
100
AcDbLine
 62
7
  6
CONTINUOUS
 10
140.1708709879
 20
52.0513993471
 11
134.690770618
 21
55.2152651946
  0
LINE
  5
230
100
AcDbEntity
  8
0
100
AcDbLine
 62
7
  6
CONTINUOUS
 10
130.1652512702
 20
57.8280159
 11
125.6751216224
 21
60.4203348148
  0
LINE
  5
231
100
AcDbEntity
  8
0
100
AcDbLine
 62
7
  6
CONTINUOUS
 10
102.6940555551
 20
73.6881593367
 11
97.2139551852
 21
76.8520251842
  0
LINE
  5
232
100
AcDbEntity
  8
0
100
AcDbLine
 62
7
  6
CONTINUOUS
 10
92.6884358374
 20
79.4647758896
 11
88.1983061896
 21
82.0570948043
  0
LWPOLYLINE
  5
233
100
AcDbEntity
  8
0
100
AcDbPolyline
 62
7
  6
CONTINUOUS
 90
4
 70
0
 10
124.5864366047
 20
330.3856558221
 10
124.1433938297
 20
329.9341891564
 10
123.6054582463
 20
329.4031394777
 10
123.0197531982
 20
328.8396237018
  0
LWPOLYLINE
  5
234
100
AcDbEntity
  8
0
100
AcDbPolyline
 62
7
  6
CONTINUOUS
 90
4
 70
0
 10
132.7889094164
 20
325.6500630697
 10
132.3458666414
 20
325.1985964039
 10
131.807931058
 20
324.6675467253
 10
131.2222260099
 20
324.1040309493
  0
LINE
  5
235
100
AcDbEntity
  8
0
100
AcDbLine
 62
7
  6
CONTINUOUS
 10
94.0319584781
 20
80.2404544177
 11
97.5675071038
 21
78.1992506451
  0
LINE
  5
236
100
AcDbEntity
  8
0
100
AcDbLine
 62
7
  6
CONTINUOUS
 10
131.5087739109
 20
58.6036944282
 11
135.0443225366
 21
56.5624906556
  0
LINE
  5
237
100
AcDbEntity
  8
0
100
AcDbLine
 62
7
  6
CONTINUOUS
 10
81.6575029604
 20
91.1404736882
 11
90.3549826082
 21
86.1190950711
  0
LINE
  5
238
100
AcDbEntity
  8
0
100
AcDbLine
 62
7
  6
CONTINUOUS
 10
107.290230497
 20
76.3417463368
 11
118.4272086681
 21
69.9119544532
  0
LINE
  5
239
100
AcDbEntity
  8
0
100
AcDbLine
 62
7
  6
CONTINUOUS
 10
119.1343183932
 20
69.5037136986
 11
127.831798041
 21
64.4823350815
  0
LINE
  5
23A
100
AcDbEntity
  8
0
100
AcDbLine
 62
7
  6
CONTINUOUS
 10
144.7670459298
 20
54.7049863473
 11
155.9040241009
 21
48.2751944636
  0
LINE
  5
23B
100
AcDbEntity
  8
0
100
AcDbLine
 62
7
  6
CONTINUOUS
 10
149.0597341236
 20
56.5541874469
 11
146.2019841925
 21
58.2040728135
  0
LINE
  5
23C
100
AcDbEntity
  8
0
100
AcDbLine
 62
7
  6
CONTINUOUS
 10
124.3108937435
 20
70.8426138551
 11
121.4531438123
 21
72.4924992217
  0
LINE
  5
23D
100
AcDbEntity
  8
0
100
AcDbLine
 62
7
  6
CONTINUOUS
 10
111.5829186908
 20
78.1909474365
 11
108.7251687597
 21
79.8408328031
  0
LINE
  5
23E
100
AcDbEntity
  8
0
100
AcDbLine
 62
7
  6
CONTINUOUS
 10
86.8340783107
 20
92.4793738447
 11
83.9763283795
 21
94.1292592113
  0
LINE
  5
23F
100
AcDbEntity
  8
0
100
AcDbLine
 62
7
  6
CONTINUOUS
 10
123.0115221278
 20
328.8285001522
 11
123.0199542197
 21
328.8400492573
  0
LWPOLYLINE
  5
240
100
AcDbEntity
  8
0
100
AcDbPolyline
 62
7
  6
CONTINUOUS
 90
4
 70
0
 10
140.9913822281
 20
320.9144703172
 10
140.5483394531
 20
320.4630036515
 10
140.0104038697
 20
319.9319539729
 10
139.4246988216
 20
319.3684381969
  0
LINE
  5
241
100
AcDbEntity
  8
0
100
AcDbLine
 62
7
  6
CONTINUOUS
 10
72.111601158
 20
105.2252356221
 11
108.8813068657
 21
83.996716387
  0
LINE
  5
242
100
AcDbEntity
  8
0
100
AcDbLine
 62
7
  6
CONTINUOUS
 10
109.5884165908
 20
83.5884756325
 11
146.3581222985
 21
62.3599563974
  0
LINE
  5
243
100
AcDbEntity
  8
0
100
AcDbLine
 62
7
  6
CONTINUOUS
 10
83.4253567604
 20
99.9181371754
 11
97.5675512633
 21
91.753322085
  0
LINE
  5
244
100
AcDbEntity
  8
0
100
AcDbLine
 62
7
  6
CONTINUOUS
 10
120.9021721932
 20
78.2813771858
 11
135.0443666961
 21
70.1165620954
  0
LINE
  5
245
100
AcDbEntity
  8
0
100
AcDbLine
 62
7
  6
CONTINUOUS
 10
147.6307552945
 20
63.0947070144
 11
149.0597341236
 21
62.2697043668
  0
LINE
  5
246
100
AcDbEntity
  8
0
100
AcDbLine
 62
7
  6
CONTINUOUS
 10
135.0443666961
 20
71.3413157211
 11
120.9021721932
 21
79.5061308115
  0
LINE
  5
247
100
AcDbEntity
  8
0
100
AcDbLine
 62
7
  6
CONTINUOUS
 10
97.5675512633
 20
92.9780757107
 11
83.4253567604
 21
101.1428908011
  0
LINE
  5
248
100
AcDbEntity
  8
0
100
AcDbLine
 62
7
  6
CONTINUOUS
 10
149.4692252713
 20
64.1561418145
 11
150.8982041004
 21
63.3311391669
  0
LINE
  5
249
100
AcDbEntity
  8
0
100
AcDbLine
 62
7
  6
CONTINUOUS
 10
72.111601158
 20
109.7159989163
 11
108.8813068657
 21
88.4874796812
  0
LINE
  5
24A
100
AcDbEntity
  8
0
100
AcDbLine
 62
7
  6
CONTINUOUS
 10
109.5884165908
 20
88.0792389267
 11
146.3581222985
 21
66.8507196916
  0
LINE
  5
24B
100
AcDbEntity
  8
0
100
AcDbLine
 62
7
  6
CONTINUOUS
 10
73.1722569139
 20
110.3283651471
 11
109.9419626215
 21
89.099845912
  0
LINE
  5
24C
100
AcDbEntity
  8
0
100
AcDbLine
 62
7
  6
CONTINUOUS
 10
110.6490723467
 20
88.6916051575
 11
147.4187780543
 21
67.4630859224
  0
LINE
  5
24D
100
AcDbEntity
  8
0
100
AcDbLine
 62
7
  6
CONTINUOUS
 10
140.1708709879
 20
72.8722109839
 11
125.6751216224
 21
81.2411464516
  0
LINE
  5
24E
100
AcDbEntity
  8
0
100
AcDbLine
 62
7
  6
CONTINUOUS
 10
102.6940555551
 20
94.5089709735
 11
88.1983061896
 21
102.8779064412
  0
LINE
  5
24F
100
AcDbEntity
  8
0
100
AcDbLine
 62
7
  6
CONTINUOUS
 10
131.2139949395
 20
324.0929073997
 11
131.2224270314
 21
324.1044565049
  0
LINE
  5
250
100
AcDbEntity
  8
0
100
AcDbLine
 62
7
  6
CONTINUOUS
 10
82.7181587163
 20
112.5736515558
 11
90.3549826082
 21
108.1646289715
  0
LINE
  5
251
100
AcDbEntity
  8
0
100
AcDbLine
 62
7
  6
CONTINUOUS
 10
108.3508862528
 20
97.7749242045
 11
119.4878644239
 21
91.3451323208
  0
LINE
  5
252
100
AcDbEntity
  8
0
100
AcDbLine
 62
7
  6
CONTINUOUS
 10
120.194974149
 20
90.9368915662
 11
127.831798041
 21
86.5278689819
  0
LINE
  5
253
100
AcDbEntity
  8
0
100
AcDbLine
 62
7
  6
CONTINUOUS
 10
145.8277016856
 20
76.1381642149
 11
156.9646798567
 21
69.7083723312
  0
LINE
  5
254
100
AcDbEntity
  8
0
100
AcDbLine
 62
7
  6
CONTINUOUS
 10
83.9763283795
 20
94.1292592113
 11
82.547453414
 21
97.8119603546
  0
LINE
  5
255
100
AcDbEntity
  8
0
100
AcDbLine
 62
7
  6
CONTINUOUS
 10
120.4659483138
 20
323.439609596
 11
123.0113795987
 21
328.8281984232
  0
LINE
  5
256
100
AcDbEntity
  8
0
100
AcDbLine
 62
7
  6
CONTINUOUS
 10
117.3964446155
 20
315.1856260707
 11
121.053197006
 21
322.9268427329
  0
LINE
  5
257
100
AcDbEntity
  8
0
100
AcDbLine
 62
7
  6
CONTINUOUS
 10
128.7880376362
 20
338.9084213062
 11
124.7151195338
 21
330.2861964163
  0
LINE
  5
258
100
AcDbEntity
  8
0
100
AcDbLine
 62
7
  6
CONTINUOUS
 10
128.9911451055
 20
338.7501337062
 11
124.9182270031
 21
330.1279088163
  0
LINE
  5
259
100
AcDbEntity
  8
0
100
AcDbLine
 62
7
  6
CONTINUOUS
 10
126.7567122885
 20
329.0664828545
 11
130.8296303908
 21
337.6887077444
  0
LINE
  5
25A
100
AcDbEntity
  8
0
100
AcDbLine
 62
7
  6
CONTINUOUS
 10
131.5933060678
 20
337.3457796154
 11
127.5203879654
 21
328.7235547255
  0
LINE
  5
25B
100
AcDbEntity
  8
0
100
AcDbLine
 62
7
  6
CONTINUOUS
 10
127.9729344213
 20
328.5929098238
 11
132.0458525236
 21
337.2151347136
  0
LINE
  5
25C
100
AcDbEntity
  8
0
100
AcDbLine
 62
7
  6
CONTINUOUS
 10
132.124686841
 20
337.2075834979
 11
128.0517687387
 21
328.585358608
  0
LINE
  5
25D
100
AcDbEntity
  8
0
100
AcDbLine
 62
7
  6
CONTINUOUS
 10
127.9729344213
 20
328.5929098238
 11
126.9688475612
 21
326.8211113471
  0
LINE
  5
25E
100
AcDbEntity
  8
0
100
AcDbLine
 62
7
  6
CONTINUOUS
 10
139.4164677512
 20
319.3573146473
 11
139.4248998431
 21
319.3688637524
  0
LINE
  5
25F
100
AcDbEntity
  8
0
100
AcDbLine
 62
7
  6
CONTINUOUS
 10
111.2652317202
 20
247.6933420036
 11
110.4367910851
 21
247.215044435
  0
LINE
  5
260
100
AcDbEntity
  8
0
100
AcDbLine
 62
7
  6
CONTINUOUS
 10
90.4964098524
 20
123.351729772
 11
101.1030557296
 21
117.2281184541
  0
LINE
  5
261
100
AcDbEntity
  8
0
100
AcDbLine
 62
7
  6
CONTINUOUS
 10
127.9732252852
 20
101.7149697824
 11
138.5798711624
 21
95.5913584646
  0
LINE
  5
262
100
AcDbEntity
  8
0
100
AcDbLine
 62
7
  6
CONTINUOUS
 10
139.9940853135
 20
95.5097133731
 11
139.2162646159
 21
95.9587782031
  0
LINE
  5
263
100
AcDbEntity
  8
0
100
AcDbLine
 62
7
  6
CONTINUOUS
 10
128.6096187387
 20
102.0823895209
 11
127.831798041
 21
102.5314543508
  0
LINE
  5
264
100
AcDbEntity
  8
0
100
AcDbLine
 62
7
  6
CONTINUOUS
 10
102.5172698807
 20
117.1464733627
 11
101.7394491831
 21
117.5955381926
  0
LINE
  5
265
100
AcDbEntity
  8
0
100
AcDbLine
 62
7
  6
CONTINUOUS
 10
91.1328033059
 20
123.7191495104
 11
90.3549826082
 21
124.1682143404
  0
LINE
  5
266
100
AcDbEntity
  8
0
100
AcDbLine
 62
7
  6
CONTINUOUS
 10
139.9940847247
 20
95.5913618639
 11
127.9732193972
 21
102.5314546908
  0
LINE
  5
267
100
AcDbEntity
  8
0
100
AcDbLine
 62
7
  6
CONTINUOUS
 10
102.5172692919
 20
117.2281218535
 11
90.4964039644
 21
124.1682146803
  0
LINE
  5
268
100
AcDbEntity
  8
0
100
AcDbLine
 62
7
  6
CONTINUOUS
 10
129.0338745643
 20
103.2254694124
 11
128.3974758116
 21
103.5928860915
  0
LINE
  5
269
100
AcDbEntity
  8
0
100
AcDbLine
 62
7
  6
CONTINUOUS
 10
91.5570591315
 20
124.862229402
 11
90.9206603788
 21
125.2296460811
  0
LINE
  5
26A
100
AcDbEntity
  8
0
100
AcDbLine
 62
7
  6
CONTINUOUS
 10
103.719346404
 20
117.8404884242
 11
104.3557451566
 21
117.4730717452
  0
LINE
  5
26B
100
AcDbEntity
  8
0
100
AcDbLine
 62
7
  6
CONTINUOUS
 10
141.1961618368
 20
96.2037284347
 11
141.8325605894
 21
95.8363117556
  0
LINE
  5
26C
100
AcDbEntity
  8
0
100
AcDbLine
 62
7
  6
CONTINUOUS
 10
94.3854750691
 20
126.4135575266
 11
100.0423528703
 21
123.1476314905
  0
LINE
  5
26D
100
AcDbEntity
  8
0
100
AcDbLine
 62
7
  6
CONTINUOUS
 10
100.7494625954
 20
122.739390736
 11
106.4063403966
 21
119.4734646998
  0
LINE
  5
26E
100
AcDbEntity
  8
0
100
AcDbLine
 62
7
  6
CONTINUOUS
 10
131.8622905019
 20
104.7767975371
 11
137.5191683031
 21
101.5108715009
  0
LINE
  5
26F
100
AcDbEntity
  8
0
100
AcDbLine
 62
7
  6
CONTINUOUS
 10
138.2262780282
 20
101.1026307464
 11
143.8831558294
 21
97.8367047102
  0
LINE
  5
270
100
AcDbEntity
  8
0
100
AcDbLine
 62
7
  6
CONTINUOUS
 10
145.2973693918
 20
97.8367081096
 11
138.9333818654
 21
101.5108749002
  0
LINE
  5
271
100
AcDbEntity
  8
0
100
AcDbLine
 62
7
  6
CONTINUOUS
 10
138.2262721403
 20
101.9191156548
 11
131.862284614
 21
105.5932824455
  0
LINE
  5
272
100
AcDbEntity
  8
0
100
AcDbLine
 62
7
  6
CONTINUOUS
 10
107.820553959
 20
119.4734680991
 11
101.4565664327
 21
123.1476348898
  0
LINE
  5
273
100
AcDbEntity
  8
0
100
AcDbLine
 62
7
  6
CONTINUOUS
 10
100.7494567075
 20
123.5558756443
 11
94.3854691812
 21
127.230042435
  0
LINE
  5
274
100
AcDbEntity
  8
0
100
AcDbLine
 62
7
  6
CONTINUOUS
 10
87.5688206168
 20
96.3012076951
 11
88.2629532762
 21
94.5121896213
  0
LINE
  5
275
100
AcDbEntity
  8
0
100
AcDbLine
 62
7
  6
CONTINUOUS
 10
72.111601158
 20
191.3662406292
 11
72.111601158
 21
186.875477335
  0
LINE
  5
276
100
AcDbEntity
  8
0
100
AcDbLine
 62
7
  6
CONTINUOUS
 10
72.111601158
 20
167.2794193239
 11
72.111601158
 21
162.7886560297
  0
LINE
  5
277
100
AcDbEntity
  8
0
100
AcDbLine
 62
7
  6
CONTINUOUS
 10
72.111601158
 20
109.7159989163
 11
72.111601158
 21
105.2252356221
  0
LINE
  5
278
100
AcDbEntity
  8
0
100
AcDbLine
 62
7
  6
CONTINUOUS
 10
72.111601158
 20
85.6291776109
 11
72.111601158
 21
81.1384143167
  0
LINE
  5
279
100
AcDbEntity
  8
0
100
AcDbLine
 62
7
  6
CONTINUOUS
 10
124.2252693642
 20
328.1438271124
 11
124.9182270031
 21
330.1279088163
  0
LINE
  5
27A
100
AcDbEntity
  8
0
100
AcDbLine
 62
7
  6
CONTINUOUS
 10
128.0517687387
 20
328.585358608
 11
128.0518087333
 21
328.5854452752
  0
LINE
  5
27B
100
AcDbEntity
  8
0
100
AcDbLine
 62
7
  6
CONTINUOUS
 10
136.2542415504
 20
323.8497658556
 11
136.254281545
 21
323.8498525228
  0
LINE
  5
27C
100
AcDbEntity
  8
0
100
AcDbLine
 62
7
  6
CONTINUOUS
 10
121.01322669
 20
313.477150895
 11
124.6699689073
 21
321.218346021
  0
LINE
  5
27D
100
AcDbEntity
  8
0
100
AcDbLine
 62
7
  6
CONTINUOUS
 10
125.4390236662
 20
321.0904562295
 11
127.9844021865
 21
326.4789333558
  0
LINE
  5
27E
100
AcDbEntity
  8
0
100
AcDbLine
 62
7
  6
CONTINUOUS
 10
128.6684211255
 20
318.7040168436
 11
131.2138524104
 21
324.0926056708
  0
LINE
  5
27F
100
AcDbEntity
  8
0
100
AcDbLine
 62
7
  6
CONTINUOUS
 10
125.5989174272
 20
310.4500333183
 11
129.2556698177
 21
318.1912499804
  0
LINE
  5
280
100
AcDbEntity
  8
0
100
AcDbLine
 62
7
  6
CONTINUOUS
 10
136.9905104479
 20
334.1728285538
 11
132.9175923455
 21
325.5506036639
  0
LINE
  5
281
100
AcDbEntity
  8
0
100
AcDbLine
 62
7
  6
CONTINUOUS
 10
140.3271596527
 20
332.4719907454
 11
136.2542415504
 21
323.8497658556
  0
LINE
  5
282
100
AcDbEntity
  8
0
100
AcDbLine
 62
7
  6
CONTINUOUS
 10
129.2156995017
 20
308.7415581426
 11
132.8724417191
 21
316.4827532686
  0
LINE
  5
283
100
AcDbEntity
  8
0
100
AcDbLine
 62
7
  6
CONTINUOUS
 10
133.6414964779
 20
316.354863477
 11
136.1868749982
 21
321.7433406034
  0
LINE
  5
284
100
AcDbEntity
  8
0
100
AcDbLine
 62
7
  6
CONTINUOUS
 10
82.3646038537
 20
226.6798591227
 11
99.3350959468
 21
236.4777188156
  0
LINE
  5
285
100
AcDbEntity
  8
0
100
AcDbLine
 62
7
  6
CONTINUOUS
 10
85.546579953
 20
227.2922304525
 11
100.3957605345
 21
235.8653576838
  0
LINE
  5
286
100
AcDbEntity
  8
0
100
AcDbLine
 62
7
  6
CONTINUOUS
 10
119.4677045319
 20
242.9577492512
 11
118.6392638968
 21
242.4794516826
  0
LINE
  5
287
100
AcDbEntity
  8
0
100
AcDbLine
 62
7
  6
CONTINUOUS
 10
100.0422557194
 20
231.5788635911
 11
94.3854250217
 21
228.3129103601
  0
LINE
  5
288
100
AcDbEntity
  8
0
100
AcDbLine
 62
7
  6
CONTINUOUS
 10
87.3143719297
 20
223.822173841
 11
88.3750276855
 21
224.4345400718
  0
LINE
  5
289
100
AcDbEntity
  8
0
100
AcDbLine
 62
7
  6
CONTINUOUS
 10
96.0824812965
 20
228.3129144394
 11
100.8907873896
 21
231.0889746857
  0
LINE
  5
28A
100
AcDbEntity
  8
0
100
AcDbLine
 62
7
  6
CONTINUOUS
 10
92.1298397516
 20
223.8751189374
 11
103.7233347189
 21
230.5685864231
  0
LINE
  5
28B
100
AcDbEntity
  8
0
100
AcDbLine
 62
7
  6
CONTINUOUS
 10
155.1969055438
 20
96.4488003571
 11
157.3182347193
 21
95.2240780935
  0
LINE
  5
28C
100
AcDbEntity
  8
0
100
AcDbLine
 62
7
  6
CONTINUOUS
 10
156.2575612996
 20
97.0611665879
 11
157.3182258874
 21
96.4488054561
  0
LINE
  5
28D
100
AcDbEntity
  8
0
100
AcDbLine
 62
7
  6
CONTINUOUS
 10
155.1969055438
 20
98.0818051913
 11
157.3182347193
 21
96.8570829278
  0
LINE
  5
28E
100
AcDbEntity
  8
0
100
AcDbLine
 62
7
  6
CONTINUOUS
 10
161.9144096612
 20
97.8776650937
 11
160.8537450734
 21
98.4900262255
  0
LINE
  5
28F
100
AcDbEntity
  8
0
100
AcDbLine
 62
7
  6
CONTINUOUS
 10
90.4964098524
 20
139.6817781145
 11
101.1030557296
 21
133.5581667967
  0
LINE
  5
290
100
AcDbEntity
  8
0
100
AcDbLine
 62
7
  6
CONTINUOUS
 10
102.5172698807
 20
133.4765217053
 11
101.7394491831
 21
133.9255865352
  0
LINE
  5
291
100
AcDbEntity
  8
0
100
AcDbLine
 62
7
  6
CONTINUOUS
 10
90.4964098524
 20
140.4166114727
 11
90.3549826082
 21
140.498262683
  0
LINE
  5
292
100
AcDbEntity
  8
0
100
AcDbLine
 62
7
  6
CONTINUOUS
 10
103.719346404
 20
134.1705367668
 11
104.3557451566
 21
133.8031200878
  0
LINE
  5
293
100
AcDbEntity
  8
0
100
AcDbLine
 62
7
  6
CONTINUOUS
 10
108.7251687597
 20
79.8408328031
 11
107.2962937941
 21
83.5235339464
  0
LINE
  5
294
100
AcDbEntity
  8
0
100
AcDbLine
 62
7
  6
CONTINUOUS
 10
112.3176609969
 20
82.0127812869
 11
113.0117936564
 21
80.2237632131
  0
LINE
  5
295
100
AcDbEntity
  8
0
100
AcDbLine
 62
7
  6
CONTINUOUS
 10
81.6575029604
 20
181.3642730398
 11
81.6575029604
 21
172.7907154012
  0
LINE
  5
296
100
AcDbEntity
  8
0
100
AcDbLine
 62
7
  6
CONTINUOUS
 10
81.6575029604
 20
99.7140313269
 11
81.6575029604
 21
91.1404736882
  0
LINE
  5
297
100
AcDbEntity
  8
0
100
AcDbLine
 62
7
  6
CONTINUOUS
 10
82.3646038537
 20
71.544399868
 11
82.3646038537
 21
75.218974366
  0
LINE
  5
298
100
AcDbEntity
  8
0
100
AcDbLine
 62
7
  6
CONTINUOUS
 10
82.3646038537
 20
112.3695277792
 11
82.3646038537
 21
156.869216079
  0
LINE
  5
299
100
AcDbEntity
  8
0
100
AcDbLine
 62
7
  6
CONTINUOUS
 10
82.3646038537
 20
194.0197694922
 11
82.3646038537
 21
226.6798591227
  0
LINE
  5
29A
100
AcDbEntity
  8
0
100
AcDbLine
 62
7
  6
CONTINUOUS
 10
83.4253567604
 20
182.7931325141
 11
83.4253567604
 21
181.5683788884
  0
LINE
  5
29B
100
AcDbEntity
  8
0
100
AcDbLine
 62
7
  6
CONTINUOUS
 10
83.4253567604
 20
159.5228136259
 11
83.4253567604
 21
158.2980600002
  0
LINE
  5
29C
100
AcDbEntity
  8
0
100
AcDbLine
 62
7
  6
CONTINUOUS
 10
83.4253567604
 20
101.1428908011
 11
83.4253567604
 21
99.9181371754
  0
LINE
  5
29D
100
AcDbEntity
  8
0
100
AcDbLine
 62
7
  6
CONTINUOUS
 10
83.4253567604
 20
77.8725719129
 11
83.4253567604
 21
76.6478182872
  0
LINE
  5
29E
100
AcDbEntity
  8
0
100
AcDbLine
 62
7
  6
CONTINUOUS
 10
87.3143719297
 20
217.6984057125
 11
87.3143719297
 21
223.822173841
  0
LINE
  5
29F
100
AcDbEntity
  8
0
100
AcDbLine
 62
7
  6
CONTINUOUS
 10
88.3750276855
 20
218.3107719433
 11
88.3750276855
 21
224.4345400718
  0
LINE
  5
2A0
100
AcDbEntity
  8
0
100
AcDbLine
 62
7
  6
CONTINUOUS
 10
126.8557109473
 20
326.8537725726
 11
127.5203879654
 21
328.7235547255
  0
LINE
  5
2A1
100
AcDbEntity
  8
0
100
AcDbLine
 62
7
  6
CONTINUOUS
 10
144.4567143621
 20
319.1141731031
 11
144.4567543567
 21
319.1142597703
  0
LINE
  5
2A2
100
AcDbEntity
  8
0
100
AcDbLine
 62
7
  6
CONTINUOUS
 10
136.8708939372
 20
313.9684240911
 11
139.4163252221
 21
319.3570129183
  0
LINE
  5
2A3
100
AcDbEntity
  8
0
100
AcDbLine
 62
7
  6
CONTINUOUS
 10
133.8013902389
 20
305.7144405658
 11
137.4581426294
 21
313.455657228
  0
LINE
  5
2A4
100
AcDbEntity
  8
0
100
AcDbLine
 62
7
  6
CONTINUOUS
 10
145.1929832596
 20
329.4372358013
 11
141.1200651572
 21
320.8150109115
  0
LINE
  5
2A5
100
AcDbEntity
  8
0
100
AcDbLine
 62
7
  6
CONTINUOUS
 10
148.5296324644
 20
327.736397993
 11
144.4567143621
 21
319.1141731031
  0
LINE
  5
2A6
100
AcDbEntity
  8
0
100
AcDbLine
 62
7
  6
CONTINUOUS
 10
137.4181723134
 20
304.0059653902
 11
141.0749145308
 21
311.7471605161
  0
LINE
  5
2A7
100
AcDbEntity
  8
0
100
AcDbLine
 62
7
  6
CONTINUOUS
 10
141.8439692896
 20
311.6192707246
 11
144.3893478099
 21
317.007747851
  0
LINE
  5
2A8
100
AcDbEntity
  8
0
100
AcDbLine
 62
7
  6
CONTINUOUS
 10
92.3811395752
 20
221.9302088901
 11
92.1227268926
 21
221.7810151488
  0
LINE
  5
2A9
100
AcDbEntity
  8
0
100
AcDbLine
 62
7
  6
CONTINUOUS
 10
93.5298334839
 20
221.4502441882
 11
103.8964751714
 21
227.4354761459
  0
LINE
  5
2AA
100
AcDbEntity
  8
0
100
AcDbLine
 62
7
  6
CONTINUOUS
 10
88.3750276855
 20
218.3107719433
 11
87.3143719297
 21
217.6984057125
  0
LINE
  5
2AB
100
AcDbEntity
  8
0
100
AcDbLine
 62
7
  6
CONTINUOUS
 10
94.1026294127
 20
221.2911289629
 11
93.5369463429
 21
220.9645336398
  0
LINE
  5
2AC
100
AcDbEntity
  8
0
100
AcDbLine
 62
7
  6
CONTINUOUS
 10
101.5979371527
 20
225.1286365541
 11
103.9220950482
 21
226.470481731
  0
LINE
  5
2AD
100
AcDbEntity
  8
0
100
AcDbLine
 62
7
  6
CONTINUOUS
 10
108.8810065811
 20
228.1085000647
 11
110.7995498557
 21
229.2161649289
  0
LINE
  5
2AE
100
AcDbEntity
  8
0
100
AcDbLine
 62
7
  6
CONTINUOUS
 10
95.6582578545
 20
220.2296603003
 11
99.9008808778
 21
222.6791252235
  0
LINE
  5
2AF
100
AcDbEntity
  8
0
100
AcDbLine
 62
7
  6
CONTINUOUS
 10
128.6801813353
 20
238.8052790944
 11
124.3764312164
 21
236.3205226368
  0
LINE
  5
2B0
100
AcDbEntity
  8
0
100
AcDbLine
 62
7
  6
CONTINUOUS
 10
95.4461337689
 20
219.127405164
 11
96.5067895247
 21
219.7397713948
  0
LINE
  5
2B1
100
AcDbEntity
  8
0
100
AcDbLine
 62
7
  6
CONTINUOUS
 10
128.6801813353
 20
237.9887766773
 11
124.3764312164
 21
235.5040202197
  0
LINE
  5
2B2
100
AcDbEntity
  8
0
100
AcDbLine
 62
7
  6
CONTINUOUS
 10
116.8542184194
 20
228.2210452937
 11
117.0127007091
 21
228.31254454
  0
LINE
  5
2B3
100
AcDbEntity
  8
0
100
AcDbLine
 62
7
  6
CONTINUOUS
 10
107.1133930088
 20
221.9443586688
 11
110.4370926395
 21
223.8632860909
  0
LINE
  5
2B4
100
AcDbEntity
  8
0
100
AcDbLine
 62
7
  6
CONTINUOUS
 10
93.5369463429
 20
214.1059133359
 11
95.4461337689
 21
215.2081766306
  0
LINE
  5
2B5
100
AcDbEntity
  8
0
100
AcDbLine
 62
7
  6
CONTINUOUS
 10
107.961924679
 20
221.4544697634
 11
110.4080200288
 21
222.8667151421
  0
LINE
  5
2B6
100
AcDbEntity
  8
0
100
AcDbLine
 62
7
  6
CONTINUOUS
 10
114.8914068612
 20
224.6383573533
 11
117.7546231529
 21
226.2914261825
  0
LINE
  5
2B7
100
AcDbEntity
  8
0
100
AcDbLine
 62
7
  6
CONTINUOUS
 10
107.9732724094
 20
225.3669877238
 11
110.5859110337
 21
226.5023109403
  0
LINE
  5
2B8
100
AcDbEntity
  8
0
100
AcDbLine
 62
7
  6
CONTINUOUS
 10
114.7398463179
 20
228.3074052707
 11
115.9108227575
 21
228.8162535766
  0
LINE
  5
2B9
100
AcDbEntity
  8
0
100
AcDbLine
 62
7
  6
CONTINUOUS
 10
110.1283272686
 20
224.1227943682
 11
110.455705204
 21
224.2650565881
  0
LINE
  5
2BA
100
AcDbEntity
  8
0
100
AcDbLine
 62
7
  6
CONTINUOUS
 10
114.5621168741
 20
226.0494995119
 11
116.7079167764
 21
226.9819577648
  0
LINE
  5
2BB
100
AcDbEntity
  8
0
100
AcDbLine
 62
7
  6
CONTINUOUS
 10
72.111601158
 20
162.7886560297
 11
146.3581222985
 21
119.9233768051
  0
LINE
  5
2BC
100
AcDbEntity
  8
0
100
AcDbLine
 62
7
  6
CONTINUOUS
 10
83.4253567604
 20
158.2980600002
 11
97.5675512633
 21
150.1332449098
  0
LINE
  5
2BD
100
AcDbEntity
  8
0
100
AcDbLine
 62
7
  6
CONTINUOUS
 10
97.5675512633
 20
151.3579985355
 11
83.4253567604
 21
159.5228136259
  0
LINE
  5
2BE
100
AcDbEntity
  8
0
100
AcDbLine
 62
7
  6
CONTINUOUS
 10
72.111601158
 20
167.2794193239
 11
146.3581222985
 21
124.4141400993
  0
LINE
  5
2BF
100
AcDbEntity
  8
0
100
AcDbLine
 62
7
  6
CONTINUOUS
 10
121.4531438123
 20
72.4924992217
 11
120.0242688468
 21
76.175200365
  0
LINE
  5
2C0
100
AcDbEntity
  8
0
100
AcDbLine
 62
7
  6
CONTINUOUS
 10
84.4005906819
 20
176.0244474166
 11
82.9717157163
 21
179.7071485598
  0
LINE
  5
2C1
100
AcDbEntity
  8
0
100
AcDbLine
 62
7
  6
CONTINUOUS
 10
125.0456360495
 20
74.6644477056
 11
125.739768709
 21
72.8754296318
  0
LINE
  5
2C2
100
AcDbEntity
  8
0
100
AcDbLine
 62
7
  6
CONTINUOUS
 10
90.3549826082
 20
205.8184560534
 11
90.3549826082
 21
183.2830186119
  0
LINE
  5
2C3
100
AcDbEntity
  8
0
100
AcDbLine
 62
7
  6
CONTINUOUS
 10
90.3549826082
 20
176.3428944227
 11
90.3549826082
 21
162.4622069751
  0
LINE
  5
2C4
100
AcDbEntity
  8
0
100
AcDbLine
 62
7
  6
CONTINUOUS
 10
90.3549826082
 20
152.2560731174
 11
90.3549826082
 21
140.498262683
  0
LINE
  5
2C5
100
AcDbEntity
  8
0
100
AcDbLine
 62
7
  6
CONTINUOUS
 10
90.3549826082
 20
124.1682143404
 11
90.3549826082
 21
101.6327768989
  0
LINE
  5
2C6
100
AcDbEntity
  8
0
100
AcDbLine
 62
7
  6
CONTINUOUS
 10
90.3549826082
 20
94.6926527097
 11
90.3549826082
 21
80.8119652621
  0
LINE
  5
2C7
100
AcDbEntity
  8
0
100
AcDbLine
 62
7
  6
CONTINUOUS
 10
90.3549826082
 20
70.6058314044
 11
90.3549826082
 21
58.84802097
  0
LINE
  5
2C8
100
AcDbEntity
  8
0
100
AcDbLine
 62
7
  6
CONTINUOUS
 10
90.4964098524
 20
58.0315364016
 11
90.4964098524
 21
70.5241801941
  0
LINE
  5
2C9
100
AcDbEntity
  8
0
100
AcDbLine
 62
7
  6
CONTINUOUS
 10
90.4964098524
 20
80.7303140518
 11
90.4964098524
 21
94.6110014994
  0
LINE
  5
2CA
100
AcDbEntity
  8
0
100
AcDbLine
 62
7
  6
CONTINUOUS
 10
90.4964098524
 20
101.5511256886
 11
90.4964098524
 21
123.351729772
  0
LINE
  5
2CB
100
AcDbEntity
  8
0
100
AcDbLine
 62
7
  6
CONTINUOUS
 10
90.4964098524
 20
139.6817781145
 11
90.4964098524
 21
152.1744219071
  0
LINE
  5
2CC
100
AcDbEntity
  8
0
100
AcDbLine
 62
7
  6
CONTINUOUS
 10
90.4964098524
 20
162.3805557648
 11
90.4964098524
 21
176.2612432124
  0
LINE
  5
2CD
100
AcDbEntity
  8
0
100
AcDbLine
 62
7
  6
CONTINUOUS
 10
90.4964098524
 20
183.2013674016
 11
90.4964098524
 21
205.0019714849
  0
LINE
  5
2CE
100
AcDbEntity
  8
0
100
AcDbLine
 62
7
  6
CONTINUOUS
 10
90.9206603788
 20
124.4948066041
 11
90.9206603788
 21
125.2296460811
  0
LINE
  5
2CF
100
AcDbEntity
  8
0
100
AcDbLine
 62
7
  6
CONTINUOUS
 10
90.9206603788
 20
206.145048317
 11
90.9206603788
 21
206.879887794
  0
LINE
  5
2D0
100
AcDbEntity
  8
0
100
AcDbLine
 62
7
  6
CONTINUOUS
 10
91.9106469665
 20
77.8726185721
 11
91.9106469665
 21
79.0157219561
  0
LINE
  5
2D1
100
AcDbEntity
  8
0
100
AcDbLine
 62
7
  6
CONTINUOUS
 10
91.9106469665
 20
159.5228602851
 11
91.9106469665
 21
160.6659636691
  0
LINE
  5
2D2
100
AcDbEntity
  8
0
100
AcDbLine
 62
7
  6
CONTINUOUS
 10
92.1227268926
 20
221.7810151488
 11
92.1227268926
 21
214.9223948449
  0
LINE
  5
2D3
100
AcDbEntity
  8
0
100
AcDbLine
 62
7
  6
CONTINUOUS
 10
93.5369463429
 20
220.9645336398
 11
93.5369463429
 21
214.1059133359
  0
LINE
  5
2D4
100
AcDbEntity
  8
0
100
AcDbLine
 62
7
  6
CONTINUOUS
 10
94.1026294127
 20
221.7810304131
 11
94.1026294127
 21
221.2911289629
  0
LINE
  5
2D5
100
AcDbEntity
  8
0
100
AcDbLine
 62
7
  6
CONTINUOUS
 10
94.3854250217
 20
228.3129103601
 11
94.3854250217
 21
225.1773739269
  0
LINE
  5
2D6
100
AcDbEntity
  8
0
100
AcDbLine
 62
7
  6
CONTINUOUS
 10
94.3854750691
 20
121.9229092268
 11
94.3854750691
 21
126.4135575266
  0
LINE
  5
2D7
100
AcDbEntity
  8
0
100
AcDbLine
 62
7
  6
CONTINUOUS
 10
94.3854750691
 20
203.5731509397
 11
94.3854750691
 21
208.0637992396
  0
LINE
  5
2D8
100
AcDbEntity
  8
0
100
AcDbLine
 62
7
  6
CONTINUOUS
 10
95.4461337689
 20
213.0036370356
 11
95.4461337689
 21
219.127405164
  0
LINE
  5
2D9
100
AcDbEntity
  8
0
100
AcDbLine
 62
7
  6
CONTINUOUS
 10
95.4461955922
 20
158.6247598965
 11
95.4461955922
 21
157.4816565125
  0
LINE
  5
2DA
100
AcDbEntity
  8
0
100
AcDbLine
 62
7
  6
CONTINUOUS
 10
95.4461955922
 20
76.9745181835
 11
95.4461955922
 21
75.8314147995
  0
LINE
  5
2DB
100
AcDbEntity
  8
0
100
AcDbLine
 62
7
  6
CONTINUOUS
 10
95.6582578545
 20
219.2498743309
 11
95.6582578545
 21
220.2296603003
  0
LINE
  5
2DC
100
AcDbEntity
  8
0
100
AcDbLine
 62
7
  6
CONTINUOUS
 10
97.5675071038
 20
159.8494923581
 11
97.5675071038
 21
158.7063889741
  0
LINE
  5
2DD
100
AcDbEntity
  8
0
100
AcDbLine
 62
7
  6
CONTINUOUS
 10
97.5675071038
 20
78.1992506451
 11
97.5675071038
 21
77.0561472611
  0
LINE
  5
2DE
100
AcDbEntity
  8
0
100
AcDbLine
 62
7
  6
CONTINUOUS
 10
97.5675512633
 20
68.4830031968
 11
97.5675512633
 21
69.7077568225
  0
LINE
  5
2DF
100
AcDbEntity
  8
0
100
AcDbLine
 62
7
  6
CONTINUOUS
 10
97.5675512633
 20
91.753322085
 11
97.5675512633
 21
92.9780757107
  0
LINE
  5
2E0
100
AcDbEntity
  8
0
100
AcDbLine
 62
7
  6
CONTINUOUS
 10
97.5675512633
 20
150.1332449098
 11
97.5675512633
 21
151.3579985355
  0
LINE
  5
2E1
100
AcDbEntity
  8
0
100
AcDbLine
 62
7
  6
CONTINUOUS
 10
97.5675512633
 20
173.403563798
 11
97.5675512633
 21
174.6283174237
  0
LINE
  5
2E2
100
AcDbEntity
  8
0
100
AcDbLine
 62
7
  6
CONTINUOUS
 10
104.4750396809
 20
248.072414058
 11
104.4784442409
 21
248.115784378
  0
LINE
  5
2E3
100
AcDbEntity
  8
0
100
AcDbLine
 62
7
  6
CONTINUOUS
 10
104.4784442409
 20
248.115784378
 11
104.6687029491
 21
249.2804074462
  0
LINE
  5
2E4
100
AcDbEntity
  8
0
100
AcDbLine
 62
7
  6
CONTINUOUS
 10
105.8032229862
 20
248.8469878154
 11
105.7381984777
 21
248.448955876
  0
LINE
  5
2E5
100
AcDbEntity
  8
0
100
AcDbLine
 62
7
  6
CONTINUOUS
 10
127.9882647252
 20
326.4950672467
 11
127.9845974801
 21
326.4793467856
  0
LINE
  5
2E6
100
AcDbEntity
  8
0
100
AcDbLine
 62
7
  6
CONTINUOUS
 10
127.9375785444
 20
328.5316675262
 11
127.4426018194
 21
326.5312220753
  0
LINE
  5
2E7
100
AcDbEntity
  8
0
100
AcDbLine
 62
7
  6
CONTINUOUS
 10
82.9717157163
 20
179.7071485598
 11
83.4209046541
 21
180.3461956293
  0
LINE
  5
2E8
100
AcDbEntity
  8
0
100
AcDbLine
 62
7
  6
CONTINUOUS
 10
122.4003274167
 20
228.2460800649
 11
121.8480540671
 21
227.5976409302
  0
LINE
  5
2E9
100
AcDbEntity
  8
0
100
AcDbLine
 62
7
  6
CONTINUOUS
 10
114.8914068612
 20
223.4136037276
 11
117.4885786479
 21
224.9130726071
  0
LINE
  5
2EA
100
AcDbEntity
  8
0
100
AcDbLine
 62
7
  6
CONTINUOUS
 10
94.3854691812
 20
208.880284148
 11
90.9206603788
 21
206.879887794
  0
LINE
  5
2EB
100
AcDbEntity
  8
0
100
AcDbLine
 62
7
  6
CONTINUOUS
 10
90.3549826082
 20
205.8184560534
 11
91.5570591315
 21
206.5124711149
  0
LINE
  5
2EC
100
AcDbEntity
  8
0
100
AcDbLine
 62
7
  6
CONTINUOUS
 10
90.4964039644
 20
205.8184563933
 11
94.3854750691
 21
208.0637992396
  0
LINE
  5
2ED
100
AcDbEntity
  8
0
100
AcDbLine
 62
7
  6
CONTINUOUS
 10
113.4773805351
 20
218.2701918782
 11
116.9492479611
 21
220.2746635061
  0
LINE
  5
2EE
100
AcDbEntity
  8
0
100
AcDbLine
 62
7
  6
CONTINUOUS
 10
91.1328033059
 20
205.3693912234
 11
90.4964098524
 21
205.0019714849
  0
LINE
  5
2EF
100
AcDbEntity
  8
0
100
AcDbLine
 62
7
  6
CONTINUOUS
 10
114.3259122053
 20
217.7803029727
 11
116.9027240706
 21
219.2680171163
  0
LINE
  5
2F0
100
AcDbEntity
  8
0
100
AcDbLine
 62
7
  6
CONTINUOUS
 10
73.1722569139
 20
191.97860686
 11
72.111601158
 21
191.3662406292
  0
LINE
  5
2F1
100
AcDbEntity
  8
0
100
AcDbLine
 62
7
  6
CONTINUOUS
 10
108.5276636841
 20
211.5749512054
 11
109.5883194399
 21
212.1873174362
  0
LINE
  5
2F2
100
AcDbEntity
  8
0
100
AcDbLine
 62
7
  6
CONTINUOUS
 10
100.0423528703
 20
204.7978732034
 11
100.7494567075
 21
205.2061173573
  0
LINE
  5
2F3
100
AcDbEntity
  8
0
100
AcDbLine
 62
7
  6
CONTINUOUS
 10
82.7181587163
 20
194.2238932688
 11
76.0007446914
 21
190.3456156235
  0
LINE
  5
2F4
100
AcDbEntity
  8
0
100
AcDbLine
 62
7
  6
CONTINUOUS
 10
101.4565664327
 20
204.7978766028
 11
100.7494625954
 21
204.3896324489
  0
LINE
  5
2F5
100
AcDbEntity
  8
0
100
AcDbLine
 62
7
  6
CONTINUOUS
 10
125.5053186836
 20
218.4863987667
 11
113.484553451
 21
211.5462481509
  0
LINE
  5
2F6
100
AcDbEntity
  8
0
100
AcDbLine
 62
7
  6
CONTINUOUS
 10
95.4461955922
 20
157.4816565125
 11
91.9106469665
 21
159.5228602851
  0
LINE
  5
2F7
100
AcDbEntity
  8
0
100
AcDbLine
 62
7
  6
CONTINUOUS
 10
91.9106469665
 20
160.6659636691
 11
95.4461955922
 21
158.6247598965
  0
LINE
  5
2F8
100
AcDbEntity
  8
0
100
AcDbLine
 62
7
  6
CONTINUOUS
 10
102.6940555551
 20
155.3384010496
 11
97.2139551852
 21
158.5022668972
  0
LINE
  5
2F9
100
AcDbEntity
  8
0
100
AcDbLine
 62
7
  6
CONTINUOUS
 10
92.6884358374
 20
161.1150176026
 11
88.1983061896
 21
163.7073365173
  0
LINE
  5
2FA
100
AcDbEntity
  8
0
100
AcDbLine
 62
7
  6
CONTINUOUS
 10
94.0319584781
 20
161.8906961307
 11
97.5675071038
 21
159.8494923581
  0
LINE
  5
2FB
100
AcDbEntity
  8
0
100
AcDbLine
 62
7
  6
CONTINUOUS
 10
81.6575029604
 20
172.7907154012
 11
90.3549826082
 21
167.769336784
  0
LINE
  5
2FC
100
AcDbEntity
  8
0
100
AcDbLine
 62
7
  6
CONTINUOUS
 10
107.290230497
 20
157.9919880498
 11
155.9040241009
 21
129.9254361765
  0
LINE
  5
2FD
100
AcDbEntity
  8
0
100
AcDbLine
 62
7
  6
CONTINUOUS
 10
88.2380266408
 20
177.5650918705
 11
88.6872155785
 21
176.4073778266
  0
LINE
  5
2FE
100
AcDbEntity
  8
0
100
AcDbLine
 62
7
  6
CONTINUOUS
 10
99.8079853038
 20
245.8677885662
 11
99.8079853038
 21
250.7668030689
  0
LINE
  5
2FF
100
AcDbEntity
  8
0
100
AcDbLine
 62
7
  6
CONTINUOUS
 10
99.9008808778
 20
225.1286324749
 11
99.9008808778
 21
222.6791252235
  0
LINE
  5
300
100
AcDbEntity
  8
0
100
AcDbLine
 62
7
  6
CONTINUOUS
 10
100.0423528703
 20
118.6569831906
 11
100.0423528703
 21
123.1476314905
  0
LINE
  5
301
100
AcDbEntity
  8
0
100
AcDbLine
 62
7
  6
CONTINUOUS
 10
100.0423528703
 20
200.3072249036
 11
100.0423528703
 21
204.7978732034
  0
LINE
  5
302
100
AcDbEntity
  8
0
100
AcDbLine
 62
7
  6
CONTINUOUS
 10
100.6831125537
 20
250.306970578
 11
100.6831125537
 21
245.4079560752
  0
LINE
  5
303
100
AcDbEntity
  8
0
100
AcDbLine
 62
7
  6
CONTINUOUS
 10
100.7494625954
 20
118.2487424361
 11
100.7494567075
 21
123.5558756443
  0
LINE
  5
304
100
AcDbEntity
  8
0
100
AcDbLine
 62
7
  6
CONTINUOUS
 10
100.7494625954
 20
199.898984149
 11
100.7494567075
 21
205.2061173573
  0
LINE
  5
305
100
AcDbEntity
  8
0
100
AcDbLine
 62
7
  6
CONTINUOUS
 10
100.8907873896
 20
231.0889746857
 11
100.8907873896
 21
228.9332242218
  0
LINE
  5
306
100
AcDbEntity
  8
0
100
AcDbLine
 62
7
  6
CONTINUOUS
 10
101.1030557296
 20
51.9079250838
 11
101.1030557296
 21
64.4005688763
  0
LINE
  5
307
100
AcDbEntity
  8
0
100
AcDbLine
 62
7
  6
CONTINUOUS
 10
101.1030557296
 20
74.606702734
 11
101.1030557296
 21
88.4873901816
  0
LINE
  5
308
100
AcDbEntity
  8
0
100
AcDbLine
 62
7
  6
CONTINUOUS
 10
101.1030557296
 20
95.4275143708
 11
101.1030557296
 21
117.2281184541
  0
LINE
  5
309
100
AcDbEntity
  8
0
100
AcDbLine
 62
7
  6
CONTINUOUS
 10
101.1030557296
 20
133.5581667967
 11
101.1030557296
 21
146.0508105893
  0
LINE
  5
30A
100
AcDbEntity
  8
0
100
AcDbLine
 62
7
  6
CONTINUOUS
 10
101.1030557296
 20
156.256944447
 11
101.1030557296
 21
170.1376318946
  0
LINE
  5
30B
100
AcDbEntity
  8
0
100
AcDbLine
 62
7
  6
CONTINUOUS
 10
101.1030557296
 20
177.0777560838
 11
101.1030557296
 21
198.8783601671
  0
LINE
  5
30C
100
AcDbEntity
  8
0
100
AcDbLine
 62
7
  6
CONTINUOUS
 10
101.7394491831
 20
199.2457799056
 11
101.7394491831
 21
176.7103424641
  0
LINE
  5
30D
100
AcDbEntity
  8
0
100
AcDbLine
 62
7
  6
CONTINUOUS
 10
101.7394491831
 20
169.7702182749
 11
101.7394491831
 21
155.8895308273
  0
LINE
  5
30E
100
AcDbEntity
  8
0
100
AcDbLine
 62
7
  6
CONTINUOUS
 10
101.7394491831
 20
145.6833969696
 11
101.7394491831
 21
133.9255865352
  0
LINE
  5
30F
100
AcDbEntity
  8
0
100
AcDbLine
 62
7
  6
CONTINUOUS
 10
101.7394491831
 20
117.5955381926
 11
101.7394491831
 21
95.0601007511
  0
LINE
  5
310
100
AcDbEntity
  8
0
100
AcDbLine
 62
7
  6
CONTINUOUS
 10
101.7394491831
 20
88.119976562
 11
101.7394491831
 21
74.2392891143
  0
LINE
  5
311
100
AcDbEntity
  8
0
100
AcDbLine
 62
7
  6
CONTINUOUS
 10
101.7394491831
 20
64.0331552566
 11
101.7394491831
 21
52.2753448223
  0
LINE
  5
312
100
AcDbEntity
  8
0
100
AcDbLine
 62
7
  6
CONTINUOUS
 10
102.5172698807
 20
198.7967150756
 11
102.5172698807
 21
176.2612776341
  0
LINE
  5
313
100
AcDbEntity
  8
0
100
AcDbLine
 62
7
  6
CONTINUOUS
 10
102.5172698807
 20
169.3211534449
 11
102.5172698807
 21
155.4404659973
  0
LINE
  5
314
100
AcDbEntity
  8
0
100
AcDbLine
 62
7
  6
CONTINUOUS
 10
102.5172698807
 20
145.2343321396
 11
102.5172698807
 21
133.4765217053
  0
LINE
  5
315
100
AcDbEntity
  8
0
100
AcDbLine
 62
7
  6
CONTINUOUS
 10
102.5172698807
 20
117.1464733627
 11
102.5172698807
 21
94.6110359212
  0
LINE
  5
316
100
AcDbEntity
  8
0
100
AcDbLine
 62
7
  6
CONTINUOUS
 10
102.5172698807
 20
87.670911732
 11
102.5172698807
 21
73.7902242844
  0
LINE
  5
317
100
AcDbEntity
  8
0
100
AcDbLine
 62
7
  6
CONTINUOUS
 10
102.5172698807
 20
63.5840904267
 11
102.5172698807
 21
51.8262799923
  0
LINE
  5
318
100
AcDbEntity
  8
0
100
AcDbLine
 62
7
  6
CONTINUOUS
 10
102.700326133
 20
245.5178101189
 11
102.700326133
 21
250.4168246216
  0
LINE
  5
319
100
AcDbEntity
  8
0
100
AcDbLine
 62
7
  6
CONTINUOUS
 10
103.0627589085
 20
244.9288241207
 11
103.0627589085
 21
257.1763603777
  0
LINE
  5
31A
100
AcDbEntity
  8
0
100
AcDbLine
 62
7
  6
CONTINUOUS
 10
103.719346404
 20
199.4907301372
 11
103.719346404
 21
176.7511611006
  0
LINE
  5
31B
100
AcDbEntity
  8
0
100
AcDbLine
 62
7
  6
CONTINUOUS
 10
103.719346404
 20
168.6271499411
 11
103.719346404
 21
155.9303494638
  0
LINE
  5
31C
100
AcDbEntity
  8
0
100
AcDbLine
 62
7
  6
CONTINUOUS
 10
103.719346404
 20
144.5403286358
 11
103.719346404
 21
134.1705367668
  0
LINE
  5
31D
100
AcDbEntity
  8
0
100
AcDbLine
 62
7
  6
CONTINUOUS
 10
103.719346404
 20
117.8404884242
 11
103.719346404
 21
95.1009193876
  0
LINE
  5
31E
100
AcDbEntity
  8
0
100
AcDbLine
 62
7
  6
CONTINUOUS
 10
103.719346404
 20
86.9769082282
 11
103.719346404
 21
74.2801077508
  0
LINE
  5
31F
100
AcDbEntity
  8
0
100
AcDbLine
 62
7
  6
CONTINUOUS
 10
103.719346404
 20
62.8900869228
 11
103.719346404
 21
52.5202950539
  0
LINE
  5
320
100
AcDbEntity
  8
0
100
AcDbLine
 62
7
  6
CONTINUOUS
 10
103.9466460649
 20
223.7726395081
 11
103.9466460649
 21
224.8224651665
  0
LINE
  5
321
100
AcDbEntity
  8
0
100
AcDbLine
 62
7
  6
CONTINUOUS
 10
104.3557451566
 20
52.1528783748
 11
104.3557451566
 21
62.5226702438
  0
LINE
  5
322
100
AcDbEntity
  8
0
100
AcDbLine
 62
7
  6
CONTINUOUS
 10
104.3557451566
 20
74.6475305487
 11
104.3557451566
 21
86.6094915491
  0
LINE
  5
323
100
AcDbEntity
  8
0
100
AcDbLine
 62
7
  6
CONTINUOUS
 10
104.3557451566
 20
95.4683421855
 11
104.3557451566
 21
117.4730717452
  0
LINE
  5
324
100
AcDbEntity
  8
0
100
AcDbLine
 62
7
  6
CONTINUOUS
 10
104.3557451566
 20
133.8031200878
 11
104.3557451566
 21
144.1729119567
  0
LINE
  5
325
100
AcDbEntity
  8
0
100
AcDbLine
 62
7
  6
CONTINUOUS
 10
104.3557451566
 20
156.2977722617
 11
104.3557451566
 21
168.259733262
  0
LINE
  5
326
100
AcDbEntity
  8
0
100
AcDbLine
 62
7
  6
CONTINUOUS
 10
104.3557451566
 20
177.1185838985
 11
104.3557451566
 21
199.1233134581
  0
LINE
  5
327
100
AcDbEntity
  8
0
100
AcDbLine
 62
7
  6
CONTINUOUS
 10
104.4749094898
 20
243.1733995863
 11
104.4749094898
 21
248.0724140891
  0
LINE
  5
328
100
AcDbEntity
  8
0
100
AcDbLine
 62
7
  6
CONTINUOUS
 10
105.8032229862
 20
248.4144997807
 11
105.8032229862
 21
248.8469878154
  0
LINE
  5
329
100
AcDbEntity
  8
0
100
AcDbLine
 62
7
  6
CONTINUOUS
 10
106.0749094898
 20
243.1733995863
 11
106.0749094898
 21
248.0724140891
  0
LINE
  5
32A
100
AcDbEntity
  8
0
100
AcDbLine
 62
7
  6
CONTINUOUS
 10
107.0627589085
 20
250.64434104
 11
107.0627589085
 21
257.1763603777
  0
LINE
  5
32B
100
AcDbEntity
  8
0
100
AcDbLine
 62
7
  6
CONTINUOUS
 10
107.290230497
 20
166.5655456885
 11
107.290230497
 21
157.9919880498
  0
LINE
  5
32C
100
AcDbEntity
  8
0
100
AcDbLine
 62
7
  6
CONTINUOUS
 10
107.290230497
 20
84.9153039755
 11
107.290230497
 21
76.3417463368
  0
LINE
  5
32D
100
AcDbEntity
  8
0
100
AcDbLine
 62
7
  6
CONTINUOUS
 10
107.4625070363
 20
246.4827647566
 11
107.4625070363
 21
244.5231589555
  0
LINE
  5
32E
100
AcDbEntity
  8
0
100
AcDbLine
 62
7
  6
CONTINUOUS
 10
107.820553959
 20
54.1532747288
 11
107.820553959
 21
60.5223072033
  0
LINE
  5
32F
100
AcDbEntity
  8
0
100
AcDbLine
 62
7
  6
CONTINUOUS
 10
107.820553959
 20
97.4687385395
 11
107.820553959
 21
119.4734680991
  0
LINE
  5
330
100
AcDbEntity
  8
0
100
AcDbLine
 62
7
  6
CONTINUOUS
 10
107.820553959
 20
135.8035164417
 11
107.820553959
 21
142.1725489163
  0
LINE
  5
331
100
AcDbEntity
  8
0
100
AcDbLine
 62
7
  6
CONTINUOUS
 10
107.820553959
 20
179.1189802525
 11
107.820553959
 21
201.1237098121
  0
LINE
  5
332
100
AcDbEntity
  8
0
100
AcDbLine
 62
7
  6
CONTINUOUS
 10
107.9466460649
 20
222.4254346734
 11
107.9466460649
 21
224.8224651665
  0
LINE
  5
333
100
AcDbEntity
  8
0
100
AcDbLine
 62
7
  6
CONTINUOUS
 10
108.0104581155
 20
241.1321958137
 11
108.0104581155
 21
246.0312103165
  0
LINE
  5
334
100
AcDbEntity
  8
0
100
AcDbLine
 62
7
  6
CONTINUOUS
 10
108.2627589085
 20
247.704932339
 11
108.2627589085
 21
250.6443410406
  0
LINE
  5
335
100
AcDbEntity
  8
0
100
AcDbLine
 62
7
  6
CONTINUOUS
 10
108.5276636841
 20
205.4511830769
 11
108.5276636841
 21
211.5749512054
  0
LINE
  5
336
100
AcDbEntity
  8
0
100
AcDbLine
 62
7
  6
CONTINUOUS
 10
108.8813068657
 20
88.4874796812
 11
108.8813068657
 21
83.996716387
  0
LINE
  5
337
100
AcDbEntity
  8
0
100
AcDbLine
 62
7
  6
CONTINUOUS
 10
108.8813068657
 20
64.4006583759
 11
108.8813068657
 21
59.9098950817
  0
LINE
  5
338
100
AcDbEntity
  8
0
100
AcDbLine
 62
7
  6
CONTINUOUS
 10
108.8855853654
 20
245.5713778256
 11
108.8855853654
 21
240.6723633228
  0
LINE
  5
339
100
AcDbEntity
  8
0
100
AcDbLine
 62
7
  6
CONTINUOUS
 10
109.5883194399
 20
206.0635493077
 11
109.5883194399
 21
212.1873174362
  0
LINE
  5
33A
100
AcDbEntity
  8
0
100
AcDbLine
 62
7
  6
CONTINUOUS
 10
109.5884165908
 20
88.0792389267
 11
109.5884165908
 21
83.5884756325
  0
LINE
  5
33B
100
AcDbEntity
  8
0
100
AcDbLine
 62
7
  6
CONTINUOUS
 10
109.5884165908
 20
63.9924176214
 11
109.5884165908
 21
59.5016543272
  0
LINE
  5
33C
100
AcDbEntity
  8
0
100
AcDbLine
 62
7
  6
CONTINUOUS
 10
109.9419626215
 20
88.2833576042
 11
109.9419626215
 21
89.099845912
  0
LINE
  5
33D
100
AcDbEntity
  8
0
100
AcDbLine
 62
7
  6
CONTINUOUS
 10
110.3813445637
 20
220.057648642
 11
110.3813445637
 21
221.1074743003
  0
LINE
  5
33E
100
AcDbEntity
  8
0
100
AcDbLine
 62
7
  6
CONTINUOUS
 10
112.6775124926
 20
243.3368213056
 11
112.6809170526
 21
243.3801916256
  0
LINE
  5
33F
100
AcDbEntity
  8
0
100
AcDbLine
 62
7
  6
CONTINUOUS
 10
106.0713747387
 20
243.1300292974
 11
106.0747978198
 21
243.173399617
  0
LINE
  5
340
100
AcDbEntity
  8
0
100
AcDbLine
 62
7
  6
CONTINUOUS
 10
114.2738475505
 20
238.394436545
 11
114.2772706315
 21
238.4378068645
  0
LINE
  5
341
100
AcDbEntity
  8
0
100
AcDbLine
 62
7
  6
CONTINUOUS
 10
112.6809170526
 20
243.3801916256
 11
112.8711757608
 21
244.5448146937
  0
LINE
  5
342
100
AcDbEntity
  8
0
100
AcDbLine
 62
7
  6
CONTINUOUS
 10
114.0056957979
 20
244.111395063
 11
113.9406712894
 21
243.7133631236
  0
LINE
  5
343
100
AcDbEntity
  8
0
100
AcDbLine
 62
7
  6
CONTINUOUS
 10
136.1907375369
 20
321.7594744943
 11
136.1870702918
 21
321.7437540332
  0
LINE
  5
344
100
AcDbEntity
  8
0
100
AcDbLine
 62
7
  6
CONTINUOUS
 10
136.1400513561
 20
323.7960747738
 11
135.6450746311
 21
321.7956293229
  0
LINE
  5
345
100
AcDbEntity
  8
0
100
AcDbLine
 62
7
  6
CONTINUOUS
 10
88.6872155785
 20
176.4073778266
 11
87.258340613
 21
174.37456205
  0
LINE
  5
346
100
AcDbEntity
  8
0
100
AcDbLine
 62
7
  6
CONTINUOUS
 10
89.0968105897
 20
175.43599685
 11
89.9134516991
 21
176.5978066451
  0
LINE
  5
347
100
AcDbEntity
  8
0
100
AcDbLine
 62
7
  6
CONTINUOUS
 10
113.7358532747
 20
209.6013381036
 11
113.477440592
 21
209.4521443623
  0
LINE
  5
348
100
AcDbEntity
  8
0
100
AcDbLine
 62
7
  6
CONTINUOUS
 10
126.912425275
 20
216.0657149193
 11
114.8845471834
 21
209.1213734017
  0
LINE
  5
349
100
AcDbEntity
  8
0
100
AcDbLine
 62
7
  6
CONTINUOUS
 10
109.5883194399
 20
206.0635493077
 11
108.5276636841
 21
205.4511830769
  0
LINE
  5
34A
100
AcDbEntity
  8
0
100
AcDbLine
 62
7
  6
CONTINUOUS
 10
115.4573431121
 20
208.9622581763
 11
114.8916600423
 21
208.6356628532
  0
LINE
  5
34B
100
AcDbEntity
  8
0
100
AcDbLine
 62
7
  6
CONTINUOUS
 10
101.7394491831
 20
199.2457799056
 11
101.1030557296
 21
198.8783601671
  0
LINE
  5
34C
100
AcDbEntity
  8
0
100
AcDbLine
 62
7
  6
CONTINUOUS
 10
117.012971554
 20
207.9007895137
 11
126.912425275
 21
213.6162076679
  0
LINE
  5
34D
100
AcDbEntity
  8
0
100
AcDbLine
 62
7
  6
CONTINUOUS
 10
106.4063403966
 20
201.1237064127
 11
102.5172692919
 21
198.8783635665
  0
LINE
  5
34E
100
AcDbEntity
  8
0
100
AcDbLine
 62
7
  6
CONTINUOUS
 10
103.719346404
 20
199.4907301372
 11
102.5172698807
 21
198.7967150756
  0
LINE
  5
34F
100
AcDbEntity
  8
0
100
AcDbLine
 62
7
  6
CONTINUOUS
 10
116.6594255233
 20
206.8801825284
 11
117.7200812791
 21
207.4925487592
  0
LINE
  5
350
100
AcDbEntity
  8
0
100
AcDbLine
 62
7
  6
CONTINUOUS
 10
104.3557451566
 20
199.1233134581
 11
107.820553959
 21
201.1237098121
  0
LINE
  5
351
100
AcDbEntity
  8
0
100
AcDbLine
 62
7
  6
CONTINUOUS
 10
120.9020662104
 20
206.8801927265
 11
135.7512467919
 21
215.4533199578
  0
LINE
  5
352
100
AcDbEntity
  8
0
100
AcDbLine
 62
7
  6
CONTINUOUS
 10
136.8119113796
 20
214.840958826
 11
120.9020750423
 21
205.6554653639
  0
LINE
  5
353
100
AcDbEntity
  8
0
100
AcDbLine
 62
7
  6
CONTINUOUS
 10
114.8916600423
 20
201.7770425494
 11
116.6594255233
 21
202.7976563334
  0
LINE
  5
354
100
AcDbEntity
  8
0
100
AcDbLine
 62
7
  6
CONTINUOUS
 10
123.0233953858
 20
205.6554704629
 11
137.8725759673
 21
214.2285976942
  0
LINE
  5
355
100
AcDbEntity
  8
0
100
AcDbLine
 62
7
  6
CONTINUOUS
 10
88.1983061896
 20
184.5281481541
 11
90.3549826082
 21
185.7732984324
  0
LINE
  5
356
100
AcDbEntity
  8
0
100
AcDbLine
 62
7
  6
CONTINUOUS
 10
83.4253567604
 20
181.5683788884
 11
84.4860125162
 21
182.1807451192
  0
LINE
  5
357
100
AcDbEntity
  8
0
100
AcDbLine
 62
7
  6
CONTINUOUS
 10
89.2589891062
 20
183.9157764404
 11
90.3549826082
 21
184.5485448067
  0
LINE
  5
358
100
AcDbEntity
  8
0
100
AcDbLine
 62
7
  6
CONTINUOUS
 10
186.9458854985
 20
125.8017980234
 11
190.9056669869
 21
124.0054531994
  0
LINE
  5
359
100
AcDbEntity
  8
0
100
AcDbLine
 62
7
  6
CONTINUOUS
 10
189.8450023992
 20
124.6178143312
 11
185.8852209108
 21
126.4141591551
  0
LINE
  5
35A
100
AcDbEntity
  8
0
100
AcDbLine
 62
7
  6
CONTINUOUS
 10
149.4839964259
 20
138.4493756522
 11
146.6262464948
 21
140.0992610188
  0
LINE
  5
35B
100
AcDbEntity
  8
0
100
AcDbLine
 62
7
  6
CONTINUOUS
 10
124.7351560458
 20
152.7378020604
 11
121.8774061147
 21
154.387687427
  0
LINE
  5
35C
100
AcDbEntity
  8
0
100
AcDbLine
 62
7
  6
CONTINUOUS
 10
112.0071809931
 20
160.0861356418
 11
109.149431062
 21
161.7360210084
  0
LINE
  5
35D
100
AcDbEntity
  8
0
100
AcDbLine
 62
7
  6
CONTINUOUS
 10
87.258340613
 20
174.37456205
 11
84.4005906819
 21
176.0244474166
  0
LINE
  5
35E
100
AcDbEntity
  8
0
100
AcDbLine
 62
7
  6
CONTINUOUS
 10
72.111601158
 20
186.875477335
 11
146.3581222985
 21
144.0101981104
  0
LINE
  5
35F
100
AcDbEntity
  8
0
100
AcDbLine
 62
7
  6
CONTINUOUS
 10
83.4253567604
 20
181.5683788884
 11
97.5675512633
 21
173.403563798
  0
LINE
  5
360
100
AcDbEntity
  8
0
100
AcDbLine
 62
7
  6
CONTINUOUS
 10
148.0550175968
 20
144.9898952197
 11
149.4839964259
 21
144.1648925721
  0
LINE
  5
361
100
AcDbEntity
  8
0
100
AcDbLine
 62
7
  6
CONTINUOUS
 10
97.5675512633
 20
174.6283174237
 11
83.4253567604
 21
182.7931325141
  0
LINE
  5
362
100
AcDbEntity
  8
0
100
AcDbLine
 62
7
  6
CONTINUOUS
 10
185.6023793759
 20
124.6178566593
 11
186.6630439636
 21
124.0054955276
  0
LINE
  5
363
100
AcDbEntity
  8
0
100
AcDbLine
 62
7
  6
CONTINUOUS
 10
149.8934875736
 20
146.0513300197
 11
151.3224664027
 21
145.2263273722
  0
LINE
  5
364
100
AcDbEntity
  8
0
100
AcDbLine
 62
7
  6
CONTINUOUS
 10
72.111601158
 20
191.3662406292
 11
146.3581222985
 21
148.5009614046
  0
LINE
  5
365
100
AcDbEntity
  8
0
100
AcDbLine
 62
7
  6
CONTINUOUS
 10
185.8852209108
 20
126.4141591551
 11
186.9458854985
 21
125.8017980234
  0
LINE
  5
366
100
AcDbEntity
  8
0
100
AcDbLine
 62
7
  6
CONTINUOUS
 10
189.8450023992
 20
124.6178143312
 11
190.9056669869
 21
124.0054531994
  0
LINE
  5
367
100
AcDbEntity
  8
0
100
AcDbLine
 62
7
  6
CONTINUOUS
 10
73.1722569139
 20
191.97860686
 11
147.4187780543
 21
149.1133276354
  0
LINE
  5
368
100
AcDbEntity
  8
0
100
AcDbLine
 62
7
  6
CONTINUOUS
 10
102.6940555551
 20
176.1592126864
 11
88.1983061896
 21
184.5281481541
  0
LINE
  5
369
100
AcDbEntity
  8
0
100
AcDbLine
 62
7
  6
CONTINUOUS
 10
146.2019841925
 20
58.2040728135
 11
144.7731092269
 21
61.8867739568
  0
LINE
  5
36A
100
AcDbEntity
  8
0
100
AcDbLine
 62
7
  6
CONTINUOUS
 10
109.149431062
 20
161.7360210084
 11
107.7205560965
 21
165.4187221516
  0
LINE
  5
36B
100
AcDbEntity
  8
0
100
AcDbLine
 62
7
  6
CONTINUOUS
 10
149.0597341236
 20
62.2697043668
 11
150.4886090892
 21
58.5870032235
  0
LINE
  5
36C
100
AcDbEntity
  8
0
100
AcDbLine
 62
7
  6
CONTINUOUS
 10
152.3270790659
 20
59.6484380236
 11
150.8982041004
 21
63.3311391669
  0
LINE
  5
36D
100
AcDbEntity
  8
0
100
AcDbLine
 62
7
  6
CONTINUOUS
 10
112.9868670209
 20
163.2766654623
 11
113.4360559587
 21
162.1189514184
  0
LINE
  5
36E
100
AcDbEntity
  8
0
100
AcDbLine
 62
7
  6
CONTINUOUS
 10
110.9027989447
 20
240.7822173664
 11
110.9027989447
 21
245.6812318692
  0
LINE
  5
36F
100
AcDbEntity
  8
0
100
AcDbLine
 62
7
  6
CONTINUOUS
 10
111.2652317202
 20
240.1932313683
 11
111.2652317202
 21
252.4407676252
  0
LINE
  5
370
100
AcDbEntity
  8
0
100
AcDbLine
 62
7
  6
CONTINUOUS
 10
112.6773823015
 20
238.4378068339
 11
112.6773823015
 21
243.3368213367
  0
LINE
  5
371
100
AcDbEntity
  8
0
100
AcDbLine
 62
7
  6
CONTINUOUS
 10
113.477440592
 20
209.4521443623
 11
113.477440592
 21
202.5935240584
  0
LINE
  5
372
100
AcDbEntity
  8
0
100
AcDbLine
 62
7
  6
CONTINUOUS
 10
114.0056957979
 20
243.6789070282
 11
114.0056957979
 21
244.111395063
  0
LINE
  5
373
100
AcDbEntity
  8
0
100
AcDbLine
 62
7
  6
CONTINUOUS
 10
114.2773823015
 20
238.4378068339
 11
114.2773823015
 21
243.3368213367
  0
LINE
  5
374
100
AcDbEntity
  8
0
100
AcDbLine
 62
7
  6
CONTINUOUS
 10
114.3813445637
 20
218.7920926381
 11
114.3813445637
 21
221.1074743003
  0
LINE
  5
375
100
AcDbEntity
  8
0
100
AcDbLine
 62
7
  6
CONTINUOUS
 10
114.8914068612
 20
224.6383573533
 11
114.8914068612
 21
223.4136037276
  0
LINE
  5
376
100
AcDbEntity
  8
0
100
AcDbLine
 62
7
  6
CONTINUOUS
 10
114.8916600423
 20
208.6356628532
 11
114.8916600423
 21
201.7770425494
  0
LINE
  5
377
100
AcDbEntity
  8
0
100
AcDbLine
 62
7
  6
CONTINUOUS
 10
115.2652317202
 20
245.9087482875
 11
115.2652317202
 21
252.4407676252
  0
LINE
  5
378
100
AcDbEntity
  8
0
100
AcDbLine
 62
7
  6
CONTINUOUS
 10
115.4573431121
 20
209.4521596266
 11
115.4573431121
 21
208.9622581763
  0
LINE
  5
379
100
AcDbEntity
  8
0
100
AcDbLine
 62
7
  6
CONTINUOUS
 10
115.664979848
 20
241.7471720041
 11
115.664979848
 21
239.787566203
  0
LINE
  5
37A
100
AcDbEntity
  8
0
100
AcDbLine
 62
7
  6
CONTINUOUS
 10
116.2129309272
 20
236.3966030613
 11
116.2129309272
 21
241.2956175641
  0
LINE
  5
37B
100
AcDbEntity
  8
0
100
AcDbLine
 62
7
  6
CONTINUOUS
 10
116.4652317202
 20
242.9693395865
 11
116.4652317202
 21
245.9087482882
  0
LINE
  5
37C
100
AcDbEntity
  8
0
100
AcDbLine
 62
7
  6
CONTINUOUS
 10
116.6594255233
 20
200.7564143999
 11
116.6594255233
 21
206.8801825284
  0
LINE
  5
37D
100
AcDbEntity
  8
0
100
AcDbLine
 62
7
  6
CONTINUOUS
 10
116.8160430626
 20
216.3426577759
 11
116.8160430626
 21
217.3924834342
  0
LINE
  5
37E
100
AcDbEntity
  8
0
100
AcDbLine
 62
7
  6
CONTINUOUS
 10
117.0127007091
 20
228.31254454
 11
117.0127007091
 21
235.9367705704
  0
LINE
  5
37F
100
AcDbEntity
  8
0
100
AcDbLine
 62
7
  6
CONTINUOUS
 10
117.012971554
 20
207.084301206
 11
117.012971554
 21
207.9007895137
  0
LINE
  5
380
100
AcDbEntity
  8
0
100
AcDbLine
 62
7
  6
CONTINUOUS
 10
117.0880581771
 20
240.8357850731
 11
117.0880581771
 21
235.9367705704
  0
LINE
  5
381
100
AcDbEntity
  8
0
100
AcDbLine
 62
7
  6
CONTINUOUS
 10
118.4272086681
 20
78.4855120918
 11
118.4272086681
 21
69.9119544532
  0
LINE
  5
382
100
AcDbEntity
  8
0
100
AcDbLine
 62
7
  6
CONTINUOUS
 10
119.1052717564
 20
236.046624614
 11
119.1052717564
 21
240.9456391168
  0
LINE
  5
383
100
AcDbEntity
  8
0
100
AcDbLine
 62
7
  6
CONTINUOUS
 10
119.1343183932
 20
78.0772713373
 11
119.1343183932
 21
69.5037136986
  0
LINE
  5
384
100
AcDbEntity
  8
0
100
AcDbLine
 62
7
  6
CONTINUOUS
 10
119.4677045319
 20
235.4576386158
 11
119.4677045319
 21
247.7051748728
  0
LINE
  5
385
100
AcDbEntity
  8
0
100
AcDbLine
 62
7
  6
CONTINUOUS
 10
119.4878644239
 20
90.528644013
 11
119.4878644239
 21
91.3451323208
  0
LINE
  5
386
100
AcDbEntity
  8
0
100
AcDbLine
 62
7
  6
CONTINUOUS
 10
119.841375127
 20
207.4925691552
 11
119.841375127
 21
209.5337593305
  0
LINE
  5
387
100
AcDbEntity
  8
0
100
AcDbLine
 62
7
  6
CONTINUOUS
 10
120.8160430626
 20
215.7790603852
 11
120.8160430626
 21
217.3924834342
  0
LINE
  5
388
100
AcDbEntity
  8
0
100
AcDbLine
 62
7
  6
CONTINUOUS
 10
120.8798551132
 20
233.7022140814
 11
120.8798551132
 21
238.6012285842
  0
LINE
  5
389
100
AcDbEntity
  8
0
100
AcDbLine
 62
7
  6
CONTINUOUS
 10
120.9021721932
 20
79.5061308115
 11
120.9021721932
 21
78.2813771858
  0
LINE
  5
38A
100
AcDbEntity
  8
0
100
AcDbLine
 62
7
  6
CONTINUOUS
 10
120.9021721932
 20
56.2358119233
 11
120.9021721932
 21
55.0110582977
  0
LWPOLYLINE
  5
38B
100
AcDbEntity
  8
0
100
AcDbPolyline
 62
7
  6
CONTINUOUS
 90
4
 70
0
 10
127.9881178821
 20
326.4947563851
 10
128.0187826971
 20
327.1913461943
 10
128.0593182295
 20
327.8759170382
 10
128.1112631892
 20
328.5247321064
  0
LINE
  5
38C
100
AcDbEntity
  8
0
100
AcDbLine
 62
7
  6
CONTINUOUS
 10
120.8799853043
 20
238.6012285532
 11
120.8833898643
 21
238.6445988731
  0
LINE
  5
38D
100
AcDbEntity
  8
0
100
AcDbLine
 62
7
  6
CONTINUOUS
 10
122.4763203622
 20
233.6588437925
 11
122.4797434432
 21
233.7022141121
  0
LINE
  5
38E
100
AcDbEntity
  8
0
100
AcDbLine
 62
7
  6
CONTINUOUS
 10
120.8833898643
 20
238.6445988731
 11
121.0736485725
 21
239.8092219413
  0
LINE
  5
38F
100
AcDbEntity
  8
0
100
AcDbLine
 62
7
  6
CONTINUOUS
 10
122.2081686096
 20
239.3758023105
 11
122.1431441011
 21
238.9777703712
  0
LINE
  5
390
100
AcDbEntity
  8
0
100
AcDbLine
 62
7
  6
CONTINUOUS
 10
144.3932103486
 20
317.0238817418
 11
144.3895431035
 21
317.0081612808
  0
LINE
  5
391
100
AcDbEntity
  8
0
100
AcDbLine
 62
7
  6
CONTINUOUS
 10
144.3425241678
 20
319.0604820214
 11
143.8475474428
 21
317.0600365705
  0
LINE
  5
392
100
AcDbEntity
  8
0
100
AcDbLine
 62
7
  6
CONTINUOUS
 10
124.7911873625
 20
202.1854138514
 11
125.8518431183
 21
202.7977800822
  0
LINE
  5
393
100
AcDbEntity
  8
0
100
AcDbLine
 62
7
  6
CONTINUOUS
 10
81.6575029604
 20
172.7907154012
 11
72.111601158
 21
167.2794193239
  0
LINE
  5
394
100
AcDbEntity
  8
0
100
AcDbLine
 62
7
  6
CONTINUOUS
 10
88.6872155785
 20
176.4073778266
 11
89.4652470855
 21
176.8565718453
  0
LINE
  5
395
100
AcDbEntity
  8
0
100
AcDbLine
 62
7
  6
CONTINUOUS
 10
125.8518431183
 20
196.6740119538
 11
124.7911873625
 21
196.061645723
  0
LINE
  5
396
100
AcDbEntity
  8
0
100
AcDbLine
 62
7
  6
CONTINUOUS
 10
87.258340613
 20
174.37456205
 11
89.0968105897
 21
175.43599685
  0
LINE
  5
397
100
AcDbEntity
  8
0
100
AcDbLine
 62
7
  6
CONTINUOUS
 10
146.3578220139
 20
206.4717400752
 11
150.2468931186
 21
208.7170829215
  0
LINE
  5
398
100
AcDbEntity
  8
0
100
AcDbLine
 62
7
  6
CONTINUOUS
 10
132.9229492017
 20
197.4906451745
 11
133.9836049575
 21
198.1030114053
  0
LINE
  5
399
100
AcDbEntity
  8
0
100
AcDbLine
 62
7
  6
CONTINUOUS
 10
148.1255639431
 20
206.2897615684
 11
146.581644324
 21
205.6188506465
  0
LINE
  5
39A
100
AcDbEntity
  8
0
100
AcDbLine
 62
7
  6
CONTINUOUS
 10
134.5570588597
 20
198.996657394
 11
153.3876381903
 21
207.179493587
  0
LINE
  5
39B
100
AcDbEntity
  8
0
100
AcDbLine
 62
7
  6
CONTINUOUS
 10
137.0152305285
 20
197.8841835758
 11
154.1847322092
 21
205.3451977752
  0
LINE
  5
39C
100
AcDbEntity
  8
0
100
AcDbLine
 62
7
  6
CONTINUOUS
 10
183.8346197829
 20
130.1292656117
 11
184.8952843706
 21
129.5169044799
  0
LINE
  5
39D
100
AcDbEntity
  8
0
100
AcDbLine
 62
7
  6
CONTINUOUS
 10
82.7181587163
 20
194.2238932688
 11
90.3549826082
 21
189.8148706844
  0
LINE
  5
39E
100
AcDbEntity
  8
0
100
AcDbLine
 62
7
  6
CONTINUOUS
 10
108.3508862528
 20
179.4251659174
 11
156.9646798567
 21
151.3586140441
  0
LINE
  5
39F
100
AcDbEntity
  8
0
100
AcDbLine
 62
7
  6
CONTINUOUS
 10
121.8774061147
 20
154.387687427
 11
120.4485311491
 21
158.0703885703
  0
LINE
  5
3A0
100
AcDbEntity
  8
0
100
AcDbLine
 62
7
  6
CONTINUOUS
 10
125.7148420736
 20
155.928331881
 11
126.1640310113
 21
154.770617837
  0
LINE
  5
3A1
100
AcDbEntity
  8
0
100
AcDbLine
 62
7
  6
CONTINUOUS
 10
108.8810065811
 20
228.1085000647
 11
109.4338905242
 21
226.0016999419
  0
LINE
  5
3A2
100
AcDbEntity
  8
0
100
AcDbLine
 62
7
  6
CONTINUOUS
 10
122.2081686096
 20
238.9433142758
 11
122.2081686096
 21
239.3758023105
  0
LINE
  5
3A3
100
AcDbEntity
  8
0
100
AcDbLine
 62
7
  6
CONTINUOUS
 10
122.4798551132
 20
233.7022140814
 11
122.4798551132
 21
238.6012285842
  0
LINE
  5
3A4
100
AcDbEntity
  8
0
100
AcDbLine
 62
7
  6
CONTINUOUS
 10
123.1496443716
 20
239.6014402857
 11
123.1496443716
 21
234.7024257829
  0
LINE
  5
3A5
100
AcDbEntity
  8
0
100
AcDbLine
 62
7
  6
CONTINUOUS
 10
123.4677045319
 20
241.1731555351
 11
123.4677045319
 21
247.7051748728
  0
LINE
  5
3A6
100
AcDbEntity
  8
0
100
AcDbLine
 62
7
  6
CONTINUOUS
 10
124.2476117623
 20
235.1310669203
 11
124.2476117623
 21
240.0300814231
  0
LINE
  5
3A7
100
AcDbEntity
  8
0
100
AcDbLine
 62
7
  6
CONTINUOUS
 10
124.3764312164
 20
236.3205226368
 11
124.3764312164
 21
235.5040202197
  0
LINE
  5
3A8
100
AcDbEntity
  8
0
100
AcDbLine
 62
7
  6
CONTINUOUS
 10
124.6677045319
 20
237.0906434501
 11
124.6677045319
 21
241.1731555358
  0
LINE
  5
3A9
100
AcDbEntity
  8
0
100
AcDbLine
 62
7
  6
CONTINUOUS
 10
124.7911873625
 20
196.061645723
 11
124.7911873625
 21
202.1854138514
  0
LINE
  5
3AA
100
AcDbEntity
  8
0
100
AcDbLine
 62
7
  6
CONTINUOUS
 10
125.4982058247
 20
209.5337593304
 11
125.4982058247
 21
212.7997125614
  0
LINE
  5
3AB
100
AcDbEntity
  8
0
100
AcDbLine
 62
7
  6
CONTINUOUS
 10
125.8518431183
 20
196.6740119538
 11
125.8518431183
 21
202.7977800822
  0
LINE
  5
3AC
100
AcDbEntity
  8
0
100
AcDbLine
 62
7
  6
CONTINUOUS
 10
126.912425275
 20
213.6162076679
 11
126.912425275
 21
216.0657149193
  0
LINE
  5
3AD
100
AcDbEntity
  8
0
100
AcDbLine
 62
7
  6
CONTINUOUS
 10
127.831798041
 20
102.5314543508
 11
127.831798041
 21
79.9960169093
  0
LINE
  5
3AE
100
AcDbEntity
  8
0
100
AcDbLine
 62
7
  6
CONTINUOUS
 10
127.831798041
 20
73.0558927202
 11
127.831798041
 21
59.1752052725
  0
LINE
  5
3AF
100
AcDbEntity
  8
0
100
AcDbLine
 62
7
  6
CONTINUOUS
 10
127.831798041
 20
48.9690714148
 11
127.831798041
 21
37.2112609805
  0
LINE
  5
3B0
100
AcDbEntity
  8
0
100
AcDbLine
 62
7
  6
CONTINUOUS
 10
127.9732252852
 20
36.394776412
 11
127.9732252852
 21
48.8874202045
  0
LINE
  5
3B1
100
AcDbEntity
  8
0
100
AcDbLine
 62
7
  6
CONTINUOUS
 10
127.9732252852
 20
59.0935540622
 11
127.9732252852
 21
72.9742415099
  0
LINE
  5
3B2
100
AcDbEntity
  8
0
100
AcDbLine
 62
7
  6
CONTINUOUS
 10
127.9732252852
 20
79.914365699
 11
127.9732252852
 21
101.7149697824
  0
LINE
  5
3B3
100
AcDbEntity
  8
0
100
AcDbLine
 62
7
  6
CONTINUOUS
 10
128.3974758116
 20
102.8580466145
 11
128.3974758116
 21
103.5928860915
  0
LINE
  5
3B4
100
AcDbEntity
  8
0
100
AcDbLine
 62
7
  6
CONTINUOUS
 10
128.6801813353
 20
238.8052790944
 11
128.6801813353
 21
237.9887766773
  0
LINE
  5
3B5
100
AcDbEntity
  8
0
100
AcDbLine
 62
7
  6
CONTINUOUS
 10
129.3874623993
 20
56.2358585826
 11
129.3874623993
 21
57.3789619665
  0
LINE
  5
3B6
100
AcDbEntity
  8
0
100
AcDbLine
 62
7
  6
CONTINUOUS
 10
131.8622905019
 20
100.2861492372
 11
131.8622905019
 21
104.7767975371
  0
LINE
  5
3B7
100
AcDbEntity
  8
0
100
AcDbLine
 62
7
  6
CONTINUOUS
 10
132.9229492017
 20
191.366877046
 11
132.9229492017
 21
197.4906451745
  0
LINE
  5
3B8
100
AcDbEntity
  8
0
100
AcDbLine
 62
7
  6
CONTINUOUS
 10
132.923011025
 20
55.3377581939
 11
132.923011025
 21
54.19465481
  0
LWPOLYLINE
  5
3B9
100
AcDbEntity
  8
0
100
AcDbPolyline
 62
7
  6
CONTINUOUS
 90
4
 70
0
 10
136.1905906938
 20
321.7591636327
 10
136.2212555088
 20
322.4557534419
 10
136.2617910412
 20
323.1403242858
 10
136.3137360009
 20
323.789139354
  0
LINE
  5
3BA
100
AcDbEntity
  8
0
100
AcDbLine
 62
7
  6
CONTINUOUS
 10
107.7205560965
 20
165.4187221516
 11
108.1697450342
 21
166.0577692211
  0
LINE
  5
3BB
100
AcDbEntity
  8
0
100
AcDbLine
 62
7
  6
CONTINUOUS
 10
113.4360559587
 20
162.1189514184
 11
112.0071809931
 21
160.0861356418
  0
LINE
  5
3BC
100
AcDbEntity
  8
0
100
AcDbLine
 62
7
  6
CONTINUOUS
 10
113.8456509699
 20
161.1475704418
 11
114.6622920792
 21
162.3093802369
  0
LINE
  5
3BD
100
AcDbEntity
  8
0
100
AcDbLine
 62
7
  6
CONTINUOUS
 10
154.3310338522
 20
206.5842853041
 11
154.4895161419
 21
206.6757845505
  0
LINE
  5
3BE
100
AcDbEntity
  8
0
100
AcDbLine
 62
7
  6
CONTINUOUS
 10
102.6940555551
 20
176.1592126864
 11
108.3508862528
 21
179.4251659174
  0
LINE
  5
3BF
100
AcDbEntity
  8
0
100
AcDbLine
 62
7
  6
CONTINUOUS
 10
152.368222294
 20
203.0015973637
 11
156.6108453173
 21
205.4510622869
  0
LINE
  5
3C0
100
AcDbEntity
  8
0
100
AcDbLine
 62
7
  6
CONTINUOUS
 10
152.368222294
 20
201.776843738
 11
156.6108453173
 21
204.2263086612
  0
LINE
  5
3C1
100
AcDbEntity
  8
0
100
AcDbLine
 62
7
  6
CONTINUOUS
 10
88.1983061896
 20
163.7073365173
 11
90.3549826082
 21
164.9524867956
  0
LINE
  5
3C2
100
AcDbEntity
  8
0
100
AcDbLine
 62
7
  6
CONTINUOUS
 10
142.7348800957
 20
194.5820170636
 11
148.1255816069
 21
197.6943214543
  0
LINE
  5
3C3
100
AcDbEntity
  8
0
100
AcDbLine
 62
7
  6
CONTINUOUS
 10
89.2589891062
 20
163.0949648036
 11
90.3549826082
 21
163.7277331699
  0
LINE
  5
3C4
100
AcDbEntity
  8
0
100
AcDbLine
 62
7
  6
CONTINUOUS
 10
83.4253567604
 20
158.2980600002
 11
84.4860125162
 21
158.910426231
  0
LINE
  5
3C5
100
AcDbEntity
  8
0
100
AcDbLine
 62
7
  6
CONTINUOUS
 10
91.9106469665
 20
160.6659636691
 11
94.0319584781
 21
161.8906961307
  0
LINE
  5
3C6
100
AcDbEntity
  8
0
100
AcDbLine
 62
7
  6
CONTINUOUS
 10
174.2887268124
 20
193.2041988364
 11
190.9056669869
 21
197.0824195325
  0
LINE
  5
3C7
100
AcDbEntity
  8
0
100
AcDbLine
 62
7
  6
CONTINUOUS
 10
189.8450023992
 20
197.6947806643
 11
173.2280622247
 21
193.8165599682
  0
LINE
  5
3C8
100
AcDbEntity
  8
0
100
AcDbLine
 62
7
  6
CONTINUOUS
 10
90.4964098524
 20
205.0019714849
 11
101.1030557296
 21
198.8783601671
  0
LINE
  5
3C9
100
AcDbEntity
  8
0
100
AcDbLine
 62
7
  6
CONTINUOUS
 10
102.5172698807
 20
198.7967150756
 11
101.7394491831
 21
199.2457799056
  0
LINE
  5
3CA
100
AcDbEntity
  8
0
100
AcDbLine
 62
7
  6
CONTINUOUS
 10
91.1328033059
 20
205.3693912234
 11
90.3549826082
 21
205.8184560534
  0
LINE
  5
3CB
100
AcDbEntity
  8
0
100
AcDbLine
 62
7
  6
CONTINUOUS
 10
102.5172692919
 20
198.8783635665
 11
90.4964039644
 21
205.8184563933
  0
LINE
  5
3CC
100
AcDbEntity
  8
0
100
AcDbLine
 62
7
  6
CONTINUOUS
 10
91.5570591315
 20
206.5124711149
 11
90.9206603788
 21
206.879887794
  0
LINE
  5
3CD
100
AcDbEntity
  8
0
100
AcDbLine
 62
7
  6
CONTINUOUS
 10
103.719346404
 20
199.4907301372
 11
104.3557451566
 21
199.1233134581
  0
LINE
  5
3CE
100
AcDbEntity
  8
0
100
AcDbLine
 62
7
  6
CONTINUOUS
 10
146.6262464948
 20
140.0992610188
 11
145.1973715292
 21
143.7819621621
  0
LINE
  5
3CF
100
AcDbEntity
  8
0
100
AcDbLine
 62
7
  6
CONTINUOUS
 10
135.0443225366
 20
56.5624906556
 11
135.0443225366
 21
55.4193872716
  0
LINE
  5
3D0
100
AcDbEntity
  8
0
100
AcDbLine
 62
7
  6
CONTINUOUS
 10
135.0443666961
 20
46.8462432072
 11
135.0443666961
 21
48.0709968329
  0
LINE
  5
3D1
100
AcDbEntity
  8
0
100
AcDbLine
 62
7
  6
CONTINUOUS
 10
135.0443666961
 20
70.1165620954
 11
135.0443666961
 21
71.3413157211
  0
LINE
  5
3D2
100
AcDbEntity
  8
0
100
AcDbLine
 62
7
  6
CONTINUOUS
 10
137.5191683031
 20
97.020223201
 11
137.5191683031
 21
101.5108715009
  0
LINE
  5
3D3
100
AcDbEntity
  8
0
100
AcDbLine
 62
7
  6
CONTINUOUS
 10
138.2262780282
 20
96.6119824465
 11
138.2262721403
 21
101.9191156548
  0
LINE
  5
3D4
100
AcDbEntity
  8
0
100
AcDbLine
 62
7
  6
CONTINUOUS
 10
138.5798711624
 20
30.2711650942
 11
138.5798711624
 21
42.7638088867
  0
LINE
  5
3D5
100
AcDbEntity
  8
0
100
AcDbLine
 62
7
  6
CONTINUOUS
 10
138.5798711624
 20
52.9699427444
 11
138.5798711624
 21
66.8506301921
  0
LINE
  5
3D6
100
AcDbEntity
  8
0
100
AcDbLine
 62
7
  6
CONTINUOUS
 10
138.5798711624
 20
73.7907543812
 11
138.5798711624
 21
95.5913584646
  0
LINE
  5
3D7
100
AcDbEntity
  8
0
100
AcDbLine
 62
7
  6
CONTINUOUS
 10
139.2162646159
 20
95.9587782031
 11
139.2162646159
 21
73.4233407616
  0
LINE
  5
3D8
100
AcDbEntity
  8
0
100
AcDbLine
 62
7
  6
CONTINUOUS
 10
139.2162646159
 20
66.4832165724
 11
139.2162646159
 21
52.6025291248
  0
LINE
  5
3D9
100
AcDbEntity
  8
0
100
AcDbLine
 62
7
  6
CONTINUOUS
 10
139.2162646159
 20
42.3963952671
 11
139.2162646159
 21
30.6385848327
  0
LINE
  5
3DA
100
AcDbEntity
  8
0
100
AcDbLine
 62
7
  6
CONTINUOUS
 10
139.9940853135
 20
95.5097133731
 11
139.9940853135
 21
72.9742759316
  0
LINE
  5
3DB
100
AcDbEntity
  8
0
100
AcDbLine
 62
7
  6
CONTINUOUS
 10
139.9940853135
 20
66.0341517424
 11
139.9940853135
 21
52.1534642948
  0
LINE
  5
3DC
100
AcDbEntity
  8
0
100
AcDbLine
 62
7
  6
CONTINUOUS
 10
139.9940853135
 20
41.9473304371
 11
139.9940853135
 21
30.1895200027
  0
LINE
  5
3DD
100
AcDbEntity
  8
0
100
AcDbLine
 62
7
  6
CONTINUOUS
 10
141.1961618368
 20
96.2037284347
 11
141.1961618368
 21
73.464159398
  0
LINE
  5
3DE
100
AcDbEntity
  8
0
100
AcDbLine
 62
7
  6
CONTINUOUS
 10
141.1961618368
 20
65.3401482386
 11
141.1961618368
 21
52.6433477612
  0
LINE
  5
3DF
100
AcDbEntity
  8
0
100
AcDbLine
 62
7
  6
CONTINUOUS
 10
141.1961618368
 20
41.2533269333
 11
141.1961618368
 21
30.8835350643
  0
LINE
  5
3E0
100
AcDbEntity
  8
0
100
AcDbLine
 62
7
  6
CONTINUOUS
 10
141.8325605894
 20
30.5161183852
 11
141.8325605894
 21
40.8859102542
  0
LINE
  5
3E1
100
AcDbEntity
  8
0
100
AcDbLine
 62
7
  6
CONTINUOUS
 10
141.8325605894
 20
53.0107705592
 11
141.8325605894
 21
64.9727315595
  0
LINE
  5
3E2
100
AcDbEntity
  8
0
100
AcDbLine
 62
7
  6
CONTINUOUS
 10
141.8325605894
 20
73.831582196
 11
141.8325605894
 21
95.8363117556
  0
LWPOLYLINE
  5
3E3
100
AcDbEntity
  8
0
100
AcDbPolyline
 62
7
  6
CONTINUOUS
 90
4
 70
0
 10
144.3930635055
 20
317.0235708802
 10
144.4237283205
 20
317.7201606895
 10
144.4642638529
 20
318.4047315334
 10
144.5162088126
 20
319.0535466015
  0
LINE
  5
3E4
100
AcDbEntity
  8
0
100
AcDbLine
 62
7
  6
CONTINUOUS
 10
120.4485311491
 20
158.0703885703
 11
120.8977200869
 21
158.7094356397
  0
LINE
  5
3E5
100
AcDbEntity
  8
0
100
AcDbLine
 62
7
  6
CONTINUOUS
 10
82.547453414
 20
97.8119603546
 11
83.2415860734
 21
98.7994812051
  0
LINE
  5
3E6
100
AcDbEntity
  8
0
100
AcDbLine
 62
7
  6
CONTINUOUS
 10
126.1640310113
 20
154.770617837
 11
124.7351560458
 21
152.7378020604
  0
LINE
  5
3E7
100
AcDbEntity
  8
0
100
AcDbLine
 62
7
  6
CONTINUOUS
 10
146.0044791169
 20
189.9381912158
 11
147.0651348727
 21
190.5505574466
  0
LINE
  5
3E8
100
AcDbEntity
  8
0
100
AcDbLine
 62
7
  6
CONTINUOUS
 10
95.4461955922
 20
158.6247598965
 11
97.5675071038
 21
159.8494923581
  0
LINE
  5
3E9
100
AcDbEntity
  8
0
100
AcDbLine
 62
7
  6
CONTINUOUS
 10
95.4461955922
 20
157.4816565125
 11
97.5675071038
 21
158.7063889741
  0
LINE
  5
3EA
100
AcDbEntity
  8
0
100
AcDbLine
 62
7
  6
CONTINUOUS
 10
147.0651348727
 20
184.4267893182
 11
146.0044791169
 21
183.8144230874
  0
LINE
  5
3EB
100
AcDbEntity
  8
0
100
AcDbLine
 62
7
  6
CONTINUOUS
 10
113.4360559587
 20
162.1189514184
 11
114.2140874657
 21
162.5681454371
  0
LINE
  5
3EC
100
AcDbEntity
  8
0
100
AcDbLine
 62
7
  6
CONTINUOUS
 10
154.1362409561
 20
185.2434225388
 11
155.1968967119
 21
185.8557887697
  0
LINE
  5
3ED
100
AcDbEntity
  8
0
100
AcDbLine
 62
7
  6
CONTINUOUS
 10
102.6940555551
 20
155.3384010496
 11
107.290230497
 21
157.9919880498
  0
LINE
  5
3EE
100
AcDbEntity
  8
0
100
AcDbLine
 62
7
  6
CONTINUOUS
 10
112.0071809931
 20
160.0861356418
 11
113.8456509699
 21
161.1475704418
  0
LINE
  5
3EF
100
AcDbEntity
  8
0
100
AcDbLine
 62
7
  6
CONTINUOUS
 10
158.3788816432
 20
185.2434327369
 11
173.2280622247
 21
193.8165599682
  0
LINE
  5
3F0
100
AcDbEntity
  8
0
100
AcDbLine
 62
7
  6
CONTINUOUS
 10
94.3854750691
 20
208.0637992396
 11
100.0423528703
 21
204.7978732034
  0
LINE
  5
3F1
100
AcDbEntity
  8
0
100
AcDbLine
 62
7
  6
CONTINUOUS
 10
100.7494625954
 20
204.3896324489
 11
106.4063403966
 21
201.1237064127
  0
LINE
  5
3F2
100
AcDbEntity
  8
0
100
AcDbLine
 62
7
  6
CONTINUOUS
 10
107.820553959
 20
201.1237098121
 11
101.4565664327
 21
204.7978766028
  0
LINE
  5
3F3
100
AcDbEntity
  8
0
100
AcDbLine
 62
7
  6
CONTINUOUS
 10
100.7494567075
 20
205.2061173573
 11
94.3854691812
 21
208.880284148
  0
LINE
  5
3F4
100
AcDbEntity
  8
0
100
AcDbLine
 62
7
  6
CONTINUOUS
 10
154.1362409561
 20
179.1196544104
 11
146.0044791169
 21
183.8144230874
  0
LINE
  5
3F5
100
AcDbEntity
  8
0
100
AcDbLine
 62
7
  6
CONTINUOUS
 10
132.9229492017
 20
191.366877046
 11
124.7911873625
 21
196.061645723
  0
LINE
  5
3F6
100
AcDbEntity
  8
0
100
AcDbLine
 62
7
  6
CONTINUOUS
 10
116.6594255233
 20
200.7564143999
 11
108.5276636841
 21
205.4511830769
  0
LINE
  5
3F7
100
AcDbEntity
  8
0
100
AcDbLine
 62
7
  6
CONTINUOUS
 10
87.3143719297
 20
217.6984057125
 11
95.4461337689
 21
213.0036370356
  0
LINE
  5
3F8
100
AcDbEntity
  8
0
100
AcDbLine
 62
7
  6
CONTINUOUS
 10
154.1362409561
 20
180.344376674
 11
147.0651348727
 21
184.4267893182
  0
LINE
  5
3F9
100
AcDbEntity
  8
0
100
AcDbLine
 62
7
  6
CONTINUOUS
 10
132.9229492017
 20
192.5915993096
 11
125.8518431183
 21
196.6740119538
  0
LINE
  5
3FA
100
AcDbEntity
  8
0
100
AcDbLine
 62
7
  6
CONTINUOUS
 10
116.6594255233
 20
201.9811366636
 11
115.9522886374
 21
202.389393099
  0
LINE
  5
3FB
100
AcDbEntity
  8
0
100
AcDbLine
 62
7
  6
CONTINUOUS
 10
113.477440592
 20
203.8182149599
 11
109.5883194399
 21
206.0635493077
  0
LINE
  5
3FC
100
AcDbEntity
  8
0
100
AcDbLine
 62
7
  6
CONTINUOUS
 10
95.4461337689
 20
214.2283592992
 11
94.597574938
 21
214.7182638855
  0
LINE
  5
3FD
100
AcDbEntity
  8
0
100
AcDbLine
 62
7
  6
CONTINUOUS
 10
92.1227268926
 20
216.1470857464
 11
88.3750276855
 21
218.3107719433
  0
LINE
  5
3FE
100
AcDbEntity
  8
0
100
AcDbLine
 62
7
  6
CONTINUOUS
 10
149.4839964259
 20
144.1648925721
 11
150.9128713915
 21
140.4821914288
  0
LINE
  5
3FF
100
AcDbEntity
  8
0
100
AcDbLine
 62
7
  6
CONTINUOUS
 10
152.7513413682
 20
141.5436262289
 11
151.3224664027
 21
145.2263273722
  0
LINE
  5
400
100
AcDbEntity
  8
0
100
AcDbLine
 62
7
  6
CONTINUOUS
 10
124.1900481231
 20
240.2021140862
 11
124.2475666798
 21
240.0300814116
  0
LINE
  5
401
100
AcDbEntity
  8
0
100
AcDbLine
 62
7
  6
CONTINUOUS
 10
144.7670459298
 20
63.2785439859
 11
144.7670459298
 21
54.7049863473
  0
LINE
  5
402
100
AcDbEntity
  8
0
100
AcDbLine
 62
7
  6
CONTINUOUS
 10
145.2973693918
 20
32.5165147392
 11
145.2973693918
 21
38.8855472137
  0
LINE
  5
403
100
AcDbEntity
  8
0
100
AcDbLine
 62
7
  6
CONTINUOUS
 10
145.2973693918
 20
75.8319785499
 11
145.2973693918
 21
97.8367081096
  0
LINE
  5
404
100
AcDbEntity
  8
0
100
AcDbLine
 62
7
  6
CONTINUOUS
 10
146.0044791169
 20
183.8144230874
 11
146.0044791169
 21
189.9381912158
  0
LINE
  5
405
100
AcDbEntity
  8
0
100
AcDbLine
 62
7
  6
CONTINUOUS
 10
146.3581222985
 20
148.5009614046
 11
146.3581222985
 21
144.0101981104
  0
LINE
  5
406
100
AcDbEntity
  8
0
100
AcDbLine
 62
7
  6
CONTINUOUS
 10
146.3581222985
 20
124.4141400993
 11
146.3581222985
 21
119.9233768051
  0
LINE
  5
407
100
AcDbEntity
  8
0
100
AcDbLine
 62
7
  6
CONTINUOUS
 10
146.3581222985
 20
66.8507196916
 11
146.3581222985
 21
62.3599563974
  0
LINE
  5
408
100
AcDbEntity
  8
0
100
AcDbLine
 62
7
  6
CONTINUOUS
 10
146.3581222985
 20
42.7638983863
 11
146.3581222985
 21
38.2731350921
  0
LINE
  5
409
100
AcDbEntity
  8
0
100
AcDbLine
 62
7
  6
CONTINUOUS
 10
147.0651348727
 20
184.4267893182
 11
147.0651348727
 21
190.5505574466
  0
LINE
  5
40A
100
AcDbEntity
  8
0
100
AcDbLine
 62
7
  6
CONTINUOUS
 10
147.4187780543
 20
38.8855013229
 11
147.4187780543
 21
42.1515109914
  0
LINE
  5
40B
100
AcDbEntity
  8
0
100
AcDbLine
 62
7
  6
CONTINUOUS
 10
147.4187780543
 20
64.1970762539
 11
147.4187780543
 21
67.4630859224
  0
LINE
  5
40C
100
AcDbEntity
  8
0
100
AcDbLine
 62
7
  6
CONTINUOUS
 10
147.4187780543
 20
120.5357430359
 11
147.4187780543
 21
123.8017527044
  0
LINE
  5
40D
100
AcDbEntity
  8
0
100
AcDbLine
 62
7
  6
CONTINUOUS
 10
147.4187780543
 20
145.8473179669
 11
147.4187780543
 21
149.1133276354
  0
LINE
  5
40E
100
AcDbEntity
  8
0
100
AcDbLine
 62
7
  6
CONTINUOUS
 10
148.1255639431
 20
207.4923402617
 11
148.1255639431
 21
205.4510418908
  0
LINE
  5
40F
100
AcDbEntity
  8
0
100
AcDbLine
 62
7
  6
CONTINUOUS
 10
148.1255816069
 20
197.6943214543
 11
148.1255816069
 21
199.7355774971
  0
LINE
  5
410
100
AcDbEntity
  8
0
100
AcDbLine
 62
7
  6
CONTINUOUS
 10
149.1862285308
 20
208.1047115916
 11
149.1862285308
 21
205.3537692468
  0
LINE
  5
411
100
AcDbEntity
  8
0
100
AcDbLine
 62
7
  6
CONTINUOUS
 10
150.2468931186
 20
208.7170829215
 11
150.2468931186
 21
205.814681491
  0
LINE
  5
412
100
AcDbEntity
  8
0
100
AcDbLine
 62
7
  6
CONTINUOUS
 10
152.368222294
 20
203.0015973637
 11
152.368222294
 21
201.776843738
  0
LINE
  5
413
100
AcDbEntity
  8
0
100
AcDbLine
 62
7
  6
CONTINUOUS
 10
154.1362409561
 20
179.1196544104
 11
154.1362409561
 21
185.2434225388
  0
LINE
  5
414
100
AcDbEntity
  8
0
100
AcDbLine
 62
7
  6
CONTINUOUS
 10
154.4895161419
 20
206.6757845505
 11
154.4895161419
 21
218.1068183903
  0
LINE
  5
415
100
AcDbEntity
  8
0
100
AcDbLine
 62
7
  6
CONTINUOUS
 10
126.5736260225
 20
153.7992368605
 11
127.3902671318
 21
154.9610466555
  0
LINE
  5
416
100
AcDbEntity
  8
0
100
AcDbLine
 62
7
  6
CONTINUOUS
 10
88.2629532762
 20
94.5121896213
 11
86.8340783107
 21
92.4793738447
  0
LINE
  5
417
100
AcDbEntity
  8
0
100
AcDbLine
 62
7
  6
CONTINUOUS
 10
88.6725482874
 20
93.5408086448
 11
89.7341331184
 21
95.0510922208
  0
LINE
  5
418
100
AcDbEntity
  8
0
100
AcDbLine
 62
7
  6
CONTINUOUS
 10
157.3182347193
 20
183.4063391435
 11
174.2887268124
 21
193.2041988364
  0
LINE
  5
419
100
AcDbEntity
  8
0
100
AcDbLine
 62
7
  6
CONTINUOUS
 10
126.1640310113
 20
154.770617837
 11
126.9420625183
 21
155.2198118557
  0
LINE
  5
41A
100
AcDbEntity
  8
0
100
AcDbLine
 62
7
  6
CONTINUOUS
 10
124.7351560458
 20
152.7378020604
 11
126.5736260225
 21
153.7992368605
  0
LINE
  5
41B
100
AcDbEntity
  8
0
100
AcDbLine
 62
7
  6
CONTINUOUS
 10
185.6023793759
 20
186.8336749328
 11
183.8751803757
 21
186.0831198785
  0
LINE
  5
41C
100
AcDbEntity
  8
0
100
AcDbLine
 62
7
  6
CONTINUOUS
 10
185.6023793759
 20
184.6530015788
 11
183.2506206651
 21
183.6310438388
  0
LINE
  5
41D
100
AcDbEntity
  8
0
100
AcDbLine
 62
7
  6
CONTINUOUS
 10
82.3646038537
 20
226.6798591227
 11
87.3143719297
 21
223.822173841
  0
LINE
  5
41E
100
AcDbEntity
  8
0
100
AcDbLine
 62
7
  6
CONTINUOUS
 10
95.4461337689
 20
219.127405164
 11
108.5276636841
 21
211.5749512054
  0
LINE
  5
41F
100
AcDbEntity
  8
0
100
AcDbLine
 62
7
  6
CONTINUOUS
 10
116.6594255233
 20
206.8801825284
 11
124.7911873625
 21
202.1854138514
  0
LINE
  5
420
100
AcDbEntity
  8
0
100
AcDbLine
 62
7
  6
CONTINUOUS
 10
132.9229492017
 20
197.4906451745
 11
146.0044791169
 21
189.9381912158
  0
LINE
  5
421
100
AcDbEntity
  8
0
100
AcDbLine
 62
7
  6
CONTINUOUS
 10
154.1362409561
 20
185.2434225388
 11
157.3182347193
 21
183.4063391435
  0
LINE
  5
422
100
AcDbEntity
  8
0
100
AcDbLine
 62
7
  6
CONTINUOUS
 10
114.8916600423
 20
208.6356628532
 11
113.477440592
 21
209.4521443623
  0
LINE
  5
423
100
AcDbEntity
  8
0
100
AcDbLine
 62
7
  6
CONTINUOUS
 10
92.1227268926
 20
221.7810151488
 11
93.5369463429
 21
220.9645336398
  0
LINE
  5
424
100
AcDbEntity
  8
0
100
AcDbLine
 62
7
  6
CONTINUOUS
 10
83.4252596095
 20
227.2922253535
 11
92.160278011
 21
222.249174217
  0
LINE
  5
425
100
AcDbEntity
  8
0
100
AcDbLine
 62
7
  6
CONTINUOUS
 10
95.6582578545
 20
220.2296603003
 11
113.5149917104
 21
209.9203034305
  0
LINE
  5
426
100
AcDbEntity
  8
0
100
AcDbLine
 62
7
  6
CONTINUOUS
 10
117.012971554
 20
207.9007895137
 11
158.3788904751
 21
184.0187053743
  0
LINE
  5
427
100
AcDbEntity
  8
0
100
AcDbLine
 62
7
  6
CONTINUOUS
 10
115.4573431121
 20
208.9622581763
 11
115.0331429657
 21
209.2071647045
  0
LINE
  5
428
100
AcDbEntity
  8
0
100
AcDbLine
 62
7
  6
CONTINUOUS
 10
93.6784292663
 20
221.5360354911
 11
94.1026294127
 21
221.2911289629
  0
LINE
  5
429
100
AcDbEntity
  8
0
100
AcDbLine
 62
7
  6
CONTINUOUS
 10
158.3788816432
 20
185.2434327369
 11
123.0233953858
 21
205.6554704629
  0
LINE
  5
42A
100
AcDbEntity
  8
0
100
AcDbLine
 62
7
  6
CONTINUOUS
 10
120.9020662104
 20
206.8801927265
 11
118.0736273098
 21
208.5131557446
  0
LINE
  5
42B
100
AcDbEntity
  8
0
100
AcDbLine
 62
7
  6
CONTINUOUS
 10
113.2855466606
 20
211.2774928586
 11
96.7189136104
 21
220.8420265311
  0
LINE
  5
42C
100
AcDbEntity
  8
0
100
AcDbLine
 62
7
  6
CONTINUOUS
 10
91.9308329611
 20
223.6063636451
 11
85.546579953
 21
227.2922304525
  0
LINE
  5
42D
100
AcDbEntity
  8
0
100
AcDbLine
 62
7
  6
CONTINUOUS
 10
147.5651116694
 20
191.7933446524
 11
136.251356067
 21
198.3251967248
  0
LINE
  5
42E
100
AcDbEntity
  8
0
100
AcDbLine
 62
7
  6
CONTINUOUS
 10
110.0882962366
 20
213.430104642
 11
98.7745406342
 21
219.9619567143
  0
LINE
  5
42F
100
AcDbEntity
  8
0
100
AcDbLine
 62
7
  6
CONTINUOUS
 10
118.455631747
 20
214.4162844115
 11
99.9008808778
 21
225.1286324749
  0
LINE
  5
430
100
AcDbEntity
  8
0
100
AcDbLine
 62
7
  6
CONTINUOUS
 10
97.1009180476
 20
226.745155198
 11
94.3854250217
 21
228.3129103601
  0
LINE
  5
431
100
AcDbEntity
  8
0
100
AcDbLine
 62
7
  6
CONTINUOUS
 10
96.0824812965
 20
228.3129144394
 11
97.9494426522
 21
227.2350481827
  0
LINE
  5
432
100
AcDbEntity
  8
0
100
AcDbLine
 62
7
  6
CONTINUOUS
 10
101.5979371527
 20
225.1286365541
 11
107.1133930088
 21
221.9443586688
  0
LINE
  5
433
100
AcDbEntity
  8
0
100
AcDbLine
 62
7
  6
CONTINUOUS
 10
107.961924679
 20
221.4544697634
 11
113.4773805351
 21
218.2701918782
  0
LINE
  5
434
100
AcDbEntity
  8
0
100
AcDbLine
 62
7
  6
CONTINUOUS
 10
114.3259122053
 20
217.7803029727
 11
119.3041563517
 21
214.9061773961
  0
LINE
  5
435
100
AcDbEntity
  8
0
100
AcDbLine
 62
7
  6
CONTINUOUS
 10
107.9466460649
 20
222.6062811563
 11
108.1032659522
 21
222.5158586678
  0
LINE
  5
436
100
AcDbEntity
  8
0
100
AcDbLine
 62
7
  6
CONTINUOUS
 10
114.3813445637
 20
218.8912902901
 11
114.4672534785
 21
218.8416918771
  0
LINE
  5
437
100
AcDbEntity
  8
0
100
AcDbLine
 62
7
  6
CONTINUOUS
 10
121.7082731839
 20
216.2941866111
 11
120.8160430626
 21
216.8093042583
  0
LINE
  5
438
100
AcDbEntity
  8
0
100
AcDbLine
 62
7
  6
CONTINUOUS
 10
115.8814973673
 20
219.6582010931
 11
114.3813445637
 21
220.5242951244
  0
LINE
  5
439
100
AcDbEntity
  8
0
100
AcDbLine
 62
7
  6
CONTINUOUS
 10
109.517509841
 20
223.3323678838
 11
107.9466460649
 21
224.2392859905
  0
LINE
  5
43A
100
AcDbEntity
  8
0
100
AcDbLine
 62
7
  6
CONTINUOUS
 10
146.3578220139
 20
206.4717400752
 11
146.910705957
 21
204.3649399523
  0
LINE
  5
43B
100
AcDbEntity
  8
0
100
AcDbLine
 62
7
  6
CONTINUOUS
 10
147.4243959776
 20
202.4074908135
 11
148.1255816069
 21
199.7355774971
  0
LINE
  5
43C
100
AcDbEntity
  8
0
100
AcDbLine
 62
7
  6
CONTINUOUS
 10
155.1969055438
 20
96.4488003571
 11
155.1969055438
 21
98.0818051913
  0
LINE
  5
43D
100
AcDbEntity
  8
0
100
AcDbLine
 62
7
  6
CONTINUOUS
 10
155.9040241009
 20
149.5214941876
 11
155.9040241009
 21
129.9254361765
  0
LINE
  5
43E
100
AcDbEntity
  8
0
100
AcDbLine
 62
7
  6
CONTINUOUS
 10
155.9040241009
 20
67.8712524747
 11
155.9040241009
 21
48.2751944636
  0
LINE
  5
43F
100
AcDbEntity
  8
0
100
AcDbLine
 62
7
  6
CONTINUOUS
 10
156.2575612996
 20
97.0611665879
 11
156.2575612996
 21
97.4694491585
  0
LINE
  5
440
100
AcDbEntity
  8
0
100
AcDbLine
 62
7
  6
CONTINUOUS
 10
156.6108453173
 20
205.4510622869
 11
156.6108453173
 21
204.2263086612
  0
LINE
  5
441
100
AcDbEntity
  8
0
100
AcDbLine
 62
7
  6
CONTINUOUS
 10
156.9646798567
 20
47.6628070687
 11
156.9646798567
 21
69.7083723312
  0
LINE
  5
442
100
AcDbEntity
  8
0
100
AcDbLine
 62
7
  6
CONTINUOUS
 10
156.9646798567
 20
129.3130487816
 11
156.9646798567
 21
151.3586140441
  0
LINE
  5
443
100
AcDbEntity
  8
0
100
AcDbLine
 62
7
  6
CONTINUOUS
 10
157.3182347193
 20
183.4063391435
 11
157.3182347193
 21
96.8570829278
  0
LINE
  5
444
100
AcDbEntity
  8
0
100
AcDbLine
 62
7
  6
CONTINUOUS
 10
157.3182347193
 20
95.2240780935
 11
157.3182347193
 21
28.2708798889
  0
LINE
  5
445
100
AcDbEntity
  8
0
100
AcDbLine
 62
7
  6
CONTINUOUS
 10
158.3788904751
 20
184.0187053743
 11
158.3788904751
 21
97.4694491586
  0
LINE
  5
446
100
AcDbEntity
  8
0
100
AcDbLine
 62
7
  6
CONTINUOUS
 10
161.9144096612
 20
30.924466889
 11
161.9144096612
 21
97.8776650937
  0
LINE
  5
447
100
AcDbEntity
  8
0
100
AcDbLine
 62
7
  6
CONTINUOUS
 10
162.6215134984
 20
116.657213633
 11
162.6215134984
 21
164.0143538265
  0
LINE
  5
448
100
AcDbEntity
  8
0
100
AcDbLine
 62
7
  6
CONTINUOUS
 10
145.1973715292
 20
143.7819621621
 11
145.646560467
 21
144.4210092315
  0
LINE
  5
449
100
AcDbEntity
  8
0
100
AcDbLine
 62
7
  6
CONTINUOUS
 10
182.773972859
 20
185.4473412174
 11
186.6630439636
 21
187.6926840637
  0
LINE
  5
44A
100
AcDbEntity
  8
0
100
AcDbLine
 62
7
  6
CONTINUOUS
 10
101.7394491831
 20
133.9255865352
 11
101.1030557296
 21
133.5581667967
  0
LINE
  5
44B
100
AcDbEntity
  8
0
100
AcDbLine
 62
7
  6
CONTINUOUS
 10
103.719346404
 20
134.1705367668
 11
102.5172698807
 21
133.4765217053
  0
LINE
  5
44C
100
AcDbEntity
  8
0
100
AcDbLine
 62
7
  6
CONTINUOUS
 10
186.6630439636
 20
181.9771671438
 11
190.9056669869
 21
184.426632067
  0
LINE
  5
44D
100
AcDbEntity
  8
0
100
AcDbLine
 62
7
  6
CONTINUOUS
 10
104.3557451566
 20
133.8031200878
 11
107.820553959
 21
135.8035164417
  0
LINE
  5
44E
100
AcDbEntity
  8
0
100
AcDbLine
 62
7
  6
CONTINUOUS
 10
94.3854691812
 20
127.230042435
 11
90.9206603788
 21
125.2296460811
  0
LINE
  5
44F
100
AcDbEntity
  8
0
100
AcDbLine
 62
7
  6
CONTINUOUS
 10
90.3549826082
 20
124.1682143404
 11
91.5570591315
 21
124.862229402
  0
LINE
  5
450
100
AcDbEntity
  8
0
100
AcDbLine
 62
7
  6
CONTINUOUS
 10
90.4964039644
 20
124.1682146803
 11
94.3854750691
 21
126.4135575266
  0
LINE
  5
451
100
AcDbEntity
  8
0
100
AcDbLine
 62
7
  6
CONTINUOUS
 10
91.1328033059
 20
123.7191495104
 11
90.4964098524
 21
123.351729772
  0
LINE
  5
452
100
AcDbEntity
  8
0
100
AcDbLine
 62
7
  6
CONTINUOUS
 10
162.6215134984
 20
164.0143538265
 11
184.541732452
 21
176.6699225965
  0
LINE
  5
453
100
AcDbEntity
  8
0
100
AcDbLine
 62
7
  6
CONTINUOUS
 10
73.1722569139
 20
110.3283651471
 11
72.111601158
 21
109.7159989163
  0
LINE
  5
454
100
AcDbEntity
  8
0
100
AcDbLine
 62
7
  6
CONTINUOUS
 10
137.8725759673
 20
214.2285976942
 11
154.4895161419
 21
218.1068183903
  0
LINE
  5
455
100
AcDbEntity
  8
0
100
AcDbLine
 62
7
  6
CONTINUOUS
 10
153.4288515541
 20
218.7191795221
 11
136.8119113796
 21
214.840958826
  0
LINE
  5
456
100
AcDbEntity
  8
0
100
AcDbLine
 62
7
  6
CONTINUOUS
 10
152.3681869664
 20
219.3315406538
 11
135.7512467919
 21
215.4533199578
  0
LINE
  5
457
100
AcDbEntity
  8
0
100
AcDbLine
 62
7
  6
CONTINUOUS
 10
122.698218556
 20
216.8657284265
 11
120.8410029892
 21
217.9379680766
  0
LINE
  5
458
100
AcDbEntity
  8
0
100
AcDbLine
 62
7
  6
CONTINUOUS
 10
116.8714427394
 20
220.2297429085
 11
114.3897517495
 21
221.6625154559
  0
LINE
  5
459
100
AcDbEntity
  8
0
100
AcDbLine
 62
7
  6
CONTINUOUS
 10
110.4407584504
 20
223.9424162219
 11
107.9382370903
 21
225.3872149171
  0
LINE
  5
45A
100
AcDbEntity
  8
0
100
AcDbLine
 62
7
  6
CONTINUOUS
 10
100.8907873896
 20
231.0889746857
 11
100.0422557194
 21
231.5788635911
  0
LINE
  5
45B
100
AcDbEntity
  8
0
100
AcDbLine
 62
7
  6
CONTINUOUS
 10
114.4323433769
 20
223.6786381579
 11
114.8914068612
 21
223.4136037276
  0
LINE
  5
45C
100
AcDbEntity
  8
0
100
AcDbLine
 62
7
  6
CONTINUOUS
 10
146.7366597431
 20
205.0281543382
 11
147.466826038
 21
204.6066021681
  0
LINE
  5
45D
100
AcDbEntity
  8
0
100
AcDbLine
 62
7
  6
CONTINUOUS
 10
149.6218808972
 20
203.3624088125
 11
152.368222294
 21
201.776843738
  0
LINE
  5
45E
100
AcDbEntity
  8
0
100
AcDbLine
 62
7
  6
CONTINUOUS
 10
183.5631477042
 20
183.7668525955
 11
186.6630439636
 21
181.9771671438
  0
LINE
  5
45F
100
AcDbEntity
  8
0
100
AcDbLine
 62
7
  6
CONTINUOUS
 10
185.6023793759
 20
183.8142819012
 11
184.7735129557
 21
184.2928173262
  0
LINE
  5
460
100
AcDbEntity
  8
0
100
AcDbLine
 62
7
  6
CONTINUOUS
 10
148.1255639431
 20
205.4510418908
 11
147.2966975229
 21
205.9295773157
  0
LINE
  5
461
100
AcDbEntity
  8
0
100
AcDbLine
 62
7
  6
CONTINUOUS
 10
114.4875716083
 20
224.8715064707
 11
114.8914068612
 21
224.6383573533
  0
LINE
  5
462
100
AcDbEntity
  8
0
100
AcDbLine
 62
7
  6
CONTINUOUS
 10
150.8322461486
 20
203.8883735431
 11
152.368222294
 21
203.0015973637
  0
LINE
  5
463
100
AcDbEntity
  8
0
100
AcDbLine
 62
7
  6
CONTINUOUS
 10
99.3350959468
 20
236.4777188156
 11
100.3957605345
 21
235.8653576838
  0
LINE
  5
464
100
AcDbEntity
  8
0
100
AcDbLine
 62
7
  6
CONTINUOUS
 10
135.7512467919
 20
215.4533199578
 11
137.8725759673
 21
214.2285976942
  0
LINE
  5
465
100
AcDbEntity
  8
0
100
AcDbLine
 62
7
  6
CONTINUOUS
 10
173.2280622247
 20
193.8165599682
 11
174.2887268124
 21
193.2041988364
  0
LINE
  5
466
100
AcDbEntity
  8
0
100
AcDbLine
 62
7
  6
CONTINUOUS
 10
117.0127007091
 20
228.31254454
 11
118.1196163465
 21
227.6734809563
  0
LINE
  5
467
100
AcDbEntity
  8
0
100
AcDbLine
 62
7
  6
CONTINUOUS
 10
154.4895161419
 20
206.6757845505
 11
156.6108453173
 21
205.4510622869
  0
LINE
  5
468
100
AcDbEntity
  8
0
100
AcDbLine
 62
7
  6
CONTINUOUS
 10
107.2962937941
 20
83.5235339464
 11
107.9904264536
 21
84.5110547969
  0
LINE
  5
469
100
AcDbEntity
  8
0
100
AcDbLine
 62
7
  6
CONTINUOUS
 10
150.9128713915
 20
140.4821914288
 11
149.4839964259
 21
138.4493756522
  0
LINE
  5
46A
100
AcDbEntity
  8
0
100
AcDbLine
 62
7
  6
CONTINUOUS
 10
151.3224664027
 20
139.5108104522
 11
152.7513413682
 21
141.5436262289
  0
LINE
  5
46B
100
AcDbEntity
  8
0
100
AcDbLine
 62
7
  6
CONTINUOUS
 10
113.0117936564
 20
80.2237632131
 11
111.5829186908
 21
78.1909474365
  0
LINE
  5
46C
100
AcDbEntity
  8
0
100
AcDbLine
 62
7
  6
CONTINUOUS
 10
113.4213886676
 20
79.2523822365
 11
114.4829734986
 21
80.7626658126
  0
LINE
  5
46D
100
AcDbEntity
  8
0
100
AcDbLine
 62
7
  6
CONTINUOUS
 10
100.0423528703
 20
123.1476314905
 11
100.7494567075
 21
123.5558756443
  0
LINE
  5
46E
100
AcDbEntity
  8
0
100
AcDbLine
 62
7
  6
CONTINUOUS
 10
82.7181587163
 20
112.5736515558
 11
76.0007446914
 21
108.6953739105
  0
LINE
  5
46F
100
AcDbEntity
  8
0
100
AcDbLine
 62
7
  6
CONTINUOUS
 10
101.4565664327
 20
123.1476348898
 11
100.7494625954
 21
122.739390736
  0
LINE
  5
470
100
AcDbEntity
  8
0
100
AcDbLine
 62
7
  6
CONTINUOUS
 10
147.4187780543
 20
149.1133276354
 11
146.3581222985
 21
148.5009614046
  0
LINE
  5
471
100
AcDbEntity
  8
0
100
AcDbLine
 62
7
  6
CONTINUOUS
 10
156.9646798567
 20
151.3586140441
 11
147.4187780543
 21
145.8473179669
  0
LINE
  5
472
100
AcDbEntity
  8
0
100
AcDbLine
 62
7
  6
CONTINUOUS
 10
146.3581222985
 20
144.0101981104
 11
155.9040241009
 21
149.5214941876
  0
LINE
  5
473
100
AcDbEntity
  8
0
100
AcDbLine
 62
7
  6
CONTINUOUS
 10
101.7394491831
 20
117.5955381926
 11
101.1030557296
 21
117.2281184541
  0
LINE
  5
474
100
AcDbEntity
  8
0
100
AcDbLine
 62
7
  6
CONTINUOUS
 10
106.4063403966
 20
119.4734646998
 11
102.5172692919
 21
117.2281218535
  0
LINE
  5
475
100
AcDbEntity
  8
0
100
AcDbLine
 62
7
  6
CONTINUOUS
 10
103.719346404
 20
117.8404884242
 11
102.5172698807
 21
117.1464733627
  0
LINE
  5
476
100
AcDbEntity
  8
0
100
AcDbLine
 62
7
  6
CONTINUOUS
 10
149.4839964259
 20
144.1648925721
 11
151.3224664027
 21
145.2263273722
  0
LINE
  5
477
100
AcDbEntity
  8
0
100
AcDbLine
 62
7
  6
CONTINUOUS
 10
104.3557451566
 20
117.4730717452
 11
107.820553959
 21
119.4734680991
  0
LINE
  5
478
100
AcDbEntity
  8
0
100
AcDbLine
 62
7
  6
CONTINUOUS
 10
116.2129309272
 20
239.4712136568
 11
115.664979848
 21
239.787566203
  0
LINE
  5
479
100
AcDbEntity
  8
0
100
AcDbLine
 62
7
  6
CONTINUOUS
 10
108.0104581155
 20
244.2068064092
 11
107.4625070363
 21
244.5231589555
  0
LINE
  5
47A
100
AcDbEntity
  8
0
100
AcDbLine
 62
7
  6
CONTINUOUS
 10
152.3681869664
 20
219.3315406538
 11
154.4895161418
 21
218.1068183903
  0
LINE
  5
47B
100
AcDbEntity
  8
0
100
AcDbLine
 62
7
  6
CONTINUOUS
 10
189.8450023992
 20
197.6947806643
 11
190.9056669869
 21
197.0824195325
  0
LINE
  5
47C
100
AcDbEntity
  8
0
100
AcDbLine
 62
7
  6
CONTINUOUS
 10
116.24304572
 20
241.4134330675
 11
115.664979848
 21
241.7471720041
  0
LINE
  5
47D
100
AcDbEntity
  8
0
100
AcDbLine
 62
7
  6
CONTINUOUS
 10
108.0405729083
 20
246.1490258199
 11
107.4625070363
 21
246.4827647566
  0
LINE
  5
47E
100
AcDbEntity
  8
0
100
AcDbLine
 62
7
  6
CONTINUOUS
 10
108.2627589085
 20
248.4701941021
 11
110.7456702528
 21
247.0367169987
  0
LINE
  5
47F
100
AcDbEntity
  8
0
100
AcDbLine
 62
7
  6
CONTINUOUS
 10
116.4652317202
 20
243.7346013497
 11
118.9481430645
 21
242.3011242463
  0
LINE
  5
480
100
AcDbEntity
  8
0
100
AcDbLine
 62
7
  6
CONTINUOUS
 10
184.541732452
 20
176.6699225965
 11
184.541732452
 21
178.7111786393
  0
LINE
  5
481
100
AcDbEntity
  8
0
100
AcDbLine
 62
7
  6
CONTINUOUS
 10
184.8952843706
 20
122.9848851429
 11
184.8952843706
 21
129.5169044799
  0
LINE
  5
482
100
AcDbEntity
  8
0
100
AcDbLine
 62
7
  6
CONTINUOUS
 10
185.6023793759
 20
187.0803127338
 11
185.6023793759
 21
183.8142819012
  0
LINE
  5
483
100
AcDbEntity
  8
0
100
AcDbLine
 62
7
  6
CONTINUOUS
 10
186.6630439636
 20
187.6926840637
 11
186.6630439636
 21
181.9771671438
  0
LINE
  5
484
100
AcDbEntity
  8
0
100
AcDbLine
 62
7
  6
CONTINUOUS
 10
120.0242688468
 20
76.175200365
 11
120.7184015062
 21
77.1627212155
  0
LINE
  5
485
100
AcDbEntity
  8
0
100
AcDbLine
 62
7
  6
CONTINUOUS
 10
150.9128713915
 20
140.4821914288
 11
152.7513413682
 21
141.5436262289
  0
LINE
  5
486
100
AcDbEntity
  8
0
100
AcDbLine
 62
7
  6
CONTINUOUS
 10
149.4839964259
 20
138.4493756522
 11
151.3224664027
 21
139.5108104522
  0
LINE
  5
487
100
AcDbEntity
  8
0
100
AcDbLine
 62
7
  6
CONTINUOUS
 10
88.1983061896
 20
102.8779064412
 11
90.3549826082
 21
104.1230567194
  0
LINE
  5
488
100
AcDbEntity
  8
0
100
AcDbLine
 62
7
  6
CONTINUOUS
 10
83.4253567604
 20
99.9181371754
 11
84.4860125162
 21
100.5305034062
  0
LINE
  5
489
100
AcDbEntity
  8
0
100
AcDbLine
 62
7
  6
CONTINUOUS
 10
89.2589891062
 20
102.2655347274
 11
90.3549826082
 21
102.8983030937
  0
LINE
  5
48A
100
AcDbEntity
  8
0
100
AcDbLine
 62
7
  6
CONTINUOUS
 10
81.6575029604
 20
91.1404736882
 11
72.111601158
 21
85.6291776109
  0
LINE
  5
48B
100
AcDbEntity
  8
0
100
AcDbLine
 62
7
  6
CONTINUOUS
 10
88.2629532762
 20
94.5121896213
 11
89.4652470855
 21
95.2063301323
  0
LINE
  5
48C
100
AcDbEntity
  8
0
100
AcDbLine
 62
7
  6
CONTINUOUS
 10
86.8340783107
 20
92.4793738447
 11
88.6725482874
 21
93.5408086448
  0
LINE
  5
48D
100
AcDbEntity
  8
0
100
AcDbLine
 62
7
  6
CONTINUOUS
 10
117.0880581771
 20
235.9367705704
 11
119.1052717564
 21
236.046624614
  0
LINE
  5
48E
100
AcDbEntity
  8
0
100
AcDbLine
 62
7
  6
CONTINUOUS
 10
108.2627589085
 20
250.5930167544
 11
111.2652317202
 21
248.859577484
  0
LINE
  5
48F
100
AcDbEntity
  8
0
100
AcDbLine
 62
7
  6
CONTINUOUS
 10
116.4652317202
 20
245.857424002
 11
119.4677045319
 21
244.1239847316
  0
LINE
  5
490
100
AcDbEntity
  8
0
100
AcDbLine
 62
7
  6
CONTINUOUS
 10
124.6677045319
 20
241.1218312496
 11
128.6801813353
 21
238.8052790944
  0
LINE
  5
491
100
AcDbEntity
  8
0
100
AcDbLine
 62
7
  6
CONTINUOUS
 10
182.773972859
 20
185.4473412174
 11
184.541732452
 21
178.7111786393
  0
LINE
  5
492
100
AcDbEntity
  8
0
100
AcDbLine
 62
7
  6
CONTINUOUS
 10
190.9056669869
 20
121.9641971566
 11
190.9056669869
 21
124.0054531994
  0
LINE
  5
493
100
AcDbEntity
  8
0
100
AcDbLine
 62
7
  6
CONTINUOUS
 10
190.9056669869
 20
184.426632067
 11
190.9056669869
 21
197.0824195325
  0
LINE
  5
494
100
AcDbEntity
  8
0
100
AcDbLine
 62
7
  6
CONTINUOUS
 10
185.8852209108
 20
126.4141591551
 11
185.6023793759
 21
124.6178566593
  0
LINE
  5
495
100
AcDbEntity
  8
0
100
AcDbLine
 62
7
  6
CONTINUOUS
 10
186.6630439636
 20
124.0054955276
 11
186.9458854985
 21
125.8017980234
  0
LINE
  5
496
100
AcDbEntity
  8
0
100
AcDbLine
 62
7
  6
CONTINUOUS
 10
125.739768709
 20
72.8754296318
 11
124.3108937435
 21
70.8426138551
  0
LINE
  5
497
100
AcDbEntity
  8
0
100
AcDbLine
 62
7
  6
CONTINUOUS
 10
126.1493637202
 20
71.9040486552
 11
127.2109485512
 21
73.4143322312
  0
LINE
  5
498
100
AcDbEntity
  8
0
100
AcDbLine
 62
7
  6
CONTINUOUS
 10
90.167924432
 20
93.1383227996
 11
89.7436621297
 21
92.8933763073
  0
LINE
  5
499
100
AcDbEntity
  8
0
100
AcDbLine
 62
7
  6
CONTINUOUS
 10
155.9040241009
 20
129.9254361765
 11
146.3581222985
 21
124.4141400993
  0
LINE
  5
49A
100
AcDbEntity
  8
0
100
AcDbLine
 62
7
  6
CONTINUOUS
 10
147.4187780543
 20
123.8017527044
 11
156.9646798567
 21
129.3130487816
  0
LINE
  5
49B
100
AcDbEntity
  8
0
100
AcDbLine
 62
7
  6
CONTINUOUS
 10
146.3581222985
 20
119.9233768051
 11
147.4187780543
 21
120.5357430359
  0
LINE
  5
49C
100
AcDbEntity
  8
0
100
AcDbLine
 62
7
  6
CONTINUOUS
 10
102.6940555551
 20
94.5089709735
 11
108.3508862528
 21
97.7749242045
  0
LINE
  5
49D
100
AcDbEntity
  8
0
100
AcDbLine
 62
7
  6
CONTINUOUS
 10
88.1983061896
 20
82.0570948043
 11
90.3549826082
 21
83.3022450826
  0
LINE
  5
49E
100
AcDbEntity
  8
0
100
AcDbLine
 62
7
  6
CONTINUOUS
 10
89.2589891062
 20
81.4447230906
 11
90.3549826082
 21
82.0774914569
  0
LINE
  5
49F
100
AcDbEntity
  8
0
100
AcDbLine
 62
7
  6
CONTINUOUS
 10
131.862284614
 20
105.5932824455
 11
128.3974758116
 21
103.5928860915
  0
LINE
  5
4A0
100
AcDbEntity
  8
0
100
AcDbLine
 62
7
  6
CONTINUOUS
 10
100.3957605345
 20
235.8653576838
 11
103.3042249579
 21
236.5441629754
  0
LINE
  5
4A1
100
AcDbEntity
  8
0
100
AcDbLine
 62
7
  6
CONTINUOUS
 10
107.2670306066
 20
237.4690405232
 11
111.2380005388
 21
238.3958235298
  0
LINE
  5
4A2
100
AcDbEntity
  8
0
100
AcDbLine
 62
7
  6
CONTINUOUS
 10
115.2521868805
 20
239.332692796
 11
116.1072149321
 21
239.5322474343
  0
LINE
  5
4A3
100
AcDbEntity
  8
0
100
AcDbLine
 62
7
  6
CONTINUOUS
 10
111.2510746084
 20
239.2587840763
 11
107.2296097883
 21
238.3202160891
  0
LINE
  5
4A4
100
AcDbEntity
  8
0
100
AcDbLine
 62
7
  6
CONTINUOUS
 10
103.2668096292
 20
237.3953398224
 11
99.3350959468
 21
236.4777188156
  0
LINE
  5
4A5
100
AcDbEntity
  8
0
100
AcDbLine
 62
7
  6
CONTINUOUS
 10
119.1052717564
 20
240.9456391168
 11
117.0880581771
 21
240.8357850731
  0
LINE
  5
4A6
100
AcDbEntity
  8
0
100
AcDbLine
 62
7
  6
CONTINUOUS
 10
108.8855853654
 20
240.6723633228
 11
110.9027989447
 21
240.7822173664
  0
LINE
  5
4A7
100
AcDbEntity
  8
0
100
AcDbLine
 62
7
  6
CONTINUOUS
 10
117.6651258994
 20
241.5630968974
 11
118.3545467558
 21
241.6006415926
  0
LINE
  5
4A8
100
AcDbEntity
  8
0
100
AcDbLine
 62
7
  6
CONTINUOUS
 10
110.9027989447
 20
245.6812318692
 11
108.8855853654
 21
245.5713778256
  0
LINE
  5
4A9
100
AcDbEntity
  8
0
100
AcDbLine
 62
7
  6
CONTINUOUS
 10
100.6831125537
 20
245.4079560752
 11
102.700326133
 21
245.5178101189
  0
LINE
  5
4AA
100
AcDbEntity
  8
0
100
AcDbLine
 62
7
  6
CONTINUOUS
 10
109.4626530877
 20
246.2986896499
 11
110.1520739441
 21
246.336234345
  0
LINE
  5
4AB
100
AcDbEntity
  8
0
100
AcDbLine
 62
7
  6
CONTINUOUS
 10
127.831798041
 20
102.5314543508
 11
129.0338745643
 21
103.2254694124
  0
LINE
  5
4AC
100
AcDbEntity
  8
0
100
AcDbLine
 62
7
  6
CONTINUOUS
 10
127.9732193972
 20
102.5314546908
 11
131.8622905019
 21
104.7767975371
  0
LINE
  5
4AD
100
AcDbEntity
  8
0
100
AcDbLine
 62
7
  6
CONTINUOUS
 10
83.4253567604
 20
76.6478182872
 11
84.4860125162
 21
77.260184518
  0
LINE
  5
4AE
100
AcDbEntity
  8
0
100
AcDbLine
 62
7
  6
CONTINUOUS
 10
128.6096187387
 20
102.0823895209
 11
127.9732252852
 21
101.7149697824
  0
LINE
  5
4AF
100
AcDbEntity
  8
0
100
AcDbLine
 62
7
  6
CONTINUOUS
 10
91.9106469665
 20
79.0157219561
 11
94.0319584781
 21
80.2404544177
  0
LINE
  5
4B0
100
AcDbEntity
  8
0
100
AcDbLine
 62
7
  6
CONTINUOUS
 10
109.9419626215
 20
89.099845912
 11
108.8813068657
 21
88.4874796812
  0
LINE
  5
4B1
100
AcDbEntity
  8
0
100
AcDbLine
 62
7
  6
CONTINUOUS
 10
110.6490723467
 20
88.6916051575
 11
109.5884165908
 21
88.0792389267
  0
LINE
  5
4B2
100
AcDbEntity
  8
0
100
AcDbLine
 62
7
  6
CONTINUOUS
 10
183.8346197829
 20
130.1292656117
 11
162.6215134984
 21
117.8819460946
  0
LINE
  5
4B3
100
AcDbEntity
  8
0
100
AcDbLine
 62
7
  6
CONTINUOUS
 10
184.8952843706
 20
129.5169044799
 11
162.6215134984
 21
116.657213633
  0
LINE
  5
4B4
100
AcDbEntity
  8
0
100
AcDbLine
 62
7
  6
CONTINUOUS
 10
119.4878644239
 20
91.3451323208
 11
112.770450399
 21
87.4668546755
  0
LINE
  5
4B5
100
AcDbEntity
  8
0
100
AcDbLine
 62
7
  6
CONTINUOUS
 10
137.5191683031
 20
101.5108715009
 11
138.2262721403
 21
101.9191156548
  0
LINE
  5
4B6
100
AcDbEntity
  8
0
100
AcDbLine
 62
7
  6
CONTINUOUS
 10
95.4461955922
 20
76.9745181835
 11
97.5675071038
 21
78.1992506451
  0
LINE
  5
4B7
100
AcDbEntity
  8
0
100
AcDbLine
 62
7
  6
CONTINUOUS
 10
120.194974149
 20
90.9368915662
 11
113.4775601242
 21
87.0586139209
  0
LINE
  5
4B8
100
AcDbEntity
  8
0
100
AcDbLine
 62
7
  6
CONTINUOUS
 10
138.9333818654
 20
101.5108749002
 11
138.2262780282
 21
101.1026307464
  0
LINE
  5
4B9
100
AcDbEntity
  8
0
100
AcDbLine
 62
7
  6
CONTINUOUS
 10
108.8813068657
 20
83.996716387
 11
109.5884165908
 21
84.4049639402
  0
LINE
  5
4BA
100
AcDbEntity
  8
0
100
AcDbLine
 62
7
  6
CONTINUOUS
 10
95.4461955922
 20
75.8314147995
 11
97.5675071038
 21
77.0561472611
  0
LINE
  5
4BB
100
AcDbEntity
  8
0
100
AcDbLine
 62
7
  6
CONTINUOUS
 10
185.6023793759
 20
124.6178566593
 11
184.8952843706
 21
124.2096176045
  0
LINE
  5
4BC
100
AcDbEntity
  8
0
100
AcDbLine
 62
7
  6
CONTINUOUS
 10
102.700326133
 20
250.4168246216
 11
100.6831125537
 21
250.306970578
  0
LINE
  5
4BD
100
AcDbEntity
  8
0
100
AcDbLine
 62
7
  6
CONTINUOUS
 10
101.260180276
 20
251.0342824023
 11
101.9496011324
 21
251.0718270974
  0
LINE
  5
4BE
100
AcDbEntity
  8
0
100
AcDbLine
 62
7
  6
CONTINUOUS
 10
144.7731092269
 20
61.8867739568
 11
145.4672418864
 21
62.8742948073
  0
LINE
  5
4BF
100
AcDbEntity
  8
0
100
AcDbLine
 62
7
  6
CONTINUOUS
 10
150.4886090892
 20
58.5870032235
 11
149.0597341236
 21
56.5541874469
  0
LINE
  5
4C0
100
AcDbEntity
  8
0
100
AcDbLine
 62
7
  6
CONTINUOUS
 10
150.8982041004
 20
57.615622247
 11
152.3270790659
 21
59.6484380236
  0
LINE
  5
4C1
100
AcDbEntity
  8
0
100
AcDbLine
 62
7
  6
CONTINUOUS
 10
190.9056669869
 20
121.9641971566
 11
175.7029344868
 21
108.2879333456
  0
LINE
  5
4C2
100
AcDbEntity
  8
0
100
AcDbLine
 62
7
  6
CONTINUOUS
 10
186.6630439636
 20
124.0054955276
 11
184.8952843706
 21
122.9848851429
  0
LINE
  5
4C3
100
AcDbEntity
  8
0
100
AcDbLine
 62
7
  6
CONTINUOUS
 10
139.2162646159
 20
95.9587782031
 11
138.5798711624
 21
95.5913584646
  0
LINE
  5
4C4
100
AcDbEntity
  8
0
100
AcDbLine
 62
7
  6
CONTINUOUS
 10
113.0117936564
 20
80.2237632131
 11
114.2140874657
 21
80.9179037241
  0
LINE
  5
4C5
100
AcDbEntity
  8
0
100
AcDbLine
 62
7
  6
CONTINUOUS
 10
143.8831558294
 20
97.8367047102
 11
139.9940847247
 21
95.5913618639
  0
LINE
  5
4C6
100
AcDbEntity
  8
0
100
AcDbLine
 62
7
  6
CONTINUOUS
 10
141.1961618368
 20
96.2037284347
 11
139.9940853135
 21
95.5097133731
  0
LINE
  5
4C7
100
AcDbEntity
  8
0
100
AcDbLine
 62
7
  6
CONTINUOUS
 10
102.6940555551
 20
73.6881593367
 11
107.290230497
 21
76.3417463368
  0
LINE
  5
4C8
100
AcDbEntity
  8
0
100
AcDbLine
 62
7
  6
CONTINUOUS
 10
141.8325605894
 20
95.8363117556
 11
145.2973693918
 21
97.8367081096
  0
LINE
  5
4C9
100
AcDbEntity
  8
0
100
AcDbLine
 62
7
  6
CONTINUOUS
 10
111.5829186908
 20
78.1909474365
 11
113.4213886676
 21
79.2523822365
  0
LINE
  5
4CA
100
AcDbEntity
  8
0
100
AcDbLine
 62
7
  6
CONTINUOUS
 10
114.9167648121
 20
78.8498963914
 11
114.4925025098
 21
78.6049498991
  0
LINE
  5
4CB
100
AcDbEntity
  8
0
100
AcDbLine
 62
7
  6
CONTINUOUS
 10
125.6751216224
 20
81.2411464516
 11
127.831798041
 21
82.4862967299
  0
LINE
  5
4CC
100
AcDbEntity
  8
0
100
AcDbLine
 62
7
  6
CONTINUOUS
 10
120.9021721932
 20
78.2813771858
 11
121.962827949
 21
78.8937434167
  0
LINE
  5
4CD
100
AcDbEntity
  8
0
100
AcDbLine
 62
7
  6
CONTINUOUS
 10
126.735804539
 20
80.6287747379
 11
127.831798041
 21
81.2615431042
  0
LINE
  5
4CE
100
AcDbEntity
  8
0
100
AcDbLine
 62
7
  6
CONTINUOUS
 10
158.3788904751
 20
98.2859515757
 11
175.7029344868
 21
108.2879333456
  0
LINE
  5
4CF
100
AcDbEntity
  8
0
100
AcDbLine
 62
7
  6
CONTINUOUS
 10
156.2575612996
 20
97.0611665879
 11
155.1969055438
 21
96.4488003571
  0
LINE
  5
4D0
100
AcDbEntity
  8
0
100
AcDbLine
 62
7
  6
CONTINUOUS
 10
157.3182347193
 20
96.8570829278
 11
158.3788904751
 21
97.4694491586
  0
LINE
  5
4D1
100
AcDbEntity
  8
0
100
AcDbLine
 62
7
  6
CONTINUOUS
 10
160.8537450734
 20
98.4900262255
 11
157.3182258874
 21
96.4488054561
  0
LINE
  5
4D2
100
AcDbEntity
  8
0
100
AcDbLine
 62
7
  6
CONTINUOUS
 10
161.9144096612
 20
97.8776650937
 11
157.3182347193
 21
95.2240780935
  0
LINE
  5
4D3
100
AcDbEntity
  8
0
100
AcDbLine
 62
7
  6
CONTINUOUS
 10
118.4272086681
 20
69.9119544532
 11
108.8813068657
 21
64.4006583759
  0
LINE
  5
4D4
100
AcDbEntity
  8
0
100
AcDbLine
 62
7
  6
CONTINUOUS
 10
119.1343183932
 20
69.5037136986
 11
109.5884165908
 21
63.9924176214
  0
LINE
  5
4D5
100
AcDbEntity
  8
0
100
AcDbLine
 62
7
  6
CONTINUOUS
 10
125.739768709
 20
72.8754296318
 11
126.9420625183
 21
73.5695701427
  0
LINE
  5
4D6
100
AcDbEntity
  8
0
100
AcDbLine
 62
7
  6
CONTINUOUS
 10
124.3108937435
 20
70.8426138551
 11
126.1493637202
 21
71.9040486552
  0
LINE
  5
4D7
100
AcDbEntity
  8
0
100
AcDbLine
 62
7
  6
CONTINUOUS
 10
127.6447398648
 20
71.50156281
 11
127.2204775624
 21
71.2566163177
  0
LINE
  5
4D8
100
AcDbEntity
  8
0
100
AcDbLine
 62
7
  6
CONTINUOUS
 10
108.8813068657
 20
59.9098950817
 11
109.5884165908
 21
60.3181426349
  0
LINE
  5
4D9
100
AcDbEntity
  8
0
100
AcDbLine
 62
7
  6
CONTINUOUS
 10
101.7394491831
 20
52.2753448223
 11
101.1030557296
 21
51.9079250838
  0
LINE
  5
4DA
100
AcDbEntity
  8
0
100
AcDbLine
 62
7
  6
CONTINUOUS
 10
103.719346404
 20
52.5202950539
 11
102.5172698807
 21
51.8262799923
  0
LINE
  5
4DB
100
AcDbEntity
  8
0
100
AcDbLine
 62
7
  6
CONTINUOUS
 10
140.1708709879
 20
72.8722109839
 11
145.8277016856
 21
76.1381642149
  0
LINE
  5
4DC
100
AcDbEntity
  8
0
100
AcDbLine
 62
7
  6
CONTINUOUS
 10
104.3557451566
 20
52.1528783748
 11
107.820553959
 21
54.1532747288
  0
LINE
  5
4DD
100
AcDbEntity
  8
0
100
AcDbLine
 62
7
  6
CONTINUOUS
 10
125.6751216224
 20
60.4203348148
 11
127.831798041
 21
61.6654850931
  0
LINE
  5
4DE
100
AcDbEntity
  8
0
100
AcDbLine
 62
7
  6
CONTINUOUS
 10
126.735804539
 20
59.8079631011
 11
127.831798041
 21
60.4407314674
  0
LINE
  5
4DF
100
AcDbEntity
  8
0
100
AcDbLine
 62
7
  6
CONTINUOUS
 10
120.9021721932
 20
55.0110582977
 11
121.962827949
 21
55.6234245285
  0
LINE
  5
4E0
100
AcDbEntity
  8
0
100
AcDbLine
 62
7
  6
CONTINUOUS
 10
129.3874623993
 20
57.3789619665
 11
131.5087739109
 21
58.6036944282
  0
LINE
  5
4E1
100
AcDbEntity
  8
0
100
AcDbLine
 62
7
  6
CONTINUOUS
 10
147.4187780543
 20
67.4630859224
 11
146.3581222985
 21
66.8507196916
  0
LINE
  5
4E2
100
AcDbEntity
  8
0
100
AcDbLine
 62
7
  6
CONTINUOUS
 10
156.9646798567
 20
69.7083723312
 11
147.4187780543
 21
64.1970762539
  0
LINE
  5
4E3
100
AcDbEntity
  8
0
100
AcDbLine
 62
7
  6
CONTINUOUS
 10
132.923011025
 20
55.3377581939
 11
135.0443225366
 21
56.5624906556
  0
LINE
  5
4E4
100
AcDbEntity
  8
0
100
AcDbLine
 62
7
  6
CONTINUOUS
 10
146.3581222985
 20
62.3599563974
 11
155.9040241009
 21
67.8712524747
  0
LINE
  5
4E5
100
AcDbEntity
  8
0
100
AcDbLine
 62
7
  6
CONTINUOUS
 10
132.923011025
 20
54.19465481
 11
135.0443225366
 21
55.4193872716
  0
LINE
  5
4E6
100
AcDbEntity
  8
0
100
AcDbLine
 62
7
  6
CONTINUOUS
 10
149.0597341236
 20
62.2697043668
 11
150.8982041004
 21
63.3311391669
  0
LINE
  5
4E7
100
AcDbEntity
  8
0
100
AcDbLine
 62
7
  6
CONTINUOUS
 10
150.4886090892
 20
58.5870032235
 11
152.3270790659
 21
59.6484380236
  0
LINE
  5
4E8
100
AcDbEntity
  8
0
100
AcDbLine
 62
7
  6
CONTINUOUS
 10
140.1708709879
 20
52.0513993471
 11
144.7670459298
 21
54.7049863473
  0
LINE
  5
4E9
100
AcDbEntity
  8
0
100
AcDbLine
 62
7
  6
CONTINUOUS
 10
149.0597341236
 20
56.5541874469
 11
150.8982041004
 21
57.615622247
  0
LINE
  5
4EA
100
AcDbEntity
  8
0
100
AcDbLine
 62
7
  6
CONTINUOUS
 10
152.3935802449
 20
57.2131364018
 11
151.9693179426
 21
56.9681899095
  0
LINE
  5
4EB
100
AcDbEntity
  8
0
100
AcDbLine
 62
7
  6
CONTINUOUS
 10
155.9040241009
 20
48.2751944636
 11
146.3581222985
 21
42.7638983863
  0
LINE
  5
4EC
100
AcDbEntity
  8
0
100
AcDbLine
 62
7
  6
CONTINUOUS
 10
147.4187780543
 20
42.1515109914
 11
156.9646798567
 21
47.6628070687
  0
LINE
  5
4ED
100
AcDbEntity
  8
0
100
AcDbLine
 62
7
  6
CONTINUOUS
 10
146.3581222985
 20
38.2731350921
 11
147.4187780543
 21
38.8855013229
  0
LINE
  5
4EE
100
AcDbEntity
  8
0
100
AcDbLine
 62
7
  6
CONTINUOUS
 10
124.9182270031
 20
330.1279088163
 11
126.7567122885
 21
329.0664828545
  0
LINE
  5
4EF
100
AcDbEntity
  8
0
100
AcDbLine
 62
7
  6
CONTINUOUS
 10
130.8296303908
 20
337.6887077444
 11
128.9911451055
 21
338.7501337062
  0
LINE
  5
4F0
100
AcDbEntity
  8
0
100
AcDbLine
 62
7
  6
CONTINUOUS
 10
129.867952686
 20
338.5378308281
 11
131.9892818615
 21
337.3131085646
  0
LINE
  5
4F1
100
AcDbEntity
  8
0
100
AcDbLine
 62
7
  6
CONTINUOUS
 10
138.0704254977
 20
333.8022380757
 11
140.1917546732
 21
332.5775158121
  0
LINE
  5
4F2
100
AcDbEntity
  8
0
100
AcDbLine
 62
7
  6
CONTINUOUS
 10
146.2728983094
 20
329.0666453233
 11
148.3942274849
 21
327.8419230597
  0
LINE
  5
4F3
100
AcDbEntity
  8
0
100
AcDbLine
 62
7
  6
CONTINUOUS
 10
139.2162646159
 20
30.6385848327
 11
138.5798711624
 21
30.2711650942
  0
LINE
  5
4F4
100
AcDbEntity
  8
0
100
AcDbLine
 62
7
  6
CONTINUOUS
 10
141.1961618368
 20
30.8835350643
 11
139.9940853135
 21
30.1895200027
  0
LINE
  5
4F5
100
AcDbEntity
  8
0
100
AcDbLine
 62
7
  6
CONTINUOUS
 10
141.8325605894
 20
30.5161183852
 11
145.2973693918
 21
32.5165147392
  0
LINE
  5
4F6
100
AcDbEntity
  8
0
100
AcDbLine
 62
7
  6
CONTINUOUS
 10
127.5203879654
 20
328.7235547255
 11
127.9729344213
 21
328.5929098238
  0
LINE
  5
4F7
100
AcDbEntity
  8
0
100
AcDbLine
 62
7
  6
CONTINUOUS
 10
145.3112347357
 20
329.4259089777
 11
145.7637811915
 21
329.2952640759
  0
LINE
  5
4F8
100
AcDbEntity
  8
0
100
AcDbLine
 62
7
  6
CONTINUOUS
 10
157.3182347193
 20
28.2708798889
 11
161.9144096612
 21
30.924466889
  0
LINE
  5
4F9
100
AcDbEntity
  8
0
100
AcDbLine
 62
7
  6
CONTINUOUS
 10
137.1087619239
 20
334.1615017301
 11
137.5613083798
 21
334.0308568284
  0
LINE
  5
4FA
100
AcDbEntity
  8
0
100
AcDbLine
 62
7
  6
CONTINUOUS
 10
132.0458525236
 20
337.2151347136
 11
131.5933060678
 21
337.3457796154
  0
LINE
  5
4FB
100
AcDbEntity
  8
0
100
AcDbLine
 62
7
  6
CONTINUOUS
 10
128.9062891122
 20
338.8970944826
 11
129.3588355681
 21
338.7664495808
  0
ARC
  5
4FC
100
AcDbEntity
  8
0
100
AcDbCircle
 62
7
  6
CONTINUOUS
 10
105.8763099756
 20
246.9503350597
 40
2.8995180559
100
AcDbArc
 50
299.9872464717
 51
303.1652358917
  0
ARC
  5
4FD
100
AcDbEntity
  8
0
100
AcDbCircle
 62
7
  6
CONTINUOUS
 10
114.0787827873
 20
242.2147423073
 40
2.8995180559
100
AcDbArc
 50
299.9872464717
 51
303.1652358917
  0
ARC
  5
4FE
100
AcDbEntity
  8
0
100
AcDbCircle
 62
7
  6
CONTINUOUS
 10
105.2746119038
 20
246.2984989716
 40
2.4972268956
100
AcDbArc
 50
289.8585660173
 51
291.508247538
  0
ARC
  5
4FF
100
AcDbEntity
  8
0
100
AcDbCircle
 62
7
  6
CONTINUOUS
 10
113.4770847157
 20
241.5629062188
 40
2.4972268952
100
AcDbArc
 50
289.8585660171
 51
291.5082475385
  0
ARC
  5
500
100
AcDbEntity
  8
0
100
AcDbCircle
 62
7
  6
CONTINUOUS
 10
89.3304900049
 20
94.5884650206
 40
1.6745732831
100
AcDbArc
 50
300.0057609727
 51
307.8236631138
  0
ARC
  5
501
100
AcDbEntity
  8
0
100
AcDbCircle
 62
7
  6
CONTINUOUS
 10
126.8073054377
 20
72.9517050311
 40
1.6745732831
100
AcDbArc
 50
300.0057609727
 51
307.8236631138
  0
ARC
  5
502
100
AcDbEntity
  8
0
100
AcDbCircle
 62
7
  6
CONTINUOUS
 10
115.4805505574
 20
227.5388270207
 40
1.5475822033
100
AcDbArc
 50
23.2201984632
 51
25.9693641813
  0
ARC
  5
503
100
AcDbEntity
  8
0
100
AcDbCircle
 62
7
  6
CONTINUOUS
 10
136.1697638031
 20
197.5583316309
 40
0.8303607143
100
AcDbArc
 50
113.5384929161
 51
118.035057201
  0
ARC
  5
504
100
AcDbEntity
  8
0
100
AcDbCircle
 62
7
  6
CONTINUOUS
 10
147.4835194055
 20
191.0264795586
 40
0.8303607143
100
AcDbArc
 50
113.5384929161
 51
118.035057201
  0
ARC
  5
505
100
AcDbEntity
  8
0
100
AcDbCircle
 62
7
  6
CONTINUOUS
 10
127.6382491155
 20
328.171267383
 40
0.6022405484
100
AcDbArc
 50
45.5678030783
 51
45.7780296339
  0
ARC
  5
506
100
AcDbEntity
  8
0
100
AcDbCircle
 62
7
  6
CONTINUOUS
 10
144.0431947426
 20
318.700081882
 40
0.602240543
100
AcDbArc
 50
45.5678030778
 51
45.7780296352
  0
ARC
  5
507
100
AcDbEntity
  8
0
100
AcDbCircle
 62
7
  6
CONTINUOUS
 10
135.8407219452
 20
323.435674649
 40
0.6022405226
100
AcDbArc
 50
45.5678030724
 51
45.778029637
  0
ARC
  5
508
100
AcDbEntity
  8
0
100
AcDbCircle
 62
7
  6
CONTINUOUS
 10
127.6755149812
 20
328.2091220458
 40
0.5491208067
100
AcDbArc
 50
44.6182016857
 51
45.579288186
  0
ARC
  5
509
100
AcDbEntity
  8
0
100
AcDbCircle
 62
7
  6
CONTINUOUS
 10
144.0804606048
 20
318.7379365411
 40
0.5491208065
100
AcDbArc
 50
44.6182016849
 51
45.5792881857
  0
ARC
  5
50A
100
AcDbEntity
  8
0
100
AcDbCircle
 62
7
  6
CONTINUOUS
 10
135.8779877938
 20
323.4735292942
 40
0.5491208055
100
AcDbArc
 50
44.6182016849
 51
45.5792881874
  0
ARC
  5
50B
100
AcDbEntity
  8
0
100
AcDbCircle
 62
7
  6
CONTINUOUS
 10
98.606197294
 20
219.6703085494
 40
0.336728006
100
AcDbArc
 50
60.0058662088
 51
70.1884809494
  0
ARC
  5
50C
100
AcDbEntity
  8
0
100
AcDbCircle
 62
7
  6
CONTINUOUS
 10
136.0830127268
 20
198.0335485599
 40
0.336728006
100
AcDbArc
 50
60.0058662089
 51
70.1884809493
  0
SPLINE
  5
50D
100
AcDbEntity
  8
0
100
AcDbSpline
 62
7
  6
CONTINUOUS
 70
0
 71
3
 72
13
 73
9
 74
0
 42
0.0000001
 43
0.0000001
 44
0.0000000001
 40
0.0
 40
0.0
 40
0.0
 40
0.0
 40
0.1115890604
 40
0.2247087102
 40
0.3407886749
 40
0.4610728411
 40
0.7176628687
 40
1.0
 40
1.0
 40
1.0
 40
1.0
 10
89.7436602188
 20
92.8933796108
 30
0.0
 10
89.6739846135
 20
92.8531495242
 30
0.0
 10
89.5275576698
 20
92.7822618359
 30
0.0
 10
89.2926384946
 20
92.7076612831
 30
0.0
 10
89.0435266145
 20
92.6649413738
 30
0.0
 10
88.6875466367
 20
92.6504015702
 30
0.0
 10
88.21290308
 20
92.7179751708
 30
0.0
 10
87.8442789168
 20
92.8477671552
 30
0.0
 10
87.6580248932
 20
92.9299155412
 30
0.0
  0
SPLINE
  5
50E
100
AcDbEntity
  8
0
100
AcDbSpline
 62
7
  6
CONTINUOUS
 70
0
 71
3
 72
11
 73
7
 74
0
 42
0.0000001
 43
0.0000001
 44
0.0000000001
 40
0.0
 40
0.0
 40
0.0
 40
0.0
 40
0.2591896018
 40
0.5106470994
 40
0.7567109596
 40
1.0
 40
1.0
 40
1.0
 40
1.0
 10
90.3775212992
 20
93.5242155575
 30
0.0
 10
90.3367823502
 20
93.4576684807
 30
0.0
 10
90.2492303915
 20
93.3308230647
 30
0.0
 10
90.0979649699
 20
93.159742311
 30
0.0
 10
89.9299414923
 20
93.01220123
 30
0.0
 10
89.8070868243
 20
92.9300015794
 30
0.0
 10
89.7436602188
 20
92.8933796108
 30
0.0
  0
SPLINE
  5
50F
100
AcDbEntity
  8
0
100
AcDbSpline
 62
7
  6
CONTINUOUS
 70
0
 71
3
 72
11
 73
7
 74
0
 42
0.0000001
 43
0.0000001
 44
0.0000000001
 40
0.0
 40
0.0
 40
0.0
 40
0.0
 40
0.2349564717
 40
0.4764068869
 40
0.7300000597
 40
1.0
 40
1.0
 40
1.0
 40
1.0
 10
114.9167628393
 20
78.8498998035
 30
0.0
 10
115.0166386671
 20
78.907567185
 30
0.0
 10
115.207434914
 20
79.0461470984
 30
0.0
 10
115.4502707031
 20
79.3126162863
 30
0.0
 10
115.6482385801
 20
79.633977867
 30
0.0
 10
115.7453976902
 20
79.873203608
 30
0.0
 10
115.7865724224
 20
79.9991750201
 30
0.0
  0
SPLINE
  5
510
100
AcDbEntity
  8
0
100
AcDbSpline
 62
7
  6
CONTINUOUS
 70
0
 71
3
 72
13
 73
9
 74
0
 42
0.0000001
 43
0.0000001
 44
0.0000000001
 40
0.0
 40
0.0
 40
0.0
 40
0.0
 40
0.1115890604
 40
0.2247087102
 40
0.3407886749
 40
0.4610728411
 40
0.7176628687
 40
1.0
 40
1.0
 40
1.0
 40
1.0
 10
114.4925005989
 20
78.6049532026
 30
0.0
 10
114.4228249936
 20
78.564723116
 30
0.0
 10
114.2763980499
 20
78.4938354277
 30
0.0
 10
114.0414788748
 20
78.4192348749
 30
0.0
 10
113.7923669946
 20
78.3765149656
 30
0.0
 10
113.4363870169
 20
78.361975162
 30
0.0
 10
112.9617434601
 20
78.4295487626
 30
0.0
 10
112.5931192969
 20
78.559340747
 30
0.0
 10
112.4068652733
 20
78.641489133
 30
0.0
  0
SPLINE
  5
511
100
AcDbEntity
  8
0
100
AcDbSpline
 62
7
  6
CONTINUOUS
 70
0
 71
3
 72
13
 73
9
 74
0
 42
0.0000001
 43
0.0000001
 44
0.0000000001
 40
0.0
 40
0.0
 40
0.0
 40
0.0
 40
0.2781656017
 40
0.5336025847
 40
0.6544288304
 40
0.7716976554
 40
0.8864864767
 40
1.0
 40
1.0
 40
1.0
 40
1.0
 10
115.4697521332
 20
80.1891473335
 30
0.0
 10
115.4389822291
 20
80.0137184441
 30
0.0
 10
115.3543886458
 20
79.6807786766
 30
0.0
 10
115.1754530495
 20
79.2983046404
 30
0.0
 10
114.9947474678
 20
79.0382764006
 30
0.0
 10
114.8443012856
 20
78.8689204755
 30
0.0
 10
114.6773872311
 20
78.7227977583
 30
0.0
 10
114.5554436722
 20
78.6412959838
 30
0.0
 10
114.4925005989
 20
78.6049532026
 30
0.0
  0
SPLINE
  5
512
100
AcDbEntity
  8
0
100
AcDbSpline
 62
7
  6
CONTINUOUS
 70
0
 71
3
 72
13
 73
9
 74
0
 42
0.0000001
 43
0.0000001
 44
0.0000000001
 40
0.0
 40
0.0
 40
0.0
 40
0.0
 40
0.1115890604
 40
0.2247087102
 40
0.3407886749
 40
0.4610728411
 40
0.7176628687
 40
1.0
 40
1.0
 40
1.0
 40
1.0
 10
127.2204756516
 20
71.2566196212
 30
0.0
 10
127.1508000463
 20
71.2163895347
 30
0.0
 10
127.0043731026
 20
71.1455018464
 30
0.0
 10
126.7694539274
 20
71.0709012936
 30
0.0
 10
126.5203420473
 20
71.0281813842
 30
0.0
 10
126.1643620695
 20
71.0136415806
 30
0.0
 10
125.6897185128
 20
71.0812151813
 30
0.0
 10
125.3210943496
 20
71.2110071656
 30
0.0
 10
125.134840326
 20
71.2931555517
 30
0.0
  0
SPLINE
  5
513
100
AcDbEntity
  8
0
100
AcDbSpline
 62
7
  6
CONTINUOUS
 70
0
 71
3
 72
11
 73
7
 74
0
 42
0.0000001
 43
0.0000001
 44
0.0000000001
 40
0.0
 40
0.0
 40
0.0
 40
0.0
 40
0.2591896018
 40
0.5106470994
 40
0.7567109596
 40
1.0
 40
1.0
 40
1.0
 40
1.0
 10
127.854336732
 20
71.887455568
 30
0.0
 10
127.813597783
 20
71.8209084911
 30
0.0
 10
127.7260458243
 20
71.6940630751
 30
0.0
 10
127.5747804027
 20
71.5229823214
 30
0.0
 10
127.4067569251
 20
71.3754412404
 30
0.0
 10
127.2839022571
 20
71.2932415898
 30
0.0
 10
127.2204756516
 20
71.2566196212
 30
0.0
  0
SPLINE
  5
514
100
AcDbEntity
  8
0
100
AcDbSpline
 62
7
  6
CONTINUOUS
 70
0
 71
3
 72
15
 73
11
 74
0
 42
0.0000001
 43
0.0000001
 44
0.0000000001
 40
0.0
 40
0.0
 40
0.0
 40
0.0
 40
0.1116862836
 40
0.2310597702
 40
0.3565220336
 40
0.486078468
 40
0.6175062178
 40
0.7484780959
 40
0.8766922695
 40
1.0
 40
1.0
 40
1.0
 40
1.0
 10
153.4291400629
 20
59.50206611
 30
0.0
 10
153.4291400629
 20
59.7331182761
 30
0.0
 10
153.3942287816
 20
60.211490747
 30
0.0
 10
153.2520273827
 20
60.9366899104
 30
0.0
 10
153.021908634
 20
61.6777104466
 30
0.0
 10
152.7098691723
 20
62.4151060116
 30
0.0
 10
152.3240867732
 20
63.1296689286
 30
0.0
 10
151.874625117
 20
63.8027018329
 30
0.0
 10
151.3733501407
 20
64.4165036343
 30
0.0
 10
151.0040581197
 20
64.7847667365
 30
0.0
 10
150.8133570501
 20
64.9541955724
 30
0.0
  0
SPLINE
  5
515
100
AcDbEntity
  8
0
100
AcDbSpline
 62
7
  6
CONTINUOUS
 70
0
 71
3
 72
14
 73
10
 74
0
 42
0.0000001
 43
0.0000001
 44
0.0000000001
 40
0.0
 40
0.0
 40
0.0
 40
0.0
 40
0.1080472981
 40
0.218132033
 40
0.3321056698
 40
0.4515022061
 40
0.5774636527
 40
0.7107216432
 40
1.0
 40
1.0
 40
1.0
 40
1.0
 10
152.3935782721
 20
57.213139814
 30
0.0
 10
152.4755545038
 20
57.2604721338
 30
0.0
 10
152.6331740651
 20
57.3704454098
 30
0.0
 10
152.8414248108
 20
57.575410167
 30
0.0
 10
153.0205369273
 20
57.8186665338
 30
0.0
 10
153.1688392215
 20
58.0974835537
 30
0.0
 10
153.2851829936
 20
58.4090569953
 30
0.0
 10
153.3995536829
 20
58.8766284124
 30
0.0
 10
153.4291400629
 20
59.2486308911
 30
0.0
 10
153.4291400629
 20
59.50206611
 30
0.0
  0
SPLINE
  5
516
100
AcDbEntity
  8
0
100
AcDbSpline
 62
7
  6
CONTINUOUS
 70
0
 71
3
 72
13
 73
9
 74
0
 42
0.0000001
 43
0.0000001
 44
0.0000000001
 40
0.0
 40
0.0
 40
0.0
 40
0.0
 40
0.1115890604
 40
0.2247087102
 40
0.3407886749
 40
0.4610728411
 40
0.7176628687
 40
1.0
 40
1.0
 40
1.0
 40
1.0
 10
151.9693160317
 20
56.968193213
 30
0.0
 10
151.8996404264
 20
56.9279631264
 30
0.0
 10
151.7532134827
 20
56.8570754382
 30
0.0
 10
151.5182943075
 20
56.7824748853
 30
0.0
 10
151.2691824274
 20
56.739754976
 30
0.0
 10
150.9132024497
 20
56.7252151724
 30
0.0
 10
150.4385588929
 20
56.792788773
 30
0.0
 10
150.0699347297
 20
56.9225807574
 30
0.0
 10
149.8836807061
 20
57.0047291435
 30
0.0
  0
SPLINE
  5
517
100
AcDbEntity
  8
0
100
AcDbSpline
 62
7
  6
CONTINUOUS
 70
0
 71
3
 72
11
 73
7
 74
0
 42
0.0000001
 43
0.0000001
 44
0.0000000001
 40
0.0
 40
0.0
 40
0.0
 40
0.0
 40
0.2408426485
 40
0.4923296598
 40
0.7477358595
 40
1.0
 40
1.0
 40
1.0
 40
1.0
 10
150.3891253961
 20
64.7092219074
 30
0.0
 10
150.628799861
 20
64.4962798286
 30
0.0
 10
151.0876901954
 20
64.025167364
 30
0.0
 10
151.6895481414
 20
63.2295231266
 30
0.0
 10
152.2016204921
 20
62.3557235459
 30
0.0
 10
152.4734889214
 20
61.7348994186
 30
0.0
 10
152.588570456
 20
61.4194241576
 30
0.0
  0
SPLINE
  5
518
100
AcDbEntity
  8
0
100
AcDbSpline
 62
7
  6
CONTINUOUS
 70
0
 71
3
 72
11
 73
7
 74
0
 42
0.0000001
 43
0.0000001
 44
0.0000000001
 40
0.0
 40
0.0
 40
0.0
 40
0.0
 40
0.2653088215
 40
0.5217381155
 40
0.7672089669
 40
1.0
 40
1.0
 40
1.0
 40
1.0
 10
152.588570456
 20
61.4194241576
 30
0.0
 10
152.6556192166
 20
61.235622079
 30
0.0
 10
152.7742010458
 20
60.8691375567
 30
0.0
 10
152.9054536742
 20
60.3181613567
 30
0.0
 10
152.9856798507
 20
59.7816592949
 30
0.0
 10
153.0048777605
 20
59.4287892102
 30
0.0
 10
153.0048777605
 20
59.2571196176
 30
0.0
  0
SPLINE
  5
519
100
AcDbEntity
  8
0
100
AcDbSpline
 62
7
  6
CONTINUOUS
 70
0
 71
3
 72
14
 73
10
 74
0
 42
0.0000001
 43
0.0000001
 44
0.0000000001
 40
0.0
 40
0.0
 40
0.0
 40
0.0
 40
0.2892777978
 40
0.4225355718
 40
0.5484969451
 40
0.6678934492
 40
0.7818672422
 40
0.8919522945
 40
1.0
 40
1.0
 40
1.0
 40
1.0
 10
153.0048777605
 20
59.2571196176
 30
0.0
 10
153.0048777605
 20
59.003684882
 30
0.0
 10
152.9752915844
 20
58.6316830601
 30
0.0
 10
152.8609211322
 20
58.1641123564
 30
0.0
 10
152.7445780166
 20
57.8525389703
 30
0.0
 10
152.5962759044
 20
57.5737217712
 30
0.0
 10
152.4171636433
 20
57.3304650343
 30
0.0
 10
152.2089126225
 20
57.1254994406
 30
0.0
 10
152.0512925568
 20
57.0155257433
 30
0.0
 10
151.9693160317
 20
56.968193213
 30
0.0
  0
SPLINE
  5
51A
100
AcDbEntity
  8
0
100
AcDbSpline
 62
7
  6
CONTINUOUS
 70
0
 71
3
 72
17
 73
13
 74
0
 42
0.0000001
 43
0.0000001
 44
0.0000000001
 40
0.0
 40
0.0
 40
0.0
 40
0.0
 40
0.2114182079
 40
0.398585744
 40
0.5604335306
 40
0.696435259
 40
0.8064817763
 40
0.8912345144
 40
0.9248283429
 40
0.9533188002
 40
0.9778012946
 40
1.0
 40
1.0
 40
1.0
 40
1.0
 10
124.8970377341
 20
321.1423708378
 30
0.0
 10
124.9350952722
 20
321.1313840689
 30
0.0
 10
125.0071002131
 20
321.1115353584
 30
0.0
 10
125.1091833778
 20
321.0868404038
 30
0.0
 10
125.1983411648
 20
321.0691252961
 30
0.0
 10
125.2740846292
 20
321.0584158478
 30
0.0
 10
125.3360049842
 20
321.0547478287
 30
0.0
 10
125.378981575
 20
321.0575220994
 30
0.0
 10
125.4057329439
 20
321.064304875
 30
0.0
 10
125.4206764909
 20
321.0708663993
 30
0.0
 10
125.4320783256
 20
321.079407124
 30
0.0
 10
125.4372464687
 20
321.0866958545
 30
0.0
 10
125.4390220395
 20
321.0904569969
 30
0.0
  0
SPLINE
  5
51B
100
AcDbEntity
  8
0
100
AcDbSpline
 62
7
  6
CONTINUOUS
 70
0
 71
3
 72
11
 73
7
 74
0
 42
0.0000001
 43
0.0000001
 44
0.0000000001
 40
0.0
 40
0.0
 40
0.0
 40
0.0
 40
0.3397029025
 40
0.6200054265
 40
0.8385850576
 40
1.0
 40
1.0
 40
1.0
 40
1.0
 10
128.0663807916
 20
328.5948130862
 30
0.0
 10
128.0731304804
 20
328.5879699474
 30
0.0
 10
128.0851202315
 20
328.5751515099
 30
0.0
 10
128.0997434477
 20
328.5563683538
 30
0.0
 10
128.1090546952
 20
328.5401525782
 30
0.0
 10
128.1116862184
 20
328.5292799568
 30
0.0
 10
128.1112624144
 20
328.5247324674
 30
0.0
  0
SPLINE
  5
51C
100
AcDbEntity
  8
0
100
AcDbSpline
 62
7
  6
CONTINUOUS
 70
0
 71
3
 72
12
 73
8
 74
0
 42
0.0000001
 43
0.0000001
 44
0.0000000001
 40
0.0
 40
0.0
 40
0.0
 40
0.0
 40
0.1159962721
 40
0.2025361592
 40
0.3119713217
 40
0.6051172965
 40
1.0
 40
1.0
 40
1.0
 40
1.0
 10
124.5864372745
 20
330.3856555006
 30
0.0
 10
124.5910562284
 20
330.3904461275
 30
0.0
 10
124.6032017315
 20
330.3940566426
 30
0.0
 10
124.620842605
 20
330.3951333206
 30
0.0
 10
124.649021927
 20
330.393610188
 30
0.0
 10
124.6940841876
 20
330.3854409907
 30
0.0
 10
124.7323079357
 20
330.3754479777
 30
0.0
 10
124.7540822856
 20
330.3691951945
 30
0.0
  0
SPLINE
  5
51D
100
AcDbEntity
  8
0
100
AcDbSpline
 62
7
  6
CONTINUOUS
 70
0
 71
3
 72
29
 73
25
 74
0
 42
0.0000001
 43
0.0000001
 44
0.0000000001
 40
0.0
 40
0.0
 40
0.0
 40
0.0
 40
0.0025125504
 40
0.0052910778
 40
0.0085353799
 40
0.0123717921
 40
0.0220720239
 40
0.0346884434
 40
0.0502904461
 40
0.0688579443
 40
0.0903201903
 40
0.1145737362
 40
0.1709054345
 40
0.2365667414
 40
0.3099950152
 40
0.3894163777
 40
0.4728986771
 40
0.558404081
 40
0.6438424086
 40
0.7271253827
 40
0.8062196945
 40
0.8792030721
 40
0.94431154
 40
1.0
 40
1.0
 40
1.0
 40
1.0
 10
120.4659499405
 20
323.4396088286
 30
0.0
 10
120.4641446109
 20
323.4357846493
 30
0.0
 10
120.4617830963
 20
323.4269933508
 30
0.0
 10
120.4625416752
 20
323.4124796935
 30
0.0
 10
120.4671989732
 20
323.3964438174
 30
0.0
 10
120.479478184
 20
323.3709110248
 30
0.0
 10
120.5056022976
 20
323.3351391372
 30
0.0
 10
120.5492941046
 20
323.2885504642
 30
0.0
 10
120.6076473964
 20
323.2355662073
 30
0.0
 10
120.6803492753
 20
323.1765164141
 30
0.0
 10
120.7670528968
 20
323.1117540731
 30
0.0
 10
120.9078461807
 20
323.0133426081
 30
0.0
 10
121.1149783497
 20
322.8801991788
 30
0.0
 10
121.397606365
 20
322.7118743657
 30
0.0
 10
121.7185678706
 20
322.5322282839
 30
0.0
 10
122.0699473826
 20
322.3457408734
 30
0.0
 10
122.4430843726
 20
322.1570686834
 30
0.0
 10
122.8287509337
 20
321.9708981618
 30
0.0
 10
123.2174033177
 20
321.7918442948
 30
0.0
 10
123.5994167117
 20
321.6243329069
 30
0.0
 10
123.9653281013
 20
321.4724903167
 30
0.0
 10
124.3060734312
 20
321.3400245565
 30
0.0
 10
124.6132052993
 20
321.2301527462
 30
0.0
 10
124.8069854252
 20
321.1683678927
 30
0.0
 10
124.8970377341
 20
321.1423708378
 30
0.0
  0
SPLINE
  5
51E
100
AcDbEntity
  8
0
100
AcDbSpline
 62
7
  6
CONTINUOUS
 70
0
 71
3
 72
29
 73
25
 74
0
 42
0.0000001
 43
0.0000001
 44
0.0000000001
 40
0.0
 40
0.0
 40
0.0
 40
0.0
 40
0.0556872691
 40
0.1207947519
 40
0.1937777443
 40
0.2728726073
 40
0.3561561713
 40
0.4415951984
 40
0.5271010339
 40
0.6105832828
 40
0.6900041965
 40
0.7634320038
 40
0.8290931809
 40
0.8854251875
 40
0.9096789915
 40
0.9311415208
 40
0.9497092839
 40
0.9653114546
 40
0.977928032
 40
0.987628277
 40
0.991464701
 40
0.9947089491
 40
0.9974874118
 40
1.0
 40
1.0
 40
1.0
 40
1.0
 10
127.4426115481
 20
326.531261394
 30
0.0
 10
127.352529826
 20
326.5571491204
 30
0.0
 10
127.1588042311
 20
326.6191090358
 30
0.0
 10
126.851648771
 20
326.7288866199
 30
0.0
 10
126.5109150595
 20
326.8613854645
 30
0.0
 10
126.144998563
 20
327.0132165549
 30
0.0
 10
125.7629835249
 20
327.180732902
 30
0.0
 10
125.3743279952
 20
327.3597866663
 30
0.0
 10
124.9886598637
 20
327.5459582975
 30
0.0
 10
124.6155228775
 20
327.7346302995
 30
0.0
 10
124.2641447468
 20
327.9211169285
 30
0.0
 10
123.9431846768
 20
328.1007620374
 30
0.0
 10
123.6605569512
 20
328.269086447
 30
0.0
 10
123.45342402
 20
328.4022300864
 30
0.0
 10
123.3126294421
 20
328.5006422284
 30
0.0
 10
123.2259246851
 20
328.5654053246
 30
0.0
 10
123.1532217044
 20
328.6244557043
 30
0.0
 10
123.0948677083
 20
328.6774406423
 30
0.0
 10
123.0511753217
 20
328.7240296367
 30
0.0
 10
123.025051538
 20
328.7598020926
 30
0.0
 10
123.0127719158
 20
328.785334603
 30
0.0
 10
123.0081143071
 20
328.8013702187
 30
0.0
 10
123.0073558706
 20
328.8158837941
 30
0.0
 10
123.0097176227
 20
328.8246749673
 30
0.0
 10
123.0115229879
 20
328.8284992006
 30
0.0
  0
SPLINE
  5
51F
100
AcDbEntity
  8
0
100
AcDbSpline
 62
7
  6
CONTINUOUS
 70
0
 71
3
 72
15
 73
11
 74
0
 42
0.0000001
 43
0.0000001
 44
0.0000000001
 40
0.0
 40
0.0
 40
0.0
 40
0.0
 40
0.0486051859
 40
0.1031153882
 40
0.1768990556
 40
0.2773500921
 40
0.4083666975
 40
0.5720573675
 40
0.7693308739
 40
1.0
 40
1.0
 40
1.0
 40
1.0
 10
128.1112624144
 20
328.5247324674
 30
0.0
 10
128.1109844466
 20
328.5217498251
 30
0.0
 10
128.1086513924
 20
328.5153663588
 30
0.0
 10
128.0991915059
 20
328.5090239645
 30
0.0
 10
128.0853186591
 20
328.5058879882
 30
0.0
 10
128.0664427821
 20
328.5053185142
 30
0.0
 10
128.0421547573
 20
328.5075366904
 30
0.0
 10
128.0122472363
 20
328.512654224
 30
0.0
 10
127.9766918761
 20
328.5207971045
 30
0.0
 10
127.9512401966
 20
328.5277369457
 30
0.0
 10
127.9375812902
 20
328.5316786233
 30
0.0
  0
SPLINE
  5
520
100
AcDbEntity
  8
0
100
AcDbSpline
 62
7
  6
CONTINUOUS
 70
0
 71
3
 72
17
 73
13
 74
0
 42
0.0000001
 43
0.0000001
 44
0.0000000001
 40
0.0
 40
0.0
 40
0.0
 40
0.0
 40
0.0221983
 40
0.0466804436
 40
0.0751711926
 40
0.1087660352
 40
0.1935227614
 40
0.3035698906
 40
0.4395651424
 40
0.6014150573
 40
0.7885969729
 40
1.0
 40
1.0
 40
1.0
 40
1.0
 10
127.9845964281
 20
326.4793470896
 30
0.0
 10
127.9828208668
 20
326.4755860168
 30
0.0
 10
127.977652729
 20
326.4682974018
 30
0.0
 10
127.9662505619
 20
326.4597571808
 30
0.0
 10
127.9513066642
 20
326.4531960111
 30
0.0
 10
127.9245544301
 20
326.4464126664
 30
0.0
 10
127.8815770394
 20
326.443634382
 30
0.0
 10
127.8196563931
 20
326.4473029183
 30
0.0
 10
127.7439160874
 20
326.4580314807
 30
0.0
 10
127.6547566849
 20
326.4757439075
 30
0.0
 10
127.5526554548
 20
326.500365462
 30
0.0
 10
127.4806531344
 20
326.5202294207
 30
0.0
 10
127.4426115481
 20
326.531261394
 30
0.0
  0
SPLINE
  5
521
100
AcDbEntity
  8
0
100
AcDbSpline
 62
7
  6
CONTINUOUS
 70
0
 71
3
 72
21
 73
17
 74
0
 42
0.0000001
 43
0.0000001
 44
0.0000000001
 40
0.0
 40
0.0
 40
0.0
 40
0.0
 40
0.0250467726
 40
0.0545102903
 40
0.1225524396
 40
0.1969612702
 40
0.2732702634
 40
0.3492579159
 40
0.4238211947
 40
0.5665554505
 40
0.6986769536
 40
0.8178086569
 40
0.8715091819
 40
0.9204496785
 40
0.963699606
 40
1.0
 40
1.0
 40
1.0
 40
1.0
 10
127.9375812902
 20
328.5316786233
 30
0.0
 10
127.9080184985
 20
328.54021628
 30
0.0
 10
127.844252682
 20
328.5607742962
 30
0.0
 10
127.7026936313
 20
328.6120998851
 30
0.0
 10
127.5070471939
 20
328.691845058
 30
0.0
 10
127.2612557631
 20
328.8005875146
 30
0.0
 10
127.0089441566
 20
328.9185713606
 30
0.0
 10
126.7584392126
 20
329.0407596285
 30
0.0
 10
126.4367946686
 20
329.2031655067
 30
0.0
 10
126.0570916893
 20
329.4035144683
 30
0.0
 10
125.6341717227
 20
329.63900881
 30
0.0
 10
125.3113960197
 20
329.8293291387
 30
0.0
 10
125.0802905425
 20
329.9736532666
 30
0.0
 10
124.930289227
 20
330.0717977555
 30
0.0
 10
124.8007514574
 20
330.1620344607
 30
0.0
 10
124.7228901128
 20
330.2212280698
 30
0.0
 10
124.6886029086
 20
330.2497452622
 30
0.0
  0
SPLINE
  5
522
100
AcDbEntity
  8
0
100
AcDbSpline
 62
7
  6
CONTINUOUS
 70
0
 71
3
 72
16
 73
12
 74
0
 42
0.0000001
 43
0.0000001
 44
0.0000000001
 40
0.0
 40
0.0
 40
0.0
 40
0.0
 40
0.1992162505
 40
0.3789503209
 40
0.5376566753
 40
0.6738863367
 40
0.7864621521
 40
0.8750260366
 40
0.9421914686
 40
0.9710842359
 40
1.0
 40
1.0
 40
1.0
 40
1.0
 10
124.6886029086
 20
330.2497452622
 30
0.0
 10
124.6794476894
 20
330.257359798
 30
0.0
 10
124.6622146904
 20
330.272066646
 30
0.0
 10
124.6384928126
 20
330.2937598056
 30
0.0
 10
124.6184476383
 20
330.3138614899
 30
0.0
 10
124.6023707236
 20
330.3321843977
 30
0.0
 10
124.5905618711
 20
330.3486101661
 30
0.0
 10
124.5832479346
 20
330.3629346074
 30
0.0
 10
124.5811939854
 20
330.3741931898
 30
0.0
 10
124.58320263
 20
330.3815247597
 30
0.0
 10
124.5852376016
 20
330.3844112393
 30
0.0
 10
124.5864372745
 20
330.3856555006
 30
0.0
  0
SPLINE
  5
523
100
AcDbEntity
  8
0
100
AcDbSpline
 62
7
  6
CONTINUOUS
 70
0
 71
3
 72
17
 73
13
 74
0
 42
0.0000001
 43
0.0000001
 44
0.0000000001
 40
0.0
 40
0.0
 40
0.0
 40
0.0
 40
0.2114182079
 40
0.398585744
 40
0.5604335306
 40
0.696435259
 40
0.8064817763
 40
0.8912345144
 40
0.9248283429
 40
0.9533188002
 40
0.9778012946
 40
1.0
 40
1.0
 40
1.0
 40
1.0
 10
133.0995105458
 20
316.4067780854
 30
0.0
 10
133.1375680839
 20
316.3957913165
 30
0.0
 10
133.2095730248
 20
316.375942606
 30
0.0
 10
133.3116561895
 20
316.3512476513
 30
0.0
 10
133.4008139765
 20
316.3335325436
 30
0.0
 10
133.4765574409
 20
316.3228230954
 30
0.0
 10
133.5384777959
 20
316.3191550763
 30
0.0
 10
133.5814543867
 20
316.3219293469
 30
0.0
 10
133.6082057556
 20
316.3287121226
 30
0.0
 10
133.6231493026
 20
316.3352736468
 30
0.0
 10
133.6345511373
 20
316.3438143716
 30
0.0
 10
133.6397192804
 20
316.3511031021
 30
0.0
 10
133.6414948512
 20
316.3548642444
 30
0.0
  0
SPLINE
  5
524
100
AcDbEntity
  8
0
100
AcDbSpline
 62
7
  6
CONTINUOUS
 70
0
 71
3
 72
11
 73
7
 74
0
 42
0.0000001
 43
0.0000001
 44
0.0000000001
 40
0.0
 40
0.0
 40
0.0
 40
0.0
 40
0.3397029025
 40
0.6200054265
 40
0.8385850576
 40
1.0
 40
1.0
 40
1.0
 40
1.0
 10
136.2688536033
 20
323.8592203337
 30
0.0
 10
136.2756032921
 20
323.852377195
 30
0.0
 10
136.2875930432
 20
323.8395587574
 30
0.0
 10
136.3022162594
 20
323.8207756014
 30
0.0
 10
136.3115275069
 20
323.8045598257
 30
0.0
 10
136.3141590301
 20
323.7936872044
 30
0.0
 10
136.3137352261
 20
323.789139715
 30
0.0
  0
SPLINE
  5
525
100
AcDbEntity
  8
0
100
AcDbSpline
 62
7
  6
CONTINUOUS
 70
0
 71
3
 72
12
 73
8
 74
0
 42
0.0000001
 43
0.0000001
 44
0.0000000001
 40
0.0
 40
0.0
 40
0.0
 40
0.0
 40
0.1159962721
 40
0.2025361592
 40
0.3119713217
 40
0.6051172965
 40
1.0
 40
1.0
 40
1.0
 40
1.0
 10
132.7889100862
 20
325.6500627481
 30
0.0
 10
132.7935290401
 20
325.654853375
 30
0.0
 10
132.8056745432
 20
325.6584638901
 30
0.0
 10
132.8233154167
 20
325.6595405682
 30
0.0
 10
132.8514947387
 20
325.6580174356
 30
0.0
 10
132.8965569994
 20
325.6498482383
 30
0.0
 10
132.9347807474
 20
325.6398552252
 30
0.0
 10
132.9565550973
 20
325.633602442
 30
0.0
  0
SPLINE
  5
526
100
AcDbEntity
  8
0
100
AcDbSpline
 62
7
  6
CONTINUOUS
 70
0
 71
3
 72
29
 73
25
 74
0
 42
0.0000001
 43
0.0000001
 44
0.0000000001
 40
0.0
 40
0.0
 40
0.0
 40
0.0
 40
0.0025125504
 40
0.0052910778
 40
0.0085353799
 40
0.0123717921
 40
0.0220720239
 40
0.0346884434
 40
0.0502904461
 40
0.0688579443
 40
0.0903201903
 40
0.1145737362
 40
0.1709054345
 40
0.2365667414
 40
0.3099950152
 40
0.3894163777
 40
0.4728986771
 40
0.558404081
 40
0.6438424086
 40
0.7271253827
 40
0.8062196945
 40
0.8792030721
 40
0.94431154
 40
1.0
 40
1.0
 40
1.0
 40
1.0
 10
128.6684227522
 20
318.7040160762
 30
0.0
 10
128.6666174226
 20
318.7001918968
 30
0.0
 10
128.664255908
 20
318.6914005983
 30
0.0
 10
128.6650144869
 20
318.6768869411
 30
0.0
 10
128.669671785
 20
318.6608510649
 30
0.0
 10
128.6819509958
 20
318.6353182724
 30
0.0
 10
128.7080751094
 20
318.5995463848
 30
0.0
 10
128.7517669163
 20
318.5529577118
 30
0.0
 10
128.8101202081
 20
318.4999734549
 30
0.0
 10
128.882822087
 20
318.4409236617
 30
0.0
 10
128.9695257086
 20
318.3761613207
 30
0.0
 10
129.1103189924
 20
318.2777498556
 30
0.0
 10
129.3174511614
 20
318.1446064263
 30
0.0
 10
129.6000791767
 20
317.9762816133
 30
0.0
 10
129.9210406823
 20
317.7966355315
 30
0.0
 10
130.2724201944
 20
317.610148121
 30
0.0
 10
130.6455571843
 20
317.421475931
 30
0.0
 10
131.0312237454
 20
317.2353054093
 30
0.0
 10
131.4198761294
 20
317.0562515423
 30
0.0
 10
131.8018895234
 20
316.8887401545
 30
0.0
 10
132.167800913
 20
316.7368975643
 30
0.0
 10
132.508546243
 20
316.6044318041
 30
0.0
 10
132.815678111
 20
316.4945599938
 30
0.0
 10
133.0094582369
 20
316.4327751403
 30
0.0
 10
133.0995105458
 20
316.4067780854
 30
0.0
  0
SPLINE
  5
527
100
AcDbEntity
  8
0
100
AcDbSpline
 62
7
  6
CONTINUOUS
 70
0
 71
3
 72
29
 73
25
 74
0
 42
0.0000001
 43
0.0000001
 44
0.0000000001
 40
0.0
 40
0.0
 40
0.0
 40
0.0
 40
0.0556872691
 40
0.1207947519
 40
0.1937777443
 40
0.2728726073
 40
0.3561561713
 40
0.4415951984
 40
0.5271010339
 40
0.6105832828
 40
0.6900041965
 40
0.7634320038
 40
0.8290931809
 40
0.8854251875
 40
0.9096789915
 40
0.9311415208
 40
0.9497092839
 40
0.9653114546
 40
0.977928032
 40
0.987628277
 40
0.991464701
 40
0.9947089491
 40
0.9974874118
 40
1.0
 40
1.0
 40
1.0
 40
1.0
 10
135.6450843598
 20
321.7956686415
 30
0.0
 10
135.5550026377
 20
321.821556368
 30
0.0
 10
135.3612770429
 20
321.8835162833
 30
0.0
 10
135.0541215827
 20
321.9932938675
 30
0.0
 10
134.7133878712
 20
322.1257927121
 30
0.0
 10
134.3474713747
 20
322.2776238025
 30
0.0
 10
133.9654563366
 20
322.4451401495
 30
0.0
 10
133.5768008069
 20
322.6241939139
 30
0.0
 10
133.1911326754
 20
322.810365545
 30
0.0
 10
132.8179956892
 20
322.9990375471
 30
0.0
 10
132.4666175585
 20
323.185524176
 30
0.0
 10
132.1456574885
 20
323.365169285
 30
0.0
 10
131.863029763
 20
323.5334936946
 30
0.0
 10
131.6558968317
 20
323.6666373339
 30
0.0
 10
131.5151022538
 20
323.7650494759
 30
0.0
 10
131.4283974968
 20
323.8298125722
 30
0.0
 10
131.3556945161
 20
323.8888629518
 30
0.0
 10
131.2973405201
 20
323.9418478899
 30
0.0
 10
131.2536481334
 20
323.9884368842
 30
0.0
 10
131.2275243497
 20
324.0242093401
 30
0.0
 10
131.2152447275
 20
324.0497418506
 30
0.0
 10
131.2105871188
 20
324.0657774663
 30
0.0
 10
131.2098286823
 20
324.0802910416
 30
0.0
 10
131.2121904344
 20
324.0890822149
 30
0.0
 10
131.2139957996
 20
324.0929064481
 30
0.0
  0
SPLINE
  5
528
100
AcDbEntity
  8
0
100
AcDbSpline
 62
7
  6
CONTINUOUS
 70
0
 71
3
 72
15
 73
11
 74
0
 42
0.0000001
 43
0.0000001
 44
0.0000000001
 40
0.0
 40
0.0
 40
0.0
 40
0.0
 40
0.0486051859
 40
0.1031153882
 40
0.1768990556
 40
0.2773500921
 40
0.4083666975
 40
0.5720573675
 40
0.7693308739
 40
1.0
 40
1.0
 40
1.0
 40
1.0
 10
136.3137352261
 20
323.789139715
 30
0.0
 10
136.3134572583
 20
323.7861570727
 30
0.0
 10
136.3111242041
 20
323.7797736063
 30
0.0
 10
136.3016643176
 20
323.7734312121
 30
0.0
 10
136.2877914708
 20
323.7702952358
 30
0.0
 10
136.2689155938
 20
323.7697257618
 30
0.0
 10
136.244627569
 20
323.771943938
 30
0.0
 10
136.2147200481
 20
323.7770614715
 30
0.0
 10
136.1791646878
 20
323.7852043521
 30
0.0
 10
136.1537130083
 20
323.7921441933
 30
0.0
 10
136.1400541019
 20
323.7960858709
 30
0.0
  0
SPLINE
  5
529
100
AcDbEntity
  8
0
100
AcDbSpline
 62
7
  6
CONTINUOUS
 70
0
 71
3
 72
17
 73
13
 74
0
 42
0.0000001
 43
0.0000001
 44
0.0000000001
 40
0.0
 40
0.0
 40
0.0
 40
0.0
 40
0.0221983
 40
0.0466804436
 40
0.0751711926
 40
0.1087660352
 40
0.1935227614
 40
0.3035698906
 40
0.4395651424
 40
0.6014150573
 40
0.7885969729
 40
1.0
 40
1.0
 40
1.0
 40
1.0
 10
136.1870692398
 20
321.7437543372
 30
0.0
 10
136.1852936785
 20
321.7399932644
 30
0.0
 10
136.1801255407
 20
321.7327046494
 30
0.0
 10
136.1687233736
 20
321.7241644283
 30
0.0
 10
136.1537794759
 20
321.7176032586
 30
0.0
 10
136.1270272418
 20
321.710819914
 30
0.0
 10
136.0840498511
 20
321.7080416296
 30
0.0
 10
136.0221292048
 20
321.7117101659
 30
0.0
 10
135.9463888991
 20
321.7224387283
 30
0.0
 10
135.8572294966
 20
321.740151155
 30
0.0
 10
135.7551282665
 20
321.7647727096
 30
0.0
 10
135.6831259461
 20
321.7846366682
 30
0.0
 10
135.6450843598
 20
321.7956686415
 30
0.0
  0
SPLINE
  5
52A
100
AcDbEntity
  8
0
100
AcDbSpline
 62
7
  6
CONTINUOUS
 70
0
 71
3
 72
21
 73
17
 74
0
 42
0.0000001
 43
0.0000001
 44
0.0000000001
 40
0.0
 40
0.0
 40
0.0
 40
0.0
 40
0.0250467726
 40
0.0545102903
 40
0.1225524396
 40
0.1969612702
 40
0.2732702634
 40
0.3492579159
 40
0.4238211947
 40
0.5665554505
 40
0.6986769536
 40
0.8178086569
 40
0.8715091819
 40
0.9204496785
 40
0.963699606
 40
1.0
 40
1.0
 40
1.0
 40
1.0
 10
136.1400541019
 20
323.7960858709
 30
0.0
 10
136.1104913102
 20
323.8046235276
 30
0.0
 10
136.0467254937
 20
323.8251815438
 30
0.0
 10
135.905166443
 20
323.8765071327
 30
0.0
 10
135.7095200056
 20
323.9562523055
 30
0.0
 10
135.4637285748
 20
324.0649947621
 30
0.0
 10
135.2114169683
 20
324.1829786081
 30
0.0
 10
134.9609120243
 20
324.3051668761
 30
0.0
 10
134.6392674803
 20
324.4675727542
 30
0.0
 10
134.259564501
 20
324.6679217159
 30
0.0
 10
133.8366445344
 20
324.9034160575
 30
0.0
 10
133.5138688314
 20
325.0937363863
 30
0.0
 10
133.2827633542
 20
325.2380605142
 30
0.0
 10
133.1327620388
 20
325.3362050031
 30
0.0
 10
133.0032242691
 20
325.4264417083
 30
0.0
 10
132.9253629245
 20
325.4856353173
 30
0.0
 10
132.8910757203
 20
325.5141525097
 30
0.0
  0
SPLINE
  5
52B
100
AcDbEntity
  8
0
100
AcDbSpline
 62
7
  6
CONTINUOUS
 70
0
 71
3
 72
16
 73
12
 74
0
 42
0.0000001
 43
0.0000001
 44
0.0000000001
 40
0.0
 40
0.0
 40
0.0
 40
0.0
 40
0.1992162505
 40
0.3789503209
 40
0.5376566753
 40
0.6738863367
 40
0.7864621521
 40
0.8750260366
 40
0.9421914686
 40
0.9710842359
 40
1.0
 40
1.0
 40
1.0
 40
1.0
 10
132.8910757203
 20
325.5141525097
 30
0.0
 10
132.8819205011
 20
325.5217670456
 30
0.0
 10
132.8646875021
 20
325.5364738936
 30
0.0
 10
132.8409656243
 20
325.5581670531
 30
0.0
 10
132.82092045
 20
325.5782687375
 30
0.0
 10
132.8048435354
 20
325.5965916453
 30
0.0
 10
132.7930346828
 20
325.6130174137
 30
0.0
 10
132.7857207463
 20
325.627341855
 30
0.0
 10
132.7836667972
 20
325.6386004374
 30
0.0
 10
132.7856754417
 20
325.6459320073
 30
0.0
 10
132.7877104133
 20
325.6488184868
 30
0.0
 10
132.7889100862
 20
325.6500627481
 30
0.0
  0
SPLINE
  5
52C
100
AcDbEntity
  8
0
100
AcDbSpline
 62
7
  6
CONTINUOUS
 70
0
 71
3
 72
17
 73
13
 74
0
 42
0.0000001
 43
0.0000001
 44
0.0000000001
 40
0.0
 40
0.0
 40
0.0
 40
0.0
 40
0.2114182079
 40
0.398585744
 40
0.5604335306
 40
0.696435259
 40
0.8064817763
 40
0.8912345144
 40
0.9248283429
 40
0.9533188002
 40
0.9778012946
 40
1.0
 40
1.0
 40
1.0
 40
1.0
 10
141.3019833575
 20
311.6711853329
 30
0.0
 10
141.3400408956
 20
311.6601985641
 30
0.0
 10
141.4120458365
 20
311.6403498535
 30
0.0
 10
141.5141290012
 20
311.6156548989
 30
0.0
 10
141.6032867882
 20
311.5979397912
 30
0.0
 10
141.6790302526
 20
311.5872303429
 30
0.0
 10
141.7409506076
 20
311.5835623238
 30
0.0
 10
141.7839271984
 20
311.5863365945
 30
0.0
 10
141.8106785673
 20
311.5931193702
 30
0.0
 10
141.8256221143
 20
311.5996808944
 30
0.0
 10
141.837023949
 20
311.6082216191
 30
0.0
 10
141.8421920921
 20
311.6155103496
 30
0.0
 10
141.8439676629
 20
311.619271492
 30
0.0
  0
SPLINE
  5
52D
100
AcDbEntity
  8
0
100
AcDbSpline
 62
7
  6
CONTINUOUS
 70
0
 71
3
 72
11
 73
7
 74
0
 42
0.0000001
 43
0.0000001
 44
0.0000000001
 40
0.0
 40
0.0
 40
0.0
 40
0.0
 40
0.3397029025
 40
0.6200054265
 40
0.8385850576
 40
1.0
 40
1.0
 40
1.0
 40
1.0
 10
144.471326415
 20
319.1236275813
 30
0.0
 10
144.4780761038
 20
319.1167844426
 30
0.0
 10
144.4900658549
 20
319.103966005
 30
0.0
 10
144.5046890711
 20
319.0851828489
 30
0.0
 10
144.5140003186
 20
319.0689670733
 30
0.0
 10
144.5166318418
 20
319.058094452
 30
0.0
 10
144.5162080378
 20
319.0535469626
 30
0.0
  0
SPLINE
  5
52E
100
AcDbEntity
  8
0
100
AcDbSpline
 62
7
  6
CONTINUOUS
 70
0
 71
3
 72
12
 73
8
 74
0
 42
0.0000001
 43
0.0000001
 44
0.0000000001
 40
0.0
 40
0.0
 40
0.0
 40
0.0
 40
0.1159962721
 40
0.2025361592
 40
0.3119713217
 40
0.6051172965
 40
1.0
 40
1.0
 40
1.0
 40
1.0
 10
140.9913828979
 20
320.9144699957
 30
0.0
 10
140.9960018518
 20
320.9192606226
 30
0.0
 10
141.0081473549
 20
320.9228711377
 30
0.0
 10
141.0257882284
 20
320.9239478157
 30
0.0
 10
141.0539675504
 20
320.9224246832
 30
0.0
 10
141.0990298111
 20
320.9142554858
 30
0.0
 10
141.1372535591
 20
320.9042624728
 30
0.0
 10
141.159027909
 20
320.8980096896
 30
0.0
  0
SPLINE
  5
52F
100
AcDbEntity
  8
0
100
AcDbSpline
 62
7
  6
CONTINUOUS
 70
0
 71
3
 72
29
 73
25
 74
0
 42
0.0000001
 43
0.0000001
 44
0.0000000001
 40
0.0
 40
0.0
 40
0.0
 40
0.0
 40
0.0025125504
 40
0.0052910778
 40
0.0085353799
 40
0.0123717921
 40
0.0220720239
 40
0.0346884434
 40
0.0502904461
 40
0.0688579443
 40
0.0903201903
 40
0.1145737362
 40
0.1709054345
 40
0.2365667414
 40
0.3099950152
 40
0.3894163777
 40
0.4728986771
 40
0.558404081
 40
0.6438424086
 40
0.7271253827
 40
0.8062196945
 40
0.8792030721
 40
0.94431154
 40
1.0
 40
1.0
 40
1.0
 40
1.0
 10
136.8708955639
 20
313.9684233238
 30
0.0
 10
136.8690902343
 20
313.9645991444
 30
0.0
 10
136.8667287197
 20
313.9558078459
 30
0.0
 10
136.8674872986
 20
313.9412941886
 30
0.0
 10
136.8721445967
 20
313.9252583125
 30
0.0
 10
136.8844238075
 20
313.8997255199
 30
0.0
 10
136.9105479211
 20
313.8639536324
 30
0.0
 10
136.954239728
 20
313.8173649594
 30
0.0
 10
137.0125930198
 20
313.7643807024
 30
0.0
 10
137.0852948987
 20
313.7053309093
 30
0.0
 10
137.1719985203
 20
313.6405685683
 30
0.0
 10
137.3127918041
 20
313.5421571032
 30
0.0
 10
137.5199239731
 20
313.4090136739
 30
0.0
 10
137.8025519884
 20
313.2406888609
 30
0.0
 10
138.123513494
 20
313.0610427791
 30
0.0
 10
138.4748930061
 20
312.8745553685
 30
0.0
 10
138.848029996
 20
312.6858831785
 30
0.0
 10
139.2336965572
 20
312.4997126569
 30
0.0
 10
139.6223489411
 20
312.3206587899
 30
0.0
 10
140.0043623351
 20
312.153147402
 30
0.0
 10
140.3702737247
 20
312.0013048118
 30
0.0
 10
140.7110190547
 20
311.8688390516
 30
0.0
 10
141.0181509227
 20
311.7589672414
 30
0.0
 10
141.2119310487
 20
311.6971823878
 30
0.0
 10
141.3019833575
 20
311.6711853329
 30
0.0
  0
SPLINE
  5
530
100
AcDbEntity
  8
0
100
AcDbSpline
 62
7
  6
CONTINUOUS
 70
0
 71
3
 72
29
 73
25
 74
0
 42
0.0000001
 43
0.0000001
 44
0.0000000001
 40
0.0
 40
0.0
 40
0.0
 40
0.0
 40
0.0556872691
 40
0.1207947519
 40
0.1937777443
 40
0.2728726073
 40
0.3561561713
 40
0.4415951984
 40
0.5271010339
 40
0.6105832828
 40
0.6900041965
 40
0.7634320038
 40
0.8290931809
 40
0.8854251875
 40
0.9096789915
 40
0.9311415208
 40
0.9497092839
 40
0.9653114546
 40
0.977928032
 40
0.987628277
 40
0.991464701
 40
0.9947089491
 40
0.9974874118
 40
1.0
 40
1.0
 40
1.0
 40
1.0
 10
143.8475571715
 20
317.0600758891
 30
0.0
 10
143.7574754494
 20
317.0859636156
 30
0.0
 10
143.5637498546
 20
317.1479235309
 30
0.0
 10
143.2565943944
 20
317.2577011151
 30
0.0
 10
142.9158606829
 20
317.3901999597
 30
0.0
 10
142.5499441864
 20
317.54203105
 30
0.0
 10
142.1679291484
 20
317.7095473971
 30
0.0
 10
141.7792736186
 20
317.8886011615
 30
0.0
 10
141.3936054871
 20
318.0747727926
 30
0.0
 10
141.0204685009
 20
318.2634447946
 30
0.0
 10
140.6690903702
 20
318.4499314236
 30
0.0
 10
140.3481303002
 20
318.6295765325
 30
0.0
 10
140.0655025747
 20
318.7979009422
 30
0.0
 10
139.8583696434
 20
318.9310445815
 30
0.0
 10
139.7175750655
 20
319.0294567235
 30
0.0
 10
139.6308703085
 20
319.0942198197
 30
0.0
 10
139.5581673278
 20
319.1532701994
 30
0.0
 10
139.4998133318
 20
319.2062551374
 30
0.0
 10
139.4561209451
 20
319.2528441318
 30
0.0
 10
139.4299971614
 20
319.2886165877
 30
0.0
 10
139.4177175392
 20
319.3141490982
 30
0.0
 10
139.4130599305
 20
319.3301847139
 30
0.0
 10
139.412301494
 20
319.3446982892
 30
0.0
 10
139.4146632461
 20
319.3534894625
 30
0.0
 10
139.4164686113
 20
319.3573136957
 30
0.0
  0
SPLINE
  5
531
100
AcDbEntity
  8
0
100
AcDbSpline
 62
7
  6
CONTINUOUS
 70
0
 71
3
 72
15
 73
11
 74
0
 42
0.0000001
 43
0.0000001
 44
0.0000000001
 40
0.0
 40
0.0
 40
0.0
 40
0.0
 40
0.0486051859
 40
0.1031153882
 40
0.1768990556
 40
0.2773500921
 40
0.4083666975
 40
0.5720573675
 40
0.7693308739
 40
1.0
 40
1.0
 40
1.0
 40
1.0
 10
144.5162080378
 20
319.0535469626
 30
0.0
 10
144.51593007
 20
319.0505643202
 30
0.0
 10
144.5135970158
 20
319.0441808539
 30
0.0
 10
144.5041371293
 20
319.0378384597
 30
0.0
 10
144.4902642825
 20
319.0347024833
 30
0.0
 10
144.4713884055
 20
319.0341330094
 30
0.0
 10
144.4471003807
 20
319.0363511855
 30
0.0
 10
144.4171928598
 20
319.0414687191
 30
0.0
 10
144.3816374996
 20
319.0496115997
 30
0.0
 10
144.35618582
 20
319.0565514409
 30
0.0
 10
144.3425269136
 20
319.0604931184
 30
0.0
  0
SPLINE
  5
532
100
AcDbEntity
  8
0
100
AcDbSpline
 62
7
  6
CONTINUOUS
 70
0
 71
3
 72
17
 73
13
 74
0
 42
0.0000001
 43
0.0000001
 44
0.0000000001
 40
0.0
 40
0.0
 40
0.0
 40
0.0
 40
0.0221983
 40
0.0466804436
 40
0.0751711926
 40
0.1087660352
 40
0.1935227614
 40
0.3035698906
 40
0.4395651424
 40
0.6014150573
 40
0.7885969729
 40
1.0
 40
1.0
 40
1.0
 40
1.0
 10
144.3895420515
 20
317.0081615848
 30
0.0
 10
144.3877664902
 20
317.004400512
 30
0.0
 10
144.3825983524
 20
316.997111897
 30
0.0
 10
144.3711961853
 20
316.9885716759
 30
0.0
 10
144.3562522876
 20
316.9820105062
 30
0.0
 10
144.3295000535
 20
316.9752271616
 30
0.0
 10
144.2865226628
 20
316.9724488772
 30
0.0
 10
144.2246020165
 20
316.9761174135
 30
0.0
 10
144.1488617108
 20
316.9868459759
 30
0.0
 10
144.0597023083
 20
317.0045584026
 30
0.0
 10
143.9576010782
 20
317.0291799571
 30
0.0
 10
143.8855987578
 20
317.0490439158
 30
0.0
 10
143.8475571715
 20
317.0600758891
 30
0.0
  0
SPLINE
  5
533
100
AcDbEntity
  8
0
100
AcDbSpline
 62
7
  6
CONTINUOUS
 70
0
 71
3
 72
21
 73
17
 74
0
 42
0.0000001
 43
0.0000001
 44
0.0000000001
 40
0.0
 40
0.0
 40
0.0
 40
0.0
 40
0.0250467726
 40
0.0545102903
 40
0.1225524396
 40
0.1969612702
 40
0.2732702634
 40
0.3492579159
 40
0.4238211947
 40
0.5665554505
 40
0.6986769536
 40
0.8178086569
 40
0.8715091819
 40
0.9204496785
 40
0.963699606
 40
1.0
 40
1.0
 40
1.0
 40
1.0
 10
144.3425269136
 20
319.0604931184
 30
0.0
 10
144.3129641219
 20
319.0690307751
 30
0.0
 10
144.2491983054
 20
319.0895887913
 30
0.0
 10
144.1076392547
 20
319.1409143802
 30
0.0
 10
143.9119928173
 20
319.2206595531
 30
0.0
 10
143.6662013865
 20
319.3294020097
 30
0.0
 10
143.4138897801
 20
319.4473858557
 30
0.0
 10
143.163384836
 20
319.5695741237
 30
0.0
 10
142.841740292
 20
319.7319800018
 30
0.0
 10
142.4620373127
 20
319.9323289635
 30
0.0
 10
142.0391173461
 20
320.1678233051
 30
0.0
 10
141.7163416431
 20
320.3581436338
 30
0.0
 10
141.4852361659
 20
320.5024677618
 30
0.0
 10
141.3352348505
 20
320.6006122506
 30
0.0
 10
141.2056970808
 20
320.6908489559
 30
0.0
 10
141.1278357362
 20
320.7500425649
 30
0.0
 10
141.093548532
 20
320.7785597573
 30
0.0
  0
SPLINE
  5
534
100
AcDbEntity
  8
0
100
AcDbSpline
 62
7
  6
CONTINUOUS
 70
0
 71
3
 72
16
 73
12
 74
0
 42
0.0000001
 43
0.0000001
 44
0.0000000001
 40
0.0
 40
0.0
 40
0.0
 40
0.0
 40
0.1992162505
 40
0.3789503209
 40
0.5376566753
 40
0.6738863367
 40
0.7864621521
 40
0.8750260366
 40
0.9421914686
 40
0.9710842359
 40
1.0
 40
1.0
 40
1.0
 40
1.0
 10
141.093548532
 20
320.7785597573
 30
0.0
 10
141.0843933128
 20
320.7861742932
 30
0.0
 10
141.0671603138
 20
320.8008811412
 30
0.0
 10
141.043438436
 20
320.8225743007
 30
0.0
 10
141.0233932617
 20
320.842675985
 30
0.0
 10
141.0073163471
 20
320.8609988928
 30
0.0
 10
140.9955074945
 20
320.8774246612
 30
0.0
 10
140.988193558
 20
320.8917491025
 30
0.0
 10
140.9861396089
 20
320.903007685
 30
0.0
 10
140.9881482534
 20
320.9103392548
 30
0.0
 10
140.990183225
 20
320.9132257344
 30
0.0
 10
140.9913828979
 20
320.9144699957
 30
0.0
  0
SPLINE
  5
535
100
AcDbEntity
  8
0
100
AcDbSpline
 62
7
  6
CONTINUOUS
 70
0
 71
3
 72
15
 73
11
 74
0
 42
0.0000001
 43
0.0000001
 44
0.0000000001
 40
0.0
 40
0.0
 40
0.0
 40
0.0
 40
0.4022290965
 40
0.5689102439
 40
0.7096123424
 40
0.8227908001
 40
0.9076060378
 40
0.9395092032
 40
0.964856815
 40
1.0
 40
1.0
 40
1.0
 40
1.0
 10
131.9892818615
 20
337.3131085646
 30
0.0
 10
132.0096275542
 20
337.3013622391
 30
0.0
 10
132.0381359147
 20
337.284252285
 30
0.0
 10
132.0726200403
 20
337.2612479219
 30
0.0
 10
132.0924938759
 20
337.2467926534
 30
0.0
 10
132.1077681075
 20
337.2341996028
 30
0.0
 10
132.117369388
 20
337.2247687431
 30
0.0
 10
132.1223478742
 20
337.2180590805
 30
0.0
 10
132.1249342655
 20
337.2134080776
 30
0.0
 10
132.1255625949
 20
337.2094399123
 30
0.0
 10
132.1246839619
 20
337.2075848588
 30
0.0
  0
SPLINE
  5
536
100
AcDbEntity
  8
0
100
AcDbSpline
 62
7
  6
CONTINUOUS
 70
0
 71
3
 72
12
 73
8
 74
0
 42
0.0000001
 43
0.0000001
 44
0.0000000001
 40
0.0
 40
0.0
 40
0.0
 40
0.0
 40
0.0931233093
 40
0.2047305007
 40
0.4661174128
 40
0.7451633042
 40
1.0
 40
1.0
 40
1.0
 40
1.0
 10
129.3588355681
 20
338.7664495808
 30
0.0
 10
129.3755071907
 20
338.7616366771
 30
0.0
 10
129.4117942405
 20
338.7497958119
 30
0.0
 10
129.4932357191
 20
338.7195778208
 30
0.0
 10
129.6051332935
 20
338.672066813
 30
0.0
 10
129.7389400125
 20
338.6083144874
 30
0.0
 10
129.8268285195
 20
338.5615733396
 30
0.0
 10
129.867952686
 20
338.5378308281
 30
0.0
  0
SPLINE
  5
537
100
AcDbEntity
  8
0
100
AcDbSpline
 62
7
  6
CONTINUOUS
 70
0
 71
3
 72
13
 73
9
 74
0
 42
0.0000001
 43
0.0000001
 44
0.0000000001
 40
0.0
 40
0.0
 40
0.0
 40
0.0
 40
0.1055277357
 40
0.1905596624
 40
0.3009981278
 40
0.4375388904
 40
0.600155389
 40
1.0
 40
1.0
 40
1.0
 40
1.0
 10
128.7880419548
 20
338.9084192647
 30
0.0
 10
128.7898817088
 20
338.912303528
 30
0.0
 10
128.7985384288
 20
338.9155423117
 30
0.0
 10
128.8104029836
 20
338.9161718884
 30
0.0
 10
128.824062396
 20
338.9154269883
 30
0.0
 10
128.8405414228
 20
338.9130709704
 30
0.0
 10
128.8684949297
 20
338.9075177854
 30
0.0
 10
128.8906431849
 20
338.9016112799
 30
0.0
 10
128.9062891122
 20
338.8970944826
 30
0.0
  0
SPLINE
  5
538
100
AcDbEntity
  8
0
100
AcDbSpline
 62
7
  6
CONTINUOUS
 70
0
 71
3
 72
16
 73
12
 74
0
 42
0.0000001
 43
0.0000001
 44
0.0000000001
 40
0.0
 40
0.0
 40
0.0
 40
0.0
 40
0.211611465
 40
0.4022476501
 40
0.5689236241
 40
0.7096213555
 40
0.8227963003
 40
0.9076089055
 40
0.9395110807
 40
0.9648579057
 40
1.0
 40
1.0
 40
1.0
 40
1.0
 10
128.9911451055
 20
338.7501337062
 30
0.0
 10
128.9750888995
 20
338.7594035513
 30
0.0
 10
128.9447392631
 20
338.7773240529
 30
0.0
 10
128.9024374795
 20
338.8037010232
 30
0.0
 10
128.8661385143
 20
338.8279259374
 30
0.0
 10
128.8363269502
 20
338.8496073228
 30
0.0
 10
128.8134157608
 20
338.8684971944
 30
0.0
 10
128.7990138137
 20
338.8826434347
 30
0.0
 10
128.7915460866
 20
338.8927079326
 30
0.0
 10
128.7876664993
 20
338.8996844364
 30
0.0
 10
128.7867240053
 20
338.9056366846
 30
0.0
 10
128.7880419548
 20
338.9084192647
 30
0.0
  0
SPLINE
  5
539
100
AcDbEntity
  8
0
100
AcDbSpline
 62
7
  6
CONTINUOUS
 70
0
 71
3
 72
13
 73
9
 74
0
 42
0.0000001
 43
0.0000001
 44
0.0000000001
 40
0.0
 40
0.0
 40
0.0
 40
0.0
 40
0.1055277357
 40
0.1905596624
 40
0.3009981278
 40
0.4375388904
 40
0.600155389
 40
1.0
 40
1.0
 40
1.0
 40
1.0
 10
132.1246839619
 20
337.2075848588
 30
0.0
 10
132.1234574592
 20
337.20499535
 30
0.0
 10
132.1176863126
 20
337.2028361609
 30
0.0
 10
132.1097766094
 20
337.2024164431
 30
0.0
 10
132.1006703344
 20
337.2029130431
 30
0.0
 10
132.0896843166
 20
337.2044837218
 30
0.0
 10
132.0710486453
 20
337.2081858451
 30
0.0
 10
132.0562831418
 20
337.2121235154
 30
0.0
 10
132.0458525236
 20
337.2151347136
 30
0.0
  0
SPLINE
  5
53A
100
AcDbEntity
  8
0
100
AcDbSpline
 62
7
  6
CONTINUOUS
 70
0
 71
3
 72
13
 73
9
 74
0
 42
0.0000001
 43
0.0000001
 44
0.0000000001
 40
0.0
 40
0.0
 40
0.0
 40
0.0
 40
0.3998386182
 40
0.5624463022
 40
0.6989850322
 40
0.8094290996
 40
0.8944656683
 40
1.0
 40
1.0
 40
1.0
 40
1.0
 10
127.9729344213
 20
328.5929098238
 30
0.0
 10
127.9833649931
 20
328.5898986389
 30
0.0
 10
127.9981302201
 20
328.5859608732
 30
0.0
 10
128.0167656492
 20
328.5822588154
 30
0.0
 10
128.0277516308
 20
328.5806881535
 30
0.0
 10
128.036858225
 20
328.5801912419
 30
0.0
 10
128.0447684227
 20
328.5806109256
 30
0.0
 10
128.0505401385
 20
328.5827698587
 30
0.0
 10
128.0517668347
 20
328.5853595075
 30
0.0
  0
SPLINE
  5
53B
100
AcDbEntity
  8
0
100
AcDbSpline
 62
7
  6
CONTINUOUS
 70
0
 71
3
 72
16
 73
12
 74
0
 42
0.0000001
 43
0.0000001
 44
0.0000000001
 40
0.0
 40
0.0
 40
0.0
 40
0.0
 40
0.0351432453
 40
0.0604912501
 40
0.0923947635
 40
0.1772113503
 40
0.2903924419
 40
0.431094945
 40
0.5977690403
 40
0.7883942432
 40
1.0
 40
1.0
 40
1.0
 40
1.0
 10
124.7151223897
 20
330.2861950672
 30
0.0
 10
124.7138042774
 20
330.2834124325
 30
0.0
 10
124.7147471458
 20
330.2774598384
 30
0.0
 10
124.7186269585
 20
330.2704831194
 30
0.0
 10
124.7260951647
 20
330.2604181384
 30
0.0
 10
124.740498065
 20
330.2462712803
 30
0.0
 10
124.7634106428
 20
330.2273807565
 30
0.0
 10
124.7932231516
 20
330.2056989633
 30
0.0
 10
124.8295218609
 20
330.1814744799
 30
0.0
 10
124.8718225012
 20
330.1550981977
 30
0.0
 10
124.9021711356
 20
330.137178466
 30
0.0
 10
124.9182270031
 20
330.1279088163
 30
0.0
  0
SPLINE
  5
53C
100
AcDbEntity
  8
0
100
AcDbSpline
 62
7
  6
CONTINUOUS
 70
0
 71
3
 72
12
 73
8
 74
0
 42
0.0000001
 43
0.0000001
 44
0.0000000001
 40
0.0
 40
0.0
 40
0.0
 40
0.0
 40
0.0931233093
 40
0.2047305007
 40
0.4661174128
 40
0.7451633042
 40
1.0
 40
1.0
 40
1.0
 40
1.0
 10
131.5933060678
 20
337.3457796154
 30
0.0
 10
131.5682986338
 20
337.3529989709
 30
0.0
 10
131.5138680591
 20
337.3707602688
 30
0.0
 10
131.3917058413
 20
337.4160872554
 30
0.0
 10
131.2238594796
 20
337.4873537671
 30
0.0
 10
131.0231494011
 20
337.5829822556
 30
0.0
 10
130.8913166407
 20
337.6530939771
 30
0.0
 10
130.8296303908
 20
337.6887077444
 30
0.0
  0
SPLINE
  5
53D
100
AcDbEntity
  8
0
100
AcDbSpline
 62
7
  6
CONTINUOUS
 70
0
 71
3
 72
12
 73
8
 74
0
 42
0.0000001
 43
0.0000001
 44
0.0000000001
 40
0.0
 40
0.0
 40
0.0
 40
0.0
 40
0.2548286569
 40
0.5338829212
 40
0.7952769315
 40
0.9068809482
 40
1.0
 40
1.0
 40
1.0
 40
1.0
 10
126.7567122885
 20
329.0664828545
 30
0.0
 10
126.8183965942
 20
329.0308702097
 30
0.0
 10
126.9502293011
 20
328.9607581974
 30
0.0
 10
127.1509411859
 20
328.8651286254
 30
0.0
 10
127.3187908099
 20
328.7938609859
 30
0.0
 10
127.4409529923
 20
328.7485341448
 30
0.0
 10
127.4953816741
 20
328.7307737512
 30
0.0
 10
127.5203879654
 20
328.7235547255
 30
0.0
  0
SPLINE
  5
53E
100
AcDbEntity
  8
0
100
AcDbSpline
 62
7
  6
CONTINUOUS
 70
0
 71
3
 72
15
 73
11
 74
0
 42
0.0000001
 43
0.0000001
 44
0.0000000001
 40
0.0
 40
0.0
 40
0.0
 40
0.0
 40
0.4022290965
 40
0.5689102439
 40
0.7096123424
 40
0.8227908001
 40
0.9076060378
 40
0.9395092032
 40
0.964856815
 40
1.0
 40
1.0
 40
1.0
 40
1.0
 10
140.1917546732
 20
332.5775158121
 30
0.0
 10
140.2121003659
 20
332.5657694867
 30
0.0
 10
140.2406087264
 20
332.5486595326
 30
0.0
 10
140.275092852
 20
332.5256551695
 30
0.0
 10
140.2949666876
 20
332.5111999009
 30
0.0
 10
140.3102409192
 20
332.4986068503
 30
0.0
 10
140.3198421997
 20
332.4891759907
 30
0.0
 10
140.3248206859
 20
332.4824663281
 30
0.0
 10
140.3274070772
 20
332.4778153252
 30
0.0
 10
140.3280354066
 20
332.4738471598
 30
0.0
 10
140.3271567736
 20
332.4719921064
 30
0.0
  0
SPLINE
  5
53F
100
AcDbEntity
  8
0
100
AcDbSpline
 62
7
  6
CONTINUOUS
 70
0
 71
3
 72
12
 73
8
 74
0
 42
0.0000001
 43
0.0000001
 44
0.0000000001
 40
0.0
 40
0.0
 40
0.0
 40
0.0
 40
0.0931233093
 40
0.2047305007
 40
0.4661174128
 40
0.7451633042
 40
1.0
 40
1.0
 40
1.0
 40
1.0
 10
137.5613083798
 20
334.0308568284
 30
0.0
 10
137.5779800024
 20
334.0260439247
 30
0.0
 10
137.6142670522
 20
334.0142030594
 30
0.0
 10
137.6957085308
 20
333.9839850684
 30
0.0
 10
137.8076061052
 20
333.9364740606
 30
0.0
 10
137.9414128242
 20
333.8727217349
 30
0.0
 10
138.0293013312
 20
333.8259805872
 30
0.0
 10
138.0704254977
 20
333.8022380757
 30
0.0
  0
SPLINE
  5
540
100
AcDbEntity
  8
0
100
AcDbSpline
 62
7
  6
CONTINUOUS
 70
0
 71
3
 72
13
 73
9
 74
0
 42
0.0000001
 43
0.0000001
 44
0.0000000001
 40
0.0
 40
0.0
 40
0.0
 40
0.0
 40
0.1055277357
 40
0.1905596624
 40
0.3009981278
 40
0.4375388904
 40
0.600155389
 40
1.0
 40
1.0
 40
1.0
 40
1.0
 10
136.9905147665
 20
334.1728265123
 30
0.0
 10
136.9923545205
 20
334.1767107756
 30
0.0
 10
137.0010112405
 20
334.1799495592
 30
0.0
 10
137.0128757953
 20
334.1805791359
 30
0.0
 10
137.0265352077
 20
334.1798342359
 30
0.0
 10
137.0430142345
 20
334.1774782179
 30
0.0
 10
137.0709677414
 20
334.171925033
 30
0.0
 10
137.0931159966
 20
334.1660185275
 30
0.0
 10
137.1087619239
 20
334.1615017301
 30
0.0
  0
SPLINE
  5
541
100
AcDbEntity
  8
0
100
AcDbSpline
 62
7
  6
CONTINUOUS
 70
0
 71
3
 72
13
 73
9
 74
0
 42
0.0000001
 43
0.0000001
 44
0.0000000001
 40
0.0
 40
0.0
 40
0.0
 40
0.0
 40
0.3998386182
 40
0.5624463022
 40
0.6989850322
 40
0.8094290996
 40
0.8944656683
 40
1.0
 40
1.0
 40
1.0
 40
1.0
 10
136.175407233
 20
323.8573170713
 30
0.0
 10
136.1858378048
 20
323.8543058865
 30
0.0
 10
136.2006030318
 20
323.8503681208
 30
0.0
 10
136.2192384609
 20
323.846666063
 30
0.0
 10
136.2302244425
 20
323.8450954011
 30
0.0
 10
136.2393310367
 20
323.8445984895
 30
0.0
 10
136.2472412344
 20
323.8450181731
 30
0.0
 10
136.2530129502
 20
323.8471771062
 30
0.0
 10
136.2542396464
 20
323.849766755
 30
0.0
  0
SPLINE
  5
542
100
AcDbEntity
  8
0
100
AcDbSpline
 62
7
  6
CONTINUOUS
 70
0
 71
3
 72
15
 73
11
 74
0
 42
0.0000001
 43
0.0000001
 44
0.0000000001
 40
0.0
 40
0.0
 40
0.0
 40
0.0
 40
0.4022290965
 40
0.5689102439
 40
0.7096123424
 40
0.8227908001
 40
0.9076060378
 40
0.9395092032
 40
0.964856815
 40
1.0
 40
1.0
 40
1.0
 40
1.0
 10
148.3942274849
 20
327.8419230597
 30
0.0
 10
148.4145731776
 20
327.8301767342
 30
0.0
 10
148.4430815381
 20
327.8130667802
 30
0.0
 10
148.4775656637
 20
327.790062417
 30
0.0
 10
148.4974394993
 20
327.7756071485
 30
0.0
 10
148.5127137309
 20
327.7630140979
 30
0.0
 10
148.5223150114
 20
327.7535832382
 30
0.0
 10
148.5272934976
 20
327.7468735757
 30
0.0
 10
148.5298798889
 20
327.7422225728
 30
0.0
 10
148.5305082183
 20
327.7382544074
 30
0.0
 10
148.5296295853
 20
327.736399354
 30
0.0
  0
SPLINE
  5
543
100
AcDbEntity
  8
0
100
AcDbSpline
 62
7
  6
CONTINUOUS
 70
0
 71
3
 72
12
 73
8
 74
0
 42
0.0000001
 43
0.0000001
 44
0.0000000001
 40
0.0
 40
0.0
 40
0.0
 40
0.0
 40
0.0931233093
 40
0.2047305007
 40
0.4661174128
 40
0.7451633042
 40
1.0
 40
1.0
 40
1.0
 40
1.0
 10
145.7637811915
 20
329.2952640759
 30
0.0
 10
145.7804528141
 20
329.2904511723
 30
0.0
 10
145.8167398639
 20
329.278610307
 30
0.0
 10
145.8981813425
 20
329.2483923159
 30
0.0
 10
146.0100789169
 20
329.2008813082
 30
0.0
 10
146.1438856359
 20
329.1371289825
 30
0.0
 10
146.2317741429
 20
329.0903878348
 30
0.0
 10
146.2728983094
 20
329.0666453233
 30
0.0
  0
SPLINE
  5
544
100
AcDbEntity
  8
0
100
AcDbSpline
 62
7
  6
CONTINUOUS
 70
0
 71
3
 72
13
 73
9
 74
0
 42
0.0000001
 43
0.0000001
 44
0.0000000001
 40
0.0
 40
0.0
 40
0.0
 40
0.0
 40
0.1055277357
 40
0.1905596624
 40
0.3009981278
 40
0.4375388904
 40
0.600155389
 40
1.0
 40
1.0
 40
1.0
 40
1.0
 10
145.1929875782
 20
329.4372337599
 30
0.0
 10
145.1948273322
 20
329.4411180232
 30
0.0
 10
145.2034840522
 20
329.4443568068
 30
0.0
 10
145.215348607
 20
329.4449863835
 30
0.0
 10
145.2290080194
 20
329.4442414835
 30
0.0
 10
145.2454870462
 20
329.4418854655
 30
0.0
 10
145.2734405531
 20
329.4363322805
 30
0.0
 10
145.2955888083
 20
329.4304257751
 30
0.0
 10
145.3112347357
 20
329.4259089777
 30
0.0
  0
SPLINE
  5
545
100
AcDbEntity
  8
0
100
AcDbSpline
 62
7
  6
CONTINUOUS
 70
0
 71
3
 72
13
 73
9
 74
0
 42
0.0000001
 43
0.0000001
 44
0.0000000001
 40
0.0
 40
0.0
 40
0.0
 40
0.0
 40
0.3998386182
 40
0.5624463022
 40
0.6989850322
 40
0.8094290996
 40
0.8944656683
 40
1.0
 40
1.0
 40
1.0
 40
1.0
 10
144.3778800447
 20
319.1217243189
 30
0.0
 10
144.3883106165
 20
319.1187131341
 30
0.0
 10
144.4030758435
 20
319.1147753684
 30
0.0
 10
144.4217112726
 20
319.1110733105
 30
0.0
 10
144.4326972542
 20
319.1095026486
 30
0.0
 10
144.4418038484
 20
319.1090057371
 30
0.0
 10
144.4497140461
 20
319.1094254207
 30
0.0
 10
144.4554857619
 20
319.1115843538
 30
0.0
 10
144.4567124581
 20
319.1141740026
 30
0.0
  0
SPLINE
  5
546
100
AcDbEntity
  8
0
100
AcDbSpline
 62
7
  6
CONTINUOUS
 70
0
 71
3
 72
16
 73
12
 74
0
 42
0.0000001
 43
0.0000001
 44
0.0000000001
 40
0.0
 40
0.0
 40
0.0
 40
0.0
 40
0.0351432453
 40
0.0604912501
 40
0.0923947635
 40
0.1772113503
 40
0.2903924419
 40
0.431094945
 40
0.5977690403
 40
0.7883942432
 40
1.0
 40
1.0
 40
1.0
 40
1.0
 10
141.1200680131
 20
320.8150095623
 30
0.0
 10
141.1187499008
 20
320.8122269276
 30
0.0
 10
141.1196927692
 20
320.8062743335
 30
0.0
 10
141.1235725819
 20
320.7992976145
 30
0.0
 10
141.1310407881
 20
320.7892326335
 30
0.0
 10
141.1454436884
 20
320.7750857755
 30
0.0
 10
141.1683562662
 20
320.7561952517
 30
0.0
 10
141.198168775
 20
320.7345134584
 30
0.0
 10
141.2344674843
 20
320.710288975
 30
0.0
 10
141.2767681246
 20
320.6839126928
 30
0.0
 10
141.307116759
 20
320.6659929611
 30
0.0
 10
141.3231726265
 20
320.6567233114
 30
0.0
  0
SPLINE
  5
547
100
AcDbEntity
  8
0
100
AcDbSpline
 62
7
  6
CONTINUOUS
 70
0
 71
3
 72
9
 73
5
 74
0
 42
0.0000001
 43
0.0000001
 44
0.0000000001
 40
0.0
 40
0.0
 40
0.0
 40
0.0
 40
0.2561639529
 40
1.0
 40
1.0
 40
1.0
 40
1.0
 10
122.4806649989
 20
234.5216535379
 30
0.0
 10
122.5387991114
 20
234.5328530723
 30
0.0
 10
122.7649311459
 20
234.5806045814
 30
0.0
 10
122.9877259315
 20
234.6446695007
 30
0.0
 10
123.1496443715
 20
234.7024257829
 30
0.0
  0
SPLINE
  5
548
100
AcDbEntity
  8
0
100
AcDbSpline
 62
7
  6
CONTINUOUS
 70
0
 71
3
 72
11
 73
7
 74
0
 42
0.0000001
 43
0.0000001
 44
0.0000000001
 40
0.0
 40
0.0
 40
0.0
 40
0.0
 40
0.2573750266
 40
0.5192482518
 40
0.7710473063
 40
1.0
 40
1.0
 40
1.0
 40
1.0
 10
123.1496443715
 20
234.7024257829
 30
0.0
 10
123.2237906826
 20
234.685245482
 30
0.0
 10
123.3768754695
 20
234.6646076523
 30
0.0
 10
123.605779896
 20
234.6718605621
 30
0.0
 10
123.822027878
 20
234.7156988813
 30
0.0
 10
123.9546646232
 20
234.7706216324
 30
0.0
 10
124.0132995424
 20
234.8044743167
 30
0.0
  0
SPLINE
  5
549
100
AcDbEntity
  8
0
100
AcDbSpline
 62
7
  6
CONTINUOUS
 70
0
 71
3
 72
11
 73
7
 74
0
 42
0.0000001
 43
0.0000001
 44
0.0000000001
 40
0.0
 40
0.0
 40
0.0
 40
0.0
 40
0.289767402
 40
0.5490823912
 40
0.7822389178
 40
1.0
 40
1.0
 40
1.0
 40
1.0
 10
124.0132995424
 20
234.8044743167
 30
0.0
 10
124.0484101785
 20
234.8247453309
 30
0.0
 10
124.1121015866
 20
234.8686008828
 30
0.0
 10
124.1882077623
 20
234.948604958
 30
0.0
 10
124.2363434874
 20
235.0370892859
 30
0.0
 10
124.2476109616
 20
235.1005993151
 30
0.0
 10
124.2476107548
 20
235.1310669089
 30
0.0
  0
SPLINE
  5
54A
100
AcDbEntity
  8
0
100
AcDbSpline
 62
7
  6
CONTINUOUS
 70
0
 71
3
 72
9
 73
5
 74
0
 42
0.0000001
 43
0.0000001
 44
0.0000000001
 40
0.0
 40
0.0
 40
0.0
 40
0.0
 40
0.2548047806
 40
1.0
 40
1.0
 40
1.0
 40
1.0
 10
124.2478940205
 20
235.3593597418
 30
0.0
 10
124.2594438503
 20
235.3710600578
 30
0.0
 10
124.3041859539
 20
235.417551778
 30
0.0
 10
124.3465254732
 20
235.4663702194
 30
0.0
 10
124.3764312164
 20
235.5040202197
 30
0.0
  0
SPLINE
  5
54B
100
AcDbEntity
  8
0
100
AcDbSpline
 62
7
  6
CONTINUOUS
 70
0
 71
3
 72
11
 73
7
 74
0
 42
0.0000001
 43
0.0000001
 44
0.0000000001
 40
0.0
 40
0.0
 40
0.0
 40
0.0
 40
0.2177776121
 40
0.4509134935
 40
0.7102574384
 40
1.0
 40
1.0
 40
1.0
 40
1.0
 10
108.0104629931
 20
246.0312103279
 30
0.0
 10
108.010457336
 20
246.0616801717
 30
0.0
 10
108.0217256088
 20
246.1251910222
 30
0.0
 10
108.0698652891
 20
246.2136763334
 30
0.0
 10
108.1459734172
 20
246.2936750075
 30
0.0
 10
108.2096627809
 20
246.337533685
 30
0.0
 10
108.2447703354
 20
246.3578029201
 30
0.0
  0
SPLINE
  5
54C
100
AcDbEntity
  8
0
100
AcDbSpline
 62
7
  6
CONTINUOUS
 70
0
 71
3
 72
11
 73
7
 74
0
 42
0.0000001
 43
0.0000001
 44
0.0000000001
 40
0.0
 40
0.0
 40
0.0
 40
0.0
 40
0.2272196784
 40
0.4646817637
 40
0.7207557463
 40
1.0
 40
1.0
 40
1.0
 40
1.0
 10
108.0104670742
 20
241.1321958258
 30
0.0
 10
108.0104708536
 20
241.108306912
 30
0.0
 10
108.0171826527
 20
241.0592264306
 30
0.0
 10
108.0466830672
 20
240.9886432751
 30
0.0
 10
108.0943921899
 20
240.9221690487
 30
0.0
 10
108.135480272
 20
240.8832331126
 30
0.0
 10
108.1582631434
 20
240.8647164803
 30
0.0
  0
SPLINE
  5
54D
100
AcDbEntity
  8
0
100
AcDbSpline
 62
7
  6
CONTINUOUS
 70
0
 71
3
 72
11
 73
7
 74
0
 42
0.0000001
 43
0.0000001
 44
0.0000000001
 40
0.0
 40
0.0
 40
0.0
 40
0.0
 40
0.2181967438
 40
0.4635081315
 40
0.7278283469
 40
1.0
 40
1.0
 40
1.0
 40
1.0
 10
99.9557903317
 20
245.6003092328
 30
0.0
 10
99.9990793391
 20
245.5651263704
 30
0.0
 10
100.1018100021
 20
245.5034572591
 30
0.0
 10
100.2781695211
 20
245.4413689253
 30
0.0
 10
100.4759038166
 20
245.4070272881
 30
0.0
 10
100.6136332486
 20
245.4041723497
 30
0.0
 10
100.6831125537
 20
245.4079560752
 30
0.0
  0
SPLINE
  5
54E
100
AcDbEntity
  8
0
100
AcDbSpline
 62
7
  6
CONTINUOUS
 70
0
 71
3
 72
9
 73
5
 74
0
 42
0.0000001
 43
0.0000001
 44
0.0000000001
 40
0.0
 40
0.0
 40
0.0
 40
0.0
 40
0.5251666744
 40
1.0
 40
1.0
 40
1.0
 40
1.0
 10
102.700326133
 20
245.5178101189
 30
0.0
 10
102.745045359
 20
245.5202454524
 30
0.0
 10
102.8299629761
 20
245.533066531
 30
0.0
 10
102.9105382661
 20
245.5641835879
 30
0.0
 10
102.9456063981
 20
245.5844300625
 30
0.0
  0
SPLINE
  5
54F
100
AcDbEntity
  8
0
100
AcDbSpline
 62
7
  6
CONTINUOUS
 70
0
 71
3
 72
11
 73
7
 74
0
 42
0.0000001
 43
0.0000001
 44
0.0000000001
 40
0.0
 40
0.0
 40
0.0
 40
0.0
 40
0.2896491999
 40
0.5490171769
 40
0.7822882262
 40
1.0
 40
1.0
 40
1.0
 40
1.0
 10
102.9456063981
 20
245.5844300625
 30
0.0
 10
102.9631214041
 20
245.5945422956
 30
0.0
 10
102.9948982606
 20
245.6164284098
 30
0.0
 10
103.0329253309
 20
245.6563134906
 30
0.0
 10
103.0570036249
 20
245.7004466084
 30
0.0
 10
103.0627163055
 20
245.7321248864
 30
0.0
 10
103.0627619081
 20
245.7473263932
 30
0.0
  0
SPLINE
  5
550
100
AcDbEntity
  8
0
100
AcDbSpline
 62
7
  6
CONTINUOUS
 70
0
 71
3
 72
17
 73
13
 74
0
 42
0.0000001
 43
0.0000001
 44
0.0000000001
 40
0.0
 40
0.0
 40
0.0
 40
0.0
 40
0.0428880804
 40
0.0875256994
 40
0.1353523172
 40
0.1873182627
 40
0.3045807448
 40
0.4382463739
 40
0.5825844804
 40
0.7297353991
 40
0.8713118435
 40
1.0
 40
1.0
 40
1.0
 40
1.0
 10
112.6773973862
 20
238.4378067909
 30
0.0
 10
112.6774044705
 20
238.4150177438
 30
0.0
 10
112.6834699297
 20
238.3683089693
 30
0.0
 10
112.7102753116
 20
238.3008903401
 30
0.0
 10
112.7537314139
 20
238.2369885878
 30
0.0
 10
112.8355303516
 20
238.1549198598
 30
0.0
 10
112.9748935134
 20
238.0700905155
 30
0.0
 10
113.1752762318
 20
238.0031737716
 30
0.0
 10
113.4001412602
 20
237.9715842279
 30
0.0
 10
113.6312598552
 20
237.9779903187
 30
0.0
 10
113.8497770588
 20
238.0217030781
 30
0.0
 10
113.9838513041
 20
238.0770244572
 30
0.0
 10
114.0430700816
 20
238.1112142303
 30
0.0
  0
SPLINE
  5
551
100
AcDbEntity
  8
0
100
AcDbSpline
 62
7
  6
CONTINUOUS
 70
0
 71
3
 72
11
 73
7
 74
0
 42
0.0000001
 43
0.0000001
 44
0.0000000001
 40
0.0
 40
0.0
 40
0.0
 40
0.0
 40
0.2177776121
 40
0.4509134935
 40
0.7102574384
 40
1.0
 40
1.0
 40
1.0
 40
1.0
 10
99.8079901814
 20
250.7668030803
 30
0.0
 10
99.8079845243
 20
250.7972729241
 30
0.0
 10
99.8192527971
 20
250.8607837746
 30
0.0
 10
99.8673924774
 20
250.9492690858
 30
0.0
 10
99.9435006054
 20
251.02926776
 30
0.0
 10
100.0071899692
 20
251.0731264375
 30
0.0
 10
100.0422975237
 20
251.0933956725
 30
0.0
  0
SPLINE
  5
552
100
AcDbEntity
  8
0
100
AcDbSpline
 62
7
  6
CONTINUOUS
 70
0
 71
3
 72
11
 73
7
 74
0
 42
0.0000001
 43
0.0000001
 44
0.0000000001
 40
0.0
 40
0.0
 40
0.0
 40
0.0
 40
0.2272196784
 40
0.4646817637
 40
0.7207557463
 40
1.0
 40
1.0
 40
1.0
 40
1.0
 10
99.8079942625
 20
245.8677885783
 30
0.0
 10
99.8079980418
 20
245.8438996644
 30
0.0
 10
99.8147098409
 20
245.794819183
 30
0.0
 10
99.8442102555
 20
245.7242360276
 30
0.0
 10
99.8919193782
 20
245.6577618012
 30
0.0
 10
99.9330074603
 20
245.618825865
 30
0.0
 10
99.9557903317
 20
245.6003092328
 30
0.0
  0
SPLINE
  5
553
100
AcDbEntity
  8
0
100
AcDbSpline
 62
7
  6
CONTINUOUS
 70
0
 71
3
 72
11
 73
7
 74
0
 42
0.0000001
 43
0.0000001
 44
0.0000000001
 40
0.0
 40
0.0
 40
0.0
 40
0.0
 40
0.2861611321
 40
0.5459020436
 40
0.7816258702
 40
1.0
 40
1.0
 40
1.0
 40
1.0
 10
105.8405972699
 20
242.8468069827
 30
0.0
 10
105.8717082531
 20
242.86476881
 30
0.0
 10
105.9287683091
 20
242.903339454
 30
0.0
 10
105.9995125928
 20
242.9722397576
 30
0.0
 10
106.0490461241
 20
243.0479038457
 30
0.0
 10
106.0669548343
 20
243.1029739119
 30
0.0
 10
106.0713747387
 20
243.1300292974
 30
0.0
  0
SPLINE
  5
554
100
AcDbEntity
  8
0
100
AcDbSpline
 62
7
  6
CONTINUOUS
 70
0
 71
3
 72
9
 73
5
 74
0
 42
0.0000001
 43
0.0000001
 44
0.0000000001
 40
0.0
 40
0.0
 40
0.0
 40
0.0
 40
0.5211294122
 40
1.0
 40
1.0
 40
1.0
 40
1.0
 10
106.079196298
 20
243.993524624
 30
0.0
 10
106.3056837103
 20
244.0373332449
 30
0.0
 10
106.7352203014
 20
244.1512784391
 30
0.0
 10
107.1419306383
 20
244.3329671454
 30
0.0
 10
107.3255100289
 20
244.4389561234
 30
0.0
  0
SPLINE
  5
555
100
AcDbEntity
  8
0
100
AcDbSpline
 62
7
  6
CONTINUOUS
 70
0
 71
3
 72
17
 73
13
 74
0
 42
0.0000001
 43
0.0000001
 44
0.0000000001
 40
0.0
 40
0.0
 40
0.0
 40
0.0
 40
0.0428880804
 40
0.0875256994
 40
0.1353523172
 40
0.1873182627
 40
0.3045807448
 40
0.4382463739
 40
0.5825844804
 40
0.7297353991
 40
0.8713118435
 40
1.0
 40
1.0
 40
1.0
 40
1.0
 10
104.4749245745
 20
243.1733995433
 30
0.0
 10
104.4749316588
 20
243.1506104963
 30
0.0
 10
104.480997118
 20
243.1039017218
 30
0.0
 10
104.5078024999
 20
243.0364830926
 30
0.0
 10
104.5512586022
 20
242.9725813403
 30
0.0
 10
104.6330575399
 20
242.8905126123
 30
0.0
 10
104.7724207017
 20
242.805683268
 30
0.0
 10
104.9728034201
 20
242.7387665241
 30
0.0
 10
105.1976684485
 20
242.7071769803
 30
0.0
 10
105.4287870435
 20
242.7135830712
 30
0.0
 10
105.6473042471
 20
242.7572958305
 30
0.0
 10
105.7813784924
 20
242.8126172097
 30
0.0
 10
105.8405972699
 20
242.8468069827
 30
0.0
  0
SPLINE
  5
556
100
AcDbEntity
  8
0
100
AcDbSpline
 62
7
  6
CONTINUOUS
 70
0
 71
3
 72
11
 73
7
 74
0
 42
0.0000001
 43
0.0000001
 44
0.0000000001
 40
0.0
 40
0.0
 40
0.0
 40
0.0
 40
0.2181967438
 40
0.4635081315
 40
0.7278283469
 40
1.0
 40
1.0
 40
1.0
 40
1.0
 10
108.1582631434
 20
240.8647164803
 30
0.0
 10
108.2015521508
 20
240.8295336179
 30
0.0
 10
108.3042828138
 20
240.7678645067
 30
0.0
 10
108.4806423328
 20
240.7057761729
 30
0.0
 10
108.6783766283
 20
240.6714345357
 30
0.0
 10
108.8161060604
 20
240.6685795972
 30
0.0
 10
108.8855853654
 20
240.6723633228
 30
0.0
  0
SPLINE
  5
557
100
AcDbEntity
  8
0
100
AcDbSpline
 62
7
  6
CONTINUOUS
 70
0
 71
3
 72
9
 73
5
 74
0
 42
0.0000001
 43
0.0000001
 44
0.0000000001
 40
0.0
 40
0.0
 40
0.0
 40
0.0
 40
0.5251666744
 40
1.0
 40
1.0
 40
1.0
 40
1.0
 10
110.9027989447
 20
240.7822173664
 30
0.0
 10
110.9475181707
 20
240.7846526999
 30
0.0
 10
111.0324357879
 20
240.7974737785
 30
0.0
 10
111.1130110778
 20
240.8285908355
 30
0.0
 10
111.1480792098
 20
240.8488373101
 30
0.0
  0
SPLINE
  5
558
100
AcDbEntity
  8
0
100
AcDbSpline
 62
7
  6
CONTINUOUS
 70
0
 71
3
 72
11
 73
7
 74
0
 42
0.0000001
 43
0.0000001
 44
0.0000000001
 40
0.0
 40
0.0
 40
0.0
 40
0.0
 40
0.2896491999
 40
0.5490171769
 40
0.7822882262
 40
1.0
 40
1.0
 40
1.0
 40
1.0
 10
111.1480792098
 20
240.8488373101
 30
0.0
 10
111.1655942158
 20
240.8589495431
 30
0.0
 10
111.1973710723
 20
240.8808356574
 30
0.0
 10
111.2353981426
 20
240.9207207382
 30
0.0
 10
111.2594764367
 20
240.964853856
 30
0.0
 10
111.2651891172
 20
240.996532134
 30
0.0
 10
111.2652347198
 20
241.0117336408
 30
0.0
  0
SPLINE
  5
559
100
AcDbEntity
  8
0
100
AcDbSpline
 62
7
  6
CONTINUOUS
 70
0
 71
3
 72
11
 73
7
 74
0
 42
0.0000001
 43
0.0000001
 44
0.0000000001
 40
0.0
 40
0.0
 40
0.0
 40
0.0
 40
0.2861611321
 40
0.5459020436
 40
0.7816258702
 40
1.0
 40
1.0
 40
1.0
 40
1.0
 10
114.0430700816
 20
238.1112142303
 30
0.0
 10
114.0741810648
 20
238.1291760576
 30
0.0
 10
114.1312411208
 20
238.1677467015
 30
0.0
 10
114.2019854045
 20
238.2366470052
 30
0.0
 10
114.2515189358
 20
238.3123110933
 30
0.0
 10
114.269427646
 20
238.3673811595
 30
0.0
 10
114.2738475505
 20
238.394436545
 30
0.0
  0
SPLINE
  5
55A
100
AcDbEntity
  8
0
100
AcDbSpline
 62
7
  6
CONTINUOUS
 70
0
 71
3
 72
9
 73
5
 74
0
 42
0.0000001
 43
0.0000001
 44
0.0000000001
 40
0.0
 40
0.0
 40
0.0
 40
0.0
 40
0.5211294122
 40
1.0
 40
1.0
 40
1.0
 40
1.0
 10
114.2816691097
 20
239.2579318716
 30
0.0
 10
114.508156522
 20
239.3017404925
 30
0.0
 10
114.9376931131
 20
239.4156856866
 30
0.0
 10
115.34440345
 20
239.597374393
 30
0.0
 10
115.5279828406
 20
239.7033633709
 30
0.0
  0
SPLINE
  5
55B
100
AcDbEntity
  8
0
100
AcDbSpline
 62
7
  6
CONTINUOUS
 70
0
 71
3
 72
17
 73
13
 74
0
 42
0.0000001
 43
0.0000001
 44
0.0000000001
 40
0.0
 40
0.0
 40
0.0
 40
0.0
 40
0.0428880804
 40
0.0875256994
 40
0.1353523172
 40
0.1873182627
 40
0.3045807448
 40
0.4382463739
 40
0.5825844804
 40
0.7297353991
 40
0.8713118435
 40
1.0
 40
1.0
 40
1.0
 40
1.0
 10
120.8798701979
 20
233.7022140385
 30
0.0
 10
120.8798772822
 20
233.6794249914
 30
0.0
 10
120.8859427414
 20
233.6327162169
 30
0.0
 10
120.9127481233
 20
233.5652975877
 30
0.0
 10
120.9562042256
 20
233.5013958354
 30
0.0
 10
121.0380031633
 20
233.4193271074
 30
0.0
 10
121.1773663251
 20
233.3344977631
 30
0.0
 10
121.3777490435
 20
233.2675810192
 30
0.0
 10
121.6026140719
 20
233.2359914754
 30
0.0
 10
121.8337326669
 20
233.2423975663
 30
0.0
 10
122.0522498706
 20
233.2861103257
 30
0.0
 10
122.1863241159
 20
233.3414317048
 30
0.0
 10
122.2455428933
 20
233.3756214778
 30
0.0
  0
SPLINE
  5
55C
100
AcDbEntity
  8
0
100
AcDbSpline
 62
7
  6
CONTINUOUS
 70
0
 71
3
 72
11
 73
7
 74
0
 42
0.0000001
 43
0.0000001
 44
0.0000000001
 40
0.0
 40
0.0
 40
0.0
 40
0.0
 40
0.2181967438
 40
0.4635081315
 40
0.7278283469
 40
1.0
 40
1.0
 40
1.0
 40
1.0
 10
116.3607359551
 20
236.1291237279
 30
0.0
 10
116.4040249625
 20
236.0939408655
 30
0.0
 10
116.5067556255
 20
236.0322717542
 30
0.0
 10
116.6831151445
 20
235.9701834205
 30
0.0
 10
116.88084944
 20
235.9358417832
 30
0.0
 10
117.0185788721
 20
235.9329868448
 30
0.0
 10
117.0880581771
 20
235.9367705704
 30
0.0
  0
SPLINE
  5
55D
100
AcDbEntity
  8
0
100
AcDbSpline
 62
7
  6
CONTINUOUS
 70
0
 71
3
 72
9
 73
5
 74
0
 42
0.0000001
 43
0.0000001
 44
0.0000000001
 40
0.0
 40
0.0
 40
0.0
 40
0.0
 40
0.5251666744
 40
1.0
 40
1.0
 40
1.0
 40
1.0
 10
119.1052717564
 20
236.046624614
 30
0.0
 10
119.1499909824
 20
236.0490599475
 30
0.0
 10
119.2349085995
 20
236.0618810261
 30
0.0
 10
119.3154838895
 20
236.092998083
 30
0.0
 10
119.3505520215
 20
236.1132445576
 30
0.0
  0
SPLINE
  5
55E
100
AcDbEntity
  8
0
100
AcDbSpline
 62
7
  6
CONTINUOUS
 70
0
 71
3
 72
11
 73
7
 74
0
 42
0.0000001
 43
0.0000001
 44
0.0000000001
 40
0.0
 40
0.0
 40
0.0
 40
0.0
 40
0.2896491999
 40
0.5490171769
 40
0.7822882262
 40
1.0
 40
1.0
 40
1.0
 40
1.0
 10
119.3505520215
 20
236.1132445576
 30
0.0
 10
119.3680670275
 20
236.1233567907
 30
0.0
 10
119.399843884
 20
236.1452429049
 30
0.0
 10
119.4378709543
 20
236.1851279858
 30
0.0
 10
119.4619492484
 20
236.2292611035
 30
0.0
 10
119.4676619289
 20
236.2609393815
 30
0.0
 10
119.4677075315
 20
236.2761408884
 30
0.0
  0
SPLINE
  5
55F
100
AcDbEntity
  8
0
100
AcDbSpline
 62
7
  6
CONTINUOUS
 70
0
 71
3
 72
11
 73
7
 74
0
 42
0.0000001
 43
0.0000001
 44
0.0000000001
 40
0.0
 40
0.0
 40
0.0
 40
0.0
 40
0.2177776121
 40
0.4509134935
 40
0.7102574384
 40
1.0
 40
1.0
 40
1.0
 40
1.0
 10
116.2129358048
 20
241.2956175755
 30
0.0
 10
116.2129301478
 20
241.3260874193
 30
0.0
 10
116.2241984205
 20
241.3895982698
 30
0.0
 10
116.2723381008
 20
241.4780835809
 30
0.0
 10
116.3484462289
 20
241.5580822551
 30
0.0
 10
116.4121355926
 20
241.6019409326
 30
0.0
 10
116.4472431471
 20
241.6222101677
 30
0.0
  0
SPLINE
  5
560
100
AcDbEntity
  8
0
100
AcDbSpline
 62
7
  6
CONTINUOUS
 70
0
 71
3
 72
11
 73
7
 74
0
 42
0.0000001
 43
0.0000001
 44
0.0000000001
 40
0.0
 40
0.0
 40
0.0
 40
0.0
 40
0.2272196784
 40
0.4646817637
 40
0.7207557463
 40
1.0
 40
1.0
 40
1.0
 40
1.0
 10
116.212939886
 20
236.3966030734
 30
0.0
 10
116.2129436653
 20
236.3727141596
 30
0.0
 10
116.2196554644
 20
236.3236336781
 30
0.0
 10
116.2491558789
 20
236.2530505227
 30
0.0
 10
116.2968650016
 20
236.1865762963
 30
0.0
 10
116.3379530837
 20
236.1476403601
 30
0.0
 10
116.3607359551
 20
236.1291237279
 30
0.0
  0
SPLINE
  5
561
100
AcDbEntity
  8
0
100
AcDbSpline
 62
7
  6
CONTINUOUS
 70
0
 71
3
 72
11
 73
7
 74
0
 42
0.0000001
 43
0.0000001
 44
0.0000000001
 40
0.0
 40
0.0
 40
0.0
 40
0.0
 40
0.2861611321
 40
0.5459020436
 40
0.7816258702
 40
1.0
 40
1.0
 40
1.0
 40
1.0
 10
122.2455428933
 20
233.3756214778
 30
0.0
 10
122.2766538765
 20
233.3935833051
 30
0.0
 10
122.3337139325
 20
233.4321539491
 30
0.0
 10
122.4044582162
 20
233.5010542528
 30
0.0
 10
122.4539917475
 20
233.5767183408
 30
0.0
 10
122.4719004577
 20
233.6317884071
 30
0.0
 10
122.4763203622
 20
233.6588437925
 30
0.0
  0
SPLINE
  5
562
100
AcDbEntity
  8
0
100
AcDbSpline
 62
7
  6
CONTINUOUS
 70
0
 71
3
 72
11
 73
7
 74
0
 42
0.0000001
 43
0.0000001
 44
0.0000000001
 40
0.0
 40
0.0
 40
0.0
 40
0.0
 40
0.2222602476
 40
0.4614924135
 40
0.7204789706
 40
1.0
 40
1.0
 40
1.0
 40
1.0
 10
118.3545467558
 20
241.6006415926
 30
0.0
 10
118.3896341182
 20
241.6858134714
 30
0.0
 10
118.4824909355
 20
241.8548260775
 30
0.0
 10
118.6738198546
 20
242.085919773
 30
0.0
 10
118.9174678461
 20
242.2987463634
 30
0.0
 10
119.1046260444
 20
242.4216022636
 30
0.0
 10
119.2049534114
 20
242.4795259502
 30
0.0
  0
SPLINE
  5
563
100
AcDbEntity
  8
0
100
AcDbSpline
 62
7
  6
CONTINUOUS
 70
0
 71
3
 72
9
 73
5
 74
0
 42
0.0000001
 43
0.0000001
 44
0.0000000001
 40
0.0
 40
0.0
 40
0.0
 40
0.0
 40
0.2454061248
 40
1.0
 40
1.0
 40
1.0
 40
1.0
 10
119.2049534114
 20
242.4795259502
 30
0.0
 10
119.223826689
 20
242.4904223771
 30
0.0
 10
119.3012154639
 20
242.5339850604
 30
0.0
 10
119.3804511063
 20
242.5742499918
 30
0.0
 10
119.4410388806
 20
242.6028777891
 30
0.0
  0
SPLINE
  5
564
100
AcDbEntity
  8
0
100
AcDbSpline
 62
7
  6
CONTINUOUS
 70
0
 71
3
 72
13
 73
9
 74
0
 42
0.0000001
 43
0.0000001
 44
0.0000000001
 40
0.0
 40
0.0
 40
0.0
 40
0.0
 40
0.2951760224
 40
0.4302606779
 40
0.5569427572
 40
0.787478753
 40
0.8950143763
 40
1.0
 40
1.0
 40
1.0
 40
1.0
 10
123.4702608992
 20
242.6141690198
 30
0.0
 10
123.6464115348
 20
242.5325704369
 30
0.0
 10
123.8947955207
 20
242.3920863673
 30
0.0
 10
124.1799042882
 20
242.1608001813
 30
0.0
 10
124.4047622057
 20
241.9272331143
 30
0.0
 10
124.5706529471
 20
241.6631058926
 30
0.0
 10
124.6539285192
 20
241.3823472652
 30
0.0
 10
124.6677025907
 20
241.2422028332
 30
0.0
 10
124.6677025581
 20
241.173155533
 30
0.0
  0
SPLINE
  5
565
100
AcDbEntity
  8
0
100
AcDbSpline
 62
7
  6
CONTINUOUS
 70
0
 71
3
 72
11
 73
7
 74
0
 42
0.0000001
 43
0.0000001
 44
0.0000000001
 40
0.0
 40
0.0
 40
0.0
 40
0.0
 40
0.2983089155
 40
0.5612978575
 40
0.7911186529
 40
1.0
 40
1.0
 40
1.0
 40
1.0
 10
122.1431441011
 20
238.9777703712
 30
0.0
 10
122.1921816724
 20
238.957659352
 30
0.0
 10
122.2816731245
 20
238.9120559216
 30
0.0
 10
122.3912984139
 20
238.8218721378
 30
0.0
 10
122.4626310389
 20
238.7169474822
 30
0.0
 10
122.4798452711
 20
238.638341044
 30
0.0
 10
122.4798507503
 20
238.6012285754
 30
0.0
  0
SPLINE
  5
566
100
AcDbEntity
  8
0
100
AcDbSpline
 62
7
  6
CONTINUOUS
 70
0
 71
3
 72
9
 73
5
 74
0
 42
0.0000001
 43
0.0000001
 44
0.0000000001
 40
0.0
 40
0.0
 40
0.0
 40
0.0
 40
0.4529747339
 40
1.0
 40
1.0
 40
1.0
 40
1.0
 10
121.0736485725
 20
239.8092219413
 30
0.0
 10
121.0782047256
 20
239.8371113405
 30
0.0
 10
121.1085707778
 20
239.8954247697
 30
0.0
 10
121.1594828408
 20
239.9337699215
 30
0.0
 10
121.1890373069
 20
239.9508330987
 30
0.0
  0
SPLINE
  5
567
100
AcDbEntity
  8
0
100
AcDbSpline
 62
7
  6
CONTINUOUS
 70
0
 71
3
 72
9
 73
5
 74
0
 42
0.0000001
 43
0.0000001
 44
0.0000000001
 40
0.0
 40
0.0
 40
0.0
 40
0.0
 40
0.4744343559
 40
1.0
 40
1.0
 40
1.0
 40
1.0
 10
121.1890373069
 20
239.9508330987
 30
0.0
 10
121.2290947669
 20
239.973960146
 30
0.0
 10
121.3222009169
 20
240.007750657
 30
0.0
 10
121.4199458382
 20
240.0184217714
 30
0.0
 10
121.4711850861
 20
240.0184732533
 30
0.0
  0
SPLINE
  5
568
100
AcDbEntity
  8
0
100
AcDbSpline
 62
7
  6
CONTINUOUS
 70
0
 71
3
 72
10
 73
6
 74
0
 42
0.0000001
 43
0.0000001
 44
0.0000000001
 40
0.0
 40
0.0
 40
0.0
 40
0.0
 40
0.5249267832
 40
0.7714750687
 40
1.0
 40
1.0
 40
1.0
 40
1.0
 10
121.4711850861
 20
240.0184732533
 30
0.0
 10
121.7273794539
 20
240.0187306612
 30
0.0
 10
122.1062869771
 20
240.060134443
 30
0.0
 10
122.5741116993
 20
240.2024979462
 30
0.0
 10
122.7853331446
 20
240.3009076135
 30
0.0
 10
122.8819239822
 20
240.3566740267
 30
0.0
  0
SPLINE
  5
569
100
AcDbEntity
  8
0
100
AcDbSpline
 62
7
  6
CONTINUOUS
 70
0
 71
3
 72
11
 73
7
 74
0
 42
0.0000001
 43
0.0000001
 44
0.0000000001
 40
0.0
 40
0.0
 40
0.0
 40
0.0
 40
0.2897909483
 40
0.5490585895
 40
0.7822303382
 40
1.0
 40
1.0
 40
1.0
 40
1.0
 10
122.8819239822
 20
240.3566740267
 30
0.0
 10
122.9697085655
 20
240.407356177
 30
0.0
 10
123.1289482192
 20
240.5169754352
 30
0.0
 10
123.3191773217
 20
240.7170080424
 30
0.0
 10
123.4395828455
 20
240.9381856403
 30
0.0
 10
123.4676898508
 20
241.0969828043
 30
0.0
 10
123.467697581
 20
241.173155536
 30
0.0
  0
SPLINE
  5
56A
100
AcDbEntity
  8
0
100
AcDbSpline
 62
7
  6
CONTINUOUS
 70
0
 71
3
 72
12
 73
8
 74
0
 42
0.0000001
 43
0.0000001
 44
0.0000000001
 40
0.0
 40
0.0
 40
0.0
 40
0.0
 40
0.2426461375
 40
0.5111223364
 40
0.7731551777
 40
0.8924100123
 40
1.0
 40
1.0
 40
1.0
 40
1.0
 10
116.4472431471
 20
241.6222101677
 30
0.0
 10
116.5367116866
 20
241.6738645447
 30
0.0
 10
116.7467153972
 20
241.7455916835
 30
0.0
 10
117.0774870557
 20
241.7695451139
 30
0.0
 10
117.354067769
 20
241.7232863392
 30
0.0
 10
117.5473482669
 20
241.6441326588
 30
0.0
 10
117.6295782172
 20
241.5919880476
 30
0.0
 10
117.6651258994
 20
241.5630968974
 30
0.0
  0
SPLINE
  5
56B
100
AcDbEntity
  8
0
100
AcDbSpline
 62
7
  6
CONTINUOUS
 70
0
 71
3
 72
11
 73
7
 74
0
 42
0.0000001
 43
0.0000001
 44
0.0000000001
 40
0.0
 40
0.0
 40
0.0
 40
0.0
 40
0.2897909483
 40
0.5490585895
 40
0.7822303382
 40
1.0
 40
1.0
 40
1.0
 40
1.0
 10
114.6794511705
 20
245.0922667791
 30
0.0
 10
114.7672357538
 20
245.1429489294
 30
0.0
 10
114.9264754075
 20
245.2525681876
 30
0.0
 10
115.11670451
 20
245.4526007948
 30
0.0
 10
115.2371100338
 20
245.6737783928
 30
0.0
 10
115.2652170391
 20
245.8325755567
 30
0.0
 10
115.2652247693
 20
245.9087482885
 30
0.0
  0
SPLINE
  5
56C
100
AcDbEntity
  8
0
100
AcDbSpline
 62
7
  6
CONTINUOUS
 70
0
 71
3
 72
10
 73
6
 74
0
 42
0.0000001
 43
0.0000001
 44
0.0000000001
 40
0.0
 40
0.0
 40
0.0
 40
0.0
 40
0.5249267832
 40
0.7714750687
 40
1.0
 40
1.0
 40
1.0
 40
1.0
 10
113.2687122744
 20
244.7540660058
 30
0.0
 10
113.5249066422
 20
244.7543234136
 30
0.0
 10
113.9038141654
 20
244.7957271954
 30
0.0
 10
114.3716388876
 20
244.9380906987
 30
0.0
 10
114.5828603329
 20
245.036500366
 30
0.0
 10
114.6794511705
 20
245.0922667791
 30
0.0
  0
SPLINE
  5
56D
100
AcDbEntity
  8
0
100
AcDbSpline
 62
7
  6
CONTINUOUS
 70
0
 71
3
 72
9
 73
5
 74
0
 42
0.0000001
 43
0.0000001
 44
0.0000000001
 40
0.0
 40
0.0
 40
0.0
 40
0.0
 40
0.4744343559
 40
1.0
 40
1.0
 40
1.0
 40
1.0
 10
112.9865644952
 20
244.6864258511
 30
0.0
 10
113.0266219552
 20
244.7095528984
 30
0.0
 10
113.1197281052
 20
244.7433434094
 30
0.0
 10
113.2174730265
 20
244.7540145238
 30
0.0
 10
113.2687122744
 20
244.7540660058
 30
0.0
  0
SPLINE
  5
56E
100
AcDbEntity
  8
0
100
AcDbSpline
 62
7
  6
CONTINUOUS
 70
0
 71
3
 72
9
 73
5
 74
0
 42
0.0000001
 43
0.0000001
 44
0.0000000001
 40
0.0
 40
0.0
 40
0.0
 40
0.0
 40
0.4529747339
 40
1.0
 40
1.0
 40
1.0
 40
1.0
 10
112.8711757608
 20
244.5448146937
 30
0.0
 10
112.8757319139
 20
244.5727040929
 30
0.0
 10
112.9060979661
 20
244.6310175222
 30
0.0
 10
112.9570100291
 20
244.669362674
 30
0.0
 10
112.9865644952
 20
244.6864258511
 30
0.0
  0
SPLINE
  5
56F
100
AcDbEntity
  8
0
100
AcDbSpline
 62
7
  6
CONTINUOUS
 70
0
 71
3
 72
11
 73
7
 74
0
 42
0.0000001
 43
0.0000001
 44
0.0000000001
 40
0.0
 40
0.0
 40
0.0
 40
0.0
 40
0.2983089155
 40
0.5612978575
 40
0.7911186529
 40
1.0
 40
1.0
 40
1.0
 40
1.0
 10
113.9406712894
 20
243.7133631236
 30
0.0
 10
113.9897088607
 20
243.6932521045
 30
0.0
 10
114.0792003128
 20
243.647648674
 30
0.0
 10
114.1888256022
 20
243.5574648903
 30
0.0
 10
114.2601582272
 20
243.4525402346
 30
0.0
 10
114.2773724594
 20
243.3739337964
 30
0.0
 10
114.2773779386
 20
243.3368213278
 30
0.0
  0
SPLINE
  5
570
100
AcDbEntity
  8
0
100
AcDbSpline
 62
7
  6
CONTINUOUS
 70
0
 71
3
 72
9
 73
5
 74
0
 42
0.0000001
 43
0.0000001
 44
0.0000000001
 40
0.0
 40
0.0
 40
0.0
 40
0.0
 40
0.2454114015
 40
1.0
 40
1.0
 40
1.0
 40
1.0
 10
111.0024805997
 20
247.2151187027
 30
0.0
 10
111.0213132784
 20
247.2259916899
 30
0.0
 10
111.0985329631
 20
247.2694613997
 30
0.0
 10
111.1775919173
 20
247.3096471253
 30
0.0
 10
111.2380429711
 20
247.3382223991
 30
0.0
  0
SPLINE
  5
571
100
AcDbEntity
  8
0
100
AcDbSpline
 62
7
  6
CONTINUOUS
 70
0
 71
3
 72
13
 73
9
 74
0
 42
0.0000001
 43
0.0000001
 44
0.0000000001
 40
0.0
 40
0.0
 40
0.0
 40
0.0
 40
0.2951155955
 40
0.430177942
 40
0.5568520131
 40
0.7874109052
 40
0.8949781701
 40
1.0
 40
1.0
 40
1.0
 40
1.0
 10
115.2710037177
 20
247.3482694646
 30
0.0
 10
115.4467240478
 20
247.2666636517
 30
0.0
 10
115.6944786771
 20
247.126214353
 30
0.0
 10
115.9788036066
 20
246.8951041864
 30
0.0
 10
116.2030653507
 20
246.6617738113
 30
0.0
 10
116.3684539601
 20
246.3979726136
 30
0.0
 10
116.4515083621
 20
246.1176349365
 30
0.0
 10
116.4652163186
 20
245.9776956739
 30
0.0
 10
116.4652227645
 20
245.9087482527
 30
0.0
  0
SPLINE
  5
572
100
AcDbEntity
  8
0
100
AcDbSpline
 62
7
  6
CONTINUOUS
 70
0
 71
3
 72
11
 73
7
 74
0
 42
0.0000001
 43
0.0000001
 44
0.0000000001
 40
0.0
 40
0.0
 40
0.0
 40
0.0
 40
0.2222602476
 40
0.4614924135
 40
0.7204789706
 40
1.0
 40
1.0
 40
1.0
 40
1.0
 10
110.1520739441
 20
246.336234345
 30
0.0
 10
110.1871613065
 20
246.4214062238
 30
0.0
 10
110.2800181238
 20
246.59041883
 30
0.0
 10
110.4713470429
 20
246.8215125255
 30
0.0
 10
110.7149950344
 20
247.0343391158
 30
0.0
 10
110.9021532327
 20
247.1571950161
 30
0.0
 10
111.0024805997
 20
247.2151187027
 30
0.0
  0
SPLINE
  5
573
100
AcDbEntity
  8
0
100
AcDbSpline
 62
7
  6
CONTINUOUS
 70
0
 71
3
 72
12
 73
8
 74
0
 42
0.0000001
 43
0.0000001
 44
0.0000000001
 40
0.0
 40
0.0
 40
0.0
 40
0.0
 40
0.2426461375
 40
0.5111223364
 40
0.7731551777
 40
0.8924100123
 40
1.0
 40
1.0
 40
1.0
 40
1.0
 10
108.2447703354
 20
246.3578029201
 30
0.0
 10
108.3342388749
 20
246.4094572971
 30
0.0
 10
108.5442425855
 20
246.4811844359
 30
0.0
 10
108.875014244
 20
246.5051378664
 30
0.0
 10
109.1515949573
 20
246.4588790916
 30
0.0
 10
109.3448754552
 20
246.3797254112
 30
0.0
 10
109.4271054055
 20
246.3275808
 30
0.0
 10
109.4626530877
 20
246.2986896499
 30
0.0
  0
SPLINE
  5
574
100
AcDbEntity
  8
0
100
AcDbSpline
 62
7
  6
CONTINUOUS
 70
0
 71
3
 72
11
 73
7
 74
0
 42
0.0000001
 43
0.0000001
 44
0.0000000001
 40
0.0
 40
0.0
 40
0.0
 40
0.0
 40
0.2897909483
 40
0.5490585895
 40
0.7822303382
 40
1.0
 40
1.0
 40
1.0
 40
1.0
 10
106.4769783588
 20
249.8278595316
 30
0.0
 10
106.5647629421
 20
249.8785416819
 30
0.0
 10
106.7240025958
 20
249.98816094
 30
0.0
 10
106.9142316983
 20
250.1881935473
 30
0.0
 10
107.0346372221
 20
250.4093711452
 30
0.0
 10
107.0627442274
 20
250.5681683092
 30
0.0
 10
107.0627519576
 20
250.6443410409
 30
0.0
  0
SPLINE
  5
575
100
AcDbEntity
  8
0
100
AcDbSpline
 62
7
  6
CONTINUOUS
 70
0
 71
3
 72
10
 73
6
 74
0
 42
0.0000001
 43
0.0000001
 44
0.0000000001
 40
0.0
 40
0.0
 40
0.0
 40
0.0
 40
0.5249267832
 40
0.7714750687
 40
1.0
 40
1.0
 40
1.0
 40
1.0
 10
105.0662394627
 20
249.4896587582
 30
0.0
 10
105.3224338305
 20
249.4899161661
 30
0.0
 10
105.7013413537
 20
249.5313199478
 30
0.0
 10
106.1691660759
 20
249.6736834511
 30
0.0
 10
106.3803875212
 20
249.7720931184
 30
0.0
 10
106.4769783588
 20
249.8278595316
 30
0.0
  0
SPLINE
  5
576
100
AcDbEntity
  8
0
100
AcDbSpline
 62
7
  6
CONTINUOUS
 70
0
 71
3
 72
9
 73
5
 74
0
 42
0.0000001
 43
0.0000001
 44
0.0000000001
 40
0.0
 40
0.0
 40
0.0
 40
0.0
 40
0.4744343559
 40
1.0
 40
1.0
 40
1.0
 40
1.0
 10
104.7840916835
 20
249.4220186035
 30
0.0
 10
104.8241491435
 20
249.4451456508
 30
0.0
 10
104.9172552935
 20
249.4789361619
 30
0.0
 10
105.0150002148
 20
249.4896072763
 30
0.0
 10
105.0662394627
 20
249.4896587582
 30
0.0
  0
SPLINE
  5
577
100
AcDbEntity
  8
0
100
AcDbSpline
 62
7
  6
CONTINUOUS
 70
0
 71
3
 72
9
 73
5
 74
0
 42
0.0000001
 43
0.0000001
 44
0.0000000001
 40
0.0
 40
0.0
 40
0.0
 40
0.0
 40
0.4529747339
 40
1.0
 40
1.0
 40
1.0
 40
1.0
 10
104.6687029491
 20
249.2804074462
 30
0.0
 10
104.6732591022
 20
249.3082968454
 30
0.0
 10
104.7036251544
 20
249.3666102746
 30
0.0
 10
104.7545372174
 20
249.4049554264
 30
0.0
 10
104.7840916835
 20
249.4220186035
 30
0.0
  0
SPLINE
  5
578
100
AcDbEntity
  8
0
100
AcDbSpline
 62
7
  6
CONTINUOUS
 70
0
 71
3
 72
12
 73
8
 74
0
 42
0.0000001
 43
0.0000001
 44
0.0000000001
 40
0.0
 40
0.0
 40
0.0
 40
0.0
 40
0.2426461375
 40
0.5111223364
 40
0.7731551777
 40
0.8924100123
 40
1.0
 40
1.0
 40
1.0
 40
1.0
 10
100.0422975237
 20
251.0933956725
 30
0.0
 10
100.1317660632
 20
251.1450500496
 30
0.0
 10
100.3417697738
 20
251.2167771884
 30
0.0
 10
100.6725414323
 20
251.2407306188
 30
0.0
 10
100.9491221456
 20
251.194471844
 30
0.0
 10
101.1424026435
 20
251.1153181636
 30
0.0
 10
101.2246325938
 20
251.0631735524
 30
0.0
 10
101.260180276
 20
251.0342824023
 30
0.0
  0
SPLINE
  5
579
100
AcDbEntity
  8
0
100
AcDbSpline
 62
7
  6
CONTINUOUS
 70
0
 71
3
 72
11
 73
7
 74
0
 42
0.0000001
 43
0.0000001
 44
0.0000000001
 40
0.0
 40
0.0
 40
0.0
 40
0.0
 40
0.2222602476
 40
0.4614924135
 40
0.7204789706
 40
1.0
 40
1.0
 40
1.0
 40
1.0
 10
101.9496011324
 20
251.0718270974
 30
0.0
 10
101.9846884948
 20
251.1569989763
 30
0.0
 10
102.0775453121
 20
251.3260115824
 30
0.0
 10
102.2688742312
 20
251.5571052779
 30
0.0
 10
102.5125222227
 20
251.7699318683
 30
0.0
 10
102.699680421
 20
251.8927877685
 30
0.0
 10
102.800007788
 20
251.9507114551
 30
0.0
  0
SPLINE
  5
57A
100
AcDbEntity
  8
0
100
AcDbSpline
 62
7
  6
CONTINUOUS
 70
0
 71
3
 72
9
 73
5
 74
0
 42
0.0000001
 43
0.0000001
 44
0.0000000001
 40
0.0
 40
0.0
 40
0.0
 40
0.0
 40
0.2454114015
 40
1.0
 40
1.0
 40
1.0
 40
1.0
 10
102.800007788
 20
251.9507114551
 30
0.0
 10
102.8188404667
 20
251.9615844423
 30
0.0
 10
102.8960601513
 20
252.0050541521
 30
0.0
 10
102.9751191056
 20
252.0452398777
 30
0.0
 10
103.0355701594
 20
252.0738151516
 30
0.0
  0
SPLINE
  5
57B
100
AcDbEntity
  8
0
100
AcDbSpline
 62
7
  6
CONTINUOUS
 70
0
 71
3
 72
13
 73
9
 74
0
 42
0.0000001
 43
0.0000001
 44
0.0000000001
 40
0.0
 40
0.0
 40
0.0
 40
0.0
 40
0.2951155955
 40
0.430177942
 40
0.5568520131
 40
0.7874109052
 40
0.8949781701
 40
1.0
 40
1.0
 40
1.0
 40
1.0
 10
107.068530906
 20
252.083862217
 30
0.0
 10
107.2442512361
 20
252.0022564041
 30
0.0
 10
107.4920058654
 20
251.8618071054
 30
0.0
 10
107.7763307949
 20
251.6306969388
 30
0.0
 10
108.000592539
 20
251.3973665638
 30
0.0
 10
108.1659811484
 20
251.1335653661
 30
0.0
 10
108.2490355504
 20
250.8532276889
 30
0.0
 10
108.2627435069
 20
250.7132884263
 30
0.0
 10
108.2627499528
 20
250.6443410051
 30
0.0
  0
SPLINE
  5
57C
100
AcDbEntity
  8
0
100
AcDbSpline
 62
7
  6
CONTINUOUS
 70
0
 71
3
 72
11
 73
7
 74
0
 42
0.0000001
 43
0.0000001
 44
0.0000000001
 40
0.0
 40
0.0
 40
0.0
 40
0.0
 40
0.2983089155
 40
0.5612978575
 40
0.7911186529
 40
1.0
 40
1.0
 40
1.0
 40
1.0
 10
105.7381984777
 20
248.448955876
 30
0.0
 10
105.787236049
 20
248.4288448569
 30
0.0
 10
105.8767275011
 20
248.3832414264
 30
0.0
 10
105.9863527905
 20
248.2930576427
 30
0.0
 10
106.0576854155
 20
248.188132987
 30
0.0
 10
106.0748996477
 20
248.1095265488
 30
0.0
 10
106.0749051269
 20
248.0724140803
 30
0.0
  0
SPLINE
  5
57D
100
AcDbEntity
  8
0
100
AcDbSpline
 62
7
  6
CONTINUOUS
 70
0
 71
3
 72
17
 73
13
 74
0
 42
0.0000001
 43
0.0000001
 44
0.0000000001
 40
0.0
 40
0.0
 40
0.0
 40
0.0
 40
0.1286881565
 40
0.2702646009
 40
0.4174155196
 40
0.5617536261
 40
0.6954192552
 40
0.8126817373
 40
0.8646476828
 40
0.9124743006
 40
0.9571119196
 40
1.0
 40
1.0
 40
1.0
 40
1.0
 10
122.2455428933
 20
238.2746359806
 30
0.0
 10
122.1863241159
 20
238.2404462076
 30
0.0
 10
122.0522498706
 20
238.1851248285
 30
0.0
 10
121.8337326669
 20
238.1414120691
 30
0.0
 10
121.6026140719
 20
238.1350059782
 30
0.0
 10
121.3777490435
 20
238.166595522
 30
0.0
 10
121.1773663251
 20
238.2335122659
 30
0.0
 10
121.0380031633
 20
238.3183416102
 30
0.0
 10
120.9562042256
 20
238.4004103382
 30
0.0
 10
120.9127481233
 20
238.4643120905
 30
0.0
 10
120.8859427414
 20
238.5317307197
 30
0.0
 10
120.8798772822
 20
238.5784394942
 30
0.0
 10
120.8798701979
 20
238.6012285413
 30
0.0
  0
SPLINE
  5
57E
100
AcDbEntity
  8
0
100
AcDbSpline
 62
7
  6
CONTINUOUS
 70
0
 71
3
 72
9
 73
5
 74
0
 42
0.0000001
 43
0.0000001
 44
0.0000000001
 40
0.0
 40
0.0
 40
0.0
 40
0.0
 40
0.4767890456
 40
1.0
 40
1.0
 40
1.0
 40
1.0
 10
115.5279828406
 20
244.6023778737
 30
0.0
 10
115.3068317673
 20
244.4746970041
 30
0.0
 10
114.8092125397
 20
244.2644239533
 30
0.0
 10
114.2833164075
 20
244.1495181965
 30
0.0
 10
114.0056957979
 20
244.111395063
 30
0.0
  0
SPLINE
  5
57F
100
AcDbEntity
  8
0
100
AcDbSpline
 62
7
  6
CONTINUOUS
 70
0
 71
3
 72
11
 73
7
 74
0
 42
0.0000001
 43
0.0000001
 44
0.0000000001
 40
0.0
 40
0.0
 40
0.0
 40
0.0
 40
0.2177611163
 40
0.4509176749
 40
0.7102326207
 40
1.0
 40
1.0
 40
1.0
 40
1.0
 10
124.2476107539
 20
240.0300814117
 30
0.0
 10
124.2476109599
 20
239.9996138131
 30
0.0
 10
124.2363434851
 20
239.9361037739
 30
0.0
 10
124.1882077506
 20
239.847619447
 30
0.0
 10
124.1121015811
 20
239.7676153728
 30
0.0
 10
124.0484101758
 20
239.7237598321
 30
0.0
 10
124.0132995424
 20
239.7034888195
 30
0.0
  0
SPLINE
  5
580
100
AcDbEntity
  8
0
100
AcDbSpline
 62
7
  6
CONTINUOUS
 70
0
 71
3
 72
12
 73
8
 74
0
 42
0.0000001
 43
0.0000001
 44
0.0000000001
 40
0.0
 40
0.0
 40
0.0
 40
0.0
 40
0.108159568
 40
0.2183584392
 40
0.4513629842
 40
0.7104103437
 40
1.0
 40
1.0
 40
1.0
 40
1.0
 10
116.4652227645
 20
245.9087482527
 30
0.0
 10
116.465228428
 20
245.8481700061
 30
0.0
 10
116.4546852828
 20
245.7256181673
 30
0.0
 10
116.3910411324
 20
245.4799192208
 30
0.0
 10
116.2276004792
 20
245.1786637734
 30
0.0
 10
115.9232310217
 20
244.858943801
 30
0.0
 10
115.6684471803
 20
244.683474514
 30
0.0
 10
115.5279828406
 20
244.6023778737
 30
0.0
  0
SPLINE
  5
581
100
AcDbEntity
  8
0
100
AcDbSpline
 62
7
  6
CONTINUOUS
 70
0
 71
3
 72
11
 73
7
 74
0
 42
0.0000001
 43
0.0000001
 44
0.0000000001
 40
0.0
 40
0.0
 40
0.0
 40
0.0
 40
0.2177777576
 40
0.4509105345
 40
0.710262405
 40
1.0
 40
1.0
 40
1.0
 40
1.0
 10
106.0749051269
 20
248.0724140803
 30
0.0
 10
106.0749096255
 20
248.0419442567
 30
0.0
 10
106.0636406506
 20
247.9784344546
 30
0.0
 10
106.0155023972
 20
247.889947607
 30
0.0
 10
105.9393926808
 20
247.8099505319
 30
0.0
 10
105.8757041757
 20
247.766090346
 30
0.0
 10
105.8405972699
 20
247.7458214855
 30
0.0
  0
SPLINE
  5
582
100
AcDbEntity
  8
0
100
AcDbSpline
 62
7
  6
CONTINUOUS
 70
0
 71
3
 72
14
 73
10
 74
0
 42
0.0000001
 43
0.0000001
 44
0.0000000001
 40
0.0
 40
0.0
 40
0.0
 40
0.0
 40
0.3043213477
 40
0.448926035
 40
0.5833855784
 40
0.7052076274
 40
0.8136378864
 40
0.9103459313
 40
1.0
 40
1.0
 40
1.0
 40
1.0
 10
108.8855853654
 20
245.5713778256
 30
0.0
 10
108.7760267947
 20
245.5654114509
 30
0.0
 10
108.6123363376
 20
245.5755394432
 30
0.0
 10
108.4082181702
 20
245.6281818631
 30
0.0
 10
108.2742543294
 20
245.6840254563
 30
0.0
 10
108.1624870308
 20
245.7547208045
 30
0.0
 10
108.0774397911
 20
245.8379571878
 30
0.0
 10
108.0232246631
 20
245.9312024461
 30
0.0
 10
108.0104689944
 20
245.998886188
 30
0.0
 10
108.0104629931
 20
246.0312103279
 30
0.0
  0
SPLINE
  5
583
100
AcDbEntity
  8
0
100
AcDbSpline
 62
7
  6
CONTINUOUS
 70
0
 71
3
 72
11
 73
7
 74
0
 42
0.0000001
 43
0.0000001
 44
0.0000000001
 40
0.0
 40
0.0
 40
0.0
 40
0.0
 40
0.2177777576
 40
0.4509105345
 40
0.710262405
 40
1.0
 40
1.0
 40
1.0
 40
1.0
 10
122.4798507503
 20
238.6012285754
 30
0.0
 10
122.4798552489
 20
238.5707587518
 30
0.0
 10
122.468586274
 20
238.5072489498
 30
0.0
 10
122.4204480206
 20
238.4187621022
 30
0.0
 10
122.3443383042
 20
238.338765027
 30
0.0
 10
122.2806497991
 20
238.2949048411
 30
0.0
 10
122.2455428933
 20
238.2746359806
 30
0.0
  0
SPLINE
  5
584
100
AcDbEntity
  8
0
100
AcDbSpline
 62
7
  6
CONTINUOUS
 70
0
 71
3
 72
10
 73
6
 74
0
 42
0.0000001
 43
0.0000001
 44
0.0000000001
 40
0.0
 40
0.0
 40
0.0
 40
0.0
 40
0.5190199856
 40
0.7621856307
 40
1.0
 40
1.0
 40
1.0
 40
1.0
 10
124.3764312164
 20
236.3205226368
 30
0.0
 10
124.4665010088
 20
236.4339164979
 30
0.0
 10
124.5783242075
 20
236.6202458396
 30
0.0
 10
124.6550118267
 20
236.8897395061
 30
0.0
 10
124.6676910394
 20
237.0242904048
 30
0.0
 10
124.6676904783
 20
237.0906434469
 30
0.0
  0
SPLINE
  5
585
100
AcDbEntity
  8
0
100
AcDbSpline
 62
7
  6
CONTINUOUS
 70
0
 71
3
 72
11
 73
7
 74
0
 42
0.0000001
 43
0.0000001
 44
0.0000000001
 40
0.0
 40
0.0
 40
0.0
 40
0.0
 40
0.2177117738
 40
0.4509828231
 40
0.7103508001
 40
1.0
 40
1.0
 40
1.0
 40
1.0
 10
119.4677075315
 20
241.1751553912
 30
0.0
 10
119.4676619289
 20
241.1599538843
 30
0.0
 10
119.4619492484
 20
241.1282756063
 30
0.0
 10
119.4378709543
 20
241.0841424885
 30
0.0
 10
119.399843884
 20
241.0442574077
 30
0.0
 10
119.3680670275
 20
241.0223712935
 30
0.0
 10
119.3505520215
 20
241.0122590604
 30
0.0
  0
SPLINE
  5
586
100
AcDbEntity
  8
0
100
AcDbSpline
 62
7
  6
CONTINUOUS
 70
0
 71
3
 72
9
 73
5
 74
0
 42
0.0000001
 43
0.0000001
 44
0.0000000001
 40
0.0
 40
0.0
 40
0.0
 40
0.0
 40
0.4748333256
 40
1.0
 40
1.0
 40
1.0
 40
1.0
 10
119.3505520215
 20
241.0122590604
 30
0.0
 10
119.3154838895
 20
240.9920125858
 30
0.0
 10
119.2349085995
 20
240.9608955289
 30
0.0
 10
119.1499909824
 20
240.9480744503
 30
0.0
 10
119.1052717564
 20
240.9456391168
 30
0.0
  0
SPLINE
  5
587
100
AcDbEntity
  8
0
100
AcDbSpline
 62
7
  6
CONTINUOUS
 70
0
 71
3
 72
11
 73
7
 74
0
 42
0.0000001
 43
0.0000001
 44
0.0000000001
 40
0.0
 40
0.0
 40
0.0
 40
0.0
 40
0.286083802
 40
0.5440422555
 40
0.7787336084
 40
1.0
 40
1.0
 40
1.0
 40
1.0
 10
107.4625070363
 20
246.4827647566
 30
0.0
 10
107.583714241
 20
246.5620933337
 30
0.0
 10
107.8031126334
 20
246.731564311
 30
0.0
 10
108.0624808869
 20
247.0329031283
 30
0.0
 10
108.2251473722
 20
247.3606397147
 30
0.0
 10
108.2627419975
 20
247.5928935356
 30
0.0
 10
108.2627512569
 20
247.7049323466
 30
0.0
  0
SPLINE
  5
588
100
AcDbEntity
  8
0
100
AcDbSpline
 62
7
  6
CONTINUOUS
 70
0
 71
3
 72
14
 73
10
 74
0
 42
0.0000001
 43
0.0000001
 44
0.0000000001
 40
0.0
 40
0.0
 40
0.0
 40
0.0
 40
0.3043213477
 40
0.448926035
 40
0.5833855784
 40
0.7052076274
 40
0.8136378864
 40
0.9103459313
 40
1.0
 40
1.0
 40
1.0
 40
1.0
 10
117.0880581771
 20
240.8357850731
 30
0.0
 10
116.9784996064
 20
240.8298186985
 30
0.0
 10
116.8148091493
 20
240.8399466907
 30
0.0
 10
116.6106909819
 20
240.8925891107
 30
0.0
 10
116.4767271411
 20
240.9484327038
 30
0.0
 10
116.3649598425
 20
241.019128052
 30
0.0
 10
116.2799126028
 20
241.1023644354
 30
0.0
 10
116.2256974748
 20
241.1956096937
 30
0.0
 10
116.2129418061
 20
241.2632934356
 30
0.0
 10
116.2129358048
 20
241.2956175755
 30
0.0
  0
SPLINE
  5
589
100
AcDbEntity
  8
0
100
AcDbSpline
 62
7
  6
CONTINUOUS
 70
0
 71
3
 72
9
 73
5
 74
0
 42
0.0000001
 43
0.0000001
 44
0.0000000001
 40
0.0
 40
0.0
 40
0.0
 40
0.0
 40
0.4748333256
 40
1.0
 40
1.0
 40
1.0
 40
1.0
 10
111.1480792098
 20
245.7478518129
 30
0.0
 10
111.1130110778
 20
245.7276053382
 30
0.0
 10
111.0324357879
 20
245.6964882813
 30
0.0
 10
110.9475181707
 20
245.6836672027
 30
0.0
 10
110.9027989447
 20
245.6812318692
 30
0.0
  0
SPLINE
  5
58A
100
AcDbEntity
  8
0
100
AcDbSpline
 62
7
  6
CONTINUOUS
 70
0
 71
3
 72
11
 73
7
 74
0
 42
0.0000001
 43
0.0000001
 44
0.0000000001
 40
0.0
 40
0.0
 40
0.0
 40
0.0
 40
0.2177117738
 40
0.4509828231
 40
0.7103508001
 40
1.0
 40
1.0
 40
1.0
 40
1.0
 10
111.2652347198
 20
245.9107481436
 30
0.0
 10
111.2651891172
 20
245.8955466367
 30
0.0
 10
111.2594764367
 20
245.8638683587
 30
0.0
 10
111.2353981426
 20
245.819735241
 30
0.0
 10
111.1973710723
 20
245.7798501602
 30
0.0
 10
111.1655942158
 20
245.7579640459
 30
0.0
 10
111.1480792098
 20
245.7478518129
 30
0.0
  0
SPLINE
  5
58B
100
AcDbEntity
  8
0
100
AcDbSpline
 62
7
  6
CONTINUOUS
 70
0
 71
3
 72
9
 73
5
 74
0
 42
0.0000001
 43
0.0000001
 44
0.0000000001
 40
0.0
 40
0.0
 40
0.0
 40
0.0
 40
0.4748333256
 40
1.0
 40
1.0
 40
1.0
 40
1.0
 10
102.9456063981
 20
250.4834445653
 30
0.0
 10
102.9105382661
 20
250.4631980907
 30
0.0
 10
102.8299629761
 20
250.4320810337
 30
0.0
 10
102.745045359
 20
250.4192599551
 30
0.0
 10
102.700326133
 20
250.4168246216
 30
0.0
  0
SPLINE
  5
58C
100
AcDbEntity
  8
0
100
AcDbSpline
 62
7
  6
CONTINUOUS
 70
0
 71
3
 72
11
 73
7
 74
0
 42
0.0000001
 43
0.0000001
 44
0.0000000001
 40
0.0
 40
0.0
 40
0.0
 40
0.0
 40
0.2177117738
 40
0.4509828231
 40
0.7103508001
 40
1.0
 40
1.0
 40
1.0
 40
1.0
 10
103.0627619081
 20
250.646340896
 30
0.0
 10
103.0627163055
 20
250.6311393892
 30
0.0
 10
103.0570036249
 20
250.5994611112
 30
0.0
 10
103.0329253309
 20
250.5553279934
 30
0.0
 10
102.9948982606
 20
250.5154429126
 30
0.0
 10
102.9631214041
 20
250.4935567984
 30
0.0
 10
102.9456063981
 20
250.4834445653
 30
0.0
  0
SPLINE
  5
58D
100
AcDbEntity
  8
0
100
AcDbSpline
 62
7
  6
CONTINUOUS
 70
0
 71
3
 72
11
 73
7
 74
0
 42
0.0000001
 43
0.0000001
 44
0.0000000001
 40
0.0
 40
0.0
 40
0.0
 40
0.0
 40
0.2177777576
 40
0.4509105345
 40
0.710262405
 40
1.0
 40
1.0
 40
1.0
 40
1.0
 10
114.2773779386
 20
243.3368213278
 30
0.0
 10
114.2773824372
 20
243.3063515043
 30
0.0
 10
114.2661134623
 20
243.2428417022
 30
0.0
 10
114.2179752089
 20
243.1543548546
 30
0.0
 10
114.1418654925
 20
243.0743577795
 30
0.0
 10
114.0781769874
 20
243.0304975935
 30
0.0
 10
114.0430700816
 20
243.010228733
 30
0.0
  0
SPLINE
  5
58E
100
AcDbEntity
  8
0
100
AcDbSpline
 62
7
  6
CONTINUOUS
 70
0
 71
3
 72
12
 73
8
 74
0
 42
0.0000001
 43
0.0000001
 44
0.0000000001
 40
0.0
 40
0.0
 40
0.0
 40
0.0
 40
0.108159568
 40
0.2183584392
 40
0.4513629842
 40
0.7104103437
 40
1.0
 40
1.0
 40
1.0
 40
1.0
 10
108.2627499528
 20
250.6443410051
 30
0.0
 10
108.2627556163
 20
250.5837627585
 30
0.0
 10
108.2522124711
 20
250.4612109198
 30
0.0
 10
108.1885683207
 20
250.2155119733
 30
0.0
 10
108.0251276675
 20
249.9142565259
 30
0.0
 10
107.72075821
 20
249.5945365534
 30
0.0
 10
107.4659743686
 20
249.4190672664
 30
0.0
 10
107.3255100289
 20
249.3379706262
 30
0.0
  0
SPLINE
  5
58F
100
AcDbEntity
  8
0
100
AcDbSpline
 62
7
  6
CONTINUOUS
 70
0
 71
3
 72
11
 73
7
 74
0
 42
0.0000001
 43
0.0000001
 44
0.0000000001
 40
0.0
 40
0.0
 40
0.0
 40
0.0
 40
0.2289527651
 40
0.4807518466
 40
0.7426250507
 40
1.0
 40
1.0
 40
1.0
 40
1.0
 10
124.0132995424
 20
239.7034888195
 30
0.0
 10
123.9546646049
 20
239.6696361246
 30
0.0
 10
123.8220278297
 20
239.6147133672
 30
0.0
 10
123.6057798227
 20
239.5708750565
 30
0.0
 10
123.3768754171
 20
239.5636221601
 30
0.0
 10
123.2237906603
 20
239.58425999
 30
0.0
 10
123.1496443715
 20
239.6014402857
 30
0.0
  0
SPLINE
  5
590
100
AcDbEntity
  8
0
100
AcDbSpline
 62
7
  6
CONTINUOUS
 70
0
 71
3
 72
9
 73
5
 74
0
 42
0.0000001
 43
0.0000001
 44
0.0000000001
 40
0.0
 40
0.0
 40
0.0
 40
0.0
 40
0.2418462665
 40
1.0
 40
1.0
 40
1.0
 40
1.0
 10
123.1496443715
 20
239.6014402857
 30
0.0
 10
123.0760600392
 20
239.5751927659
 30
0.0
 10
122.7687117515
 20
239.4754097787
 30
0.0
 10
122.4508038099
 20
239.4091212135
 30
0.0
 10
122.2081686096
 20
239.3758023105
 30
0.0
  0
SPLINE
  5
591
100
AcDbEntity
  8
0
100
AcDbSpline
 62
7
  6
CONTINUOUS
 70
0
 71
3
 72
14
 73
10
 74
0
 42
0.0000001
 43
0.0000001
 44
0.0000000001
 40
0.0
 40
0.0
 40
0.0
 40
0.0
 40
0.3043213477
 40
0.448926035
 40
0.5833855784
 40
0.7052076274
 40
0.8136378864
 40
0.9103459313
 40
1.0
 40
1.0
 40
1.0
 40
1.0
 10
100.6831125537
 20
250.306970578
 30
0.0
 10
100.573553983
 20
250.3010042033
 30
0.0
 10
100.4098635259
 20
250.3111321956
 30
0.0
 10
100.2057453585
 20
250.3637746156
 30
0.0
 10
100.0717815177
 20
250.4196182087
 30
0.0
 10
99.9600142191
 20
250.4903135569
 30
0.0
 10
99.8749669794
 20
250.5735499402
 30
0.0
 10
99.8207518514
 20
250.6667951985
 30
0.0
 10
99.8079961827
 20
250.7344789405
 30
0.0
 10
99.8079901814
 20
250.7668030803
 30
0.0
  0
SPLINE
  5
592
100
AcDbEntity
  8
0
100
AcDbSpline
 62
7
  6
CONTINUOUS
 70
0
 71
3
 72
17
 73
13
 74
0
 42
0.0000001
 43
0.0000001
 44
0.0000000001
 40
0.0
 40
0.0
 40
0.0
 40
0.0
 40
0.1286881565
 40
0.2702646009
 40
0.4174155196
 40
0.5617536261
 40
0.6954192552
 40
0.8126817373
 40
0.8646476828
 40
0.9124743006
 40
0.9571119196
 40
1.0
 40
1.0
 40
1.0
 40
1.0
 10
114.0430700816
 20
243.010228733
 30
0.0
 10
113.9838513041
 20
242.97603896
 30
0.0
 10
113.8497770588
 20
242.9207175809
 30
0.0
 10
113.6312598552
 20
242.8770048215
 30
0.0
 10
113.4001412602
 20
242.8705987306
 30
0.0
 10
113.1752762318
 20
242.9021882744
 30
0.0
 10
112.9748935134
 20
242.9691050183
 30
0.0
 10
112.8355303516
 20
243.0539343626
 30
0.0
 10
112.7537314139
 20
243.1360030906
 30
0.0
 10
112.7102753116
 20
243.1999048429
 30
0.0
 10
112.6834699297
 20
243.2673234721
 30
0.0
 10
112.6774044705
 20
243.3140322466
 30
0.0
 10
112.6773973862
 20
243.3368212937
 30
0.0
  0
SPLINE
  5
593
100
AcDbEntity
  8
0
100
AcDbSpline
 62
7
  6
CONTINUOUS
 70
0
 71
3
 72
11
 73
7
 74
0
 42
0.0000001
 43
0.0000001
 44
0.0000000001
 40
0.0
 40
0.0
 40
0.0
 40
0.0
 40
0.2308458299
 40
0.4701235562
 40
0.7249746056
 40
1.0
 40
1.0
 40
1.0
 40
1.0
 10
124.6677025581
 20
241.173155533
 30
0.0
 10
124.6677025178
 20
241.0876129348
 30
0.0
 10
124.6463165857
 20
240.9127446463
 30
0.0
 10
124.5520275588
 20
240.6589187565
 30
0.0
 10
124.3984246049
 20
240.4167229555
 30
0.0
 10
124.2645100556
 20
240.271697511
 30
0.0
 10
124.1900481231
 20
240.2021140862
 30
0.0
  0
SPLINE
  5
594
100
AcDbEntity
  8
0
100
AcDbSpline
 62
7
  6
CONTINUOUS
 70
0
 71
3
 72
9
 73
5
 74
0
 42
0.0000001
 43
0.0000001
 44
0.0000000001
 40
0.0
 40
0.0
 40
0.0
 40
0.0
 40
0.4767890456
 40
1.0
 40
1.0
 40
1.0
 40
1.0
 10
107.3255100289
 20
249.3379706262
 30
0.0
 10
107.1043589556
 20
249.2102897566
 30
0.0
 10
106.606739728
 20
249.0000167058
 30
0.0
 10
106.0808435958
 20
248.885110949
 30
0.0
 10
105.8032229862
 20
248.8469878154
 30
0.0
  0
SPLINE
  5
595
100
AcDbEntity
  8
0
100
AcDbSpline
 62
7
  6
CONTINUOUS
 70
0
 71
3
 72
11
 73
7
 74
0
 42
0.0000001
 43
0.0000001
 44
0.0000000001
 40
0.0
 40
0.0
 40
0.0
 40
0.0
 40
0.286083802
 40
0.5440422555
 40
0.7787336084
 40
1.0
 40
1.0
 40
1.0
 40
1.0
 10
115.664979848
 20
241.7471720041
 30
0.0
 10
115.7861870527
 20
241.8265005813
 30
0.0
 10
116.0055854451
 20
241.9959715586
 30
0.0
 10
116.2649536986
 20
242.2973103759
 30
0.0
 10
116.4276201839
 20
242.6250469623
 30
0.0
 10
116.4652148092
 20
242.8573007832
 30
0.0
 10
116.4652240686
 20
242.9693395942
 30
0.0
  0
SPLINE
  5
596
100
AcDbEntity
  8
0
100
AcDbSpline
 62
7
  6
CONTINUOUS
 70
0
 71
3
 72
17
 73
13
 74
0
 42
0.0000001
 43
0.0000001
 44
0.0000000001
 40
0.0
 40
0.0
 40
0.0
 40
0.0
 40
0.1286881565
 40
0.2702646009
 40
0.4174155196
 40
0.5617536261
 40
0.6954192552
 40
0.8126817373
 40
0.8646476828
 40
0.9124743006
 40
0.9571119196
 40
1.0
 40
1.0
 40
1.0
 40
1.0
 10
105.8405972699
 20
247.7458214855
 30
0.0
 10
105.7813784924
 20
247.7116317124
 30
0.0
 10
105.6473042471
 20
247.6563103333
 30
0.0
 10
105.4287870435
 20
247.6125975739
 30
0.0
 10
105.1976684485
 20
247.6061914831
 30
0.0
 10
104.9728034201
 20
247.6377810268
 30
0.0
 10
104.7724207017
 20
247.7046977707
 30
0.0
 10
104.6330575399
 20
247.7895271151
 30
0.0
 10
104.5512586022
 20
247.8715958431
 30
0.0
 10
104.5078024999
 20
247.9354975953
 30
0.0
 10
104.480997118
 20
248.0029162246
 30
0.0
 10
104.4749316588
 20
248.0496249991
 30
0.0
 10
104.4749245745
 20
248.0724140461
 30
0.0
  0
SPLINE
  5
597
100
AcDbEntity
  8
0
100
AcDbSpline
 62
7
  6
CONTINUOUS
 70
0
 71
3
 72
13
 73
9
 74
0
 42
0.0000001
 43
0.0000001
 44
0.0000000001
 40
0.0
 40
0.0
 40
0.0
 40
0.0
 40
0.0959152055
 40
0.1963796223
 40
0.3049565972
 40
0.4237885051
 40
0.6934204746
 40
1.0
 40
1.0
 40
1.0
 40
1.0
 10
93.5298294996
 20
221.4502510883
 30
0.0
 10
93.4926838912
 20
221.4288134773
 30
0.0
 10
93.4100687282
 20
221.3954330848
 30
0.0
 10
93.273320127
 20
221.3792690103
 30
0.0
 10
93.1265357038
 20
221.3957946179
 30
0.0
 10
92.91350778
 20
221.4629009529
 30
0.0
 10
92.6448960783
 20
221.6276323963
 30
0.0
 10
92.4599678746
 20
221.8096528712
 30
0.0
 10
92.3713702472
 20
221.914260504
 30
0.0
  0
SPLINE
  5
598
100
AcDbEntity
  8
0
100
AcDbSpline
 62
7
  6
CONTINUOUS
 70
0
 71
3
 72
11
 73
7
 74
0
 42
0.0000001
 43
0.0000001
 44
0.0000000001
 40
0.0
 40
0.0
 40
0.0
 40
0.0
 40
0.2599701521
 40
0.521455284
 40
0.7717512506
 40
1.0
 40
1.0
 40
1.0
 40
1.0
 10
92.3713702472
 20
221.914260504
 30
0.0
 10
92.290259964
 20
222.0100277945
 30
0.0
 10
92.1435221697
 20
222.2161150235
 30
0.0
 10
91.975999308
 20
222.5505256679
 30
0.0
 10
91.8682939493
 20
222.8927540441
 30
0.0
 10
91.8398830026
 20
223.1240320473
 30
0.0
 10
91.8398830026
 20
223.2342186192
 30
0.0
  0
SPLINE
  5
599
100
AcDbEntity
  8
0
100
AcDbSpline
 62
7
  6
CONTINUOUS
 70
0
 71
3
 72
11
 73
7
 74
0
 42
0.0000001
 43
0.0000001
 44
0.0000000001
 40
0.0
 40
0.0
 40
0.0
 40
0.0
 40
0.2177532732
 40
0.4512084879
 40
0.7105435438
 40
1.0
 40
1.0
 40
1.0
 40
1.0
 10
126.912425275
 20
216.0657149193
 30
0.0
 10
126.9576143762
 20
216.0928815953
 30
0.0
 10
127.0419494582
 20
216.166006142
 30
0.0
 10
127.1314961932
 20
216.3155578503
 30
0.0
 10
127.1848031687
 20
216.499007336
 30
0.0
 10
127.195269165
 20
216.6323357267
 30
0.0
 10
127.195269165
 20
216.7024243358
 30
0.0
  0
SPLINE
  5
59A
100
AcDbEntity
  8
0
100
AcDbSpline
 62
7
  6
CONTINUOUS
 70
0
 71
3
 72
17
 73
13
 74
0
 42
0.0000001
 43
0.0000001
 44
0.0000000001
 40
0.0
 40
0.0
 40
0.0
 40
0.0
 40
0.1286949429
 40
0.2702797624
 40
0.4174350695
 40
0.5617779983
 40
0.6954483206
 40
0.8127111557
 40
0.8646773377
 40
0.9125098682
 40
0.9571397557
 40
1.0
 40
1.0
 40
1.0
 40
1.0
 10
127.195269165
 20
216.7024243358
 30
0.0
 10
127.195269165
 20
216.822095376
 30
0.0
 10
127.1617938249
 20
217.0737113283
 30
0.0
 10
127.0368293003
 20
217.443148268
 30
0.0
 10
126.8442960892
 20
217.7990360562
 30
0.0
 10
126.5996458137
 20
218.1121900979
 30
0.0
 10
126.3228730958
 20
218.3573203677
 30
0.0
 10
126.072349224
 20
218.4942741721
 30
0.0
 10
125.8763889768
 20
218.5464389546
 30
0.0
 10
125.7415141443
 20
218.5563279316
 30
0.0
 10
125.615919934
 20
218.537950814
 30
0.0
 10
125.5398417199
 20
218.506313011
 30
0.0
 10
125.5053228037
 20
218.4863916366
 30
0.0
  0
SPLINE
  5
59B
100
AcDbEntity
  8
0
100
AcDbSpline
 62
7
  6
CONTINUOUS
 70
0
 71
3
 72
13
 73
9
 74
0
 42
0.0000001
 43
0.0000001
 44
0.0000000001
 40
0.0
 40
0.0
 40
0.0
 40
0.0
 40
0.0959152055
 40
0.1963796223
 40
0.3049565972
 40
0.4237885051
 40
0.6934204746
 40
1.0
 40
1.0
 40
1.0
 40
1.0
 10
114.884543199
 20
209.1213803018
 30
0.0
 10
114.8473975906
 20
209.0999426908
 30
0.0
 10
114.7647824276
 20
209.0665622983
 30
0.0
 10
114.6280338264
 20
209.0503982238
 30
0.0
 10
114.4812494032
 20
209.0669238314
 30
0.0
 10
114.2682214794
 20
209.1340301664
 30
0.0
 10
113.9996097778
 20
209.2987616098
 30
0.0
 10
113.814681574
 20
209.4807820847
 30
0.0
 10
113.7260839467
 20
209.5853897175
 30
0.0
  0
SPLINE
  5
59C
100
AcDbEntity
  8
0
100
AcDbSpline
 62
7
  6
CONTINUOUS
 70
0
 71
3
 72
11
 73
7
 74
0
 42
0.0000001
 43
0.0000001
 44
0.0000000001
 40
0.0
 40
0.0
 40
0.0
 40
0.0
 40
0.2599701521
 40
0.521455284
 40
0.7717512506
 40
1.0
 40
1.0
 40
1.0
 40
1.0
 10
113.7260839467
 20
209.5853897175
 30
0.0
 10
113.6449736634
 20
209.681157008
 30
0.0
 10
113.4982358691
 20
209.887244237
 30
0.0
 10
113.3307130074
 20
210.2216548814
 30
0.0
 10
113.2230076487
 20
210.5638832575
 30
0.0
 10
113.194596702
 20
210.7951612608
 30
0.0
 10
113.194596702
 20
210.9053478327
 30
0.0
  0
SPLINE
  5
59D
100
AcDbEntity
  8
0
100
AcDbSpline
 62
7
  6
CONTINUOUS
 70
0
 71
3
 72
11
 73
7
 74
0
 42
0.0000001
 43
0.0000001
 44
0.0000000001
 40
0.0
 40
0.0
 40
0.0
 40
0.0
 40
0.2897477124
 40
0.5490815608
 40
0.7822230344
 40
1.0
 40
1.0
 40
1.0
 40
1.0
 10
113.194596702
 20
210.9053478327
 30
0.0
 10
113.194596702
 20
210.9762943841
 30
0.0
 10
113.2053363304
 20
211.1111990807
 30
0.0
 10
113.2599895905
 20
211.2965488188
 30
0.0
 10
113.3519734122
 20
211.4469362653
 30
0.0
 10
113.4383729136
 20
211.5195870687
 30
0.0
 10
113.4845574354
 20
211.5462412509
 30
0.0
  0
SPLINE
  5
59E
100
AcDbEntity
  8
0
100
AcDbSpline
 62
7
  6
CONTINUOUS
 70
0
 71
3
 72
11
 73
7
 74
0
 42
0.0000001
 43
0.0000001
 44
0.0000000001
 40
0.0
 40
0.0
 40
0.0
 40
0.0
 40
0.2897477124
 40
0.5490815608
 40
0.7822230344
 40
1.0
 40
1.0
 40
1.0
 40
1.0
 10
91.8398830026
 20
223.2342186192
 30
0.0
 10
91.8398830026
 20
223.3051651706
 30
0.0
 10
91.8506226309
 20
223.4400698672
 30
0.0
 10
91.9052758911
 20
223.6254196053
 30
0.0
 10
91.9972597127
 20
223.7758070518
 30
0.0
 10
92.0836592142
 20
223.8484578552
 30
0.0
 10
92.129843736
 20
223.8751120374
 30
0.0
  0
SPLINE
  5
59F
100
AcDbEntity
  8
0
100
AcDbSpline
 62
7
  6
CONTINUOUS
 70
0
 71
3
 72
17
 73
13
 74
0
 42
0.0000001
 43
0.0000001
 44
0.0000000001
 40
0.0
 40
0.0
 40
0.0
 40
0.0
 40
0.0428579075
 40
0.087486436
 40
0.1353178554
 40
0.1872830829
 40
0.3045436492
 40
0.4382108366
 40
0.5825536221
 40
0.7297140422
 40
0.8713040046
 40
1.0
 40
1.0
 40
1.0
 40
1.0
 10
92.129843736
 20
223.8751120374
 30
0.0
 10
92.1643606401
 20
223.8950325609
 30
0.0
 10
92.2404344875
 20
223.92667184
 30
0.0
 10
92.3660246108
 20
223.9450477228
 30
0.0
 10
92.5008960775
 20
223.9351609047
 30
0.0
 10
92.6968540951
 20
223.8830031213
 30
0.0
 10
92.947374589
 20
223.7460545185
 30
0.0
 10
93.2241456568
 20
223.5009305404
 30
0.0
 10
93.4688016123
 20
223.1877787066
 30
0.0
 10
93.6613435203
 20
222.8318846654
 30
0.0
 10
93.7863136946
 20
222.4624382782
 30
0.0
 10
93.819790233
 20
222.2108165404
 30
0.0
 10
93.819790233
 20
222.0911445065
 30
0.0
  0
SPLINE
  5
5A0
100
AcDbEntity
  8
0
100
AcDbSpline
 62
7
  6
CONTINUOUS
 70
0
 71
3
 72
11
 73
7
 74
0
 42
0.0000001
 43
0.0000001
 44
0.0000000001
 40
0.0
 40
0.0
 40
0.0
 40
0.0
 40
0.2897477124
 40
0.5490815608
 40
0.7822230344
 40
1.0
 40
1.0
 40
1.0
 40
1.0
 10
93.819790233
 20
222.0911445065
 30
0.0
 10
93.819790233
 20
222.0201979551
 30
0.0
 10
93.8090506046
 20
221.8852932585
 30
0.0
 10
93.7543973444
 20
221.6999435204
 30
0.0
 10
93.6624135228
 20
221.5495560738
 30
0.0
 10
93.5760140214
 20
221.4769052704
 30
0.0
 10
93.5298294996
 20
221.4502510883
 30
0.0
  0
SPLINE
  5
5A1
100
AcDbEntity
  8
0
100
AcDbSpline
 62
7
  6
CONTINUOUS
 70
0
 71
3
 72
17
 73
13
 74
0
 42
0.0000001
 43
0.0000001
 44
0.0000000001
 40
0.0
 40
0.0
 40
0.0
 40
0.0
 40
0.0428579075
 40
0.087486436
 40
0.1353178554
 40
0.1872830829
 40
0.3045436492
 40
0.4382108366
 40
0.5825536221
 40
0.7297140422
 40
0.8713040046
 40
1.0
 40
1.0
 40
1.0
 40
1.0
 10
113.4845574354
 20
211.5462412509
 30
0.0
 10
113.5190743396
 20
211.5661617744
 30
0.0
 10
113.595148187
 20
211.5978010535
 30
0.0
 10
113.7207383102
 20
211.6161769363
 30
0.0
 10
113.8556097769
 20
211.6062901182
 30
0.0
 10
114.0515677946
 20
211.5541323348
 30
0.0
 10
114.3020882885
 20
211.417183732
 30
0.0
 10
114.5788593562
 20
211.1720597539
 30
0.0
 10
114.8235153117
 20
210.8589079201
 30
0.0
 10
115.0160572198
 20
210.5030138789
 30
0.0
 10
115.141027394
 20
210.1335674917
 30
0.0
 10
115.1745039324
 20
209.8819457539
 30
0.0
 10
115.1745039324
 20
209.76227372
 30
0.0
  0
SPLINE
  5
5A2
100
AcDbEntity
  8
0
100
AcDbSpline
 62
7
  6
CONTINUOUS
 70
0
 71
3
 72
11
 73
7
 74
0
 42
0.0000001
 43
0.0000001
 44
0.0000000001
 40
0.0
 40
0.0
 40
0.0
 40
0.0
 40
0.2897477124
 40
0.5490815608
 40
0.7822230344
 40
1.0
 40
1.0
 40
1.0
 40
1.0
 10
115.1745039324
 20
209.76227372
 30
0.0
 10
115.1745039324
 20
209.6913271686
 30
0.0
 10
115.163764304
 20
209.5564224719
 30
0.0
 10
115.1091110439
 20
209.3710727339
 30
0.0
 10
115.0171272222
 20
209.2206852873
 30
0.0
 10
114.9307277208
 20
209.1480344839
 30
0.0
 10
114.884543199
 20
209.1213803018
 30
0.0
  0
SPLINE
  5
5A3
100
AcDbEntity
  8
0
100
AcDbSpline
 62
7
  6
CONTINUOUS
 70
0
 71
3
 72
13
 73
9
 74
0
 42
0.0000001
 43
0.0000001
 44
0.0000000001
 40
0.0
 40
0.0
 40
0.0
 40
0.0
 40
0.0976577206
 40
0.2002259966
 40
0.3113116684
 40
0.4326271706
 40
0.7036772923
 40
1.0
 40
1.0
 40
1.0
 40
1.0
 10
116.7079056083
 20
226.9819834334
 30
0.0
 10
116.7465692616
 20
226.9987831765
 30
0.0
 10
116.8209017552
 20
227.0458655249
 30
0.0
 10
116.9097906189
 20
227.1487761809
 30
0.0
 10
116.9746133701
 20
227.2794877772
 30
0.0
 10
117.0286316035
 20
227.4913110547
 30
0.0
 10
117.0227437062
 20
227.7937133406
 30
0.0
 10
116.9532022282
 20
228.031433001
 30
0.0
 10
116.9027730401
 20
228.1489859226
 30
0.0
  0
SPLINE
  5
5A4
100
AcDbEntity
  8
0
100
AcDbSpline
 62
7
  6
CONTINUOUS
 70
0
 71
3
 72
9
 73
5
 74
0
 42
0.0000001
 43
0.0000001
 44
0.0000000001
 40
0.0
 40
0.0
 40
0.0
 40
0.0
 40
0.5257223518
 40
1.0
 40
1.0
 40
1.0
 40
1.0
 10
116.871870775
 20
228.2164985696
 30
0.0
 10
116.8158895801
 20
228.3314374898
 30
0.0
 10
116.6825288873
 20
228.5380613588
 30
0.0
 10
116.4960368253
 20
228.7018716593
 30
0.0
 10
116.3961519418
 20
228.759538919
 30
0.0
  0
SPLINE
  5
5A5
100
AcDbEntity
  8
0
100
AcDbSpline
 62
7
  6
CONTINUOUS
 70
0
 71
3
 72
9
 73
5
 74
0
 42
0.0000001
 43
0.0000001
 44
0.0000000001
 40
0.0
 40
0.0
 40
0.0
 40
0.0
 40
0.5068108253
 40
1.0
 40
1.0
 40
1.0
 40
1.0
 10
98.7745406342
 20
219.9619567143
 30
0.0
 10
98.6042976148
 20
220.0602443439
 30
0.0
 10
98.2484871273
 20
220.2227225533
 30
0.0
 10
97.8606594194
 20
220.2919470684
 30
0.0
 10
97.6694010746
 20
220.2956975769
 30
0.0
  0
SPLINE
  5
5A6
100
AcDbEntity
  8
0
100
AcDbSpline
 62
7
  6
CONTINUOUS
 70
0
 71
3
 72
10
 73
6
 74
0
 42
0.0000001
 43
0.0000001
 44
0.0000000001
 40
0.0
 40
0.0
 40
0.0
 40
0.0
 40
0.5316496839
 40
0.7707132286
 40
1.0
 40
1.0
 40
1.0
 40
1.0
 10
116.3961519418
 20
228.759538919
 30
0.0
 10
116.3187112317
 20
228.8042483224
 30
0.0
 10
116.1930762791
 20
228.8525941327
 30
0.0
 10
116.0233202003
 20
228.8528434665
 30
0.0
 10
115.9462039596
 20
228.8315965407
 30
0.0
 10
115.9108339256
 20
228.816227908
 30
0.0
  0
SPLINE
  5
5A7
100
AcDbEntity
  8
0
100
AcDbSpline
 62
7
  6
CONTINUOUS
 70
0
 71
3
 72
9
 73
5
 74
0
 42
0.0000001
 43
0.0000001
 44
0.0000000001
 40
0.0
 40
0.0
 40
0.0
 40
0.0
 40
0.5122062915
 40
1.0
 40
1.0
 40
1.0
 40
1.0
 10
111.115653632
 20
212.5419559709
 30
0.0
 10
110.9668683884
 20
212.7209455126
 30
0.0
 10
110.649683303
 20
213.0491956274
 30
0.0
 10
110.2802607919
 20
213.3192763616
 30
0.0
 10
110.0882962366
 20
213.430104642
 30
0.0
  0
SPLINE
  5
5A8
100
AcDbEntity
  8
0
100
AcDbSpline
 62
7
  6
CONTINUOUS
 70
0
 71
3
 72
11
 73
7
 74
0
 42
0.0000001
 43
0.0000001
 44
0.0000000001
 40
0.0
 40
0.0
 40
0.0
 40
0.0
 40
0.2819982076
 40
0.5390768561
 40
0.7753577599
 40
1.0
 40
1.0
 40
1.0
 40
1.0
 10
109.6750868949
 20
213.4245075887
 30
0.0
 10
109.711974899
 20
213.4405372864
 30
0.0
 10
109.7850924309
 20
213.4657625782
 30
0.0
 10
109.8954668681
 20
213.4810824808
 30
0.0
 10
109.9984450452
 20
213.4707192752
 30
0.0
 10
110.0605465839
 20
213.4461205885
 30
0.0
 10
110.0882870416
 20
213.4300887208
 30
0.0
  0
SPLINE
  5
5A9
100
AcDbEntity
  8
0
100
AcDbSpline
 62
7
  6
CONTINUOUS
 70
0
 71
3
 72
9
 73
5
 74
0
 42
0.0000001
 43
0.0000001
 44
0.0000000001
 40
0.0
 40
0.0
 40
0.0
 40
0.0
 40
0.4632683478
 40
1.0
 40
1.0
 40
1.0
 40
1.0
 10
98.7203235315
 20
219.9871065165
 30
0.0
 10
98.6670342334
 20
220.006314792
 30
0.0
 10
98.5408002633
 20
220.0181512346
 30
0.0
 10
98.4215219376
 20
219.9825155312
 30
0.0
 10
98.3613312926
 20
219.956359661
 30
0.0
  0
SPLINE
  5
5AA
100
AcDbEntity
  8
0
100
AcDbSpline
 62
7
  6
CONTINUOUS
 70
0
 71
3
 72
14
 73
10
 74
0
 42
0.0000001
 43
0.0000001
 44
0.0000000001
 40
0.0
 40
0.0
 40
0.0
 40
0.0
 40
0.0942729277
 40
0.1989491395
 40
0.3187738058
 40
0.4524813486
 40
0.7371740935
 40
0.8747500393
 40
1.0
 40
1.0
 40
1.0
 40
1.0
 10
154.1847210411
 20
205.3452234438
 30
0.0
 10
154.2451247739
 20
205.3714694684
 30
0.0
 10
154.3597570538
 20
205.459930511
 30
0.0
 10
154.4656164769
 20
205.6613713398
 30
0.0
 10
154.508353588
 20
205.9112085128
 30
0.0
 10
154.48008708
 20
206.2885857404
 30
0.0
 10
154.3320017664
 20
206.6608937741
 30
0.0
 10
154.0940320243
 20
206.9625998087
 30
0.0
 10
153.9487451184
 20
207.0790296184
 30
0.0
 10
153.8729673746
 20
207.1227789295
 30
0.0
  0
SPLINE
  5
5AB
100
AcDbEntity
  8
0
100
AcDbSpline
 62
7
  6
CONTINUOUS
 70
0
 71
3
 72
9
 73
5
 74
0
 42
0.0000001
 43
0.0000001
 44
0.0000000001
 40
0.0
 40
0.0
 40
0.0
 40
0.0
 40
0.5068108253
 40
1.0
 40
1.0
 40
1.0
 40
1.0
 10
136.251356067
 20
198.3251967248
 30
0.0
 10
136.0811130475
 20
198.4234843543
 30
0.0
 10
135.7253025601
 20
198.5859625637
 30
0.0
 10
135.3374748522
 20
198.6551870788
 30
0.0
 10
135.1462165073
 20
198.6589375873
 30
0.0
  0
SPLINE
  5
5AC
100
AcDbEntity
  8
0
100
AcDbSpline
 62
7
  6
CONTINUOUS
 70
0
 71
3
 72
10
 73
6
 74
0
 42
0.0000001
 43
0.0000001
 44
0.0000000001
 40
0.0
 40
0.0
 40
0.0
 40
0.0
 40
0.5316496839
 40
0.7707132286
 40
1.0
 40
1.0
 40
1.0
 40
1.0
 10
153.8729673746
 20
207.1227789295
 30
0.0
 10
153.7955266645
 20
207.1674883328
 30
0.0
 10
153.6698917119
 20
207.2158341431
 30
0.0
 10
153.5001356331
 20
207.216083477
 30
0.0
 10
153.4230193924
 20
207.1948365511
 30
0.0
 10
153.3876493584
 20
207.1794679185
 30
0.0
  0
SPLINE
  5
5AD
100
AcDbEntity
  8
0
100
AcDbSpline
 62
7
  6
CONTINUOUS
 70
0
 71
3
 72
9
 73
5
 74
0
 42
0.0000001
 43
0.0000001
 44
0.0000000001
 40
0.0
 40
0.0
 40
0.0
 40
0.0
 40
0.5122062915
 40
1.0
 40
1.0
 40
1.0
 40
1.0
 10
148.5924690648
 20
190.9051959814
 30
0.0
 10
148.4436838212
 20
191.084185523
 30
0.0
 10
148.1264987358
 20
191.4124356378
 30
0.0
 10
147.7570762247
 20
191.682516372
 30
0.0
 10
147.5651116694
 20
191.7933446524
 30
0.0
  0
SPLINE
  5
5AE
100
AcDbEntity
  8
0
100
AcDbSpline
 62
7
  6
CONTINUOUS
 70
0
 71
3
 72
11
 73
7
 74
0
 42
0.0000001
 43
0.0000001
 44
0.0000000001
 40
0.0
 40
0.0
 40
0.0
 40
0.0
 40
0.2819982076
 40
0.5390768561
 40
0.7753577599
 40
1.0
 40
1.0
 40
1.0
 40
1.0
 10
147.1519023277
 20
191.7877475991
 30
0.0
 10
147.1887903318
 20
191.8037772968
 30
0.0
 10
147.2619078637
 20
191.8290025887
 30
0.0
 10
147.3722823008
 20
191.8443224912
 30
0.0
 10
147.475260478
 20
191.8339592856
 30
0.0
 10
147.5373620167
 20
191.8093605989
 30
0.0
 10
147.5651024744
 20
191.7933287313
 30
0.0
  0
SPLINE
  5
5AF
100
AcDbEntity
  8
0
100
AcDbSpline
 62
7
  6
CONTINUOUS
 70
0
 71
3
 72
9
 73
5
 74
0
 42
0.0000001
 43
0.0000001
 44
0.0000000001
 40
0.0
 40
0.0
 40
0.0
 40
0.0
 40
0.4632683478
 40
1.0
 40
1.0
 40
1.0
 40
1.0
 10
136.1971389643
 20
198.3503465269
 30
0.0
 10
136.1438496662
 20
198.3695548024
 30
0.0
 10
136.0176156961
 20
198.381391245
 30
0.0
 10
135.8983373704
 20
198.3457555416
 30
0.0
 10
135.8381467254
 20
198.3195996714
 30
0.0
  0
SPLINE
  5
5B0
100
AcDbEntity
  8
0
100
AcDbSpline
 62
7
  6
CONTINUOUS
 70
0
 71
3
 72
11
 73
7
 74
0
 42
0.0000001
 43
0.0000001
 44
0.0000000001
 40
0.0
 40
0.0
 40
0.0
 40
0.0
 40
0.2292169555
 40
0.4746651427
 40
0.732958606
 40
1.0
 40
1.0
 40
1.0
 40
1.0
 10
107.0627589085
 20
257.1763603777
 30
0.0
 10
107.0627589085
 20
261.6407089077
 30
0.0
 10
107.7290655351
 20
270.8923114402
 30
0.0
 10
110.4448578463
 20
284.9352180365
 30
0.0
 10
114.8473471775
 20
299.313897422
 30
0.0
 10
118.7917660611
 20
308.7743965935
 30
0.0
 10
121.01322669
 20
313.477150895
 30
0.0
  0
SPLINE
  5
5B1
100
AcDbEntity
  8
0
100
AcDbSpline
 62
7
  6
CONTINUOUS
 70
0
 71
3
 72
11
 73
7
 74
0
 42
0.0000001
 43
0.0000001
 44
0.0000000001
 40
0.0
 40
0.0
 40
0.0
 40
0.0
 40
0.2305880397
 40
0.4762428874
 40
0.7339766266
 40
1.0
 40
1.0
 40
1.0
 40
1.0
 10
103.0627589085
 20
257.1763603777
 30
0.0
 10
103.0627589085
 20
261.803021592
 30
0.0
 10
103.7474428904
 20
271.3658355637
 30
0.0
 10
106.5432866625
 20
285.8540631616
 30
0.0
 10
111.0663958723
 20
300.6419193986
 30
0.0
 10
115.116630699
 20
310.3593399041
 30
0.0
 10
117.3964446155
 20
315.1856260707
 30
0.0
  0
SPLINE
  5
5B2
100
AcDbEntity
  8
0
100
AcDbSpline
 62
7
  6
CONTINUOUS
 70
0
 71
3
 72
9
 73
5
 74
0
 42
0.0000001
 43
0.0000001
 44
0.0000000001
 40
0.0
 40
0.0
 40
0.0
 40
0.0
 40
0.245114505
 40
1.0
 40
1.0
 40
1.0
 40
1.0
 10
103.9466460649
 20
224.8224651665
 30
0.0
 10
103.9466460649
 20
225.3779712433
 30
0.0
 10
103.9209231437
 20
227.6442391501
 30
0.0
 10
103.794452382
 20
229.9091318267
 30
0.0
 10
103.6479206284
 20
231.6136514674
 30
0.0
  0
SPLINE
  5
5B3
100
AcDbEntity
  8
0
100
AcDbSpline
 62
7
  6
CONTINUOUS
 70
0
 71
3
 72
9
 73
5
 74
0
 42
0.0000001
 43
0.0000001
 44
0.0000000001
 40
0.0
 40
0.0
 40
0.0
 40
0.0
 40
0.245645608
 40
1.0
 40
1.0
 40
1.0
 40
1.0
 10
107.9466460649
 20
224.8224651665
 30
0.0
 10
107.9466460649
 20
225.4072585645
 30
0.0
 10
107.9196716248
 20
227.7878494671
 30
0.0
 10
107.7870369129
 20
230.167008421
 30
0.0
 10
107.6332215392
 20
231.9562542261
 30
0.0
  0
SPLINE
  5
5B4
100
AcDbEntity
  8
0
100
AcDbSpline
 62
7
  6
CONTINUOUS
 70
0
 71
3
 72
9
 73
5
 74
0
 42
0.0000001
 43
0.0000001
 44
0.0000000001
 40
0.0
 40
0.0
 40
0.0
 40
0.0
 40
0.2544773994
 40
1.0
 40
1.0
 40
1.0
 40
1.0
 10
103.6479206284
 20
231.6136514674
 30
0.0
 10
103.5510708902
 20
232.7402487872
 30
0.0
 10
103.2154664103
 20
237.1710443065
 30
0.0
 10
103.0627589085
 20
241.6161464352
 30
0.0
 10
103.0627589085
 20
244.9288241207
 30
0.0
  0
SPLINE
  5
5B5
100
AcDbEntity
  8
0
100
AcDbSpline
 62
7
  6
CONTINUOUS
 70
0
 71
3
 72
9
 73
5
 74
0
 42
0.0000001
 43
0.0000001
 44
0.0000000001
 40
0.0
 40
0.0
 40
0.0
 40
0.0
 40
0.2545070092
 40
1.0
 40
1.0
 40
1.0
 40
1.0
 10
107.6332215392
 20
231.9562542261
 30
0.0
 10
107.5432612678
 20
233.0027103393
 30
0.0
 10
107.2295473253
 20
237.1176828598
 30
0.0
 10
107.0773209493
 20
241.2453348427
 30
0.0
 10
107.064067935
 20
244.3218543963
 30
0.0
  0
SPLINE
  5
5B6
100
AcDbEntity
  8
0
100
AcDbSpline
 62
7
  6
CONTINUOUS
 70
0
 71
3
 72
11
 73
7
 74
0
 42
0.0000001
 43
0.0000001
 44
0.0000000001
 40
0.0
 40
0.0
 40
0.0
 40
0.0
 40
0.2895378634
 40
0.5491098265
 40
0.7822517759
 40
1.0
 40
1.0
 40
1.0
 40
1.0
 10
103.648551234
 20
256.3598720699
 30
0.0
 10
103.5608438208
 20
256.410508823
 30
0.0
 10
103.4016806496
 20
256.520247922
 30
0.0
 10
103.2112910887
 20
256.7201204841
 30
0.0
 10
103.0908230612
 20
256.9413997429
 30
0.0
 10
103.0628518278
 20
257.1001958995
 30
0.0
 10
103.0628518245
 20
257.1763603777
 30
0.0
  0
SPLINE
  5
5B7
100
AcDbEntity
  8
0
100
AcDbSpline
 62
7
  6
CONTINUOUS
 70
0
 71
3
 72
11
 73
7
 74
0
 42
0.0000001
 43
0.0000001
 44
0.0000000001
 40
0.0
 40
0.0
 40
0.0
 40
0.0
 40
0.2177486811
 40
0.4508908272
 40
0.7104626199
 40
1.0
 40
1.0
 40
1.0
 40
1.0
 10
107.0626659924
 20
257.1763603777
 30
0.0
 10
107.0626659957
 20
257.1001967208
 30
0.0
 10
107.0346953999
 20
256.9414023957
 30
0.0
 10
106.914229979
 20
256.7201252779
 30
0.0
 10
106.723844278
 20
256.5202541977
 30
0.0
 10
106.5646841306
 20
256.4105155173
 30
0.0
 10
106.4769783588
 20
256.3598788686
 30
0.0
  0
SPLINE
  5
5B8
100
AcDbEntity
  8
0
100
AcDbSpline
 62
7
  6
CONTINUOUS
 70
0
 71
3
 72
11
 73
7
 74
0
 42
0.0000001
 43
0.0000001
 44
0.0000000001
 40
0.0
 40
0.0
 40
0.0
 40
0.0
 40
0.2372465442
 40
0.4999994739
 40
0.7627526898
 40
1.0
 40
1.0
 40
1.0
 40
1.0
 10
106.4769783588
 20
256.3598788686
 30
0.0
 10
106.276194782
 20
256.2439571085
 30
0.0
 10
105.8092961505
 20
256.0747599107
 30
0.0
 10
105.0627670196
 20
255.9938633376
 30
0.0
 10
104.316236763
 20
256.0747565039
 30
0.0
 10
103.849336295
 20
256.2439513834
 30
0.0
 10
103.648551234
 20
256.3598720699
 30
0.0
  0
SPLINE
  5
5B9
100
AcDbEntity
  8
0
100
AcDbSpline
 62
7
  6
CONTINUOUS
 70
0
 71
3
 72
15
 73
11
 74
0
 42
0.0000001
 43
0.0000001
 44
0.0000000001
 40
0.0
 40
0.0
 40
0.0
 40
0.0
 40
0.3180876348
 40
0.4882392509
 40
0.6492332904
 40
0.7892410107
 40
0.8981646633
 40
0.9686236342
 40
0.988542987
 40
1.0
 40
1.0
 40
1.0
 40
1.0
 10
118.0734695132
 20
314.6580007372
 30
0.0
 10
118.3675058412
 20
314.4882426246
 30
0.0
 10
118.8311917657
 20
314.2490591451
 30
0.0
 10
119.4598458536
 20
313.9573175504
 30
0.0
 10
119.9225548345
 20
313.7604247752
 30
0.0
 10
120.3320045486
 20
313.6043913933
 30
0.0
 10
120.6554027234
 20
313.499855833
 30
0.0
 10
120.8659692436
 20
313.4531313811
 30
0.0
 10
120.9731478407
 20
313.4500882516
 30
0.0
 10
121.0080034126
 20
313.4660934586
 30
0.0
 10
121.0132271023
 20
313.4771507002
 30
0.0
  0
SPLINE
  5
5BA
100
AcDbEntity
  8
0
100
AcDbSpline
 62
7
  6
CONTINUOUS
 70
0
 71
3
 72
13
 73
9
 74
0
 42
0.0000001
 43
0.0000001
 44
0.0000000001
 40
0.0
 40
0.0
 40
0.0
 40
0.0
 40
0.0351872356
 40
0.0922816377
 40
0.1770303387
 40
0.2902191439
 40
0.5978981326
 40
1.0
 40
1.0
 40
1.0
 40
1.0
 10
117.3964442031
 20
315.1856262655
 30
0.0
 10
117.3920559369
 20
315.1763374059
 30
0.0
 10
117.397149876
 20
315.1465218616
 30
0.0
 10
117.4282593667
 20
315.1055104028
 30
0.0
 10
117.4808189113
 20
315.0522599596
 30
0.0
 10
117.5952607122
 20
314.9589167281
 30
0.0
 10
117.794213622
 20
314.823540455
 30
0.0
 10
117.9717996716
 20
314.7166985197
 30
0.0
 10
118.0734695132
 20
314.6580007372
 30
0.0
  0
SPLINE
  5
5BB
100
AcDbEntity
  8
0
100
AcDbSpline
 62
7
  6
CONTINUOUS
 70
0
 71
3
 72
11
 73
7
 74
0
 42
0.0000001
 43
0.0000001
 44
0.0000000001
 40
0.0
 40
0.0
 40
0.0
 40
0.0
 40
0.2177416576
 40
0.4508857691
 40
0.7104589349
 40
1.0
 40
1.0
 40
1.0
 40
1.0
 10
107.9465736093
 20
224.8224651676
 30
0.0
 10
107.9465699813
 20
224.746303845
 30
0.0
 10
107.9185712279
 20
224.5875169177
 30
0.0
 10
107.7981208408
 20
224.3662374968
 30
0.0
 10
107.6077358308
 20
224.1663583696
 30
0.0
 10
107.4485725443
 20
224.056621032
 30
0.0
 10
107.3608655152
 20
224.0059836574
 30
0.0
  0
SPLINE
  5
5BC
100
AcDbEntity
  8
0
100
AcDbSpline
 62
7
  6
CONTINUOUS
 70
0
 71
3
 72
15
 73
11
 74
0
 42
0.0000001
 43
0.0000001
 44
0.0000000001
 40
0.0
 40
0.0
 40
0.0
 40
0.0
 40
0.1323357016
 40
0.2781261025
 40
0.4289754653
 40
0.5757981931
 40
0.7100766921
 40
0.8255171419
 40
0.920212801
 40
1.0
 40
1.0
 40
1.0
 40
1.0
 10
107.0471386595
 20
231.1425335297
 30
0.0
 10
106.9014662224
 20
231.0584300109
 30
0.0
 10
106.5745539397
 20
230.9170813212
 30
0.0
 10
106.043285072
 20
230.7862062042
 30
0.0
 10
105.4800463351
 20
230.7330345496
 30
0.0
 10
104.929687988
 20
230.7618061864
 30
0.0
 10
104.4345275717
 20
230.8701013757
 30
0.0
 10
104.0316041409
 20
231.0509337583
 30
0.0
 10
103.7457836394
 20
231.2961339874
 30
0.0
 10
103.6566182117
 20
231.5126100965
 30
0.0
 10
103.6479796428
 20
231.6136565332
 30
0.0
  0
SPLINE
  5
5BD
100
AcDbEntity
  8
0
100
AcDbSpline
 62
7
  6
CONTINUOUS
 70
0
 71
3
 72
12
 73
8
 74
0
 42
0.0000001
 43
0.0000001
 44
0.0000000001
 40
0.0
 40
0.0
 40
0.0
 40
0.0
 40
0.096153054
 40
0.196823823
 40
0.4234254977
 40
0.6931912823
 40
1.0
 40
1.0
 40
1.0
 40
1.0
 10
103.062831364
 20
244.9288241196
 30
0.0
 10
103.0628284605
 20
244.867871885
 30
0.0
 10
103.0802624022
 20
244.7424863078
 30
0.0
 10
103.1869120882
 20
244.4932907018
 30
0.0
 10
103.4546141356
 20
244.2106513824
 30
0.0
 10
103.9058587336
 20
243.9646219572
 30
0.0
 10
104.2606823601
 20
243.864758085
 30
0.0
 10
104.4519189911
 20
243.8293408146
 30
0.0
  0
SPLINE
  5
5BE
100
AcDbEntity
  8
0
100
AcDbSpline
 62
7
  6
CONTINUOUS
 70
0
 71
3
 72
9
 73
5
 74
0
 42
0.0000001
 43
0.0000001
 44
0.0000000001
 40
0.0
 40
0.0
 40
0.0
 40
0.0
 40
0.2582583184
 40
1.0
 40
1.0
 40
1.0
 40
1.0
 10
106.1901830699
 20
243.9751669661
 30
0.0
 10
106.2156568523
 20
243.9852086489
 30
0.0
 10
106.3136244307
 20
244.0257460529
 30
0.0
 10
106.4088720114
 20
244.0730216284
 30
0.0
 10
106.4769783588
 20
244.1123426117
 30
0.0
  0
SPLINE
  5
5BF
100
AcDbEntity
  8
0
100
AcDbSpline
 62
7
  6
CONTINUOUS
 70
0
 71
3
 72
11
 73
7
 74
0
 42
0.0000001
 43
0.0000001
 44
0.0000000001
 40
0.0
 40
0.0
 40
0.0
 40
0.0
 40
0.2057919476
 40
0.4335700121
 40
0.6972683292
 40
1.0
 40
1.0
 40
1.0
 40
1.0
 10
107.6331625248
 20
231.9562491603
 30
0.0
 10
107.6393174917
 20
231.8842537315
 30
0.0
 10
107.619683952
 20
231.7285416025
 30
0.0
 10
107.5007549403
 20
231.5099012935
 30
0.0
 10
107.3045786915
 20
231.3082742976
 30
0.0
 10
107.1391935744
 20
231.1956811424
 30
0.0
 10
107.0471386595
 20
231.1425335297
 30
0.0
  0
SPLINE
  5
5C0
100
AcDbEntity
  8
0
100
AcDbSpline
 62
7
  6
CONTINUOUS
 70
0
 71
3
 72
15
 73
11
 74
0
 42
0.0000001
 43
0.0000001
 44
0.0000000001
 40
0.0
 40
0.0
 40
0.0
 40
0.0
 40
0.128811957
 40
0.2705750739
 40
0.4178851639
 40
0.5623910589
 40
0.6962053158
 40
0.8135958424
 40
0.9130658372
 40
1.0
 40
1.0
 40
1.0
 40
1.0
 10
107.3608655152
 20
224.0059836574
 30
0.0
 10
107.2128382946
 20
223.9205206119
 30
0.0
 10
106.8776262639
 20
223.782236558
 30
0.0
 10
106.3313395548
 20
223.6728720899
 30
0.0
 10
105.7534502206
 20
223.6569399462
 30
0.0
 10
105.1914040239
 20
223.735852744
 30
0.0
 10
104.690018653
 20
223.9033780484
 30
0.0
 10
104.2884187276
 20
224.1480865711
 30
0.0
 10
104.0163201353
 20
224.4574830676
 30
0.0
 10
103.9467130253
 20
224.707107993
 30
0.0
 10
103.9467185205
 20
224.8224651653
 30
0.0
  0
SPLINE
  5
5C1
100
AcDbEntity
  8
0
100
AcDbSpline
 62
7
  6
CONTINUOUS
 70
0
 71
3
 72
11
 73
7
 74
0
 42
0.0000001
 43
0.0000001
 44
0.0000000001
 40
0.0
 40
0.0
 40
0.0
 40
0.0
 40
0.2305880397
 40
0.4762428874
 40
0.7339766266
 40
1.0
 40
1.0
 40
1.0
 40
1.0
 10
111.2652317202
 20
252.4407676252
 30
0.0
 10
111.2652317202
 20
257.0674288395
 30
0.0
 10
111.9499157021
 20
266.6302428113
 30
0.0
 10
114.7457594742
 20
281.1184704091
 30
0.0
 10
119.268868684
 20
295.9063266461
 30
0.0
 10
123.3191035107
 20
305.6237471516
 30
0.0
 10
125.5989174272
 20
310.4500333183
 30
0.0
  0
SPLINE
  5
5C2
100
AcDbEntity
  8
0
100
AcDbSpline
 62
7
  6
CONTINUOUS
 70
0
 71
3
 72
11
 73
7
 74
0
 42
0.0000001
 43
0.0000001
 44
0.0000000001
 40
0.0
 40
0.0
 40
0.0
 40
0.0
 40
0.2292169555
 40
0.4746651427
 40
0.732958606
 40
1.0
 40
1.0
 40
1.0
 40
1.0
 10
115.2652317202
 20
252.4407676252
 30
0.0
 10
115.2652317202
 20
256.9051161553
 30
0.0
 10
115.9315383468
 20
266.1567186878
 30
0.0
 10
118.647330658
 20
280.199625284
 30
0.0
 10
123.0498199892
 20
294.5783046696
 30
0.0
 10
126.9942388728
 20
304.038803841
 30
0.0
 10
129.2156995017
 20
308.7415581426
 30
0.0
  0
SPLINE
  5
5C3
100
AcDbEntity
  8
0
100
AcDbSpline
 62
7
  6
CONTINUOUS
 70
0
 71
3
 72
9
 73
5
 74
0
 42
0.0000001
 43
0.0000001
 44
0.0000000001
 40
0.0
 40
0.0
 40
0.0
 40
0.0
 40
0.254805766
 40
1.0
 40
1.0
 40
1.0
 40
1.0
 10
110.3813445637
 20
221.1074743003
 30
0.0
 10
110.3813445637
 20
221.6856973425
 30
0.0
 10
110.4067651199
 20
223.9548564453
 30
0.0
 10
110.535802647
 20
226.2231649625
 30
0.0
 10
110.696466642
 20
227.9065622368
 30
0.0
  0
SPLINE
  5
5C4
100
AcDbEntity
  8
0
100
AcDbSpline
 62
7
  6
CONTINUOUS
 70
0
 71
3
 72
9
 73
5
 74
0
 42
0.0000001
 43
0.0000001
 44
0.0000000001
 40
0.0
 40
0.0
 40
0.0
 40
0.0
 40
0.2554930677
 40
1.0
 40
1.0
 40
1.0
 40
1.0
 10
114.3813445637
 20
221.1074743003
 30
0.0
 10
114.3813445637
 20
221.6548482252
 30
0.0
 10
114.4053034982
 20
223.7971638229
 30
0.0
 10
114.5268291745
 20
225.9386951985
 30
0.0
 10
114.6783724477
 20
227.5265278242
 30
0.0
  0
SPLINE
  5
5C5
100
AcDbEntity
  8
0
100
AcDbSpline
 62
7
  6
CONTINUOUS
 70
0
 71
3
 72
9
 73
5
 74
0
 42
0.0000001
 43
0.0000001
 44
0.0000000001
 40
0.0
 40
0.0
 40
0.0
 40
0.0
 40
0.2447137386
 40
1.0
 40
1.0
 40
1.0
 40
1.0
 10
110.696466642
 20
227.9065622368
 30
0.0
 10
110.7918104074
 20
228.9055504346
 30
0.0
 10
111.1297274833
 20
232.9926618987
 30
0.0
 10
111.2652317202
 20
237.0959361683
 30
0.0
 10
111.2652317202
 20
240.1932313683
 30
0.0
  0
SPLINE
  5
5C6
100
AcDbEntity
  8
0
100
AcDbSpline
 62
7
  6
CONTINUOUS
 70
0
 71
3
 72
9
 73
5
 74
0
 42
0.0000001
 43
0.0000001
 44
0.0000000001
 40
0.0
 40
0.0
 40
0.0
 40
0.0
 40
0.2453136737
 40
1.0
 40
1.0
 40
1.0
 40
1.0
 10
114.6783724477
 20
227.5265278242
 30
0.0
 10
114.7720529665
 20
228.5080889387
 30
0.0
 10
115.1057692125
 20
232.5138471601
 30
0.0
 10
115.2506946012
 20
236.5348560991
 30
0.0
 10
115.2638754856
 20
239.5682372168
 30
0.0
  0
SPLINE
  5
5C7
100
AcDbEntity
  8
0
100
AcDbSpline
 62
7
  6
CONTINUOUS
 70
0
 71
3
 72
13
 73
9
 74
0
 42
0.0000001
 43
0.0000001
 44
0.0000000001
 40
0.0
 40
0.0
 40
0.0
 40
0.0
 40
0.0351872356
 40
0.0922816377
 40
0.1770303387
 40
0.2902191439
 40
0.5978981326
 40
1.0
 40
1.0
 40
1.0
 40
1.0
 10
125.5989170148
 20
310.4500335131
 30
0.0
 10
125.5945287486
 20
310.4407446535
 30
0.0
 10
125.5996226877
 20
310.4109291091
 30
0.0
 10
125.6307321784
 20
310.3699176503
 30
0.0
 10
125.683291723
 20
310.3166672072
 30
0.0
 10
125.797733524
 20
310.2233239757
 30
0.0
 10
125.9966864337
 20
310.0879477026
 30
0.0
 10
126.1742724833
 20
309.9811057673
 30
0.0
 10
126.2759423249
 20
309.9224079848
 30
0.0
  0
SPLINE
  5
5C8
100
AcDbEntity
  8
0
100
AcDbSpline
 62
7
  6
CONTINUOUS
 70
0
 71
3
 72
11
 73
7
 74
0
 42
0.0000001
 43
0.0000001
 44
0.0000000001
 40
0.0
 40
0.0
 40
0.0
 40
0.0
 40
0.2372465442
 40
0.4999994739
 40
0.7627526898
 40
1.0
 40
1.0
 40
1.0
 40
1.0
 10
114.6794511705
 20
251.6242861162
 30
0.0
 10
114.4786675937
 20
251.5083643561
 30
0.0
 10
114.0117689622
 20
251.3391671582
 30
0.0
 10
113.2652398313
 20
251.2582705851
 30
0.0
 10
112.5187095747
 20
251.3391637515
 30
0.0
 10
112.0518091067
 20
251.508358631
 30
0.0
 10
111.8510240457
 20
251.6242793175
 30
0.0
  0
SPLINE
  5
5C9
100
AcDbEntity
  8
0
100
AcDbSpline
 62
7
  6
CONTINUOUS
 70
0
 71
3
 72
15
 73
11
 74
0
 42
0.0000001
 43
0.0000001
 44
0.0000000001
 40
0.0
 40
0.0
 40
0.0
 40
0.0
 40
0.3180876348
 40
0.4882392509
 40
0.6492332904
 40
0.7892410107
 40
0.8981646633
 40
0.9686236342
 40
0.988542987
 40
1.0
 40
1.0
 40
1.0
 40
1.0
 10
126.2759423249
 20
309.9224079848
 30
0.0
 10
126.5699786529
 20
309.7526498721
 30
0.0
 10
127.0336645774
 20
309.5134663927
 30
0.0
 10
127.6623186653
 20
309.2217247979
 30
0.0
 10
128.1250276462
 20
309.0248320228
 30
0.0
 10
128.5344773603
 20
308.8687986409
 30
0.0
 10
128.8578755351
 20
308.7642630805
 30
0.0
 10
129.0684420553
 20
308.7175386287
 30
0.0
 10
129.1756206524
 20
308.7144954991
 30
0.0
 10
129.2104762243
 20
308.7305007061
 30
0.0
 10
129.215699914
 20
308.7415579478
 30
0.0
  0
SPLINE
  5
5CA
100
AcDbEntity
  8
0
100
AcDbSpline
 62
7
  6
CONTINUOUS
 70
0
 71
3
 72
11
 73
7
 74
0
 42
0.0000001
 43
0.0000001
 44
0.0000000001
 40
0.0
 40
0.0
 40
0.0
 40
0.0
 40
0.2895378634
 40
0.5491098265
 40
0.7822517759
 40
1.0
 40
1.0
 40
1.0
 40
1.0
 10
111.8510240457
 20
251.6242793175
 30
0.0
 10
111.7633166325
 20
251.6749160705
 30
0.0
 10
111.6041534613
 20
251.7846551695
 30
0.0
 10
111.4137639004
 20
251.9845277317
 30
0.0
 10
111.2932958729
 20
252.2058069904
 30
0.0
 10
111.2653246395
 20
252.3646031471
 30
0.0
 10
111.2653246362
 20
252.4407676252
 30
0.0
  0
SPLINE
  5
5CB
100
AcDbEntity
  8
0
100
AcDbSpline
 62
7
  6
CONTINUOUS
 70
0
 71
3
 72
15
 73
11
 74
0
 42
0.0000001
 43
0.0000001
 44
0.0000000001
 40
0.0
 40
0.0
 40
0.0
 40
0.0
 40
0.128811957
 40
0.2705750739
 40
0.4178851639
 40
0.5623910589
 40
0.6962053158
 40
0.8135958424
 40
0.9130658372
 40
1.0
 40
1.0
 40
1.0
 40
1.0
 10
113.795564014
 20
220.2909927913
 30
0.0
 10
113.6475367934
 20
220.2055297458
 30
0.0
 10
113.3123247627
 20
220.0672456919
 30
0.0
 10
112.7660380536
 20
219.9578812238
 30
0.0
 10
112.1881487194
 20
219.94194908
 30
0.0
 10
111.6261025227
 20
220.0208618778
 30
0.0
 10
111.1247171518
 20
220.1883871822
 30
0.0
 10
110.7231172264
 20
220.4330957049
 30
0.0
 10
110.4510186342
 20
220.7424922014
 30
0.0
 10
110.3814115242
 20
220.9921171268
 30
0.0
 10
110.3814170193
 20
221.1074742992
 30
0.0
  0
SPLINE
  5
5CC
100
AcDbEntity
  8
0
100
AcDbSpline
 62
7
  6
CONTINUOUS
 70
0
 71
3
 72
11
 73
7
 74
0
 42
0.0000001
 43
0.0000001
 44
0.0000000001
 40
0.0
 40
0.0
 40
0.0
 40
0.0
 40
0.2177486811
 40
0.4508908272
 40
0.7104626199
 40
1.0
 40
1.0
 40
1.0
 40
1.0
 10
115.2651388041
 20
252.4407676252
 30
0.0
 10
115.2651388074
 20
252.3646039684
 30
0.0
 10
115.2371682116
 20
252.2058096432
 30
0.0
 10
115.1167027907
 20
251.9845325255
 30
0.0
 10
114.9263170897
 20
251.7846614453
 30
0.0
 10
114.7671569423
 20
251.6749227649
 30
0.0
 10
114.6794511705
 20
251.6242861162
 30
0.0
  0
SPLINE
  5
5CD
100
AcDbEntity
  8
0
100
AcDbSpline
 62
7
  6
CONTINUOUS
 70
0
 71
3
 72
11
 73
7
 74
0
 42
0.0000001
 43
0.0000001
 44
0.0000000001
 40
0.0
 40
0.0
 40
0.0
 40
0.0
 40
0.2177416576
 40
0.4508857691
 40
0.7104589349
 40
1.0
 40
1.0
 40
1.0
 40
1.0
 10
114.3812721082
 20
221.1074743015
 30
0.0
 10
114.3812684801
 20
221.0313129788
 30
0.0
 10
114.3532697268
 20
220.8725260516
 30
0.0
 10
114.2328193397
 20
220.6512466307
 30
0.0
 10
114.0424343297
 20
220.4513675034
 30
0.0
 10
113.8832710432
 20
220.3416301659
 30
0.0
 10
113.795564014
 20
220.2909927913
 30
0.0
  0
SPLINE
  5
5CE
100
AcDbEntity
  8
0
100
AcDbSpline
 62
7
  6
CONTINUOUS
 70
0
 71
3
 72
14
 73
10
 74
0
 42
0.0000001
 43
0.0000001
 44
0.0000000001
 40
0.0
 40
0.0
 40
0.0
 40
0.0
 40
0.1257747429
 40
0.2639947946
 40
0.549612152
 40
0.6833435931
 40
0.8028207307
 40
0.9067559761
 40
1.0
 40
1.0
 40
1.0
 40
1.0
 10
114.0939871206
 20
226.7348367532
 30
0.0
 10
113.9430494921
 20
226.6476933929
 30
0.0
 10
113.5980275322
 20
226.5120433989
 30
0.0
 10
112.8419992166
 20
226.395805076
 30
0.0
 10
112.0526151107
 20
226.499192892
 30
0.0
 10
111.3693867414
 20
226.8118475072
 30
0.0
 10
110.9767846117
 20
227.1232753557
 30
0.0
 10
110.7282312067
 20
227.4965034511
 30
0.0
 10
110.6842993614
 20
227.7779270534
 30
0.0
 10
110.696525418
 20
227.9065566365
 30
0.0
  0
SPLINE
  5
5CF
100
AcDbEntity
  8
0
100
AcDbSpline
 62
7
  6
CONTINUOUS
 70
0
 71
3
 72
12
 73
8
 74
0
 42
0.0000001
 43
0.0000001
 44
0.0000000001
 40
0.0
 40
0.0
 40
0.0
 40
0.0
 40
0.096153054
 40
0.196823823
 40
0.4234254977
 40
0.6931912823
 40
1.0
 40
1.0
 40
1.0
 40
1.0
 10
111.2653041758
 20
240.1932313671
 30
0.0
 10
111.2653012722
 20
240.1322791326
 30
0.0
 10
111.2827352139
 20
240.0068935554
 30
0.0
 10
111.3893848999
 20
239.7576979493
 30
0.0
 10
111.6570869474
 20
239.4750586299
 30
0.0
 10
112.1083315453
 20
239.2290292048
 30
0.0
 10
112.4631551718
 20
239.1291653326
 30
0.0
 10
112.6543918028
 20
239.0937480622
 30
0.0
  0
SPLINE
  5
5D0
100
AcDbEntity
  8
0
100
AcDbSpline
 62
7
  6
CONTINUOUS
 70
0
 71
3
 72
9
 73
5
 74
0
 42
0.0000001
 43
0.0000001
 44
0.0000000001
 40
0.0
 40
0.0
 40
0.0
 40
0.0
 40
0.2582583184
 40
1.0
 40
1.0
 40
1.0
 40
1.0
 10
114.3926558816
 20
239.2395742137
 30
0.0
 10
114.4181296641
 20
239.2496158965
 30
0.0
 10
114.5160972424
 20
239.2901533005
 30
0.0
 10
114.6113448231
 20
239.337428876
 30
0.0
 10
114.6794511705
 20
239.3767498592
 30
0.0
  0
SPLINE
  5
5D1
100
AcDbEntity
  8
0
100
AcDbSpline
 62
7
  6
CONTINUOUS
 70
0
 71
3
 72
10
 73
6
 74
0
 42
0.0000001
 43
0.0000001
 44
0.0000000001
 40
0.0
 40
0.0
 40
0.0
 40
0.0
 40
0.2277922047
 40
0.4661571842
 40
1.0
 40
1.0
 40
1.0
 40
1.0
 10
114.6783136717
 20
227.5265334245
 30
0.0
 10
114.6710034987
 20
227.4496235478
 30
0.0
 10
114.6326152406
 20
227.2935785096
 30
0.0
 10
114.4626934703
 20
226.9962331762
 30
0.0
 10
114.2507852541
 20
226.8253636574
 30
0.0
 10
114.0939871206
 20
226.7348367532
 30
0.0
  0
SPLINE
  5
5D2
100
AcDbEntity
  8
0
100
AcDbSpline
 62
7
  6
CONTINUOUS
 70
0
 71
3
 72
11
 73
7
 74
0
 42
0.0000001
 43
0.0000001
 44
0.0000000001
 40
0.0
 40
0.0
 40
0.0
 40
0.0
 40
0.2305880397
 40
0.4762428874
 40
0.7339766266
 40
1.0
 40
1.0
 40
1.0
 40
1.0
 10
119.4677045319
 20
247.7051748728
 30
0.0
 10
119.4677045319
 20
252.3318360871
 30
0.0
 10
120.1523885138
 20
261.8946500588
 30
0.0
 10
122.9482322859
 20
276.3828776567
 30
0.0
 10
127.4713414957
 20
291.1707338937
 30
0.0
 10
131.5215763224
 20
300.8881543992
 30
0.0
 10
133.8013902389
 20
305.7144405658
 30
0.0
  0
SPLINE
  5
5D3
100
AcDbEntity
  8
0
100
AcDbSpline
 62
7
  6
CONTINUOUS
 70
0
 71
3
 72
11
 73
7
 74
0
 42
0.0000001
 43
0.0000001
 44
0.0000000001
 40
0.0
 40
0.0
 40
0.0
 40
0.0
 40
0.2292169555
 40
0.4746651427
 40
0.732958606
 40
1.0
 40
1.0
 40
1.0
 40
1.0
 10
123.4677045319
 20
247.7051748728
 30
0.0
 10
123.4677045319
 20
252.1695234028
 30
0.0
 10
124.1340111585
 20
261.4211259353
 30
0.0
 10
126.8498034697
 20
275.4640325316
 30
0.0
 10
131.2522928009
 20
289.8427119171
 30
0.0
 10
135.1967116845
 20
299.3032110886
 30
0.0
 10
137.4181723134
 20
304.0059653902
 30
0.0
  0
SPLINE
  5
5D4
100
AcDbEntity
  8
0
100
AcDbSpline
 62
7
  6
CONTINUOUS
 70
0
 71
3
 72
9
 73
5
 74
0
 42
0.0000001
 43
0.0000001
 44
0.0000000001
 40
0.0
 40
0.0
 40
0.0
 40
0.0
 40
0.2647107215
 40
1.0
 40
1.0
 40
1.0
 40
1.0
 10
116.8160430626
 20
217.3924834342
 30
0.0
 10
116.8160430626
 20
218.4748760292
 30
0.0
 10
116.9505933367
 20
222.5601911968
 30
0.0
 10
117.6591807524
 20
226.6457677316
 30
0.0
 10
118.6021577797
 20
229.5006347306
 30
0.0
  0
SPLINE
  5
5D5
100
AcDbEntity
  8
0
100
AcDbSpline
 62
7
  6
CONTINUOUS
 70
0
 71
3
 72
9
 73
5
 74
0
 42
0.0000001
 43
0.0000001
 44
0.0000000001
 40
0.0
 40
0.0
 40
0.0
 40
0.0
 40
0.5248015947
 40
1.0
 40
1.0
 40
1.0
 40
1.0
 10
120.8160430626
 20
217.3924834342
 30
0.0
 10
120.8160430626
 20
219.3172957996
 30
0.0
 10
121.048321161
 20
222.9909385714
 30
0.0
 10
121.8536919234
 20
226.5911387621
 30
0.0
 10
122.4003274167
 20
228.2460800649
 30
0.0
  0
SPLINE
  5
5D6
100
AcDbEntity
  8
0
100
AcDbSpline
 62
7
  6
CONTINUOUS
 70
0
 71
3
 72
9
 73
5
 74
0
 42
0.0000001
 43
0.0000001
 44
0.0000000001
 40
0.0
 40
0.0
 40
0.0
 40
0.0
 40
0.4725273548
 40
1.0
 40
1.0
 40
1.0
 40
1.0
 10
118.6021577797
 20
229.5006347306
 30
0.0
 10
118.9004623464
 20
230.403753087
 30
0.0
 10
119.3410305105
 20
232.3798510385
 30
0.0
 10
119.4677045319
 20
234.3959350152
 30
0.0
 10
119.4677045319
 20
235.4576386158
 30
0.0
  0
SPLINE
  5
5D7
100
AcDbEntity
  8
0
100
AcDbSpline
 62
7
  6
CONTINUOUS
 70
0
 71
3
 72
9
 73
5
 74
0
 42
0.0000001
 43
0.0000001
 44
0.0000000001
 40
0.0
 40
0.0
 40
0.0
 40
0.0
 40
0.2388246294
 40
1.0
 40
1.0
 40
1.0
 40
1.0
 10
122.4003274167
 20
228.2460800649
 30
0.0
 10
122.563093552
 20
228.7388552385
 30
0.0
 10
123.1560759711
 20
230.8313273046
 30
0.0
 10
123.4105268021
 20
233.0119114845
 30
0.0
 10
123.4567173844
 20
234.6652837709
 30
0.0
  0
SPLINE
  5
5D8
100
AcDbEntity
  8
0
100
AcDbSpline
 62
7
  6
CONTINUOUS
 70
0
 71
3
 72
13
 73
9
 74
0
 42
0.0000001
 43
0.0000001
 44
0.0000000001
 40
0.0
 40
0.0
 40
0.0
 40
0.0
 40
0.0351872356
 40
0.0922816377
 40
0.1770303387
 40
0.2902191439
 40
0.5978981326
 40
1.0
 40
1.0
 40
1.0
 40
1.0
 10
133.8013898265
 20
305.7144407606
 30
0.0
 10
133.7970015603
 20
305.705151901
 30
0.0
 10
133.8020954994
 20
305.6753363567
 30
0.0
 10
133.8332049901
 20
305.6343248979
 30
0.0
 10
133.8857645347
 20
305.5810744547
 30
0.0
 10
134.0002063357
 20
305.4877312232
 30
0.0
 10
134.1991592454
 20
305.3523549502
 30
0.0
 10
134.376745295
 20
305.2455130149
 30
0.0
 10
134.4784151366
 20
305.1868152324
 30
0.0
  0
SPLINE
  5
5D9
100
AcDbEntity
  8
0
100
AcDbSpline
 62
7
  6
CONTINUOUS
 70
0
 71
3
 72
11
 73
7
 74
0
 42
0.0000001
 43
0.0000001
 44
0.0000000001
 40
0.0
 40
0.0
 40
0.0
 40
0.0
 40
0.2372465442
 40
0.4999994739
 40
0.7627526898
 40
1.0
 40
1.0
 40
1.0
 40
1.0
 10
122.8819239822
 20
246.8886933638
 30
0.0
 10
122.6811404054
 20
246.7727716036
 30
0.0
 10
122.2142417739
 20
246.6035744058
 30
0.0
 10
121.467712643
 20
246.5226778327
 30
0.0
 10
120.7211823864
 20
246.603570999
 30
0.0
 10
120.2542819184
 20
246.7727658785
 30
0.0
 10
120.0534968574
 20
246.888686565
 30
0.0
  0
SPLINE
  5
5DA
100
AcDbEntity
  8
0
100
AcDbSpline
 62
7
  6
CONTINUOUS
 70
0
 71
3
 72
15
 73
11
 74
0
 42
0.0000001
 43
0.0000001
 44
0.0000000001
 40
0.0
 40
0.0
 40
0.0
 40
0.0
 40
0.3180876348
 40
0.4882392509
 40
0.6492332904
 40
0.7892410107
 40
0.8981646633
 40
0.9686236342
 40
0.988542987
 40
1.0
 40
1.0
 40
1.0
 40
1.0
 10
134.4784151366
 20
305.1868152324
 30
0.0
 10
134.7724514646
 20
305.0170571197
 30
0.0
 10
135.2361373891
 20
304.7778736403
 30
0.0
 10
135.864791477
 20
304.4861320455
 30
0.0
 10
136.3275004579
 20
304.2892392704
 30
0.0
 10
136.736950172
 20
304.1332058885
 30
0.0
 10
137.0603483468
 20
304.0286703281
 30
0.0
 10
137.270914867
 20
303.9819458763
 30
0.0
 10
137.3780934641
 20
303.9789027467
 30
0.0
 10
137.412949036
 20
303.9949079537
 30
0.0
 10
137.4181727257
 20
304.0059651954
 30
0.0
  0
SPLINE
  5
5DB
100
AcDbEntity
  8
0
100
AcDbSpline
 62
7
  6
CONTINUOUS
 70
0
 71
3
 72
11
 73
7
 74
0
 42
0.0000001
 43
0.0000001
 44
0.0000000001
 40
0.0
 40
0.0
 40
0.0
 40
0.0
 40
0.2895378634
 40
0.5491098265
 40
0.7822517759
 40
1.0
 40
1.0
 40
1.0
 40
1.0
 10
120.0534968574
 20
246.888686565
 30
0.0
 10
119.9657894442
 20
246.9393233181
 30
0.0
 10
119.806626273
 20
247.0490624171
 30
0.0
 10
119.6162367121
 20
247.2489349792
 30
0.0
 10
119.4957686846
 20
247.470214238
 30
0.0
 10
119.4677974512
 20
247.6290103946
 30
0.0
 10
119.4677974479
 20
247.7051748728
 30
0.0
  0
SPLINE
  5
5DC
100
AcDbEntity
  8
0
100
AcDbSpline
 62
7
  6
CONTINUOUS
 70
0
 71
3
 72
15
 73
11
 74
0
 42
0.0000001
 43
0.0000001
 44
0.0000000001
 40
0.0
 40
0.0
 40
0.0
 40
0.0
 40
0.128811957
 40
0.2705750739
 40
0.4178851639
 40
0.5623910589
 40
0.6962053158
 40
0.8135958424
 40
0.9130658372
 40
1.0
 40
1.0
 40
1.0
 40
1.0
 10
120.2302625129
 20
216.5760019251
 30
0.0
 10
120.0822352923
 20
216.4905388796
 30
0.0
 10
119.7470232616
 20
216.3522548257
 30
0.0
 10
119.2007365525
 20
216.2428903577
 30
0.0
 10
118.6228472182
 20
216.2269582139
 30
0.0
 10
118.0608010215
 20
216.3058710117
 30
0.0
 10
117.5594156506
 20
216.4733963161
 30
0.0
 10
117.1578157252
 20
216.7181048388
 30
0.0
 10
116.885717133
 20
217.0275013353
 30
0.0
 10
116.816110023
 20
217.2771262607
 30
0.0
 10
116.8161155182
 20
217.392483433
 30
0.0
  0
SPLINE
  5
5DD
100
AcDbEntity
  8
0
100
AcDbSpline
 62
7
  6
CONTINUOUS
 70
0
 71
3
 72
11
 73
7
 74
0
 42
0.0000001
 43
0.0000001
 44
0.0000000001
 40
0.0
 40
0.0
 40
0.0
 40
0.0
 40
0.2177486811
 40
0.4508908272
 40
0.7104626199
 40
1.0
 40
1.0
 40
1.0
 40
1.0
 10
123.4676116158
 20
247.7051748728
 30
0.0
 10
123.4676116191
 20
247.6290112159
 30
0.0
 10
123.4396410233
 20
247.4702168908
 30
0.0
 10
123.3191756024
 20
247.2489397731
 30
0.0
 10
123.1287899014
 20
247.0490686929
 30
0.0
 10
122.969629754
 20
246.9393300125
 30
0.0
 10
122.8819239822
 20
246.8886933638
 30
0.0
  0
SPLINE
  5
5DE
100
AcDbEntity
  8
0
100
AcDbSpline
 62
7
  6
CONTINUOUS
 70
0
 71
3
 72
11
 73
7
 74
0
 42
0.0000001
 43
0.0000001
 44
0.0000000001
 40
0.0
 40
0.0
 40
0.0
 40
0.0
 40
0.2177416576
 40
0.4508857691
 40
0.7104589349
 40
1.0
 40
1.0
 40
1.0
 40
1.0
 10
120.815970607
 20
217.3924834353
 30
0.0
 10
120.815966979
 20
217.3163221127
 30
0.0
 10
120.7879682256
 20
217.1575351855
 30
0.0
 10
120.6675178385
 20
216.9362557646
 30
0.0
 10
120.4771328285
 20
216.7363766373
 30
0.0
 10
120.317969542
 20
216.6266392998
 30
0.0
 10
120.2302625129
 20
216.5760019251
 30
0.0
  0
SPLINE
  5
5DF
100
AcDbEntity
  8
0
100
AcDbSpline
 62
7
  6
CONTINUOUS
 70
0
 71
3
 72
14
 73
10
 74
0
 42
0.0000001
 43
0.0000001
 44
0.0000000001
 40
0.0
 40
0.0
 40
0.0
 40
0.0
 40
0.2500043204
 40
0.389025031
 40
0.5287519632
 40
0.6626505133
 40
0.7858427388
 40
0.8970257922
 40
1.0
 40
1.0
 40
1.0
 40
1.0
 10
121.8480540671
 20
227.5976409302
 30
0.0
 10
121.5192386547
 20
227.4078003965
 30
0.0
 10
120.894049279
 20
227.3050665087
 30
0.0
 10
120.1029111876
 20
227.4515807346
 30
0.0
 10
119.5215701968
 20
227.7028951365
 30
0.0
 10
119.0356748693
 20
228.0695747029
 30
0.0
 10
118.6900255476
 20
228.519782019
 30
0.0
 10
118.5227579464
 20
229.0160516953
 30
0.0
 10
118.5530948186
 20
229.3521428018
 30
0.0
 10
118.6021539944
 20
229.5006359811
 30
0.0
  0
SPLINE
  5
5E0
100
AcDbEntity
  8
0
100
AcDbSpline
 62
7
  6
CONTINUOUS
 70
0
 71
3
 72
12
 73
8
 74
0
 42
0.0000001
 43
0.0000001
 44
0.0000000001
 40
0.0
 40
0.0
 40
0.0
 40
0.0
 40
0.096153054
 40
0.196823823
 40
0.4234254977
 40
0.6931912823
 40
1.0
 40
1.0
 40
1.0
 40
1.0
 10
119.4677769875
 20
235.4576386147
 30
0.0
 10
119.4677740839
 20
235.3966863801
 30
0.0
 10
119.4852080256
 20
235.2713008029
 30
0.0
 10
119.5918577116
 20
235.0221051969
 30
0.0
 10
119.8595597591
 20
234.7394658775
 30
0.0
 10
120.310804357
 20
234.4934364524
 30
0.0
 10
120.6656279835
 20
234.3935725802
 30
0.0
 10
120.8568646145
 20
234.3581553098
 30
0.0
  0
ENDSEC
  0
SECTION
  2
OBJECTS
  0
DICTIONARY
  5
C
100
AcDbDictionary
280
0
281
1
  3
ACAD_GROUP
350
D
  3
ACAD_MLINESTYLE
350
17
  3
ACAD_LAYOUT
350
1A
  3
ACAD_PLOTSETTINGS
350
19
  3
ACAD_PLOTSTYLENAME
350
E
  0
DICTIONARY
  5
D
102
{ACAD_REACTORS
330
C
102
}
100
AcDbDictionary
280
0
281
1
  0
ACDBDICTIONARYWDFLT
  5
E
102
{ACAD_REACTORS
330
C
102
}
100
AcDbDictionary
281
1
  3
Normal
350
F
100
AcDbDictionaryWithDefault
340
F
  0
DICTIONARY
  5
17
102
{ACAD_REACTORS
330
C
102
}
100
AcDbDictionary
280
0
281
1
  3
Standard
350
18
  0
DICTIONARY
  5
19
102
{ACAD_REACTORS
330
C
102
}
100
AcDbDictionary
281
1
  0
DICTIONARY
  5
1A
102
{ACAD_REACTORS
330
C
102
}
100
AcDbDictionary
281
1
  3
Model
350
5E1
  3
Layout1
350
5E2
  0
ACDBPLACEHOLDER
  5
F
102
{ACAD_REACTORS
330
E
102
}
  0
MLINESTYLE
  5
18
102
{ACAD_REACTORS
330
17
102
}
100
AcDbMlineStyle
  2
STANDARD
 70
0
  3

 62
256
 51
90.0
 52
90.0
 71
2
 49
0.5
 62
256
  6
BYLAYER
 49
-0.5
 62
256
  6
BYLAYER
  0
LAYOUT
  5
5E1
102
{ACAD_REACTORS
330
1A
102
}
100
AcDbPlotSettings
  1

  2
none_device
  4

  6

 40
0.0
 41
0.0
 42
0.0
 43
0.0
 44
210.0
 45
297.0
 46
0.0
 47
0.0
 48
0.0
 49
0.0
140
0.0
141
0.0
142
1.0
143
1.0
 70
1024
 72
1
 73
0
 74
0
  7

 75
0
147
1.0
148
0.0
149
0.0
100
AcDbLayout
  1
Model
 70
0
 71
0
 10
0.0
 20
0.0
 11
210.0
 21
297.0
 12
0.0
 22
0.0
 32
0.0
 14
0.0
 24
0.0
 34
0.0
 15
0.0
 25
0.0
 35
0.0
146
0.0
 13
0.0
 23
0.0
 33
0.0
 16
1.0
 26
0.0
 36
0.0
 17
0.0
 27
1.0
 37
0.0
 76
0
330
210
345
0
346
0
  0
LAYOUT
  5
5E2
102
{ACAD_REACTORS
330
1A
102
}
100
AcDbPlotSettings
  1

  2
none_device
  4

  6

 40
0.0
 41
0.0
 42
0.0
 43
0.0
 44
210.0
 45
297.0
 46
0.0
 47
0.0
 48
0.0
 49
0.0
140
0.0
141
0.0
142
1.0
143
1.0
 70
0
 72
1
 73
0
 74
0
  7

 75
0
147
1.0
148
0.0
149
0.0
100
AcDbLayout
  1
Layout1
 70
0
 71
1
 10
0.0
 20
0.0
 11
210.0
 21
297.0
 12
0.0
 22
0.0
 32
0.0
 14
0.0
 24
0.0
 34
0.0
 15
0.0
 25
0.0
 35
0.0
146
0.0
 13
0.0
 23
0.0
 33
0.0
 16
1.0
 26
0.0
 36
0.0
 17
0.0
 27
1.0
 37
0.0
 76
0
330
211
345
0
346
0
  0
ENDSEC
  0
EOF
