999
DXF file: C:\Users\sesa63760\OneDrive - Schneider Electric\Documents\7-Dev\_Creo\CAD\MCADUE0000239_3D-CAD\drw0001_1.dxf
999
Pro/ENGINEER 2019471 by Parametric Technology Corporation
  0
SECTION
  2
HEADER
  9
$ACADVER
  1
AC1024
  9
$DWGCODEPAGE
  3
ANSI_1252
  9
$EXTMAX
 10
472.4334840773
 20
668.1559274807
 30
0.0
  9
$EXTMIN
 10
0.0
 20
0.0
 30
0.0
  9
$LIMMIN
 10
0.0
 20
0.0
  9
$LIMMAX
 10
472.4334840773
 20
668.1559274807
  9
$VIEWCTR
 10
236.2167420386
 20
334.0779637404
  9
$VIEWSIZE
 40
668.1559274807
  9
$CLAYER
  8
0
  9
$LTSCALE
 40
43.5538678654
  9
$CELTYPE
  6
BYLAYER
  9
$DIMSCALE
 40
1.0
  9
$DIMASZ
 40
5.6242081438
  9
$DIMEXO
 40
1.0
  9
$DIMDLI
 40
30.0917632525
  9
$DIMEXE
 40
1.0
  9
$DIMCEN
 40
7.1269965598
  9
$DIMLFAC
 40
1.0
  9
$DIMBLK
  1
_FILLED
  9
$DIMALT
 70
0
  9
$DIMALTF
 40
0.0393700787
  9
$DIMTXT
 40
7.8738914013
  9
$DIMTOL
 70
1
  9
$DIMLIM
 70
0
  9
$DIMTFAC
 40
1.0
  9
$DIMTP
 40
0.01
  9
$DIMTM
 40
0.01
  9
$DIMGAP
 40
0.625
  9
$DIMDSEP
 70
46
  9
$AUNITS
 70
0
  9
$PDMODE
 70
3
  9
$PDSIZE
 40
0.3125
  9
$HANDSEED
  5
526
  9
$TILEMODE
 70
1
  9
$MEASUREMENT
 70
1
  9
$INSUNITS
 70
4
  0
ENDSEC
  0
SECTION
  2
CLASSES
  0
CLASS
  1
ACDBDICTIONARYWDFLT
  2
AcDbDictionaryWithDefault
  3
AutoCAD 2000
 90
0
 91
1
280
0
281
0
  0
CLASS
  1
ACDBPLACEHOLDER
  2
AcDbPlaceHolder
  3
AutoCAD 2000
 90
0
 91
1
280
0
281
0
  0
CLASS
  1
LAYOUT
  2
AcDbLayout
  3
AutoCAD 2000
 90
0
 91
0
280
0
281
0
  0
ENDSEC
  0
SECTION
  2
TABLES
  0
TABLE
  2
VPORT
  5
8
100
AcDbSymbolTable
 70
2
  0
VPORT
  5
1F4
100
AcDbSymbolTableRecord
100
AcDbViewportTableRecord
  2
*ACTIVE
 70
0
 10
0.0
 20
0.0
 11
1.0
 21
1.0
 12
236.2167420386
 22
334.0779637404
 13
0.0
 23
0.0
 14
1.0
 24
1.0
 15
0.0
 25
0.0
 16
0.0
 26
0.0
 36
1.0
 17
0.0
 27
0.0
 37
0.0
 40
668.1559274807
 41
0.7070707071
 42
50.0
 43
0.0
 44
0.0
 50
0.0
 51
0.0
 71
0
 72
100
 73
1
 74
1
 75
0
 76
0
 77
0
 78
0
  0
ENDTAB
  0
TABLE
  2
LTYPE
  5
5
100
AcDbSymbolTable
 70
6
  0
LTYPE
  5
14
100
AcDbSymbolTableRecord
100
AcDbLinetypeTableRecord
  2
BYBLOCK
 70
0
  3

 72
65
 73
0
 40
0.0
  0
LTYPE
  5
15
100
AcDbSymbolTableRecord
100
AcDbLinetypeTableRecord
  2
BYLAYER
 70
0
  3

 72
65
 73
0
 40
0.0
  0
LTYPE
  5
16
100
AcDbSymbolTableRecord
100
AcDbLinetypeTableRecord
  2
CONTINUOUS
 70
64
  3
Solid line
 72
65
 73
0
 40
0.0
  0
LTYPE
  5
1F5
100
AcDbSymbolTableRecord
100
AcDbLinetypeTableRecord
  2
CENTER
 70
64
  3
____ _ ____ _ ____ _ ____ _ ____ _ ____ _ ____
 72
65
 73
4
 40
0.6
 49
0.375
 74
0
 49
-0.075
 74
0
 49
0.075
 74
0
 49
-0.075
 74
0
  0
LTYPE
  5
1F6
100
AcDbSymbolTableRecord
100
AcDbLinetypeTableRecord
  2
HIDDEN
 70
64
  3
- - - - - - - - - - - - - - - - - - - -
 72
65
 73
2
 40
0.2
 49
0.1
 74
0
 49
-0.1
 74
0
  0
LTYPE
  5
1F7
100
AcDbSymbolTableRecord
100
AcDbLinetypeTableRecord
  2
PHANTOM
 70
64
  3
_____ _ _ _____ _ _ _____ _ _ _____
 72
65
 73
6
 40
0.8
 49
0.45
 74
0
 49
-0.05
 74
0
 49
0.1
 74
0
 49
-0.05
 74
0
 49
0.1
 74
0
 49
-0.05
 74
0
  0
LTYPE
  5
1F8
100
AcDbSymbolTableRecord
100
AcDbLinetypeTableRecord
  2
DOT
 70
64
  3
. . . . . . . . . . . . . . . . . . . .
 72
65
 73
2
 40
0.2
 49
0.1
 74
0
 49
-0.1
 74
0
  0
LTYPE
  5
1F9
100
AcDbSymbolTableRecord
100
AcDbLinetypeTableRecord
  2
DASHED
 70
64
  3
- - - - - - - - - - - - - - - - - - - -
 72
65
 73
2
 40
0.2
 49
0.1
 74
0
 49
-0.1
 74
0
  0
ENDTAB
  0
TABLE
  2
LAYER
  5
2
100
AcDbSymbolTable
 70
36
  0
LAYER
  5
10
100
AcDbSymbolTableRecord
100
AcDbLayerTableRecord
  2
0
 70
0
 62
7
  6
CONTINUOUS
370
-3
390
F
  0
LAYER
  5
1FA
100
AcDbSymbolTableRecord
100
AcDbLayerTableRecord
  2
DEFAULT_1
 70
0
 62
7
  6
CENTER
370
-3
390
F
  0
LAYER
  5
1FB
100
AcDbSymbolTableRecord
100
AcDbLayerTableRecord
  2
DEFAULT_2
 70
0
 62
8
  6
HIDDEN
370
-3
390
F
  0
LAYER
  5
1FC
100
AcDbSymbolTableRecord
100
AcDbLayerTableRecord
  2
DEFAULT_3
 70
0
 62
7
  6
PHANTOM
370
-3
390
F
  0
LAYER
  5
1FD
100
AcDbSymbolTableRecord
100
AcDbLayerTableRecord
  2
00_COMPONENTS
 70
0
 62
7
  6
CONTINUOUS
370
-3
390
F
  0
LAYER
  5
1FE
100
AcDbSymbolTableRecord
100
AcDbLayerTableRecord
  2
01_1_DEFAULT_DATUMS
 70
0
 62
7
  6
CONTINUOUS
370
-3
390
F
  0
LAYER
  5
1FF
100
AcDbSymbolTableRecord
100
AcDbLayerTableRecord
  2
01_PLANES
 70
0
 62
7
  6
CONTINUOUS
370
-3
390
F
  0
LAYER
  5
200
100
AcDbSymbolTableRecord
100
AcDbLayerTableRecord
  2
02_COORD_SYS
 70
0
 62
7
  6
CONTINUOUS
370
-3
390
F
  0
LAYER
  5
201
100
AcDbSymbolTableRecord
100
AcDbLayerTableRecord
  2
03_AXES
 70
0
 62
7
  6
CONTINUOUS
370
-3
390
F
  0
LAYER
  5
202
100
AcDbSymbolTableRecord
100
AcDbLayerTableRecord
  2
04_POINTS
 70
0
 62
7
  6
CONTINUOUS
370
-3
390
F
  0
LAYER
  5
203
100
AcDbSymbolTableRecord
100
AcDbLayerTableRecord
  2
05_CURVES
 70
0
 62
7
  6
CONTINUOUS
370
-3
390
F
  0
LAYER
  5
204
100
AcDbSymbolTableRecord
100
AcDbLayerTableRecord
  2
06_SURFS
 70
0
 62
7
  6
CONTINUOUS
370
-3
390
F
  0
LAYER
  5
205
100
AcDbSymbolTableRecord
100
AcDbLayerTableRecord
  2
07_COSMETICS
 70
0
 62
7
  6
CONTINUOUS
370
-3
390
F
  0
LAYER
  5
206
100
AcDbSymbolTableRecord
100
AcDbLayerTableRecord
  2
10_NOTES
 70
0
 62
7
  6
CONTINUOUS
370
-3
390
F
  0
LAYER
  5
207
100
AcDbSymbolTableRecord
100
AcDbLayerTableRecord
  2
11_NOTES_PUB
 70
0
 62
7
  6
CONTINUOUS
370
-3
390
F
  0
LAYER
  5
208
100
AcDbSymbolTableRecord
100
AcDbLayerTableRecord
  2
13_REF_GTOL
 70
0
 62
7
  6
CONTINUOUS
370
-3
390
F
  0
LAYER
  5
209
100
AcDbSymbolTableRecord
100
AcDbLayerTableRecord
  2
16_MISC
 70
0
 62
7
  6
CONTINUOUS
370
-3
390
F
  0
LAYER
  5
20A
100
AcDbSymbolTableRecord
100
AcDbLayerTableRecord
  2
17_NO_PRINT
 70
0
 62
7
  6
CONTINUOUS
370
-3
390
F
  0
LAYER
  5
20B
100
AcDbSymbolTableRecord
100
AcDbLayerTableRecord
  2
18_DATUM_CAMS_JOINTS
 70
0
 62
7
  6
CONTINUOUS
370
-3
390
F
  0
LAYER
  5
20C
100
AcDbSymbolTableRecord
100
AcDbLayerTableRecord
  2
19_DATUM_FUNCTIONAL
 70
0
 62
7
  6
CONTINUOUS
370
-3
390
F
  0
LAYER
  5
20D
100
AcDbSymbolTableRecord
100
AcDbLayerTableRecord
  2
20_DATUM_KINEMATIC_SCHEME
 70
0
 62
7
  6
CONTINUOUS
370
-3
390
F
  0
ENDTAB
  0
TABLE
  2
STYLE
  5
3
100
AcDbSymbolTable
 70
1
  0
STYLE
  5
11
100
AcDbSymbolTableRecord
100
AcDbTextStyleTableRecord
  2
STANDARD
 70
0
 40
0.0
 41
0.8
 50
0.0
 71
0
 42
0.2
  3
txt
  4

  0
STYLE
  5
20E
100
AcDbSymbolTableRecord
100
AcDbTextStyleTableRecord
  2
TEXTSTYLE_1
 70
0
 40
0.0
 41
0.8
 50
0.0
 71
0
 42
0.2
  3
gdt
  4

  0
ENDTAB
  0
TABLE
  2
VIEW
  5
6
100
AcDbSymbolTable
 70
0
  0
ENDTAB
  0
TABLE
  2
UCS
  5
7
100
AcDbSymbolTable
 70
0
  0
ENDTAB
  0
TABLE
  2
APPID
  5
9
100
AcDbSymbolTable
 70
1
  0
APPID
  5
20F
100
AcDbSymbolTableRecord
100
AcDbRegAppTableRecord
  2
ACAD
 70
0
  0
ENDTAB
  0
TABLE
  2
BLOCK_RECORD
  5
1
100
AcDbSymbolTable
 70
0
  0
BLOCK_RECORD
  5
210
100
AcDbSymbolTableRecord
100
AcDbBlockTableRecord
  2
*Model_Space
  0
BLOCK_RECORD
  5
211
100
AcDbSymbolTableRecord
100
AcDbBlockTableRecord
  2
*Paper_Space
  0
BLOCK_RECORD
  5
212
100
AcDbSymbolTableRecord
100
AcDbBlockTableRecord
  2
_FILLED
  0
ENDTAB
  0
TABLE
  2
DIMSTYLE
  5
A
100
AcDbSymbolTable
 70
1
100
AcDbDimStyleTable
 71
0
  0
DIMSTYLE
105
213
100
AcDbSymbolTableRecord
100
AcDbDimStyleTableRecord
  2
STANDARD
 70
0
  3

  4

 40
1.0
 41
5.6242081438
 42
1.0
 43
0.38
 44
1.0
 45
0.0
 46
0.0
 47
0.01
 48
0.01
140
7.8738914013
141
0.09
142
0.0
143
25.4
144
1.0
145
0.0
146
1.0
147
0.625
 71
1
 72
0
 73
0
 74
0
 75
0
 76
0
 77
1
 78
8
 79
2
170
0
171
1
172
0
173
0
174
0
175
0
176
0
177
0
178
0
270
2
179
2
271
2
272
2
273
2
274
2
275
0
280
0
281
0
282
0
283
1
284
8
285
0
286
0
287
3
288
0
340
11
278
46
341
212
342
212
343
212
344
212
  0
ENDTAB
  0
ENDSEC
  0
SECTION
  2
BLOCKS
  0
BLOCK
  5
20
100
AcDbEntity
  8
0
100
AcDbBlockBegin
  2
*Model_Space
 70
0
 10
0.0
 20
0.0
 30
0.0
  3
*Model_Space
  1

  0
ENDBLK
  5
21
100
AcDbEntity
  8
0
100
AcDbBlockEnd
  0
BLOCK
  5
1C
100
AcDbEntity
  8
0
100
AcDbBlockBegin
  2
*Paper_Space
 70
0
 10
0.0
 20
0.0
 30
0.0
  3
*Paper_Space
  1

  0
ENDBLK
  5
1D
100
AcDbEntity
  8
0
100
AcDbBlockEnd
  0
BLOCK
  5
214
100
AcDbEntity
  8
0
100
AcDbBlockBegin
  2
_FILLED
 70
64
 10
0.0
 20
0.0
  3
_FILLED
  1

  0
SOLID
  5
215
100
AcDbEntity
  8
0
  6
BYBLOCK
 62
0
100
AcDbTrace
 10
0.0
 20
0.0
 11
-1.0
 21
0.25
 12
-1.0
 22
-0.25
 13
-1.0
 23
-0.25
  0
ENDBLK
  5
216
100
AcDbEntity
  8
0
  6
BYBLOCK
 62
0
100
AcDbBlockEnd
  0
ENDSEC
  0
SECTION
  2
ENTITIES
  0
LINE
  5
217
100
AcDbEntity
  8
0
100
AcDbLine
 62
7
  6
CONTINUOUS
 10
203.8225538309
 20
618.2174887276
 11
74.4225516208
 21
543.5088085691
  0
LINE
  5
218
100
AcDbEntity
  8
0
100
AcDbLine
 62
7
  6
CONTINUOUS
 10
97.0499686185
 20
543.5088629587
 11
214.429205596
 21
611.2773925014
  0
LINE
  5
219
100
AcDbEntity
  8
0
100
AcDbLine
 62
7
  6
CONTINUOUS
 10
98.4642125073
 20
542.6923673404
 11
214.429205596
 21
609.6443876671
  0
LINE
  5
21A
100
AcDbEntity
  8
0
100
AcDbLine
 62
7
  6
CONTINUOUS
 10
165.2856802705
 20
554.7356594486
 11
154.6791227123
 21
548.6119971405
  0
LINE
  5
21B
100
AcDbEntity
  8
0
100
AcDbLine
 62
7
  6
CONTINUOUS
 10
165.2863873817
 20
553.1022463762
 11
156.093563022
 21
547.7953881211
  0
LINE
  5
21C
100
AcDbEntity
  8
0
100
AcDbLine
 62
7
  6
CONTINUOUS
 10
176.4356425174
 20
116.4782671381
 11
175.1856874542
 21
116.6020094742
  0
LINE
  5
21D
100
AcDbEntity
  8
0
100
AcDbLine
 62
7
  6
CONTINUOUS
 10
173.935732391
 20
120.808263896
 11
175.1856874542
 21
120.6845215599
  0
LINE
  5
21E
100
AcDbEntity
  8
0
100
AcDbLine
 62
7
  6
CONTINUOUS
 10
275.9488232876
 20
51.5690816512
 11
74.4225516208
 21
167.9176966895
  0
LINE
  5
21F
100
AcDbEntity
  8
0
100
AcDbLine
 62
7
  6
CONTINUOUS
 10
168.8213172152
 20
540.4471820501
 11
179.4278747734
 21
546.5708443582
  0
LINE
  5
220
100
AcDbEntity
  8
0
100
AcDbLine
 62
7
  6
CONTINUOUS
 10
74.4225516208
 20
543.5088085691
 11
74.4225516208
 21
167.9176966895
  0
LINE
  5
221
100
AcDbEntity
  8
0
100
AcDbLine
 62
7
  6
CONTINUOUS
 10
99.8783780795
 20
542.6923148141
 11
99.8783780795
 21
543.5088313406
  0
LINE
  5
222
100
AcDbEntity
  8
0
100
AcDbLine
 62
7
  6
CONTINUOUS
 10
100.4441011872
 20
332.3614055771
 11
100.4441011872
 21
335.6027680017
  0
LINE
  5
223
100
AcDbEntity
  8
0
100
AcDbLine
 62
7
  6
CONTINUOUS
 10
100.4441011872
 20
349.2107378378
 11
100.4441011872
 21
364.1803526013
  0
LINE
  5
224
100
AcDbEntity
  8
0
100
AcDbLine
 62
7
  6
CONTINUOUS
 10
100.4441011872
 20
377.7883224373
 11
100.4441011872
 21
392.7579372008
  0
LINE
  5
225
100
AcDbEntity
  8
0
100
AcDbLine
 62
7
  6
CONTINUOUS
 10
109.4242798818
 20
548.2036108913
 11
109.4242798818
 21
549.0201274178
  0
LINE
  5
226
100
AcDbEntity
  8
0
100
AcDbLine
 62
7
  6
CONTINUOUS
 10
110.9164845356
 20
386.7118406365
 11
103.6756809501
 21
373.7951311404
  0
LINE
  5
227
100
AcDbEntity
  8
0
100
AcDbLine
 62
7
  6
CONTINUOUS
 10
97.0152126985
 20
322.093807848
 11
90.4527290898
 21
341.3711588733
  0
LINE
  5
228
100
AcDbEntity
  8
0
100
AcDbLine
 62
7
  6
CONTINUOUS
 10
94.1173273512
 20
339.2554499443
 11
99.475934052
 21
323.5144975035
  0
LINE
  5
229
100
AcDbEntity
  8
0
100
AcDbLine
 62
7
  6
CONTINUOUS
 10
97.6935326755
 20
348.6788217861
 11
90.4527290898
 21
369.9487434728
  0
LINE
  5
22A
100
AcDbEntity
  8
0
100
AcDbLine
 62
7
  6
CONTINUOUS
 10
118.9701816842
 20
553.7149069686
 11
118.9701816842
 21
554.5314234951
  0
LINE
  5
22B
100
AcDbEntity
  8
0
100
AcDbLine
 62
7
  6
CONTINUOUS
 10
128.1627670853
 20
527.9956894675
 11
128.1627670853
 21
526.3626846333
  0
LINE
  5
22C
100
AcDbEntity
  8
0
100
AcDbLine
 62
7
  6
CONTINUOUS
 10
128.5160834866
 20
559.2262030459
 11
128.5160834866
 21
560.0427195724
  0
LINE
  5
22D
100
AcDbEntity
  8
0
100
AcDbLine
 62
7
  6
CONTINUOUS
 10
110.9164845356
 20
358.134256037
 11
103.6756809501
 21
345.2175465409
  0
LINE
  5
22E
100
AcDbEntity
  8
0
100
AcDbLine
 62
7
  6
CONTINUOUS
 10
133.8975506029
 20
373.4440161146
 11
126.6567470174
 21
360.5273066185
  0
LINE
  5
22F
100
AcDbEntity
  8
0
100
AcDbLine
 62
7
  6
CONTINUOUS
 10
110.9164845356
 20
329.5566714374
 11
104.3569021383
 21
317.8551773642
  0
LWPOLYLINE
  5
230
100
AcDbEntity
  8
0
100
AcDbPolyline
 62
7
  6
CONTINUOUS
 90
3
 70
0
 10
131.0818494331
 20
375.0696251667
 10
127.0763687543
 20
370.4766994442
 10
125.2144190151
 20
360.8049760831
  0
LINE
  5
231
100
AcDbEntity
  8
0
100
AcDbLine
 62
7
  6
CONTINUOUS
 10
284.0801140952
 20
486.1512126892
 11
273.473556537
 21
480.0275503811
  0
LINE
  5
232
100
AcDbEntity
  8
0
100
AcDbLine
 62
7
  6
CONTINUOUS
 10
100.154254029
 20
378.6770960413
 11
97.6935326754
 21
377.2564063861
  0
LINE
  5
233
100
AcDbEntity
  8
0
100
AcDbLine
 62
7
  6
CONTINUOUS
 10
283.5492047809
 20
483.5570938197
 11
284.080854903
 21
483.8640403286
  0
LINE
  5
234
100
AcDbEntity
  8
0
100
AcDbLine
 62
7
  6
CONTINUOUS
 10
276.2659746119
 20
479.3519986948
 11
276.9730784491
 21
479.7602428487
  0
LINE
  5
235
100
AcDbEntity
  8
0
100
AcDbLine
 62
7
  6
CONTINUOUS
 10
268.9827444429
 20
475.1469035699
 11
269.6898482801
 21
475.5551477238
  0
LINE
  5
236
100
AcDbEntity
  8
0
100
AcDbLine
 62
7
  6
CONTINUOUS
 10
284.0808211882
 20
484.5177996063
 11
274.8879968467
 21
479.2109413617
  0
LINE
  5
237
100
AcDbEntity
  8
0
100
AcDbLine
 62
7
  6
CONTINUOUS
 10
94.1173273512
 20
367.8330345439
 11
100.154254029
 21
350.0995114417
  0
LINE
  5
238
100
AcDbEntity
  8
0
100
AcDbLine
 62
7
  6
CONTINUOUS
 10
119.9962787658
 20
308.8259833261
 11
113.4337951571
 21
328.1033343513
  0
LINE
  5
239
100
AcDbEntity
  8
0
100
AcDbLine
 62
7
  6
CONTINUOUS
 10
97.6935326755
 20
377.2564063856
 11
90.4527290898
 21
398.5263280723
  0
LINE
  5
23A
100
AcDbEntity
  8
0
100
AcDbLine
 62
7
  6
CONTINUOUS
 10
117.0983934185
 20
325.9876254224
 11
122.4570001193
 21
310.2466729815
  0
LINE
  5
23B
100
AcDbEntity
  8
0
100
AcDbLine
 62
7
  6
CONTINUOUS
 10
94.1173273512
 20
396.4106191434
 11
100.154254029
 21
378.6770960413
  0
LINE
  5
23C
100
AcDbEntity
  8
0
100
AcDbLine
 62
7
  6
CONTINUOUS
 10
120.6745987428
 20
335.4109972642
 11
113.4337951571
 21
356.6809189509
  0
LINE
  5
23D
100
AcDbEntity
  8
0
100
AcDbLine
 62
7
  6
CONTINUOUS
 10
117.0983934185
 20
354.565210022
 11
123.1353200962
 21
336.8316869198
  0
LWPOLYLINE
  5
23E
100
AcDbEntity
  8
0
100
AcDbPolyline
 62
7
  6
CONTINUOUS
 90
3
 70
0
 10
125.9263259381
 20
349.468516108
 10
127.052362283
 20
342.285845906
 10
129.4069100116
 20
336.8556770064
  0
LINE
  5
23F
100
AcDbEntity
  8
0
100
AcDbLine
 62
7
  6
CONTINUOUS
 10
137.7086688877
 20
533.5069855448
 11
137.7086688877
 21
531.8739807105
  0
LINE
  5
240
100
AcDbEntity
  8
0
100
AcDbLine
 62
7
  6
CONTINUOUS
 10
137.7087483748
 20
520.8514344472
 11
137.7087483748
 21
522.4844392815
  0
LINE
  5
241
100
AcDbEntity
  8
0
100
AcDbLine
 62
7
  6
CONTINUOUS
 10
147.2545706901
 20
539.018281622
 11
147.2545706901
 21
537.3852767878
  0
LINE
  5
242
100
AcDbEntity
  8
0
100
AcDbLine
 62
7
  6
CONTINUOUS
 10
147.2546501772
 20
526.3627305245
 11
147.2546501772
 21
527.9957353588
  0
LINE
  5
243
100
AcDbEntity
  8
0
100
AcDbLine
 62
7
  6
CONTINUOUS
 10
133.8975506029
 20
344.8664315151
 11
126.6567470174
 21
331.949722019
  0
LINE
  5
244
100
AcDbEntity
  8
0
100
AcDbLine
 62
7
  6
CONTINUOUS
 10
156.8786166701
 20
360.1761915927
 11
149.6378130846
 21
347.2594820966
  0
LINE
  5
245
100
AcDbEntity
  8
0
100
AcDbLine
 62
7
  6
CONTINUOUS
 10
102.0202092072
 20
370.8878493298
 11
100.6846068127
 21
370.1167435307
  0
LINE
  5
246
100
AcDbEntity
  8
0
100
AcDbLine
 62
7
  6
CONTINUOUS
 10
283.5492047809
 20
475.1471189232
 11
284.0812884019
 21
475.4543157113
  0
LINE
  5
247
100
AcDbEntity
  8
0
100
AcDbLine
 62
7
  6
CONTINUOUS
 10
276.2659746119
 20
470.9420237984
 11
276.9730784491
 21
471.3502679522
  0
LINE
  5
248
100
AcDbEntity
  8
0
100
AcDbLine
 62
7
  6
CONTINUOUS
 10
287.6157510399
 20
471.8627352907
 11
298.2223085981
 21
477.9863975988
  0
LINE
  5
249
100
AcDbEntity
  8
0
100
AcDbLine
 62
7
  6
CONTINUOUS
 10
283.5492047809
 20
466.7371440268
 11
284.2563086181
 21
467.1453881807
  0
LINE
  5
24A
100
AcDbEntity
  8
0
100
AcDbLine
 62
7
  6
CONTINUOUS
 10
290.8324349499
 20
462.5322642553
 11
291.5395387871
 21
462.9405084091
  0
LINE
  5
24B
100
AcDbEntity
  8
0
100
AcDbLine
 62
7
  6
CONTINUOUS
 10
123.1353200962
 20
365.4092715194
 11
120.6745987426
 21
363.9885818642
  0
LWPOLYLINE
  5
24C
100
AcDbEntity
  8
0
100
AcDbPolyline
 62
7
  6
CONTINUOUS
 90
3
 70
0
 10
128.907730664
 20
335.9652019999
 10
126.3692649171
 20
341.7970607475
 10
125.0844312681
 20
349.9545732262
  0
LINE
  5
24D
100
AcDbEntity
  8
0
100
AcDbLine
 62
7
  6
CONTINUOUS
 10
142.977344833
 20
295.5581588042
 11
136.4148612244
 21
314.8355098294
  0
LINE
  5
24E
100
AcDbEntity
  8
0
100
AcDbLine
 62
7
  6
CONTINUOUS
 10
120.6745987428
 20
363.9885818637
 11
113.4337951571
 21
385.2585035504
  0
LINE
  5
24F
100
AcDbEntity
  8
0
100
AcDbLine
 62
7
  6
CONTINUOUS
 10
140.0794594857
 20
312.7198009005
 11
145.4380661865
 21
296.9788484596
  0
LINE
  5
250
100
AcDbEntity
  8
0
100
AcDbLine
 62
7
  6
CONTINUOUS
 10
117.0983934185
 20
383.1427946215
 11
123.1353200962
 21
365.4092715193
  0
LINE
  5
251
100
AcDbEntity
  8
0
100
AcDbLine
 62
7
  6
CONTINUOUS
 10
143.6556648101
 20
322.1431727421
 11
136.4148612244
 21
343.413094429
  0
LINE
  5
252
100
AcDbEntity
  8
0
100
AcDbLine
 62
7
  6
CONTINUOUS
 10
140.0794594857
 20
341.2973855
 11
146.1163861635
 21
323.5638623979
  0
LINE
  5
253
100
AcDbEntity
  8
0
100
AcDbLine
 62
7
  6
CONTINUOUS
 10
165.9584109003
 20
282.2903342822
 11
159.3959272917
 21
301.5676853075
  0
LINE
  5
254
100
AcDbEntity
  8
0
100
AcDbLine
 62
7
  6
CONTINUOUS
 10
143.6556648101
 20
350.7207573417
 11
136.4148612244
 21
371.9906790285
  0
LINE
  5
255
100
AcDbEntity
  8
0
100
AcDbLine
 62
7
  6
CONTINUOUS
 10
156.8004724925
 20
544.5295776993
 11
156.8004724925
 21
542.896572865
  0
LINE
  5
256
100
AcDbEntity
  8
0
100
AcDbLine
 62
7
  6
CONTINUOUS
 10
156.8005519796
 20
531.8740266018
 11
156.8005519796
 21
533.507031436
  0
LINE
  5
257
100
AcDbEntity
  8
0
100
AcDbLine
 62
7
  6
CONTINUOUS
 10
165.2857981218
 20
554.7355914086
 11
165.2869345296
 21
542.4877126821
  0
LINE
  5
258
100
AcDbEntity
  8
0
100
AcDbLine
 62
7
  6
CONTINUOUS
 10
165.9931373807
 20
506.1548091007
 11
165.9931373807
 21
504.5218042664
  0
LINE
  5
259
100
AcDbEntity
  8
0
100
AcDbLine
 62
7
  6
CONTINUOUS
 10
166.346453782
 20
537.385322679
 11
166.346453782
 21
539.0183275133
  0
LINE
  5
25A
100
AcDbEntity
  8
0
100
AcDbLine
 62
7
  6
CONTINUOUS
 10
175.5390391831
 20
511.6661051779
 11
175.5390391831
 21
510.0331003437
  0
LINE
  5
25B
100
AcDbEntity
  8
0
100
AcDbLine
 62
7
  6
CONTINUOUS
 10
175.5391186702
 20
499.0105540804
 11
175.5391186702
 21
500.6435589147
  0
LINE
  5
25C
100
AcDbEntity
  8
0
100
AcDbLine
 62
7
  6
CONTINUOUS
 10
133.8975506029
 20
316.2888469155
 11
127.3379682056
 21
304.5873528423
  0
LINE
  5
25D
100
AcDbEntity
  8
0
100
AcDbLine
 62
7
  6
CONTINUOUS
 10
156.8786166701
 20
331.5986069932
 11
149.6378130846
 21
318.6818974971
  0
LINE
  5
25E
100
AcDbEntity
  8
0
100
AcDbLine
 62
7
  6
CONTINUOUS
 10
100.154254029
 20
350.0995114417
 11
97.6935326754
 21
348.6788217865
  0
LINE
  5
25F
100
AcDbEntity
  8
0
100
AcDbLine
 62
7
  6
CONTINUOUS
 10
298.1156651189
 20
458.3273844837
 11
298.8227689561
 21
458.7356286376
  0
LINE
  5
260
100
AcDbEntity
  8
0
100
AcDbLine
 62
7
  6
CONTINUOUS
 10
125.0012752744
 20
357.6200248079
 11
123.66567288
 21
356.8489190088
  0
LINE
  5
261
100
AcDbEntity
  8
0
100
AcDbLine
 62
7
  6
CONTINUOUS
 10
102.0202092072
 20
342.3102647302
 11
100.6846068127
 21
341.5391589312
  0
LINE
  5
262
100
AcDbEntity
  8
0
100
AcDbLine
 62
7
  6
CONTINUOUS
 10
393.3279660582
 20
507.9924816077
 11
275.9487290807
 21
440.2239520651
  0
LINE
  5
263
100
AcDbEntity
  8
0
100
AcDbLine
 62
7
  6
CONTINUOUS
 10
100.4441011872
 20
332.3614055771
 11
97.1179593359
 21
330.4410681468
  0
LINE
  5
264
100
AcDbEntity
  8
0
100
AcDbLine
 62
7
  6
CONTINUOUS
 10
242.243298542
 20
238.2482302328
 11
234.9016091022
 21
242.4868607165
  0
LINE
  5
265
100
AcDbEntity
  8
0
100
AcDbLine
 62
7
  6
CONTINUOUS
 10
219.2622324747
 20
251.5160547547
 11
211.9205430349
 21
255.7546852384
  0
LINE
  5
266
100
AcDbEntity
  8
0
100
AcDbLine
 62
7
  6
CONTINUOUS
 10
196.2811664074
 20
264.7838792766
 11
188.9394769676
 21
269.0225097603
  0
LINE
  5
267
100
AcDbEntity
  8
0
100
AcDbLine
 62
7
  6
CONTINUOUS
 10
173.3001003401
 20
278.0517037985
 11
165.9584109003
 21
282.2903342822
  0
LINE
  5
268
100
AcDbEntity
  8
0
100
AcDbLine
 62
7
  6
CONTINUOUS
 10
150.3190342729
 20
291.3195283204
 11
142.977344833
 21
295.5581588042
  0
LINE
  5
269
100
AcDbEntity
  8
0
100
AcDbLine
 62
7
  6
CONTINUOUS
 10
127.3379682056
 20
304.5873528423
 11
119.9962787658
 21
308.8259833261
  0
LINE
  5
26A
100
AcDbEntity
  8
0
100
AcDbLine
 62
7
  6
CONTINUOUS
 10
104.3569021383
 20
317.8551773642
 11
97.0152126985
 21
322.093807848
  0
LINE
  5
26B
100
AcDbEntity
  8
0
100
AcDbLine
 62
7
  6
CONTINUOUS
 10
195.868621891
 20
268.4921029894
 11
197.7507683938
 21
267.4054697823
  0
LINE
  5
26C
100
AcDbEntity
  8
0
100
AcDbLine
 62
7
  6
CONTINUOUS
 10
197.9928134019
 20
267.837248523
 11
196.9292776469
 21
268.4512672865
  0
LINE
  5
26D
100
AcDbEntity
  8
0
100
AcDbLine
 62
7
  6
CONTINUOUS
 10
198.2694514479
 20
268.3307370196
 11
196.9292776469
 21
269.1044692202
  0
LINE
  5
26E
100
AcDbEntity
  8
0
100
AcDbLine
 62
7
  6
CONTINUOUS
 10
100.4441011872
 20
332.3614055771
 11
109.5437326786
 21
327.1078497373
  0
LINE
  5
26F
100
AcDbEntity
  8
0
100
AcDbLine
 62
7
  6
CONTINUOUS
 10
118.4717524243
 20
321.9533717437
 11
132.5247987459
 21
313.8400252154
  0
LINE
  5
270
100
AcDbEntity
  8
0
100
AcDbLine
 62
7
  6
CONTINUOUS
 10
141.4528184916
 20
308.6855472218
 11
155.5058648132
 21
300.5722006935
  0
LINE
  5
271
100
AcDbEntity
  8
0
100
AcDbLine
 62
7
  6
CONTINUOUS
 10
164.4338845589
 20
295.4177226999
 11
178.4869308805
 21
287.3043761716
  0
LINE
  5
272
100
AcDbEntity
  8
0
100
AcDbLine
 62
7
  6
CONTINUOUS
 10
187.4149506262
 20
282.149898178
 11
201.4679969477
 21
274.0365516497
  0
LINE
  5
273
100
AcDbEntity
  8
0
100
AcDbLine
 62
7
  6
CONTINUOUS
 10
210.3960166934
 20
268.8820736561
 11
224.449063015
 21
260.7687271278
  0
LINE
  5
274
100
AcDbEntity
  8
0
100
AcDbLine
 62
7
  6
CONTINUOUS
 10
233.3770827607
 20
255.6142491342
 11
247.4301290823
 21
247.5009026059
  0
LINE
  5
275
100
AcDbEntity
  8
0
100
AcDbLine
 62
7
  6
CONTINUOUS
 10
281.8531403284
 20
227.6272173995
 11
286.5553808459
 21
224.9124389874
  0
LINE
  5
276
100
AcDbEntity
  8
0
100
AcDbLine
 62
7
  6
CONTINUOUS
 10
90.4527290898
 20
341.3711588733
 11
110.9164845356
 21
329.5566714374
  0
LINE
  5
277
100
AcDbEntity
  8
0
100
AcDbLine
 62
7
  6
CONTINUOUS
 10
113.4337951571
 20
328.1033343513
 11
133.8975506029
 21
316.2888469155
  0
LINE
  5
278
100
AcDbEntity
  8
0
100
AcDbLine
 62
7
  6
CONTINUOUS
 10
136.4148612244
 20
314.8355098294
 11
156.8786166701
 21
303.0210223936
  0
LINE
  5
279
100
AcDbEntity
  8
0
100
AcDbLine
 62
7
  6
CONTINUOUS
 10
159.3959272917
 20
301.5676853075
 11
179.8596827374
 21
289.7531978717
  0
LINE
  5
27A
100
AcDbEntity
  8
0
100
AcDbLine
 62
7
  6
CONTINUOUS
 10
182.3769933589
 20
288.2998607856
 11
202.8407488047
 21
276.4853733498
  0
LINE
  5
27B
100
AcDbEntity
  8
0
100
AcDbLine
 62
7
  6
CONTINUOUS
 10
205.3580594262
 20
275.0320362637
 11
225.821814872
 21
263.2175488279
  0
LINE
  5
27C
100
AcDbEntity
  8
0
100
AcDbLine
 62
7
  6
CONTINUOUS
 10
228.3391254935
 20
261.7642117418
 11
248.8028809392
 21
249.949724306
  0
LINE
  5
27D
100
AcDbEntity
  8
0
100
AcDbLine
 62
7
  6
CONTINUOUS
 10
155.7475949895
 20
302.2290178869
 11
149.4259463423
 21
307.3237262734
  0
LINE
  5
27E
100
AcDbEntity
  8
0
100
AcDbLine
 62
7
  6
CONTINUOUS
 10
163.060525553
 20
299.4519763786
 11
168.4191322538
 21
283.7110239377
  0
LINE
  5
27F
100
AcDbEntity
  8
0
100
AcDbLine
 62
7
  6
CONTINUOUS
 10
140.0794594857
 20
369.8749700996
 11
146.1163861635
 21
352.1414469974
  0
LINE
  5
280
100
AcDbEntity
  8
0
100
AcDbLine
 62
7
  6
CONTINUOUS
 10
166.6367308765
 20
308.8753482228
 11
159.3959272917
 21
330.1452699071
  0
LINE
  5
281
100
AcDbEntity
  8
0
100
AcDbLine
 62
7
  6
CONTINUOUS
 10
163.060525553
 20
328.0295609781
 11
169.0974522308
 21
310.296037876
  0
LINE
  5
282
100
AcDbEntity
  8
0
100
AcDbLine
 62
7
  6
CONTINUOUS
 10
188.9394769676
 20
269.0225097603
 11
182.3769933589
 21
288.2998607856
  0
LINE
  5
283
100
AcDbEntity
  8
0
100
AcDbLine
 62
7
  6
CONTINUOUS
 10
166.6367308765
 20
337.4529328223
 11
159.3959272917
 21
358.7228545066
  0
LINE
  5
284
100
AcDbEntity
  8
0
100
AcDbLine
 62
7
  6
CONTINUOUS
 10
186.0415916203
 20
286.1841518567
 11
191.4001983211
 21
270.4431994158
  0
LINE
  5
285
100
AcDbEntity
  8
0
100
AcDbLine
 62
7
  6
CONTINUOUS
 10
163.060525553
 20
356.6071455777
 11
169.0974522308
 21
338.8736224755
  0
LINE
  5
286
100
AcDbEntity
  8
0
100
AcDbLine
 62
7
  6
CONTINUOUS
 10
183.6559641694
 20
527.3918982788
 11
183.6559641694
 21
520.8600880223
  0
LINE
  5
287
100
AcDbEntity
  8
0
100
AcDbLine
 62
7
  6
CONTINUOUS
 10
183.6559641694
 20
516.3693979063
 11
183.6559641694
 21
512.6540899223
  0
LINE
  5
288
100
AcDbEntity
  8
0
100
AcDbLine
 62
7
  6
CONTINUOUS
 10
183.6559641694
 20
504.8999871458
 11
183.6559641694
 21
498.8150872775
  0
LINE
  5
289
100
AcDbEntity
  8
0
100
AcDbLine
 62
7
  6
CONTINUOUS
 10
183.6559641694
 20
494.3243971615
 11
183.6559641694
 21
493.5079992846
  0
LINE
  5
28A
100
AcDbEntity
  8
0
100
AcDbLine
 62
7
  6
CONTINUOUS
 10
185.0849409855
 20
517.1774012552
 11
185.0849409855
 21
515.5443964209
  0
LINE
  5
28B
100
AcDbEntity
  8
0
100
AcDbLine
 62
7
  6
CONTINUOUS
 10
185.0850204726
 20
504.5218501577
 11
185.0850204726
 21
506.1548549919
  0
LINE
  5
28C
100
AcDbEntity
  8
0
100
AcDbLine
 62
7
  6
CONTINUOUS
 10
187.523854366
 20
531.7350758461
 11
187.523854366
 21
529.7678560109
  0
LINE
  5
28D
100
AcDbEntity
  8
0
100
AcDbLine
 62
7
  6
CONTINUOUS
 10
187.523854366
 20
525.1588213515
 11
187.523854366
 21
518.6062557938
  0
LINE
  5
28E
100
AcDbEntity
  8
0
100
AcDbLine
 62
7
  6
CONTINUOUS
 10
187.523854366
 20
509.9523094026
 11
187.523854366
 21
507.5837095305
  0
LINE
  5
28F
100
AcDbEntity
  8
0
100
AcDbLine
 62
7
  6
CONTINUOUS
 10
187.523854366
 20
503.1138206067
 11
187.523854366
 21
496.5820103502
  0
LINE
  5
290
100
AcDbEntity
  8
0
100
AcDbLine
 62
7
  6
CONTINUOUS
 10
187.523854366
 20
492.0913202342
 11
187.523854366
 21
491.2749223574
  0
LINE
  5
291
100
AcDbEntity
  8
0
100
AcDbLine
 62
7
  6
CONTINUOUS
 10
194.6308427879
 20
522.6886973325
 11
194.6308427879
 21
521.0556924982
  0
LINE
  5
292
100
AcDbEntity
  8
0
100
AcDbLine
 62
7
  6
CONTINUOUS
 10
194.630922275
 20
510.0331462349
 11
194.630922275
 21
511.6661510692
  0
LINE
  5
293
100
AcDbEntity
  8
0
100
AcDbLine
 62
7
  6
CONTINUOUS
 10
194.807540735
 20
531.9761785712
 11
194.807540735
 21
533.6091834054
  0
LINE
  5
294
100
AcDbEntity
  8
0
100
AcDbLine
 62
7
  6
CONTINUOUS
 10
196.9292776469
 20
268.4512672865
 11
196.9292776469
 21
269.1044692202
  0
LINE
  5
295
100
AcDbEntity
  8
0
100
AcDbLine
 62
7
  6
CONTINUOUS
 10
186.4016804141
 20
314.5538437973
 11
186.2975493572
 21
314.0098584422
  0
LINE
  5
296
100
AcDbEntity
  8
0
100
AcDbLine
 62
7
  6
CONTINUOUS
 10
179.8596827374
 20
346.9083670708
 11
172.6188791519
 21
333.9916575747
  0
LINE
  5
297
100
AcDbEntity
  8
0
100
AcDbLine
 62
7
  6
CONTINUOUS
 10
156.8786166701
 20
303.0210223936
 11
150.3190342729
 21
291.3195283204
  0
LINE
  5
298
100
AcDbEntity
  8
0
100
AcDbLine
 62
7
  6
CONTINUOUS
 10
179.8596827374
 20
318.3307824712
 11
172.6188791519
 21
305.4140729752
  0
LINE
  5
299
100
AcDbEntity
  8
0
100
AcDbLine
 62
7
  6
CONTINUOUS
 10
405.3488254978
 20
501.8688736893
 11
275.9488232876
 21
427.1601935308
  0
LINE
  5
29A
100
AcDbEntity
  8
0
100
AcDbLine
 62
7
  6
CONTINUOUS
 10
146.1163861635
 20
352.1414469975
 11
143.6556648099
 21
350.7207573423
  0
LINE
  5
29B
100
AcDbEntity
  8
0
100
AcDbLine
 62
7
  6
CONTINUOUS
 10
99.475934052
 20
323.5144975035
 11
97.0152126985
 21
322.093807848
  0
LINE
  5
29C
100
AcDbEntity
  8
0
100
AcDbLine
 62
7
  6
CONTINUOUS
 10
195.1332902797
 20
378.5241375526
 11
199.375913303
 21
380.9736024758
  0
LINE
  5
29D
100
AcDbEntity
  8
0
100
AcDbLine
 62
7
  6
CONTINUOUS
 10
123.1353200962
 20
336.8316869198
 11
120.6745987426
 21
335.4109972646
  0
LINE
  5
29E
100
AcDbEntity
  8
0
100
AcDbLine
 62
7
  6
CONTINUOUS
 10
147.9823413417
 20
344.3522002859
 11
146.6467389473
 21
343.5810944869
  0
LINE
  5
29F
100
AcDbEntity
  8
0
100
AcDbLine
 62
7
  6
CONTINUOUS
 10
125.0012752744
 20
329.0424402083
 11
123.66567288
 21
328.2713344092
  0
LINE
  5
2A0
100
AcDbEntity
  8
0
100
AcDbLine
 62
7
  6
CONTINUOUS
 10
90.4527290898
 20
369.9487434728
 11
110.9164845356
 21
358.134256037
  0
LINE
  5
2A1
100
AcDbEntity
  8
0
100
AcDbLine
 62
7
  6
CONTINUOUS
 10
113.4337951571
 20
356.6809189509
 11
133.8975506029
 21
344.8664315151
  0
LINE
  5
2A2
100
AcDbEntity
  8
0
100
AcDbLine
 62
7
  6
CONTINUOUS
 10
136.4148612244
 20
343.413094429
 11
156.8786166701
 21
331.5986069932
  0
LINE
  5
2A3
100
AcDbEntity
  8
0
100
AcDbLine
 62
7
  6
CONTINUOUS
 10
159.3959272917
 20
330.1452699071
 11
179.8596827374
 21
318.3307824712
  0
LINE
  5
2A4
100
AcDbEntity
  8
0
100
AcDbLine
 62
7
  6
CONTINUOUS
 10
182.3769933589
 20
316.8774453851
 11
202.8407488047
 21
305.0629579493
  0
LINE
  5
2A5
100
AcDbEntity
  8
0
100
AcDbLine
 62
7
  6
CONTINUOUS
 10
205.3580594262
 20
303.6096208632
 11
225.821814872
 21
291.7951334274
  0
LINE
  5
2A6
100
AcDbEntity
  8
0
100
AcDbLine
 62
7
  6
CONTINUOUS
 10
228.3391254935
 20
290.3417963413
 11
248.8028809393
 21
278.5273089055
  0
LINE
  5
2A7
100
AcDbEntity
  8
0
100
AcDbLine
 62
7
  6
CONTINUOUS
 10
189.6177969438
 20
295.6075237009
 11
182.3769933589
 21
316.8774453851
  0
LINE
  5
2A8
100
AcDbEntity
  8
0
100
AcDbLine
 62
7
  6
CONTINUOUS
 10
186.0415916203
 20
314.7617364562
 11
192.0785182981
 21
297.0282133541
  0
LINE
  5
2A9
100
AcDbEntity
  8
0
100
AcDbLine
 62
7
  6
CONTINUOUS
 10
211.9205430349
 20
255.7546852384
 11
205.3580594262
 21
275.0320362637
  0
LINE
  5
2AA
100
AcDbEntity
  8
0
100
AcDbLine
 62
7
  6
CONTINUOUS
 10
189.6177969438
 20
324.1851083004
 11
182.3769933589
 21
345.4550299847
  0
LINE
  5
2AB
100
AcDbEntity
  8
0
100
AcDbLine
 62
7
  6
CONTINUOUS
 10
209.0226576876
 20
272.9163273348
 11
214.3812643884
 21
257.1753748939
  0
LINE
  5
2AC
100
AcDbEntity
  8
0
100
AcDbLine
 62
7
  6
CONTINUOUS
 10
186.0415916203
 20
343.3393210557
 11
192.0785182981
 21
325.6057979536
  0
LINE
  5
2AD
100
AcDbEntity
  8
0
100
AcDbLine
 62
7
  6
CONTINUOUS
 10
212.5988630111
 20
282.339699179
 11
205.3580594262
 21
303.6096208632
  0
LINE
  5
2AE
100
AcDbEntity
  8
0
100
AcDbLine
 62
7
  6
CONTINUOUS
 10
203.8235076761
 20
484.3139287338
 11
203.8235076761
 21
482.6809238996
  0
LINE
  5
2AF
100
AcDbEntity
  8
0
100
AcDbLine
 62
7
  6
CONTINUOUS
 10
204.1768240773
 20
515.5444423122
 11
204.1768240773
 21
517.1774471464
  0
LINE
  5
2B0
100
AcDbEntity
  8
0
100
AcDbLine
 62
7
  6
CONTINUOUS
 10
205.5691442917
 20
525.7631044193
 11
205.5691442917
 21
519.2312941629
  0
LINE
  5
2B1
100
AcDbEntity
  8
0
100
AcDbLine
 62
7
  6
CONTINUOUS
 10
205.5691442917
 20
514.7406040469
 11
205.5691442917
 21
508.2087937905
  0
LINE
  5
2B2
100
AcDbEntity
  8
0
100
AcDbLine
 62
7
  6
CONTINUOUS
 10
205.5691442917
 20
503.7181036745
 11
205.5691442917
 21
497.186293418
  0
LINE
  5
2B3
100
AcDbEntity
  8
0
100
AcDbLine
 62
7
  6
CONTINUOUS
 10
205.5691442917
 20
492.695603302
 11
205.5691442917
 21
486.1637930456
  0
LINE
  5
2B4
100
AcDbEntity
  8
0
100
AcDbLine
 62
7
  6
CONTINUOUS
 10
213.3694094784
 20
489.8252248111
 11
213.3694094784
 21
488.1922199768
  0
LINE
  5
2B5
100
AcDbEntity
  8
0
100
AcDbLine
 62
7
  6
CONTINUOUS
 10
213.3694889655
 20
477.1696737136
 11
213.3694889655
 21
478.8026785478
  0
LINE
  5
2B6
100
AcDbEntity
  8
0
100
AcDbLine
 62
7
  6
CONTINUOUS
 10
214.429205596
 20
609.6443876671
 11
214.429205596
 21
611.2773925014
  0
LINE
  5
2B7
100
AcDbEntity
  8
0
100
AcDbLine
 62
7
  6
CONTINUOUS
 10
202.8407488047
 20
333.6405425489
 11
195.5999452192
 21
320.7238330528
  0
LINE
  5
2B8
100
AcDbEntity
  8
0
100
AcDbLine
 62
7
  6
CONTINUOUS
 10
179.8596827374
 20
289.7531978717
 11
173.3001003401
 21
278.0517037985
  0
LINE
  5
2B9
100
AcDbEntity
  8
0
100
AcDbLine
 62
7
  6
CONTINUOUS
 10
169.0974522308
 20
338.8736224755
 11
166.6367308774
 21
337.4529328197
  0
LINE
  5
2BA
100
AcDbEntity
  8
0
100
AcDbLine
 62
7
  6
CONTINUOUS
 10
122.4570001193
 20
310.2466729815
 11
119.9962787658
 21
308.8259833261
  0
LINE
  5
2BB
100
AcDbEntity
  8
0
100
AcDbLine
 62
7
  6
CONTINUOUS
 10
146.1163861635
 20
323.5638623979
 11
143.6556648099
 21
322.1431727427
  0
LINE
  5
2BC
100
AcDbEntity
  8
0
100
AcDbLine
 62
7
  6
CONTINUOUS
 10
170.963407409
 20
331.084375764
 11
169.6278050145
 21
330.313269965
  0
LINE
  5
2BD
100
AcDbEntity
  8
0
100
AcDbLine
 62
7
  6
CONTINUOUS
 10
147.9823413417
 20
315.7746156864
 11
146.6467389473
 21
315.0035098873
  0
LINE
  5
2BE
100
AcDbEntity
  8
0
100
AcDbLine
 62
7
  6
CONTINUOUS
 10
90.4527290898
 20
398.5263280723
 11
110.9164845356
 21
386.7118406365
  0
LINE
  5
2BF
100
AcDbEntity
  8
0
100
AcDbLine
 62
7
  6
CONTINUOUS
 10
113.4337951571
 20
385.2585035504
 11
133.8975506029
 21
373.4440161146
  0
LINE
  5
2C0
100
AcDbEntity
  8
0
100
AcDbLine
 62
7
  6
CONTINUOUS
 10
136.4148612244
 20
371.9906790285
 11
156.8786166701
 21
360.1761915927
  0
LINE
  5
2C1
100
AcDbEntity
  8
0
100
AcDbLine
 62
7
  6
CONTINUOUS
 10
159.3959272917
 20
358.7228545066
 11
179.8596827374
 21
346.9083670708
  0
LINE
  5
2C2
100
AcDbEntity
  8
0
100
AcDbLine
 62
7
  6
CONTINUOUS
 10
182.3769933589
 20
345.4550299847
 11
202.8407488047
 21
333.6405425489
  0
LINE
  5
2C3
100
AcDbEntity
  8
0
100
AcDbLine
 62
7
  6
CONTINUOUS
 10
205.3580594262
 20
332.1872054628
 11
225.821814872
 21
320.372718027
  0
LINE
  5
2C4
100
AcDbEntity
  8
0
100
AcDbLine
 62
7
  6
CONTINUOUS
 10
228.3391254935
 20
318.9193809409
 11
248.8028809393
 21
307.1048935051
  0
LINE
  5
2C5
100
AcDbEntity
  8
0
100
AcDbLine
 62
7
  6
CONTINUOUS
 10
209.0226576876
 20
301.4939119343
 11
215.0595843654
 21
283.7603888322
  0
LINE
  5
2C6
100
AcDbEntity
  8
0
100
AcDbLine
 62
7
  6
CONTINUOUS
 10
234.9016091022
 20
242.4868607165
 11
228.3391254935
 21
261.7642117418
  0
LINE
  5
2C7
100
AcDbEntity
  8
0
100
AcDbLine
 62
7
  6
CONTINUOUS
 10
212.5988630111
 20
310.9172837785
 11
205.3580594262
 21
332.1872054628
  0
LINE
  5
2C8
100
AcDbEntity
  8
0
100
AcDbLine
 62
7
  6
CONTINUOUS
 10
232.0037237549
 20
259.6485028129
 11
237.3623304557
 21
243.907550372
  0
LINE
  5
2C9
100
AcDbEntity
  8
0
100
AcDbLine
 62
7
  6
CONTINUOUS
 10
209.0226576876
 20
330.0714965338
 11
215.0595843654
 21
312.3379734317
  0
LINE
  5
2CA
100
AcDbEntity
  8
0
100
AcDbLine
 62
7
  6
CONTINUOUS
 10
235.5799290784
 20
269.0718746571
 11
228.3391254935
 21
290.3417963413
  0
LINE
  5
2CB
100
AcDbEntity
  8
0
100
AcDbLine
 62
7
  6
CONTINUOUS
 10
232.0037237549
 20
288.2260874124
 11
238.0406504327
 21
270.4925643102
  0
LINE
  5
2CC
100
AcDbEntity
  8
0
100
AcDbLine
 62
7
  6
CONTINUOUS
 10
222.9153112808
 20
495.3365208884
 11
222.9153112808
 21
493.7035160541
  0
LINE
  5
2CD
100
AcDbEntity
  8
0
100
AcDbLine
 62
7
  6
CONTINUOUS
 10
222.9153907679
 20
482.6809697908
 11
222.9153907679
 21
484.3139746251
  0
LINE
  5
2CE
100
AcDbEntity
  8
0
100
AcDbLine
 62
7
  6
CONTINUOUS
 10
223.0919297409
 20
517.2795532246
 11
223.0919297409
 21
515.6465483903
  0
LINE
  5
2CF
100
AcDbEntity
  8
0
100
AcDbLine
 62
7
  6
CONTINUOUS
 10
232.4612130832
 20
500.8478169656
 11
232.4612130832
 21
499.2148121314
  0
LINE
  5
2D0
100
AcDbEntity
  8
0
100
AcDbLine
 62
7
  6
CONTINUOUS
 10
232.4612925703
 20
488.1922658681
 11
232.4612925703
 21
489.8252707023
  0
LINE
  5
2D1
100
AcDbEntity
  8
0
100
AcDbLine
 62
7
  6
CONTINUOUS
 10
233.3450207555
 20
509.7270574498
 11
233.3450207555
 21
511.3600622841
  0
LINE
  5
2D2
100
AcDbEntity
  8
0
100
AcDbLine
 62
7
  6
CONTINUOUS
 10
235.8354154227
 20
526.7426309975
 11
235.8354154227
 21
523.9135453703
  0
LINE
  5
2D3
100
AcDbEntity
  8
0
100
AcDbLine
 62
7
  6
CONTINUOUS
 10
241.6538779714
 20
462.473048367
 11
241.6538779714
 21
460.8400435327
  0
LINE
  5
2D4
100
AcDbEntity
  8
0
100
AcDbLine
 62
7
  6
CONTINUOUS
 10
242.0071943727
 20
493.7035619454
 11
242.0071943727
 21
495.3365667796
  0
LINE
  5
2D5
100
AcDbEntity
  8
0
100
AcDbLine
 62
7
  6
CONTINUOUS
 10
202.8407488047
 20
305.0629579493
 11
195.5999452192
 21
292.1462484533
  0
LINE
  5
2D6
100
AcDbEntity
  8
0
100
AcDbLine
 62
7
  6
CONTINUOUS
 10
225.821814872
 20
320.372718027
 11
218.5810112865
 21
307.4560085309
  0
LINE
  5
2D7
100
AcDbEntity
  8
0
100
AcDbLine
 62
7
  6
CONTINUOUS
 10
202.8407488047
 20
276.4853733498
 11
196.2811664074
 21
264.7838792766
  0
LINE
  5
2D8
100
AcDbEntity
  8
0
100
AcDbLine
 62
7
  6
CONTINUOUS
 10
192.0785182981
 20
325.6057979536
 11
189.6177969447
 21
324.1851082978
  0
LINE
  5
2D9
100
AcDbEntity
  8
0
100
AcDbLine
 62
7
  6
CONTINUOUS
 10
145.4380661865
 20
296.9788484596
 11
142.977344833
 21
295.5581588042
  0
LINE
  5
2DA
100
AcDbEntity
  8
0
100
AcDbLine
 62
7
  6
CONTINUOUS
 10
169.0974522308
 20
310.2960378759
 11
166.6367308774
 21
308.8753482201
  0
LINE
  5
2DB
100
AcDbEntity
  8
0
100
AcDbLine
 62
7
  6
CONTINUOUS
 10
193.9444734762
 20
317.8165512421
 11
192.6088710818
 21
317.045445443
  0
LINE
  5
2DC
100
AcDbEntity
  8
0
100
AcDbLine
 62
7
  6
CONTINUOUS
 10
170.963407409
 20
302.5067911645
 11
169.6278050145
 21
301.7356853654
  0
LINE
  5
2DD
100
AcDbEntity
  8
0
100
AcDbLine
 62
7
  6
CONTINUOUS
 10
249.3968848668
 20
347.1957449788
 11
253.6395078901
 21
349.645209902
  0
LINE
  5
2DE
100
AcDbEntity
  8
0
100
AcDbLine
 62
7
  6
CONTINUOUS
 10
235.5799290784
 20
297.6494592566
 11
228.3391254935
 21
318.9193809409
  0
LINE
  5
2DF
100
AcDbEntity
  8
0
100
AcDbLine
 62
7
  6
CONTINUOUS
 10
232.0037237549
 20
316.8036720119
 11
238.0406504327
 21
299.0701489098
  0
LINE
  5
2E0
100
AcDbEntity
  8
0
100
AcDbLine
 62
7
  6
CONTINUOUS
 10
251.1997797738
 20
467.9843444443
 11
251.1997797738
 21
466.35133961
  0
LINE
  5
2E1
100
AcDbEntity
  8
0
100
AcDbLine
 62
7
  6
CONTINUOUS
 10
251.1998592609
 20
455.3287933467
 11
251.1998592609
 21
456.961798181
  0
LINE
  5
2E2
100
AcDbEntity
  8
0
100
AcDbLine
 62
7
  6
CONTINUOUS
 10
253.8354154227
 20
531.8336188165
 11
253.8354154227
 21
523.9135453703
  0
LINE
  5
2E3
100
AcDbEntity
  8
0
100
AcDbLine
 62
7
  6
CONTINUOUS
 10
260.7456815762
 20
473.4956405215
 11
260.7456815762
 21
471.8626356873
  0
LINE
  5
2E4
100
AcDbEntity
  8
0
100
AcDbLine
 62
7
  6
CONTINUOUS
 10
260.7457610633
 20
460.840089424
 11
260.7457610633
 21
462.4730942582
  0
LINE
  5
2E5
100
AcDbEntity
  8
0
100
AcDbLine
 62
7
  6
CONTINUOUS
 10
261.6294097614
 20
495.0304321032
 11
261.6294097614
 21
493.397427269
  0
LINE
  5
2E6
100
AcDbEntity
  8
0
100
AcDbLine
 62
7
  6
CONTINUOUS
 10
225.821814872
 20
291.7951334274
 11
218.5810112865
 21
278.8784239314
  0
LINE
  5
2E7
100
AcDbEntity
  8
0
100
AcDbLine
 62
7
  6
CONTINUOUS
 10
248.8028809393
 20
307.1048935051
 11
241.5620773538
 21
294.188184009
  0
LINE
  5
2E8
100
AcDbEntity
  8
0
100
AcDbLine
 62
7
  6
CONTINUOUS
 10
225.821814872
 20
263.2175488279
 11
219.2622324747
 21
251.5160547547
  0
LINE
  5
2E9
100
AcDbEntity
  8
0
100
AcDbLine
 62
7
  6
CONTINUOUS
 10
215.0595843654
 20
312.3379734317
 11
212.598863012
 21
310.9172837758
  0
LINE
  5
2EA
100
AcDbEntity
  8
0
100
AcDbLine
 62
7
  6
CONTINUOUS
 10
168.4191322538
 20
283.7110239377
 11
165.9584109003
 21
282.2903342822
  0
LINE
  5
2EB
100
AcDbEntity
  8
0
100
AcDbLine
 62
7
  6
CONTINUOUS
 10
192.0785182981
 20
297.028213354
 11
189.6177969447
 21
295.6075236982
  0
LINE
  5
2EC
100
AcDbEntity
  8
0
100
AcDbLine
 62
7
  6
CONTINUOUS
 10
216.9255395435
 20
304.5487267202
 11
215.5899371491
 21
303.7776209211
  0
LINE
  5
2ED
100
AcDbEntity
  8
0
100
AcDbLine
 62
7
  6
CONTINUOUS
 10
193.9444734762
 20
289.2389666426
 11
192.6088710818
 21
288.4678608435
  0
LINE
  5
2EE
100
AcDbEntity
  8
0
100
AcDbLine
 62
7
  6
CONTINUOUS
 10
248.9160585439
 20
319.6142794892
 11
253.1586815672
 21
322.0637444124
  0
LINE
  5
2EF
100
AcDbEntity
  8
0
100
AcDbLine
 62
7
  6
CONTINUOUS
 10
268.9827444429
 20
478.1295731815
 11
268.9827444429
 21
475.1469035699
  0
LINE
  5
2F0
100
AcDbEntity
  8
0
100
AcDbLine
 62
7
  6
CONTINUOUS
 10
269.6898482801
 20
477.7213358263
 11
269.6898482801
 21
475.5551477238
  0
LINE
  5
2F1
100
AcDbEntity
  8
0
100
AcDbLine
 62
7
  6
CONTINUOUS
 10
270.2915833786
 20
479.0069365988
 11
270.2915833786
 21
477.3739317645
  0
LINE
  5
2F2
100
AcDbEntity
  8
0
100
AcDbLine
 62
7
  6
CONTINUOUS
 10
270.2916628657
 20
466.3513855013
 11
270.2916628657
 21
467.9843903355
  0
LINE
  5
2F3
100
AcDbEntity
  8
0
100
AcDbLine
 62
7
  6
CONTINUOUS
 10
274.8517551616
 20
471.7585053074
 11
274.8517551616
 21
472.5749868165
  0
LINE
  5
2F4
100
AcDbEntity
  8
0
100
AcDbLine
 62
7
  6
CONTINUOUS
 10
275.9488232876
 20
427.1601935308
 11
275.9488232876
 21
51.5690816512
  0
LINE
  5
2F5
100
AcDbEntity
  8
0
100
AcDbLine
 62
7
  6
CONTINUOUS
 10
276.2659746119
 20
480.0064240548
 11
276.2659746119
 21
479.3519986948
  0
LINE
  5
2F6
100
AcDbEntity
  8
0
100
AcDbLine
 62
7
  6
CONTINUOUS
 10
276.2659746119
 20
472.6371384426
 11
276.2659746119
 21
470.9420237984
  0
LINE
  5
2F7
100
AcDbEntity
  8
0
100
AcDbLine
 62
7
  6
CONTINUOUS
 10
276.9730784491
 20
480.4146228508
 11
276.9730784491
 21
479.7602428487
  0
LINE
  5
2F8
100
AcDbEntity
  8
0
100
AcDbLine
 62
7
  6
CONTINUOUS
 10
276.9730784491
 20
472.6206420516
 11
276.9730784491
 21
471.3502679522
  0
LINE
  5
2F9
100
AcDbEntity
  8
0
100
AcDbLine
 62
7
  6
CONTINUOUS
 10
279.8375646681
 20
471.8626815785
 11
279.8375646681
 21
473.4956864128
  0
LINE
  5
2FA
100
AcDbEntity
  8
0
100
AcDbLine
 62
7
  6
CONTINUOUS
 10
281.8531403284
 20
222.1976153642
 11
281.8531403284
 21
299.2754435412
  0
LINE
  5
2FB
100
AcDbEntity
  8
0
100
AcDbLine
 62
7
  6
CONTINUOUS
 10
282.1349853306
 20
467.5536255359
 11
282.1349853306
 21
470.5362951474
  0
LINE
  5
2FC
100
AcDbEntity
  8
0
100
AcDbLine
 62
7
  6
CONTINUOUS
 10
282.1349853306
 20
475.9636004323
 11
282.1349853306
 21
482.7405704945
  0
LINE
  5
2FD
100
AcDbEntity
  8
0
100
AcDbLine
 62
7
  6
CONTINUOUS
 10
283.5492047809
 20
484.2109066635
 11
283.5492047809
 21
483.5570938197
  0
LINE
  5
2FE
100
AcDbEntity
  8
0
100
AcDbLine
 62
7
  6
CONTINUOUS
 10
283.5492047809
 20
481.9240889854
 11
283.5492047809
 21
475.1471189232
  0
LINE
  5
2FF
100
AcDbEntity
  8
0
100
AcDbLine
 62
7
  6
CONTINUOUS
 10
283.5492047809
 20
469.7198136384
 11
283.5492047809
 21
466.7371440268
  0
LINE
  5
300
100
AcDbEntity
  8
0
100
AcDbLine
 62
7
  6
CONTINUOUS
 10
284.0802319465
 20
486.1511446492
 11
284.0813683543
 21
473.9032659227
  0
LINE
  5
301
100
AcDbEntity
  8
0
100
AcDbLine
 62
7
  6
CONTINUOUS
 10
284.2563086181
 20
469.3115762832
 11
284.2563086181
 21
467.1453881807
  0
LINE
  5
302
100
AcDbEntity
  8
0
100
AcDbLine
 62
7
  6
CONTINUOUS
 10
286.5553808459
 20
301.9902671644
 11
286.5553808459
 21
224.9124389874
  0
LINE
  5
303
100
AcDbEntity
  8
0
100
AcDbLine
 62
7
  6
CONTINUOUS
 10
248.8028809393
 20
278.5273089055
 11
241.5620773538
 21
265.6105994094
  0
LINE
  5
304
100
AcDbEntity
  8
0
100
AcDbLine
 62
7
  6
CONTINUOUS
 10
238.0406504326
 20
299.0701489098
 11
235.5799290793
 21
297.6494592539
  0
LINE
  5
305
100
AcDbEntity
  8
0
100
AcDbLine
 62
7
  6
CONTINUOUS
 10
191.4001983211
 20
270.4431994158
 11
188.9394769676
 21
269.0225097603
  0
LINE
  5
306
100
AcDbEntity
  8
0
100
AcDbLine
 62
7
  6
CONTINUOUS
 10
215.0595843654
 20
283.7603888321
 11
212.598863012
 21
282.3396991763
  0
LINE
  5
307
100
AcDbEntity
  8
0
100
AcDbLine
 62
7
  6
CONTINUOUS
 10
239.9066056108
 20
291.2809021983
 11
238.5710032164
 21
290.5097963992
  0
LINE
  5
308
100
AcDbEntity
  8
0
100
AcDbLine
 62
7
  6
CONTINUOUS
 10
216.9255395435
 20
275.9711421207
 11
215.5899371491
 21
275.2000363216
  0
LINE
  5
309
100
AcDbEntity
  8
0
100
AcDbLine
 62
7
  6
CONTINUOUS
 10
289.4182154996
 20
463.3487457643
 11
289.4182154996
 21
466.3314153759
  0
LINE
  5
30A
100
AcDbEntity
  8
0
100
AcDbLine
 62
7
  6
CONTINUOUS
 10
290.8324349499
 20
477.0472535325
 11
290.8324349499
 21
474.0698314234
  0
LINE
  5
30B
100
AcDbEntity
  8
0
100
AcDbLine
 62
7
  6
CONTINUOUS
 10
290.8324349499
 20
465.5149338668
 11
290.8324349499
 21
462.5322642553
  0
LINE
  5
30C
100
AcDbEntity
  8
0
100
AcDbLine
 62
7
  6
CONTINUOUS
 10
291.5395387871
 20
476.6288868093
 11
291.5395387871
 21
474.1281216803
  0
LINE
  5
30D
100
AcDbEntity
  8
0
100
AcDbLine
 62
7
  6
CONTINUOUS
 10
291.5395387871
 20
465.1066965116
 11
291.5395387871
 21
462.9405084091
  0
LINE
  5
30E
100
AcDbEntity
  8
0
100
AcDbLine
 62
7
  6
CONTINUOUS
 10
296.7014456686
 20
459.1438659927
 11
296.7014456686
 21
462.1265356043
  0
LINE
  5
30F
100
AcDbEntity
  8
0
100
AcDbLine
 62
7
  6
CONTINUOUS
 10
298.1156651189
 20
461.3100540953
 11
298.1156651189
 21
458.3273844837
  0
LINE
  5
310
100
AcDbEntity
  8
0
100
AcDbLine
 62
7
  6
CONTINUOUS
 10
298.8227689561
 20
460.9018167401
 11
298.8227689561
 21
458.7356286376
  0
LINE
  5
311
100
AcDbEntity
  8
0
100
AcDbLine
 62
7
  6
CONTINUOUS
 10
303.9846758376
 20
456.410416852
 11
303.9846758376
 21
457.9216558328
  0
LINE
  5
312
100
AcDbEntity
  8
0
100
AcDbLine
 62
7
  6
CONTINUOUS
 10
248.8028809392
 20
249.949724306
 11
242.243298542
 21
238.2482302328
  0
LINE
  5
313
100
AcDbEntity
  8
0
100
AcDbLine
 62
7
  6
CONTINUOUS
 10
281.8531403284
 20
299.2754435412
 11
286.5553808459
 21
301.9902671644
  0
LINE
  5
314
100
AcDbEntity
  8
0
100
AcDbLine
 62
7
  6
CONTINUOUS
 10
214.3812643884
 20
257.1753748939
 11
211.9205430349
 21
255.7546852384
  0
LINE
  5
315
100
AcDbEntity
  8
0
100
AcDbLine
 62
7
  6
CONTINUOUS
 10
238.0406504326
 20
270.4925643102
 11
235.5799290793
 21
269.0718746544
  0
LINE
  5
316
100
AcDbEntity
  8
0
100
AcDbLine
 62
7
  6
CONTINUOUS
 10
239.9066056108
 20
262.7033175988
 11
238.5710032164
 21
261.9322117997
  0
LINE
  5
317
100
AcDbEntity
  8
0
100
AcDbLine
 62
7
  6
CONTINUOUS
 10
237.3623304557
 20
243.907550372
 11
234.9016091022
 21
242.4868607165
  0
LINE
  5
318
100
AcDbEntity
  8
0
100
AcDbLine
 62
7
  6
CONTINUOUS
 10
275.9488232876
 20
427.1601935308
 11
74.4225516208
 21
543.5088085691
  0
LINE
  5
319
100
AcDbEntity
  8
0
100
AcDbLine
 62
7
  6
CONTINUOUS
 10
275.9487290807
 20
440.2239520651
 11
97.0499686185
 21
543.5088629587
  0
LINE
  5
31A
100
AcDbEntity
  8
0
100
AcDbLine
 62
7
  6
CONTINUOUS
 10
99.8783780795
 20
542.6923148141
 11
128.1627670853
 21
526.3626846333
  0
LINE
  5
31B
100
AcDbEntity
  8
0
100
AcDbLine
 62
7
  6
CONTINUOUS
 10
137.7087483748
 20
520.8514344472
 11
165.9931373807
 21
504.5218042664
  0
LINE
  5
31C
100
AcDbEntity
  8
0
100
AcDbLine
 62
7
  6
CONTINUOUS
 10
175.5391186702
 20
499.0105540804
 11
203.8235076761
 21
482.6809238996
  0
LINE
  5
31D
100
AcDbEntity
  8
0
100
AcDbLine
 62
7
  6
CONTINUOUS
 10
213.3694889655
 20
477.1696737136
 11
241.6538779714
 21
460.8400435327
  0
LINE
  5
31E
100
AcDbEntity
  8
0
100
AcDbLine
 62
7
  6
CONTINUOUS
 10
251.1998592609
 20
455.3287933467
 11
276.6557604893
 21
440.6321544025
  0
LINE
  5
31F
100
AcDbEntity
  8
0
100
AcDbLine
 62
7
  6
CONTINUOUS
 10
137.7087483748
 20
522.4844392815
 11
165.9931373807
 21
506.1548091007
  0
LINE
  5
320
100
AcDbEntity
  8
0
100
AcDbLine
 62
7
  6
CONTINUOUS
 10
175.5391186702
 20
500.6435589146
 11
203.8235076761
 21
484.3139287338
  0
LINE
  5
321
100
AcDbEntity
  8
0
100
AcDbLine
 62
7
  6
CONTINUOUS
 10
128.1627670853
 20
527.9956894675
 11
100.5854878046
 21
543.9170788938
  0
LINE
  5
322
100
AcDbEntity
  8
0
100
AcDbLine
 62
7
  6
CONTINUOUS
 10
213.3694889656
 20
478.8026785478
 11
241.6538779714
 21
462.473048367
  0
LINE
  5
323
100
AcDbEntity
  8
0
100
AcDbLine
 62
7
  6
CONTINUOUS
 10
251.1998592609
 20
456.961798181
 11
278.070004378
 21
441.4486636184
  0
LINE
  5
324
100
AcDbEntity
  8
0
100
AcDbLine
 62
7
  6
CONTINUOUS
 10
286.5553808459
 20
224.9124389874
 11
281.8531403284
 21
222.1976153642
  0
LINE
  5
325
100
AcDbEntity
  8
0
100
AcDbLine
 62
7
  6
CONTINUOUS
 10
176.4356425174
 20
474.2696263242
 11
175.1856874542
 21
474.3933686604
  0
LINE
  5
326
100
AcDbEntity
  8
0
100
AcDbLine
 62
7
  6
CONTINUOUS
 10
244.1287414017
 20
463.9019029055
 11
215.8443523958
 21
480.2315330864
  0
LINE
  5
327
100
AcDbEntity
  8
0
100
AcDbLine
 62
7
  6
CONTINUOUS
 10
206.2983711063
 20
485.7427832724
 11
178.0139821004
 21
502.0724134532
  0
LINE
  5
328
100
AcDbEntity
  8
0
100
AcDbLine
 62
7
  6
CONTINUOUS
 10
168.468000811
 20
507.5836636392
 11
140.1836118051
 21
523.91329382
  0
LINE
  5
329
100
AcDbEntity
  8
0
100
AcDbLine
 62
7
  6
CONTINUOUS
 10
130.6376305156
 20
529.4245440061
 11
103.0603512348
 21
545.3459334324
  0
LINE
  5
32A
100
AcDbEntity
  8
0
100
AcDbLine
 62
7
  6
CONTINUOUS
 10
253.6747226911
 20
458.3906527195
 11
280.5448678083
 21
442.877518157
  0
LINE
  5
32B
100
AcDbEntity
  8
0
100
AcDbLine
 62
7
  6
CONTINUOUS
 10
109.4242798818
 20
548.2036108913
 11
137.7086688877
 21
531.8739807105
  0
LINE
  5
32C
100
AcDbEntity
  8
0
100
AcDbLine
 62
7
  6
CONTINUOUS
 10
147.2546501772
 20
526.3627305245
 11
175.5390391831
 21
510.0331003437
  0
LINE
  5
32D
100
AcDbEntity
  8
0
100
AcDbLine
 62
7
  6
CONTINUOUS
 10
185.0850204726
 20
504.5218501577
 11
213.3694094784
 21
488.1922199768
  0
LINE
  5
32E
100
AcDbEntity
  8
0
100
AcDbLine
 62
7
  6
CONTINUOUS
 10
222.9153907679
 20
482.6809697908
 11
251.1997797738
 21
466.35133961
  0
LINE
  5
32F
100
AcDbEntity
  8
0
100
AcDbLine
 62
7
  6
CONTINUOUS
 10
260.7457610633
 20
460.840089424
 11
286.2016622916
 21
446.1434504797
  0
LINE
  5
330
100
AcDbEntity
  8
0
100
AcDbLine
 62
7
  6
CONTINUOUS
 10
147.2546501772
 20
527.9957353588
 11
175.5390391831
 21
511.6661051779
  0
LINE
  5
331
100
AcDbEntity
  8
0
100
AcDbLine
 62
7
  6
CONTINUOUS
 10
137.7086688877
 20
533.5069855448
 11
110.131389607
 21
549.4283749711
  0
LINE
  5
332
100
AcDbEntity
  8
0
100
AcDbLine
 62
7
  6
CONTINUOUS
 10
185.0850204726
 20
506.1548549919
 11
213.3694094784
 21
489.8252248111
  0
LINE
  5
333
100
AcDbEntity
  8
0
100
AcDbLine
 62
7
  6
CONTINUOUS
 10
222.9153907679
 20
484.3139746251
 11
251.1997797738
 21
467.9843444443
  0
LINE
  5
334
100
AcDbEntity
  8
0
100
AcDbLine
 62
7
  6
CONTINUOUS
 10
260.7457610633
 20
462.4730942582
 11
287.6159061804
 21
446.9599596957
  0
LINE
  5
335
100
AcDbEntity
  8
0
100
AcDbLine
 62
7
  6
CONTINUOUS
 10
253.6746432041
 20
469.4131989828
 11
225.3902541982
 21
485.7428291636
  0
LINE
  5
336
100
AcDbEntity
  8
0
100
AcDbLine
 62
7
  6
CONTINUOUS
 10
215.8442729087
 20
491.2540793497
 11
187.5598839028
 21
507.5837095305
  0
LINE
  5
337
100
AcDbEntity
  8
0
100
AcDbLine
 62
7
  6
CONTINUOUS
 10
178.0139026133
 20
513.0949597165
 11
149.7295136075
 21
529.4245898973
  0
LINE
  5
338
100
AcDbEntity
  8
0
100
AcDbLine
 62
7
  6
CONTINUOUS
 10
140.183532318
 20
534.9358400833
 11
112.6062530372
 21
550.8572295096
  0
LINE
  5
339
100
AcDbEntity
  8
0
100
AcDbLine
 62
7
  6
CONTINUOUS
 10
263.2206244935
 20
463.9019487968
 11
290.0907696107
 21
448.3888142343
  0
LINE
  5
33A
100
AcDbEntity
  8
0
100
AcDbLine
 62
7
  6
CONTINUOUS
 10
118.9701816842
 20
553.7149069686
 11
147.2545706901
 21
537.3852767878
  0
LINE
  5
33B
100
AcDbEntity
  8
0
100
AcDbLine
 62
7
  6
CONTINUOUS
 10
156.8005519796
 20
531.8740266018
 11
185.0849409855
 21
515.5443964209
  0
LINE
  5
33C
100
AcDbEntity
  8
0
100
AcDbLine
 62
7
  6
CONTINUOUS
 10
194.630922275
 20
510.0331462349
 11
222.9153112808
 21
493.7035160541
  0
LINE
  5
33D
100
AcDbEntity
  8
0
100
AcDbLine
 62
7
  6
CONTINUOUS
 10
232.4612925703
 20
488.1922658681
 11
260.7456815762
 21
471.8626356873
  0
LINE
  5
33E
100
AcDbEntity
  8
0
100
AcDbLine
 62
7
  6
CONTINUOUS
 10
270.2916628657
 20
466.3513855013
 11
295.747564094
 21
451.654746557
  0
LINE
  5
33F
100
AcDbEntity
  8
0
100
AcDbLine
 62
7
  6
CONTINUOUS
 10
156.8005519796
 20
533.507031436
 11
185.0849409855
 21
517.1774012552
  0
LINE
  5
340
100
AcDbEntity
  8
0
100
AcDbLine
 62
7
  6
CONTINUOUS
 10
147.2545706901
 20
539.018281622
 11
119.6772914094
 21
554.9396710483
  0
LINE
  5
341
100
AcDbEntity
  8
0
100
AcDbLine
 62
7
  6
CONTINUOUS
 10
194.6309222749
 20
511.6661510692
 11
222.9153112808
 21
495.3365208884
  0
LINE
  5
342
100
AcDbEntity
  8
0
100
AcDbLine
 62
7
  6
CONTINUOUS
 10
232.4612925703
 20
489.8252707024
 11
260.7456815762
 21
473.4956405215
  0
LINE
  5
343
100
AcDbEntity
  8
0
100
AcDbLine
 62
7
  6
CONTINUOUS
 10
270.2916628657
 20
467.9843903355
 11
297.1618079828
 21
452.471255773
  0
LINE
  5
344
100
AcDbEntity
  8
0
100
AcDbLine
 62
7
  6
CONTINUOUS
 10
263.2205450064
 20
474.9244950601
 11
234.9361560006
 21
491.2541252409
  0
LINE
  5
345
100
AcDbEntity
  8
0
100
AcDbLine
 62
7
  6
CONTINUOUS
 10
225.3901747111
 20
496.7653754269
 11
197.1057857052
 21
513.0950056077
  0
LINE
  5
346
100
AcDbEntity
  8
0
100
AcDbLine
 62
7
  6
CONTINUOUS
 10
187.5598044157
 20
518.6062557938
 11
159.2754154098
 21
534.9358859746
  0
LINE
  5
347
100
AcDbEntity
  8
0
100
AcDbLine
 62
7
  6
CONTINUOUS
 10
149.7294341204
 20
540.4471361606
 11
122.1521548396
 21
556.3685255869
  0
LINE
  5
348
100
AcDbEntity
  8
0
100
AcDbLine
 62
7
  6
CONTINUOUS
 10
272.7665262959
 20
469.4132448741
 11
299.636671413
 21
453.9001103115
  0
LINE
  5
349
100
AcDbEntity
  8
0
100
AcDbLine
 62
7
  6
CONTINUOUS
 10
173.935732391
 20
478.5996230822
 11
175.1856874542
 21
478.4758807461
  0
LINE
  5
34A
100
AcDbEntity
  8
0
100
AcDbLine
 62
7
  6
CONTINUOUS
 10
268.9827444429
 20
475.1469035699
 11
269.7791053205
 21
474.6871348042
  0
LINE
  5
34B
100
AcDbEntity
  8
0
100
AcDbLine
 62
7
  6
CONTINUOUS
 10
273.9632763678
 20
472.2714571737
 11
274.8517551616
 21
471.7585053074
  0
LINE
  5
34C
100
AcDbEntity
  8
0
100
AcDbLine
 62
7
  6
CONTINUOUS
 10
276.2659746119
 20
470.9420237984
 11
282.1349853306
 21
467.5536255359
  0
LINE
  5
34D
100
AcDbEntity
  8
0
100
AcDbLine
 62
7
  6
CONTINUOUS
 10
283.5492047809
 20
466.7371440268
 11
289.4182154996
 21
463.3487457643
  0
LINE
  5
34E
100
AcDbEntity
  8
0
100
AcDbLine
 62
7
  6
CONTINUOUS
 10
290.8324349499
 20
462.5322642553
 11
296.7014456686
 21
459.1438659927
  0
LINE
  5
34F
100
AcDbEntity
  8
0
100
AcDbLine
 62
7
  6
CONTINUOUS
 10
298.1156651189
 20
458.3273844837
 11
302.710361314
 21
455.6746954104
  0
LINE
  5
350
100
AcDbEntity
  8
0
100
AcDbLine
 62
7
  6
CONTINUOUS
 10
269.6898482801
 20
475.5551477238
 11
270.4835869269
 21
475.0968928695
  0
LINE
  5
351
100
AcDbEntity
  8
0
100
AcDbLine
 62
7
  6
CONTINUOUS
 10
276.9730784491
 20
471.3502679522
 11
282.1349853306
 21
468.3701070449
  0
LINE
  5
352
100
AcDbEntity
  8
0
100
AcDbLine
 62
7
  6
CONTINUOUS
 10
284.2563086181
 20
467.1453881807
 11
289.4182154996
 21
464.1652272734
  0
LINE
  5
353
100
AcDbEntity
  8
0
100
AcDbLine
 62
7
  6
CONTINUOUS
 10
291.5395387871
 20
462.9405084091
 11
296.7014456686
 21
459.9603475018
  0
LINE
  5
354
100
AcDbEntity
  8
0
100
AcDbLine
 62
7
  6
CONTINUOUS
 10
298.8227689561
 20
458.7356286376
 11
303.4174651513
 21
456.0829395643
  0
LINE
  5
355
100
AcDbEntity
  8
0
100
AcDbLine
 62
7
  6
CONTINUOUS
 10
128.5160834866
 20
559.2262030459
 11
156.8004724925
 21
542.896572865
  0
LINE
  5
356
100
AcDbEntity
  8
0
100
AcDbLine
 62
7
  6
CONTINUOUS
 10
166.346453782
 20
537.385322679
 11
194.6308427879
 21
521.0556924982
  0
LINE
  5
357
100
AcDbEntity
  8
0
100
AcDbLine
 62
7
  6
CONTINUOUS
 10
204.1768240773
 20
515.5444423122
 11
232.4612130832
 21
499.2148121314
  0
LINE
  5
358
100
AcDbEntity
  8
0
100
AcDbLine
 62
7
  6
CONTINUOUS
 10
242.0071943727
 20
493.7035619454
 11
270.2915833786
 21
477.3739317645
  0
LINE
  5
359
100
AcDbEntity
  8
0
100
AcDbLine
 62
7
  6
CONTINUOUS
 10
279.8375646681
 20
471.8626815785
 11
305.2934658964
 21
457.1660426343
  0
LINE
  5
35A
100
AcDbEntity
  8
0
100
AcDbLine
 62
7
  6
CONTINUOUS
 10
166.346453782
 20
539.0183275133
 11
194.6308427879
 21
522.6886973325
  0
LINE
  5
35B
100
AcDbEntity
  8
0
100
AcDbLine
 62
7
  6
CONTINUOUS
 10
156.8004724925
 20
544.5295776993
 11
129.2231932118
 21
560.4509671256
  0
LINE
  5
35C
100
AcDbEntity
  8
0
100
AcDbLine
 62
7
  6
CONTINUOUS
 10
204.1768240774
 20
517.1774471464
 11
232.4612130832
 21
500.8478169656
  0
LINE
  5
35D
100
AcDbEntity
  8
0
100
AcDbLine
 62
7
  6
CONTINUOUS
 10
242.0071943727
 20
495.3365667796
 11
270.2915833786
 21
479.0069365988
  0
LINE
  5
35E
100
AcDbEntity
  8
0
100
AcDbLine
 62
7
  6
CONTINUOUS
 10
279.8375646681
 20
473.4956864128
 11
306.7077097852
 21
457.9825518502
  0
LINE
  5
35F
100
AcDbEntity
  8
0
100
AcDbLine
 62
7
  6
CONTINUOUS
 10
154.6791227123
 20
548.6119971405
 11
168.8213172152
 21
540.4471820501
  0
LINE
  5
360
100
AcDbEntity
  8
0
100
AcDbLine
 62
7
  6
CONTINUOUS
 10
187.7365023629
 20
529.5267418667
 11
216.0208913688
 21
513.1971116859
  0
LINE
  5
361
100
AcDbEntity
  8
0
100
AcDbLine
 62
7
  6
CONTINUOUS
 10
226.2739823834
 20
507.2776207453
 11
254.5583713893
 21
490.9479905645
  0
LINE
  5
362
100
AcDbEntity
  8
0
100
AcDbLine
 62
7
  6
CONTINUOUS
 10
273.4735565369
 20
480.0275503811
 11
287.6157510399
 21
471.8627352907
  0
LINE
  5
363
100
AcDbEntity
  8
0
100
AcDbLine
 62
7
  6
CONTINUOUS
 10
276.2659746119
 20
479.3519986948
 11
282.1349853306
 21
475.9636004323
  0
LINE
  5
364
100
AcDbEntity
  8
0
100
AcDbLine
 62
7
  6
CONTINUOUS
 10
283.5492047809
 20
475.1471189232
 11
284.0813200729
 21
474.8399089662
  0
LINE
  5
365
100
AcDbEntity
  8
0
100
AcDbLine
 62
7
  6
CONTINUOUS
 10
276.9730784491
 20
479.7602428487
 11
282.1349853306
 21
476.7800819414
  0
LINE
  5
366
100
AcDbEntity
  8
0
100
AcDbLine
 62
7
  6
CONTINUOUS
 10
261.6294097614
 20
493.397427269
 11
233.3450207555
 21
509.7270574498
  0
LINE
  5
367
100
AcDbEntity
  8
0
100
AcDbLine
 62
7
  6
CONTINUOUS
 10
223.0919297409
 20
515.6465483903
 11
194.807540735
 21
531.9761785712
  0
LINE
  5
368
100
AcDbEntity
  8
0
100
AcDbLine
 62
7
  6
CONTINUOUS
 10
284.0809707277
 20
481.6170807183
 11
283.5492047809
 21
481.9240889854
  0
LINE
  5
369
100
AcDbEntity
  8
0
100
AcDbLine
 62
7
  6
CONTINUOUS
 10
282.1349853306
 20
482.7405704945
 11
281.5686242385
 21
483.0675518261
  0
LINE
  5
36A
100
AcDbEntity
  8
0
100
AcDbLine
 62
7
  6
CONTINUOUS
 10
261.6294097614
 20
495.0304321032
 11
233.3450207555
 21
511.3600622841
  0
LINE
  5
36B
100
AcDbEntity
  8
0
100
AcDbLine
 62
7
  6
CONTINUOUS
 10
223.0919297409
 20
517.2795532246
 11
194.807540735
 21
533.6091834054
  0
LINE
  5
36C
100
AcDbEntity
  8
0
100
AcDbLine
 62
7
  6
CONTINUOUS
 10
283.5492047809
 20
483.5570938197
 11
284.0808865482
 21
483.2501341526
  0
LINE
  5
36D
100
AcDbEntity
  8
0
100
AcDbLine
 62
7
  6
CONTINUOUS
 10
298.2221907462
 20
477.9864656391
 11
284.0802319465
 21
486.1511446492
  0
LINE
  5
36E
100
AcDbEntity
  8
0
100
AcDbLine
 62
7
  6
CONTINUOUS
 10
179.4277569215
 20
546.5709123985
 11
165.2857981218
 21
554.7355914086
  0
LINE
  5
36F
100
AcDbEntity
  8
0
100
AcDbLine
 62
7
  6
CONTINUOUS
 10
405.3488254978
 20
126.2777618097
 11
405.3488254978
 21
501.8688736893
  0
LINE
  5
370
100
AcDbEntity
  8
0
100
AcDbLine
 62
7
  6
CONTINUOUS
 10
214.429205596
 20
609.6443876671
 11
391.9137221695
 21
507.1759723918
  0
LINE
  5
371
100
AcDbEntity
  8
0
100
AcDbLine
 62
7
  6
CONTINUOUS
 10
214.429205596
 20
611.2773925014
 11
393.3279660582
 21
507.9924816077
  0
LINE
  5
372
100
AcDbEntity
  8
0
100
AcDbLine
 62
7
  6
CONTINUOUS
 10
405.3488254978
 20
501.8688736893
 11
203.8225538309
 21
618.2174887276
  0
LINE
  5
373
100
AcDbEntity
  8
0
100
AcDbLine
 62
7
  6
CONTINUOUS
 10
275.9488232876
 20
51.5690816512
 11
405.3488254978
 21
126.2777618097
  0
ARC
  5
374
100
AcDbEntity
  8
0
100
AcDbCircle
 62
7
  6
CONTINUOUS
 10
179.354524345
 20
342.2087974984
 40
45.7199118801
100
AcDbArc
 50
235.816044123
 51
239.9205300894
  0
ARC
  5
375
100
AcDbEntity
  8
0
100
AcDbCircle
 62
7
  6
CONTINUOUS
 10
177.5098216985
 20
339.1237864417
 40
42.1258194624
100
AcDbArc
 50
239.9886291998
 51
240.2889650291
  0
ARC
  5
376
100
AcDbEntity
  8
0
100
AcDbCircle
 62
7
  6
CONTINUOUS
 10
176.6080804608
 20
338.3754796125
 40
41.7339975245
100
AcDbArc
 50
240.0103247586
 51
240.9207983587
  0
ARC
  5
377
100
AcDbEntity
  8
0
100
AcDbCircle
 62
7
  6
CONTINUOUS
 10
113.4999996777
 20
378.1659777187
 40
12.451356301
100
AcDbArc
 50
203.9833513842
 51
205.6251386461
  0
ARC
  5
378
100
AcDbEntity
  8
0
100
AcDbCircle
 62
7
  6
CONTINUOUS
 10
136.4810657449
 20
364.8981531968
 40
12.451356301
100
AcDbArc
 50
203.9833513843
 51
205.6251386461
  0
ARC
  5
379
100
AcDbEntity
  8
0
100
AcDbCircle
 62
7
  6
CONTINUOUS
 10
159.4621318125
 20
351.630328675
 40
12.4513563013
100
AcDbArc
 50
203.9833513842
 51
205.6251386461
  0
ARC
  5
37A
100
AcDbEntity
  8
0
100
AcDbCircle
 62
7
  6
CONTINUOUS
 10
182.4431978798
 20
338.3625041531
 40
12.4513563013
100
AcDbArc
 50
203.9833513842
 51
205.6251386461
  0
ARC
  5
37B
100
AcDbEntity
  8
0
100
AcDbCircle
 62
7
  6
CONTINUOUS
 10
113.4999996777
 20
349.5883931191
 40
12.451356301
100
AcDbArc
 50
203.9833513842
 51
205.6251386461
  0
ARC
  5
37C
100
AcDbEntity
  8
0
100
AcDbCircle
 62
7
  6
CONTINUOUS
 10
136.4810657447
 20
336.3205685971
 40
12.4513563008
100
AcDbArc
 50
203.9833513842
 51
205.6251386461
  0
ARC
  5
37D
100
AcDbEntity
  8
0
100
AcDbCircle
 62
7
  6
CONTINUOUS
 10
159.4621318123
 20
323.0527440753
 40
12.4513563011
100
AcDbArc
 50
203.9833513842
 51
205.6251386461
  0
ARC
  5
37E
100
AcDbEntity
  8
0
100
AcDbCircle
 62
7
  6
CONTINUOUS
 10
182.4431978794
 20
309.7849195534
 40
12.4513563009
100
AcDbArc
 50
203.9833513841
 51
205.6251386461
  0
ARC
  5
37F
100
AcDbEntity
  8
0
100
AcDbCircle
 62
7
  6
CONTINUOUS
 10
188.2849891528
 20
529.8274719703
 40
2.0311130438
100
AcDbArc
 50
152.0123639943
 51
157.2283548657
  0
ARC
  5
380
100
AcDbEntity
  8
0
100
AcDbCircle
 62
7
  6
CONTINUOUS
 10
127.7374723875
 20
526.0124406148
 40
1.8973671745
100
AcDbArc
 50
336.8681077484
 51
343.8723850418
  0
ARC
  5
381
100
AcDbEntity
  8
0
100
AcDbCircle
 62
7
  6
CONTINUOUS
 10
165.5678426828
 20
504.171560248
 40
1.8973671745
100
AcDbArc
 50
336.8681077473
 51
343.8723850386
  0
ARC
  5
382
100
AcDbEntity
  8
0
100
AcDbCircle
 62
7
  6
CONTINUOUS
 10
188.126223784
 20
531.609406468
 40
1.8591605969
100
AcDbArc
 50
195.3301551175
 51
202.7892290425
  0
ARC
  5
383
100
AcDbEntity
  8
0
100
AcDbCircle
 62
7
  6
CONTINUOUS
 10
184.8632170259
 20
515.1431393121
 40
1.6872245186
100
AcDbArc
 50
349.1960400273
 51
359.9434998342
  0
ARC
  5
384
100
AcDbEntity
  8
0
100
AcDbCircle
 62
7
  6
CONTINUOUS
 10
175.3173152237
 20
509.6318432347
 40
1.6872245185
100
AcDbArc
 50
349.1960400274
 51
359.9434998342
  0
ARC
  5
385
100
AcDbEntity
  8
0
100
AcDbCircle
 62
7
  6
CONTINUOUS
 10
137.4869449286
 20
531.4727236015
 40
1.6872245182
100
AcDbArc
 50
349.1960400257
 51
359.9434998342
  0
ARC
  5
386
100
AcDbEntity
  8
0
100
AcDbCircle
 62
7
  6
CONTINUOUS
 10
147.0328467306
 20
536.9840196789
 40
1.6872245185
100
AcDbArc
 50
349.1960400274
 51
359.9434998342
  0
ARC
  5
387
100
AcDbEntity
  8
0
100
AcDbCircle
 62
7
  6
CONTINUOUS
 10
156.5787485333
 20
542.4953157561
 40
1.6872245182
100
AcDbArc
 50
349.1960400265
 51
359.9434998341
  0
ARC
  5
388
100
AcDbEntity
  8
0
100
AcDbCircle
 62
7
  6
CONTINUOUS
 10
178.2159535367
 20
504.1087180256
 40
1.6674712179
100
AcDbArc
 50
180.013017068
 51
187.0438521346
  0
ARC
  5
389
100
AcDbEntity
  8
0
100
AcDbCircle
 62
7
  6
CONTINUOUS
 10
187.7618553388
 20
509.6200141029
 40
1.6674712176
100
AcDbArc
 50
180.0130170681
 51
187.0438521292
  0
ARC
  5
38A
100
AcDbEntity
  8
0
100
AcDbCircle
 62
7
  6
CONTINUOUS
 10
159.4773868458
 20
536.972190547
 40
1.6674712177
100
AcDbArc
 50
180.0130170681
 51
187.0438521308
  0
ARC
  5
38B
100
AcDbEntity
  8
0
100
AcDbCircle
 62
7
  6
CONTINUOUS
 10
140.3855832413
 20
525.9495983924
 40
1.6674712179
100
AcDbArc
 50
180.0130170681
 51
187.0438521355
  0
ARC
  5
38C
100
AcDbEntity
  8
0
100
AcDbCircle
 62
7
  6
CONTINUOUS
 10
149.9314850436
 20
531.4608944698
 40
1.6674712178
100
AcDbArc
 50
180.0130170681
 51
187.0438521292
  0
ARC
  5
38D
100
AcDbEntity
  8
0
100
AcDbCircle
 62
7
  6
CONTINUOUS
 10
205.4242639468
 20
325.094679631
 40
12.451356301
100
AcDbArc
 50
203.9833513841
 51
205.6251386461
  0
ARC
  5
38E
100
AcDbEntity
  8
0
100
AcDbCircle
 62
7
  6
CONTINUOUS
 10
228.4053300142
 20
311.8268551092
 40
12.4513563011
100
AcDbArc
 50
203.9833513842
 51
205.6251386461
  0
ARC
  5
38F
100
AcDbEntity
  8
0
100
AcDbCircle
 62
7
  6
CONTINUOUS
 10
251.386396081
 20
298.559030587
 40
12.4513563006
100
AcDbArc
 50
203.9833513841
 51
205.6251386461
  0
ARC
  5
390
100
AcDbEntity
  8
0
100
AcDbCircle
 62
7
  6
CONTINUOUS
 10
205.4242639468
 20
296.5170950315
 40
12.451356301
100
AcDbArc
 50
203.9833513841
 51
205.6251386461
  0
ARC
  5
391
100
AcDbEntity
  8
0
100
AcDbCircle
 62
7
  6
CONTINUOUS
 10
228.405330014
 20
283.2492705095
 40
12.4513563009
100
AcDbArc
 50
203.9833513841
 51
205.6251386461
  0
ARC
  5
392
100
AcDbEntity
  8
0
100
AcDbCircle
 62
7
  6
CONTINUOUS
 10
251.3863960815
 20
269.9814459878
 40
12.4513563012
100
AcDbArc
 50
203.9833513842
 51
205.6251386461
  0
ARC
  5
393
100
AcDbEntity
  8
0
100
AcDbCircle
 62
7
  6
CONTINUOUS
 10
232.7512556059
 20
545.1801196768
 40
23.9109650422
100
AcDbArc
 50
329.7416848821
 51
331.3149752448
  0
ARC
  5
394
100
AcDbEntity
  8
0
100
AcDbCircle
 62
7
  6
CONTINUOUS
 10
232.8472848849
 20
545.1271064405
 40
17.8013960257
100
AcDbArc
 50
327.5984325833
 51
331.1027115052
  0
ARC
  5
395
100
AcDbEntity
  8
0
100
AcDbCircle
 62
7
  6
CONTINUOUS
 10
232.8981761346
 20
545.0975250882
 40
17.7425465051
100
AcDbArc
 50
331.106926904
 51
331.5482004035
  0
ARC
  5
396
100
AcDbEntity
  8
0
100
AcDbCircle
 62
7
  6
CONTINUOUS
 10
245.1556004215
 20
523.5629136014
 40
13.4393169384
100
AcDbArc
 50
76.0282441985
 51
77.544118628
  0
ARC
  5
397
100
AcDbEntity
  8
0
100
AcDbCircle
 62
7
  6
CONTINUOUS
 10
240.8656153829
 20
531.3428274047
 40
7.1243950524
100
AcDbArc
 50
240.0670717249
 51
254.0222508072
  0
ARC
  5
398
100
AcDbEntity
  8
0
100
AcDbCircle
 62
7
  6
CONTINUOUS
 10
264.9438236134
 20
472.814295102
 40
3.6111202301
100
AcDbArc
 50
209.7821066963
 51
212.1661460063
  0
ARC
  5
399
100
AcDbEntity
  8
0
100
AcDbCircle
 62
7
  6
CONTINUOUS
 10
250.7974383618
 20
531.8316634928
 40
3.0379665874
100
AcDbArc
 50
0.0368741551
 51
10.0762077761
  0
ARC
  5
39A
100
AcDbEntity
  8
0
100
AcDbCircle
 62
7
  6
CONTINUOUS
 10
261.0808887383
 20
491.2487033377
 40
2.0311514232
100
AcDbArc
 50
22.774620435
 51
27.9874655031
  0
ARC
  5
39B
100
AcDbEntity
  8
0
100
AcDbCircle
 62
7
  6
CONTINUOUS
 10
222.5434087179
 20
513.4978244591
 40
2.0311514232
100
AcDbArc
 50
22.7746204349
 51
27.9874655031
  0
ARC
  5
39C
100
AcDbEntity
  8
0
100
AcDbCircle
 62
7
  6
CONTINUOUS
 10
226.8224691733
 20
507.578350849
 40
2.0311130438
100
AcDbArc
 50
152.0123639943
 51
157.2283548657
  0
ARC
  5
39D
100
AcDbEntity
  8
0
100
AcDbCircle
 62
7
  6
CONTINUOUS
 10
241.2285832735
 20
460.4897995143
 40
1.8973671745
100
AcDbArc
 50
336.8681077473
 51
343.8723850386
  0
ARC
  5
39E
100
AcDbEntity
  8
0
100
AcDbCircle
 62
7
  6
CONTINUOUS
 10
203.3982129782
 20
482.3306798811
 40
1.8973671746
100
AcDbArc
 50
336.8681077473
 51
343.8723850386
  0
ARC
  5
39F
100
AcDbEntity
  8
0
100
AcDbCircle
 62
7
  6
CONTINUOUS
 10
261.2396228537
 20
493.0306779506
 40
1.8592299066
100
AcDbArc
 50
337.2085586078
 51
344.6651509265
  0
ARC
  5
3A0
100
AcDbEntity
  8
0
100
AcDbCircle
 62
7
  6
CONTINUOUS
 10
222.7021428332
 20
515.279799072
 40
1.8592299066
100
AcDbArc
 50
337.2085586078
 51
344.6651509265
  0
ARC
  5
3A1
100
AcDbEntity
  8
0
100
AcDbCircle
 62
7
  6
CONTINUOUS
 10
226.6637038045
 20
509.3602853466
 40
1.8591605969
100
AcDbArc
 50
195.3301551175
 51
202.7892290425
  0
ARC
  5
3A2
100
AcDbEntity
  8
0
100
AcDbCircle
 62
7
  6
CONTINUOUS
 10
194.4091188287
 20
520.6544353893
 40
1.6872245182
100
AcDbArc
 50
349.1960400267
 51
359.9434998341
  0
ARC
  5
3A3
100
AcDbEntity
  8
0
100
AcDbCircle
 62
7
  6
CONTINUOUS
 10
222.6935873213
 20
493.3022589453
 40
1.6872245186
100
AcDbArc
 50
349.1960400273
 51
359.9434998342
  0
ARC
  5
3A4
100
AcDbEntity
  8
0
100
AcDbCircle
 62
7
  6
CONTINUOUS
 10
213.147685519
 20
487.7909628679
 40
1.6872245185
100
AcDbArc
 50
349.1960400274
 51
359.9434998342
  0
ARC
  5
3A5
100
AcDbEntity
  8
0
100
AcDbCircle
 62
7
  6
CONTINUOUS
 10
232.239489124
 20
498.8135550224
 40
1.6872245182
100
AcDbArc
 50
349.1960400267
 51
359.9434998341
  0
ARC
  5
3A6
100
AcDbEntity
  8
0
100
AcDbCircle
 62
7
  6
CONTINUOUS
 10
260.5239576166
 20
471.4613785784
 40
1.6872245186
100
AcDbArc
 50
349.1960400273
 51
359.9434998341
  0
ARC
  5
3A7
100
AcDbEntity
  8
0
100
AcDbCircle
 62
7
  6
CONTINUOUS
 10
250.9780558144
 20
465.950082501
 40
1.6872245185
100
AcDbArc
 50
349.1960400274
 51
359.9434998342
  0
ARC
  5
3A8
100
AcDbEntity
  8
0
100
AcDbCircle
 62
7
  6
CONTINUOUS
 10
270.0698594194
 20
476.9726746556
 40
1.6872245182
100
AcDbArc
 50
349.1960400268
 51
359.943499834
  0
ARC
  5
3A9
100
AcDbEntity
  8
0
100
AcDbCircle
 62
7
  6
CONTINUOUS
 10
272.9684977319
 20
471.4495494465
 40
1.6674712176
100
AcDbArc
 50
180.013017068
 51
187.0438521301
  0
ARC
  5
3AA
100
AcDbEntity
  8
0
100
AcDbCircle
 62
7
  6
CONTINUOUS
 10
263.4225959295
 20
465.9382533692
 40
1.6674712176
100
AcDbArc
 50
180.013017068
 51
187.0438521292
  0
ARC
  5
3AB
100
AcDbEntity
  8
0
100
AcDbCircle
 62
7
  6
CONTINUOUS
 10
253.8766941274
 20
460.4269572919
 40
1.6674712179
100
AcDbArc
 50
180.0130170681
 51
187.0438521345
  0
ARC
  5
3AC
100
AcDbEntity
  8
0
100
AcDbCircle
 62
7
  6
CONTINUOUS
 10
235.1381274365
 20
493.2904298134
 40
1.6674712177
100
AcDbArc
 50
180.0130170681
 51
187.0438521308
  0
ARC
  5
3AD
100
AcDbEntity
  8
0
100
AcDbCircle
 62
7
  6
CONTINUOUS
 10
216.046323832
 20
482.2678376587
 40
1.6674712179
100
AcDbArc
 50
180.0130170681
 51
187.0438521353
  0
ARC
  5
3AE
100
AcDbEntity
  8
0
100
AcDbCircle
 62
7
  6
CONTINUOUS
 10
225.5922256342
 20
487.7791337361
 40
1.6674712177
100
AcDbArc
 50
180.0130170682
 51
187.0438521292
  0
ARC
  5
3AF
100
AcDbEntity
  8
0
100
AcDbCircle
 62
7
  6
CONTINUOUS
 10
197.3077571412
 20
515.1313101802
 40
1.6674712177
100
AcDbArc
 50
180.0130170681
 51
187.0438521308
  0
SPLINE
  5
3B0
100
AcDbEntity
  8
0
100
AcDbSpline
 62
7
  6
CONTINUOUS
 70
0
 71
3
 72
8
 73
4
 74
0
 42
0.0000001
 43
0.0000001
 44
0.0000000001
 40
0.0
 40
0.0
 40
0.0
 40
0.0
 40
1.0
 40
1.0
 40
1.0
 40
1.0
 10
289.7812107956
 20
477.1849860976
 30
0.0
 10
289.9111613933
 20
477.2600133946
 30
0.0
 10
290.0635968565
 20
477.3028436062
 30
0.0
 10
290.2134411977
 20
477.3107762305
 30
0.0
  0
SPLINE
  5
3B1
100
AcDbEntity
  8
0
100
AcDbSpline
 62
7
  6
CONTINUOUS
 70
0
 71
3
 72
8
 73
4
 74
0
 42
0.0000001
 43
0.0000001
 44
0.0000000001
 40
0.0
 40
0.0
 40
0.0
 40
0.0
 40
1.0
 40
1.0
 40
1.0
 40
1.0
 10
290.2134411977
 20
477.3107762305
 30
0.0
 10
290.2707249019
 20
477.3138087782
 30
0.0
 10
290.3284024432
 20
477.3121249507
 30
0.0
 10
290.3854763922
 20
477.3063644419
 30
0.0
  0
SPLINE
  5
3B2
100
AcDbEntity
  8
0
100
AcDbSpline
 62
7
  6
CONTINUOUS
 70
0
 71
3
 72
9
 73
5
 74
0
 42
0.0000001
 43
0.0000001
 44
0.0000000001
 40
0.0
 40
0.0
 40
0.0
 40
0.0
 40
0.2313630203
 40
1.0
 40
1.0
 40
1.0
 40
1.0
 10
290.3854763922
 20
477.3063644419
 30
0.0
 10
290.4477346486
 20
477.3000806777
 30
0.0
 10
290.7147895607
 20
477.2523134179
 30
0.0
 10
290.9669888495
 20
477.1435792988
 30
0.0
 10
291.1512113265
 20
477.0472535326
 30
0.0
  0
SPLINE
  5
3B3
100
AcDbEntity
  8
0
100
AcDbSpline
 62
7
  6
CONTINUOUS
 70
0
 71
3
 72
8
 73
4
 74
0
 42
0.0000001
 43
0.0000001
 44
0.0000000001
 40
0.0
 40
0.0
 40
0.0
 40
0.0
 40
1.0
 40
1.0
 40
1.0
 40
1.0
 10
290.1593099915
 20
477.2805499702
 30
0.0
 10
290.1280795535
 20
477.2339091901
 30
0.0
 10
290.1002493099
 20
477.1848503182
 30
0.0
 10
290.0757882997
 20
477.1343294156
 30
0.0
  0
SPLINE
  5
3B4
100
AcDbEntity
  8
0
100
AcDbSpline
 62
7
  6
CONTINUOUS
 70
0
 71
3
 72
10
 73
6
 74
0
 42
0.0000001
 43
0.0000001
 44
0.0000000001
 40
0.0
 40
0.0
 40
0.0
 40
0.0
 40
0.4439662071
 40
0.719559199
 40
1.0
 40
1.0
 40
1.0
 40
1.0
 10
290.0757882997
 20
477.1343294156
 30
0.0
 10
289.8397500429
 20
476.6468243726
 30
0.0
 10
289.9142460379
 20
475.6740237428
 30
0.0
 10
290.3697514105
 20
474.5546743775
 30
0.0
 10
290.7500262812
 20
473.980711658
 30
0.0
 10
290.973265691
 20
473.7214367303
 30
0.0
  0
SPLINE
  5
3B5
100
AcDbEntity
  8
0
100
AcDbSpline
 62
7
  6
CONTINUOUS
 70
0
 71
3
 72
8
 73
4
 74
0
 42
0.0000001
 43
0.0000001
 44
0.0000000001
 40
0.0
 40
0.0
 40
0.0
 40
0.0
 40
1.0
 40
1.0
 40
1.0
 40
1.0
 10
170.986776971
 20
545.769432857
 30
0.0
 10
171.1167275686
 20
545.844460154
 30
0.0
 10
171.2691630318
 20
545.8872903656
 30
0.0
 10
171.419007373
 20
545.8952229899
 30
0.0
  0
SPLINE
  5
3B6
100
AcDbEntity
  8
0
100
AcDbSpline
 62
7
  6
CONTINUOUS
 70
0
 71
3
 72
8
 73
4
 74
0
 42
0.0000001
 43
0.0000001
 44
0.0000000001
 40
0.0
 40
0.0
 40
0.0
 40
0.0
 40
1.0
 40
1.0
 40
1.0
 40
1.0
 10
171.419007373
 20
545.8952229899
 30
0.0
 10
171.4762910772
 20
545.8982555376
 30
0.0
 10
171.5339686185
 20
545.8965717101
 30
0.0
 10
171.5910425675
 20
545.8908112013
 30
0.0
  0
SPLINE
  5
3B7
100
AcDbEntity
  8
0
100
AcDbSpline
 62
7
  6
CONTINUOUS
 70
0
 71
3
 72
9
 73
5
 74
0
 42
0.0000001
 43
0.0000001
 44
0.0000000001
 40
0.0
 40
0.0
 40
0.0
 40
0.0
 40
0.2313630203
 40
1.0
 40
1.0
 40
1.0
 40
1.0
 10
171.5910425675
 20
545.8908112013
 30
0.0
 10
171.6533008239
 20
545.8845274371
 30
0.0
 10
171.920355736
 20
545.8367601773
 30
0.0
 10
172.1725550248
 20
545.7280260582
 30
0.0
 10
172.3567775018
 20
545.631700292
 30
0.0
  0
SPLINE
  5
3B8
100
AcDbEntity
  8
0
100
AcDbSpline
 62
7
  6
CONTINUOUS
 70
0
 71
3
 72
8
 73
4
 74
0
 42
0.0000001
 43
0.0000001
 44
0.0000000001
 40
0.0
 40
0.0
 40
0.0
 40
0.0
 40
1.0
 40
1.0
 40
1.0
 40
1.0
 10
171.3648761668
 20
545.8649967296
 30
0.0
 10
171.3336457288
 20
545.8183559495
 30
0.0
 10
171.3058154852
 20
545.7692970776
 30
0.0
 10
171.2813544751
 20
545.718776175
 30
0.0
  0
SPLINE
  5
3B9
100
AcDbEntity
  8
0
100
AcDbSpline
 62
7
  6
CONTINUOUS
 70
0
 71
3
 72
10
 73
6
 74
0
 42
0.0000001
 43
0.0000001
 44
0.0000000001
 40
0.0
 40
0.0
 40
0.0
 40
0.0
 40
0.4439662071
 40
0.719559199
 40
1.0
 40
1.0
 40
1.0
 40
1.0
 10
171.2813544751
 20
545.718776175
 30
0.0
 10
171.0453162182
 20
545.231271132
 30
0.0
 10
171.1198122132
 20
544.2584705022
 30
0.0
 10
171.5753175858
 20
543.1391211369
 30
0.0
 10
171.9555924565
 20
542.5651584174
 30
0.0
 10
172.1788318664
 20
542.3058834897
 30
0.0
  0
SPLINE
  5
3BA
100
AcDbEntity
  8
0
100
AcDbSpline
 62
7
  6
CONTINUOUS
 70
0
 71
3
 72
9
 73
5
 74
0
 42
0.0000001
 43
0.0000001
 44
0.0000000001
 40
0.0
 40
0.0
 40
0.0
 40
0.0
 40
0.5096314731
 40
1.0
 40
1.0
 40
1.0
 40
1.0
 10
248.0542969502
 20
536.6859009977
 30
0.0
 10
246.6552289684
 20
536.9950558792
 30
0.0
 10
243.8114605322
 20
537.184895365
 30
0.0
 10
241.0067128103
 20
536.6212304877
 30
0.0
 10
239.725931553
 20
536.1110295228
 30
0.0
  0
SPLINE
  5
3BB
100
AcDbEntity
  8
0
100
AcDbSpline
 62
7
  6
CONTINUOUS
 70
0
 71
3
 72
8
 73
4
 74
0
 42
0.0000001
 43
0.0000001
 44
0.0000000001
 40
0.0
 40
0.0
 40
0.0
 40
0.0
 40
1.0
 40
1.0
 40
1.0
 40
1.0
 10
262.8744975657
 20
492.2018788088
 30
0.0
 10
262.820177935
 20
492.304241107
 30
0.0
 10
262.7572929847
 20
492.4023698287
 30
0.0
 10
262.6881344332
 20
492.4953523922
 30
0.0
  0
SPLINE
  5
3BC
100
AcDbEntity
  8
0
100
AcDbSpline
 62
7
  6
CONTINUOUS
 70
0
 71
3
 72
9
 73
5
 74
0
 42
0.0000001
 43
0.0000001
 44
0.0000000001
 40
0.0
 40
0.0
 40
0.0
 40
0.0
 40
0.2309069821
 40
1.0
 40
1.0
 40
1.0
 40
1.0
 10
262.6881344332
 20
492.4953523922
 30
0.0
 10
262.6239840256
 20
492.5816015866
 30
0.0
 10
262.3218056457
 20
492.937030475
 30
0.0
 10
261.9394690884
 20
493.2184184828
 30
0.0
 10
261.6294097614
 20
493.397427269
 30
0.0
  0
SPLINE
  5
3BD
100
AcDbEntity
  8
0
100
AcDbSpline
 62
7
  6
CONTINUOUS
 70
0
 71
3
 72
8
 73
4
 74
0
 42
0.0000001
 43
0.0000001
 44
0.0000000001
 40
0.0
 40
0.0
 40
0.0
 40
0.0
 40
1.0
 40
1.0
 40
1.0
 40
1.0
 10
263.0936108106
 20
492.9892113358
 30
0.0
 10
263.0936107769
 20
492.8377673489
 30
0.0
 10
263.0725504645
 20
492.6850820697
 30
0.0
 10
263.0326581225
 20
492.5389866139
 30
0.0
  0
SPLINE
  5
3BE
100
AcDbEntity
  8
0
100
AcDbSpline
 62
7
  6
CONTINUOUS
 70
0
 71
3
 72
8
 73
4
 74
0
 42
0.0000001
 43
0.0000001
 44
0.0000000001
 40
0.0
 40
0.0
 40
0.0
 40
0.0
 40
1.0
 40
1.0
 40
1.0
 40
1.0
 10
262.9536859982
 20
492.3104534147
 30
0.0
 10
262.8852114123
 20
492.1470576436
 30
0.0
 10
262.7938618652
 20
491.9922133874
 30
0.0
 10
262.6881300241
 20
491.8500595105
 30
0.0
  0
SPLINE
  5
3BF
100
AcDbEntity
  8
0
100
AcDbSpline
 62
7
  6
CONTINUOUS
 70
0
 71
3
 72
9
 73
5
 74
0
 42
0.0000001
 43
0.0000001
 44
0.0000000001
 40
0.0
 40
0.0
 40
0.0
 40
0.0
 40
0.2309075084
 40
1.0
 40
1.0
 40
1.0
 40
1.0
 10
262.6881300241
 20
491.8500595105
 30
0.0
 10
262.6239810997
 20
491.763812849
 30
0.0
 10
262.321811277
 20
491.4083947911
 30
0.0
 10
261.9394879028
 20
491.1270131942
 30
0.0
 10
261.6294392011
 20
490.9480075613
 30
0.0
  0
SPLINE
  5
3C0
100
AcDbEntity
  8
0
100
AcDbSpline
 62
7
  6
CONTINUOUS
 70
0
 71
3
 72
9
 73
5
 74
0
 42
0.0000001
 43
0.0000001
 44
0.0000000001
 40
0.0
 40
0.0
 40
0.0
 40
0.0
 40
0.2673707349
 40
1.0
 40
1.0
 40
1.0
 40
1.0
 10
272.7665262959
 20
469.4132448741
 30
0.0
 10
272.6618121138
 20
469.4770686489
 30
0.0
 10
272.2786873835
 20
469.7281601619
 30
0.0
 10
271.9262581217
 20
470.0357294216
 30
0.0
 10
271.7204470348
 20
470.3013520988
 30
0.0
  0
SPLINE
  5
3C1
100
AcDbEntity
  8
0
100
AcDbSpline
 62
7
  6
CONTINUOUS
 70
0
 71
3
 72
9
 73
5
 74
0
 42
0.0000001
 43
0.0000001
 44
0.0000000001
 40
0.0
 40
0.0
 40
0.0
 40
0.0
 40
0.2658398252
 40
1.0
 40
1.0
 40
1.0
 40
1.0
 10
271.7204470348
 20
470.3013520988
 30
0.0
 10
271.6642959566
 20
470.3738214683
 30
0.0
 10
271.4684631037
 20
470.6576449816
 30
0.0
 10
271.344631174
 20
470.9937943452
 30
0.0
 10
271.313611609
 20
471.245069174
 30
0.0
  0
SPLINE
  5
3C2
100
AcDbEntity
  8
0
100
AcDbSpline
 62
7
  6
CONTINUOUS
 70
0
 71
3
 72
9
 73
5
 74
0
 42
0.0000001
 43
0.0000001
 44
0.0000000001
 40
0.0
 40
0.0
 40
0.0
 40
0.0
 40
0.2673707349
 40
1.0
 40
1.0
 40
1.0
 40
1.0
 10
263.2206244935
 20
463.9019487968
 30
0.0
 10
263.1159103114
 20
463.9657725716
 30
0.0
 10
262.7327855811
 20
464.2168640847
 30
0.0
 10
262.3803563194
 20
464.5244333443
 30
0.0
 10
262.1745452324
 20
464.7900560215
 30
0.0
  0
SPLINE
  5
3C3
100
AcDbEntity
  8
0
100
AcDbSpline
 62
7
  6
CONTINUOUS
 70
0
 71
3
 72
9
 73
5
 74
0
 42
0.0000001
 43
0.0000001
 44
0.0000000001
 40
0.0
 40
0.0
 40
0.0
 40
0.0
 40
0.2658398252
 40
1.0
 40
1.0
 40
1.0
 40
1.0
 10
262.1745452324
 20
464.7900560215
 30
0.0
 10
262.1183941543
 20
464.862525391
 30
0.0
 10
261.9225613013
 20
465.1463489043
 30
0.0
 10
261.7987293716
 20
465.482498268
 30
0.0
 10
261.7677098066
 20
465.7337730967
 30
0.0
  0
SPLINE
  5
3C4
100
AcDbEntity
  8
0
100
AcDbSpline
 62
7
  6
CONTINUOUS
 70
0
 71
3
 72
9
 73
5
 74
0
 42
0.0000001
 43
0.0000001
 44
0.0000000001
 40
0.0
 40
0.0
 40
0.0
 40
0.0
 40
0.2673707349
 40
1.0
 40
1.0
 40
1.0
 40
1.0
 10
253.6747226912
 20
458.3906527195
 30
0.0
 10
253.570008509
 20
458.4544764943
 30
0.0
 10
253.1868837787
 20
458.7055680073
 30
0.0
 10
252.8344545169
 20
459.013137267
 30
0.0
 10
252.62864343
 20
459.2787599442
 30
0.0
  0
SPLINE
  5
3C5
100
AcDbEntity
  8
0
100
AcDbSpline
 62
7
  6
CONTINUOUS
 70
0
 71
3
 72
9
 73
5
 74
0
 42
0.0000001
 43
0.0000001
 44
0.0000000001
 40
0.0
 40
0.0
 40
0.0
 40
0.0
 40
0.2658398252
 40
1.0
 40
1.0
 40
1.0
 40
1.0
 10
252.62864343
 20
459.2787599442
 30
0.0
 10
252.5724923518
 20
459.3512293137
 30
0.0
 10
252.3766594989
 20
459.6350528269
 30
0.0
 10
252.2528275693
 20
459.9712021905
 30
0.0
 10
252.2218080042
 20
460.2224770192
 30
0.0
  0
SPLINE
  5
3C6
100
AcDbEntity
  8
0
100
AcDbSpline
 62
7
  6
CONTINUOUS
 70
0
 71
3
 72
9
 73
5
 74
0
 42
0.0000001
 43
0.0000001
 44
0.0000000001
 40
0.0
 40
0.0
 40
0.0
 40
0.0
 40
0.2673707349
 40
1.0
 40
1.0
 40
1.0
 40
1.0
 10
234.9361560006
 20
491.2541252409
 30
0.0
 10
234.8314418184
 20
491.3179490157
 30
0.0
 10
234.4483170882
 20
491.5690405288
 30
0.0
 10
234.0958878264
 20
491.8766097884
 30
0.0
 10
233.8900767394
 20
492.1422324656
 30
0.0
  0
SPLINE
  5
3C7
100
AcDbEntity
  8
0
100
AcDbSpline
 62
7
  6
CONTINUOUS
 70
0
 71
3
 72
9
 73
5
 74
0
 42
0.0000001
 43
0.0000001
 44
0.0000000001
 40
0.0
 40
0.0
 40
0.0
 40
0.0
 40
0.2658398252
 40
1.0
 40
1.0
 40
1.0
 40
1.0
 10
233.8900767394
 20
492.1422324656
 30
0.0
 10
233.8339256613
 20
492.2147018351
 30
0.0
 10
233.6380928083
 20
492.4985253484
 30
0.0
 10
233.5142608786
 20
492.834674712
 30
0.0
 10
233.4832413136
 20
493.0859495408
 30
0.0
  0
SPLINE
  5
3C8
100
AcDbEntity
  8
0
100
AcDbSpline
 62
7
  6
CONTINUOUS
 70
0
 71
3
 72
9
 73
5
 74
0
 42
0.0000001
 43
0.0000001
 44
0.0000000001
 40
0.0
 40
0.0
 40
0.0
 40
0.0
 40
0.2673707349
 40
1.0
 40
1.0
 40
1.0
 40
1.0
 10
215.8443523958
 20
480.2315330864
 30
0.0
 10
215.7396382136
 20
480.2953568612
 30
0.0
 10
215.3565134833
 20
480.5464483742
 30
0.0
 10
215.0040842215
 20
480.8540176338
 30
0.0
 10
214.7982731346
 20
481.119640311
 30
0.0
  0
SPLINE
  5
3C9
100
AcDbEntity
  8
0
100
AcDbSpline
 62
7
  6
CONTINUOUS
 70
0
 71
3
 72
9
 73
5
 74
0
 42
0.0000001
 43
0.0000001
 44
0.0000000001
 40
0.0
 40
0.0
 40
0.0
 40
0.0
 40
0.2658398252
 40
1.0
 40
1.0
 40
1.0
 40
1.0
 10
214.7982731346
 20
481.119640311
 30
0.0
 10
214.7421220565
 20
481.1921096805
 30
0.0
 10
214.5462892035
 20
481.4759331938
 30
0.0
 10
214.4224572739
 20
481.8120825573
 30
0.0
 10
214.3914377088
 20
482.063357386
 30
0.0
  0
SPLINE
  5
3CA
100
AcDbEntity
  8
0
100
AcDbSpline
 62
7
  6
CONTINUOUS
 70
0
 71
3
 72
9
 73
5
 74
0
 42
0.0000001
 43
0.0000001
 44
0.0000000001
 40
0.0
 40
0.0
 40
0.0
 40
0.0
 40
0.2673707349
 40
1.0
 40
1.0
 40
1.0
 40
1.0
 10
225.3902541982
 20
485.7428291636
 30
0.0
 10
225.285540016
 20
485.8066529384
 30
0.0
 10
224.9024152858
 20
486.0577444515
 30
0.0
 10
224.549986024
 20
486.3653137111
 30
0.0
 10
224.3441749371
 20
486.6309363883
 30
0.0
  0
SPLINE
  5
3CB
100
AcDbEntity
  8
0
100
AcDbSpline
 62
7
  6
CONTINUOUS
 70
0
 71
3
 72
9
 73
5
 74
0
 42
0.0000001
 43
0.0000001
 44
0.0000000001
 40
0.0
 40
0.0
 40
0.0
 40
0.0
 40
0.2658398252
 40
1.0
 40
1.0
 40
1.0
 40
1.0
 10
224.3441749371
 20
486.6309363883
 30
0.0
 10
224.2880238589
 20
486.7034057578
 30
0.0
 10
224.0921910059
 20
486.9872292712
 30
0.0
 10
223.9683590762
 20
487.3233786348
 30
0.0
 10
223.9373395112
 20
487.5746534635
 30
0.0
  0
SPLINE
  5
3CC
100
AcDbEntity
  8
0
100
AcDbSpline
 62
7
  6
CONTINUOUS
 70
0
 71
3
 72
9
 73
5
 74
0
 42
0.0000001
 43
0.0000001
 44
0.0000000001
 40
0.0
 40
0.0
 40
0.0
 40
0.0
 40
0.2673707349
 40
1.0
 40
1.0
 40
1.0
 40
1.0
 10
197.1057857052
 20
513.0950056077
 30
0.0
 10
197.0010715231
 20
513.1588293826
 30
0.0
 10
196.6179467928
 20
513.4099208956
 30
0.0
 10
196.265517531
 20
513.7174901552
 30
0.0
 10
196.0597064441
 20
513.9831128324
 30
0.0
  0
SPLINE
  5
3CD
100
AcDbEntity
  8
0
100
AcDbSpline
 62
7
  6
CONTINUOUS
 70
0
 71
3
 72
9
 73
5
 74
0
 42
0.0000001
 43
0.0000001
 44
0.0000000001
 40
0.0
 40
0.0
 40
0.0
 40
0.0
 40
0.2658398252
 40
1.0
 40
1.0
 40
1.0
 40
1.0
 10
196.0597064441
 20
513.9831128324
 30
0.0
 10
196.0035553659
 20
514.0555822019
 30
0.0
 10
195.8077225129
 20
514.3394057153
 30
0.0
 10
195.6838905833
 20
514.6755550789
 30
0.0
 10
195.6528710182
 20
514.9268299076
 30
0.0
  0
SPLINE
  5
3CE
100
AcDbEntity
  8
0
100
AcDbSpline
 62
7
  6
CONTINUOUS
 70
0
 71
3
 72
9
 73
5
 74
0
 42
0.0000001
 43
0.0000001
 44
0.0000000001
 40
0.0
 40
0.0
 40
0.0
 40
0.0
 40
0.2673707349
 40
1.0
 40
1.0
 40
1.0
 40
1.0
 10
178.0139821004
 20
502.0724134532
 30
0.0
 10
177.9092679183
 20
502.136237228
 30
0.0
 10
177.526143188
 20
502.387328741
 30
0.0
 10
177.1737139262
 20
502.6948980006
 30
0.0
 10
176.9679028392
 20
502.9605206778
 30
0.0
  0
SPLINE
  5
3CF
100
AcDbEntity
  8
0
100
AcDbSpline
 62
7
  6
CONTINUOUS
 70
0
 71
3
 72
9
 73
5
 74
0
 42
0.0000001
 43
0.0000001
 44
0.0000000001
 40
0.0
 40
0.0
 40
0.0
 40
0.0
 40
0.2658398252
 40
1.0
 40
1.0
 40
1.0
 40
1.0
 10
176.9679028392
 20
502.9605206778
 30
0.0
 10
176.9117517611
 20
503.0329900473
 30
0.0
 10
176.7159189081
 20
503.3168135606
 30
0.0
 10
176.5920869785
 20
503.6529629241
 30
0.0
 10
176.5610674135
 20
503.9042377528
 30
0.0
  0
SPLINE
  5
3D0
100
AcDbEntity
  8
0
100
AcDbSpline
 62
7
  6
CONTINUOUS
 70
0
 71
3
 72
9
 73
5
 74
0
 42
0.0000001
 43
0.0000001
 44
0.0000000001
 40
0.0
 40
0.0
 40
0.0
 40
0.0
 40
0.2673707349
 40
1.0
 40
1.0
 40
1.0
 40
1.0
 10
187.5598839028
 20
507.5837095305
 30
0.0
 10
187.4551697207
 20
507.6475333053
 30
0.0
 10
187.0720449904
 20
507.8986248183
 30
0.0
 10
186.7196157286
 20
508.206194078
 30
0.0
 10
186.5138046417
 20
508.4718167551
 30
0.0
  0
SPLINE
  5
3D1
100
AcDbEntity
  8
0
100
AcDbSpline
 62
7
  6
CONTINUOUS
 70
0
 71
3
 72
9
 73
5
 74
0
 42
0.0000001
 43
0.0000001
 44
0.0000000001
 40
0.0
 40
0.0
 40
0.0
 40
0.0
 40
0.2658398252
 40
1.0
 40
1.0
 40
1.0
 40
1.0
 10
186.5138046417
 20
508.4718167551
 30
0.0
 10
186.4576535635
 20
508.5442861247
 30
0.0
 10
186.2618207105
 20
508.828109638
 30
0.0
 10
186.1379887809
 20
509.1642590016
 30
0.0
 10
186.1069692159
 20
509.4155338304
 30
0.0
  0
SPLINE
  5
3D2
100
AcDbEntity
  8
0
100
AcDbSpline
 62
7
  6
CONTINUOUS
 70
0
 71
3
 72
9
 73
5
 74
0
 42
0.0000001
 43
0.0000001
 44
0.0000000001
 40
0.0
 40
0.0
 40
0.0
 40
0.0
 40
0.2673707349
 40
1.0
 40
1.0
 40
1.0
 40
1.0
 10
159.2754154099
 20
534.9358859746
 30
0.0
 10
159.1707012277
 20
534.9997097494
 30
0.0
 10
158.7875764974
 20
535.2508012625
 30
0.0
 10
158.4351472356
 20
535.5583705221
 30
0.0
 10
158.2293361487
 20
535.8239931993
 30
0.0
  0
SPLINE
  5
3D3
100
AcDbEntity
  8
0
100
AcDbSpline
 62
7
  6
CONTINUOUS
 70
0
 71
3
 72
9
 73
5
 74
0
 42
0.0000001
 43
0.0000001
 44
0.0000000001
 40
0.0
 40
0.0
 40
0.0
 40
0.0
 40
0.2658398252
 40
1.0
 40
1.0
 40
1.0
 40
1.0
 10
158.2293361487
 20
535.8239931993
 30
0.0
 10
158.1731850705
 20
535.8964625688
 30
0.0
 10
157.9773522176
 20
536.1802860821
 30
0.0
 10
157.8535202879
 20
536.5164354457
 30
0.0
 10
157.8225007229
 20
536.7677102745
 30
0.0
  0
SPLINE
  5
3D4
100
AcDbEntity
  8
0
100
AcDbSpline
 62
7
  6
CONTINUOUS
 70
0
 71
3
 72
9
 73
5
 74
0
 42
0.0000001
 43
0.0000001
 44
0.0000000001
 40
0.0
 40
0.0
 40
0.0
 40
0.0
 40
0.2673707349
 40
1.0
 40
1.0
 40
1.0
 40
1.0
 10
140.1836118051
 20
523.91329382
 30
0.0
 10
140.0788976229
 20
523.9771175948
 30
0.0
 10
139.6957728926
 20
524.2282091079
 30
0.0
 10
139.3433436308
 20
524.5357783675
 30
0.0
 10
139.1375325438
 20
524.8014010447
 30
0.0
  0
SPLINE
  5
3D5
100
AcDbEntity
  8
0
100
AcDbSpline
 62
7
  6
CONTINUOUS
 70
0
 71
3
 72
9
 73
5
 74
0
 42
0.0000001
 43
0.0000001
 44
0.0000000001
 40
0.0
 40
0.0
 40
0.0
 40
0.0
 40
0.2658398252
 40
1.0
 40
1.0
 40
1.0
 40
1.0
 10
139.1375325438
 20
524.8014010447
 30
0.0
 10
139.0813814657
 20
524.8738704142
 30
0.0
 10
138.8855486128
 20
525.1576939275
 30
0.0
 10
138.7617166831
 20
525.493843291
 30
0.0
 10
138.7306971181
 20
525.7451181197
 30
0.0
  0
SPLINE
  5
3D6
100
AcDbEntity
  8
0
100
AcDbSpline
 62
7
  6
CONTINUOUS
 70
0
 71
3
 72
9
 73
5
 74
0
 42
0.0000001
 43
0.0000001
 44
0.0000000001
 40
0.0
 40
0.0
 40
0.0
 40
0.0
 40
0.2673707349
 40
1.0
 40
1.0
 40
1.0
 40
1.0
 10
149.7295136075
 20
529.4245898973
 30
0.0
 10
149.6247994253
 20
529.4884136721
 30
0.0
 10
149.2416746951
 20
529.7395051852
 30
0.0
 10
148.8892454333
 20
530.0470744448
 30
0.0
 10
148.6834343463
 20
530.312697122
 30
0.0
  0
SPLINE
  5
3D7
100
AcDbEntity
  8
0
100
AcDbSpline
 62
7
  6
CONTINUOUS
 70
0
 71
3
 72
9
 73
5
 74
0
 42
0.0000001
 43
0.0000001
 44
0.0000000001
 40
0.0
 40
0.0
 40
0.0
 40
0.0
 40
0.2658398252
 40
1.0
 40
1.0
 40
1.0
 40
1.0
 10
148.6834343463
 20
530.312697122
 30
0.0
 10
148.6272832682
 20
530.3851664915
 30
0.0
 10
148.4314504152
 20
530.6689900048
 30
0.0
 10
148.3076184855
 20
531.0051393685
 30
0.0
 10
148.2765989205
 20
531.2564141972
 30
0.0
  0
SPLINE
  5
3D8
100
AcDbEntity
  8
0
100
AcDbSpline
 62
7
  6
CONTINUOUS
 70
0
 71
3
 72
8
 73
4
 74
0
 42
0.0000001
 43
0.0000001
 44
0.0000000001
 40
0.0
 40
0.0
 40
0.0
 40
0.0
 40
1.0
 40
1.0
 40
1.0
 40
1.0
 10
224.3370175451
 20
514.4509999302
 30
0.0
 10
224.2826979145
 20
514.5533622284
 30
0.0
 10
224.2198129642
 20
514.6514909501
 30
0.0
 10
224.1506544127
 20
514.7444735136
 30
0.0
  0
SPLINE
  5
3D9
100
AcDbEntity
  8
0
100
AcDbSpline
 62
7
  6
CONTINUOUS
 70
0
 71
3
 72
9
 73
5
 74
0
 42
0.0000001
 43
0.0000001
 44
0.0000000001
 40
0.0
 40
0.0
 40
0.0
 40
0.0
 40
0.2309069821
 40
1.0
 40
1.0
 40
1.0
 40
1.0
 10
224.1506544127
 20
514.7444735136
 30
0.0
 10
224.0865040051
 20
514.830722708
 30
0.0
 10
223.7843256252
 20
515.1861515963
 30
0.0
 10
223.4019890679
 20
515.4675396041
 30
0.0
 10
223.0919297409
 20
515.6465483903
 30
0.0
  0
SPLINE
  5
3DA
100
AcDbEntity
  8
0
100
AcDbSpline
 62
7
  6
CONTINUOUS
 70
0
 71
3
 72
9
 73
5
 74
0
 42
0.0000001
 43
0.0000001
 44
0.0000000001
 40
0.0
 40
0.0
 40
0.0
 40
0.0
 40
0.2702056465
 40
1.0
 40
1.0
 40
1.0
 40
1.0
 10
187.7365023629
 20
529.5267418667
 30
0.0
 10
187.6276164888
 20
529.5896057332
 30
0.0
 10
187.2347727306
 20
529.8381558854
 30
0.0
 10
186.8804447535
 20
530.1563355943
 30
0.0
 10
186.6777812527
 20
530.4288119629
 30
0.0
  0
SPLINE
  5
3DB
100
AcDbEntity
  8
0
100
AcDbSpline
 62
7
  6
CONTINUOUS
 70
0
 71
3
 72
8
 73
4
 74
0
 42
0.0000001
 43
0.0000001
 44
0.0000000001
 40
0.0
 40
0.0
 40
0.0
 40
0.0
 40
1.0
 40
1.0
 40
1.0
 40
1.0
 10
186.6777812527
 20
530.4288119629
 30
0.0
 10
186.5720347279
 20
530.5709857088
 30
0.0
 10
186.4806744852
 20
530.7258537334
 30
0.0
 10
186.41219673
 20
530.8892749639
 30
0.0
  0
SPLINE
  5
3DC
100
AcDbEntity
  8
0
100
AcDbSpline
 62
7
  6
CONTINUOUS
 70
0
 71
3
 72
8
 73
4
 74
0
 42
0.0000001
 43
0.0000001
 44
0.0000000001
 40
0.0
 40
0.0
 40
0.0
 40
0.0
 40
1.0
 40
1.0
 40
1.0
 40
1.0
 10
186.333215083
 20
531.1178803515
 30
0.0
 10
186.2933476406
 20
531.2639320287
 30
0.0
 10
186.27230128
 20
531.4165674381
 30
0.0
 10
186.2723013137
 20
531.5679626342
 30
0.0
  0
SPLINE
  5
3DD
100
AcDbEntity
  8
0
100
AcDbSpline
 62
7
  6
CONTINUOUS
 70
0
 71
3
 72
11
 73
7
 74
0
 42
0.0000001
 43
0.0000001
 44
0.0000000001
 40
0.0
 40
0.0
 40
0.0
 40
0.0
 40
0.2372524156
 40
0.4999996414
 40
0.7627470637
 40
1.0
 40
1.0
 40
1.0
 40
1.0
 10
223.0919591806
 20
513.1971286826
 30
0.0
 10
222.5899887897
 20
512.9073176723
 30
0.0
 10
221.4227338165
 20
512.4843463763
 30
0.0
 10
219.5564298073
 20
512.2821251575
 30
0.0
 10
217.6901236296
 20
512.4843382599
 30
0.0
 10
216.5228649512
 20
512.9073036593
 30
0.0
 10
216.0208913688
 20
513.1971116859
 30
0.0
  0
SPLINE
  5
3DE
100
AcDbEntity
  8
0
100
AcDbSpline
 62
7
  6
CONTINUOUS
 70
0
 71
3
 72
9
 73
5
 74
0
 42
0.0000001
 43
0.0000001
 44
0.0000000001
 40
0.0
 40
0.0
 40
0.0
 40
0.0
 40
0.2702056465
 40
1.0
 40
1.0
 40
1.0
 40
1.0
 10
226.2739823834
 20
507.2776207453
 30
0.0
 10
226.1650965093
 20
507.3404846119
 30
0.0
 10
225.7722527511
 20
507.5890347641
 30
0.0
 10
225.4179247741
 20
507.907214473
 30
0.0
 10
225.2152612732
 20
508.1796908415
 30
0.0
  0
SPLINE
  5
3DF
100
AcDbEntity
  8
0
100
AcDbSpline
 62
7
  6
CONTINUOUS
 70
0
 71
3
 72
8
 73
4
 74
0
 42
0.0000001
 43
0.0000001
 44
0.0000000001
 40
0.0
 40
0.0
 40
0.0
 40
0.0
 40
1.0
 40
1.0
 40
1.0
 40
1.0
 10
225.2152612732
 20
508.1796908415
 30
0.0
 10
225.1095147484
 20
508.3218645875
 30
0.0
 10
225.0181545057
 20
508.476732612
 30
0.0
 10
224.9496767505
 20
508.6401538426
 30
0.0
  0
SPLINE
  5
3E0
100
AcDbEntity
  8
0
100
AcDbSpline
 62
7
  6
CONTINUOUS
 70
0
 71
3
 72
8
 73
4
 74
0
 42
0.0000001
 43
0.0000001
 44
0.0000000001
 40
0.0
 40
0.0
 40
0.0
 40
0.0
 40
1.0
 40
1.0
 40
1.0
 40
1.0
 10
224.8706951036
 20
508.8687592301
 30
0.0
 10
224.8308276611
 20
509.0148109074
 30
0.0
 10
224.8097813005
 20
509.1674463168
 30
0.0
 10
224.8097813342
 20
509.3188415128
 30
0.0
  0
SPLINE
  5
3E1
100
AcDbEntity
  8
0
100
AcDbSpline
 62
7
  6
CONTINUOUS
 70
0
 71
3
 72
11
 73
7
 74
0
 42
0.0000001
 43
0.0000001
 44
0.0000000001
 40
0.0
 40
0.0
 40
0.0
 40
0.0
 40
0.2372524156
 40
0.4999996414
 40
0.7627470637
 40
1.0
 40
1.0
 40
1.0
 40
1.0
 10
261.6294392011
 20
490.9480075613
 30
0.0
 10
261.1274688102
 20
490.658196551
 30
0.0
 10
259.960213837
 20
490.235225255
 30
0.0
 10
258.0939098278
 20
490.0330040361
 30
0.0
 10
256.2276036501
 20
490.2352171386
 30
0.0
 10
255.0603449717
 20
490.6581825379
 30
0.0
 10
254.5583713893
 20
490.9479905645
 30
0.0
  0
SPLINE
  5
3E2
100
AcDbEntity
  8
0
100
AcDbSpline
 62
7
  6
CONTINUOUS
 70
0
 71
3
 72
8
 73
4
 74
0
 42
0.0000001
 43
0.0000001
 44
0.0000000001
 40
0.0
 40
0.0
 40
0.0
 40
0.0
 40
1.0
 40
1.0
 40
1.0
 40
1.0
 10
224.5561307901
 20
515.2383324571
 30
0.0
 10
224.5561307564
 20
515.0868884703
 30
0.0
 10
224.535070444
 20
514.934203191
 30
0.0
 10
224.4951781019
 20
514.7881077353
 30
0.0
  0
SPLINE
  5
3E3
100
AcDbEntity
  8
0
100
AcDbSpline
 62
7
  6
CONTINUOUS
 70
0
 71
3
 72
8
 73
4
 74
0
 42
0.0000001
 43
0.0000001
 44
0.0000000001
 40
0.0
 40
0.0
 40
0.0
 40
0.0
 40
1.0
 40
1.0
 40
1.0
 40
1.0
 10
224.4162059777
 20
514.559574536
 30
0.0
 10
224.3477313918
 20
514.3961787649
 30
0.0
 10
224.2563818446
 20
514.2413345088
 30
0.0
 10
224.1506500036
 20
514.0991806319
 30
0.0
  0
SPLINE
  5
3E4
100
AcDbEntity
  8
0
100
AcDbSpline
 62
7
  6
CONTINUOUS
 70
0
 71
3
 72
9
 73
5
 74
0
 42
0.0000001
 43
0.0000001
 44
0.0000000001
 40
0.0
 40
0.0
 40
0.0
 40
0.0
 40
0.2309075084
 40
1.0
 40
1.0
 40
1.0
 40
1.0
 10
224.1506500036
 20
514.0991806319
 30
0.0
 10
224.0865010792
 20
514.0129339704
 30
0.0
 10
223.7843312565
 20
513.6575159124
 30
0.0
 10
223.4020078823
 20
513.3761343155
 30
0.0
 10
223.0919591806
 20
513.1971286826
 30
0.0
  0
SPLINE
  5
3E5
100
AcDbEntity
  8
0
100
AcDbSpline
 62
7
  6
CONTINUOUS
 70
0
 71
3
 72
9
 73
5
 74
0
 42
0.0000001
 43
0.0000001
 44
0.0000000001
 40
0.0
 40
0.0
 40
0.0
 40
0.0
 40
0.2370165144
 40
1.0
 40
1.0
 40
1.0
 40
1.0
 10
186.5205343048
 20
514.8268704183
 30
0.0
 10
186.5040414418
 20
514.7401749021
 30
0.0
 10
186.4066710385
 20
514.3795903114
 30
0.0
 10
186.2016876903
 20
514.0535546673
 30
0.0
 10
186.0151069114
 20
513.8393266053
 30
0.0
  0
SPLINE
  5
3E6
100
AcDbEntity
  8
0
100
AcDbSpline
 62
7
  6
CONTINUOUS
 70
0
 71
3
 72
8
 73
4
 74
0
 42
0.0000001
 43
0.0000001
 44
0.0000000001
 40
0.0
 40
0.0
 40
0.0
 40
0.0
 40
1.0
 40
1.0
 40
1.0
 40
1.0
 10
186.0151069114
 20
513.8393266053
 30
0.0
 10
185.9027877464
 20
513.710364141
 30
0.0
 10
185.7783396289
 20
513.5914099408
 30
0.0
 10
185.6466056869
 20
513.4823545398
 30
0.0
  0
SPLINE
  5
3E7
100
AcDbEntity
  8
0
100
AcDbSpline
 62
7
  6
CONTINUOUS
 70
0
 71
3
 72
11
 73
7
 74
0
 42
0.0000001
 43
0.0000001
 44
0.0000000001
 40
0.0
 40
0.0
 40
0.0
 40
0.0
 40
0.2255537092
 40
0.4877169555
 40
0.7567668393
 40
1.0
 40
1.0
 40
1.0
 40
1.0
 10
185.6466056869
 20
513.4823545398
 30
0.0
 10
185.1831426986
 20
513.0986786148
 30
0.0
 10
183.9805596693
 20
512.515860467
 30
0.0
 10
181.9746361176
 20
512.1764675765
 30
0.0
 10
179.8907409494
 20
512.3142880551
 30
0.0
 10
178.5828667934
 20
512.783096432
 30
0.0
 10
178.0139026133
 20
513.0949597165
 30
0.0
  0
SPLINE
  5
3E8
100
AcDbEntity
  8
0
100
AcDbSpline
 62
7
  6
CONTINUOUS
 70
0
 71
3
 72
8
 73
4
 74
0
 42
0.0000001
 43
0.0000001
 44
0.0000000001
 40
0.0
 40
0.0
 40
0.0
 40
0.0
 40
1.0
 40
1.0
 40
1.0
 40
1.0
 10
186.344424056
 20
514.3246361479
 30
0.0
 10
186.2836674576
 20
514.4417158229
 30
0.0
 10
186.2110449425
 20
514.5531250332
 30
0.0
 10
186.1301980371
 20
514.657349754
 30
0.0
  0
SPLINE
  5
3E9
100
AcDbEntity
  8
0
100
AcDbSpline
 62
7
  6
CONTINUOUS
 70
0
 71
3
 72
9
 73
5
 74
0
 42
0.0000001
 43
0.0000001
 44
0.0000000001
 40
0.0
 40
0.0
 40
0.0
 40
0.0
 40
0.2325095271
 40
1.0
 40
1.0
 40
1.0
 40
1.0
 10
186.1301980371
 20
514.657349754
 30
0.0
 10
186.0648611138
 20
514.7415796025
 30
0.0
 10
185.7601930211
 20
515.0855336014
 30
0.0
 10
185.3854050904
 20
515.3612621695
 30
0.0
 10
185.0849409855
 20
515.5443964209
 30
0.0
  0
SPLINE
  5
3EA
100
AcDbEntity
  8
0
100
AcDbSpline
 62
7
  6
CONTINUOUS
 70
0
 71
3
 72
9
 73
5
 74
0
 42
0.0000001
 43
0.0000001
 44
0.0000000001
 40
0.0
 40
0.0
 40
0.0
 40
0.0
 40
0.2370165144
 40
1.0
 40
1.0
 40
1.0
 40
1.0
 10
176.9746325024
 20
509.3155743409
 30
0.0
 10
176.9581396395
 20
509.2288788247
 30
0.0
 10
176.8607692361
 20
508.868294234
 30
0.0
 10
176.6557858879
 20
508.5422585899
 30
0.0
 10
176.469205109
 20
508.3280305279
 30
0.0
  0
SPLINE
  5
3EB
100
AcDbEntity
  8
0
100
AcDbSpline
 62
7
  6
CONTINUOUS
 70
0
 71
3
 72
8
 73
4
 74
0
 42
0.0000001
 43
0.0000001
 44
0.0000000001
 40
0.0
 40
0.0
 40
0.0
 40
0.0
 40
1.0
 40
1.0
 40
1.0
 40
1.0
 10
176.469205109
 20
508.3280305279
 30
0.0
 10
176.356885944
 20
508.1990680636
 30
0.0
 10
176.2324378265
 20
508.0801138634
 30
0.0
 10
176.1007038843
 20
507.9710584623
 30
0.0
  0
SPLINE
  5
3EC
100
AcDbEntity
  8
0
100
AcDbSpline
 62
7
  6
CONTINUOUS
 70
0
 71
3
 72
11
 73
7
 74
0
 42
0.0000001
 43
0.0000001
 44
0.0000000001
 40
0.0
 40
0.0
 40
0.0
 40
0.0
 40
0.2255537092
 40
0.4877169555
 40
0.7567668393
 40
1.0
 40
1.0
 40
1.0
 40
1.0
 10
176.1007038843
 20
507.9710584623
 30
0.0
 10
175.637240896
 20
507.5873825375
 30
0.0
 10
174.4346578667
 20
507.0045643897
 30
0.0
 10
172.4287343151
 20
506.6651714992
 30
0.0
 10
170.344839147
 20
506.8029919778
 30
0.0
 10
169.036964991
 20
507.2718003547
 30
0.0
 10
168.468000811
 20
507.5836636392
 30
0.0
  0
SPLINE
  5
3ED
100
AcDbEntity
  8
0
100
AcDbSpline
 62
7
  6
CONTINUOUS
 70
0
 71
3
 72
11
 73
7
 74
0
 42
0.0000001
 43
0.0000001
 44
0.0000000001
 40
0.0
 40
0.0
 40
0.0
 40
0.0
 40
0.2429352872
 40
0.5116814784
 40
0.7738834538
 40
1.0
 40
1.0
 40
1.0
 40
1.0
 10
279.8375646681
 20
471.8626815785
 30
0.0
 10
279.271377348
 20
472.1730227977
 30
0.0
 10
277.9703820434
 20
472.6405626624
 30
0.0
 10
275.8960309035
 20
472.7814385275
 30
0.0
 10
273.8958840225
 20
472.4485090528
 30
0.0
 10
272.6939896226
 20
471.8735711767
 30
0.0
 10
272.2279051296
 20
471.4942022413
 30
0.0
  0
SPLINE
  5
3EE
100
AcDbEntity
  8
0
100
AcDbSpline
 62
7
  6
CONTINUOUS
 70
0
 71
3
 72
8
 73
4
 74
0
 42
0.0000001
 43
0.0000001
 44
0.0000000001
 40
0.0
 40
0.0
 40
0.0
 40
0.0
 40
1.0
 40
1.0
 40
1.0
 40
1.0
 10
272.2279051296
 20
471.4942022413
 30
0.0
 10
272.0857374445
 20
471.378485018
 30
0.0
 10
271.9516817677
 20
471.251431998
 30
0.0
 10
271.8316478031
 20
471.1128896804
 30
0.0
  0
SPLINE
  5
3EF
100
AcDbEntity
  8
0
100
AcDbSpline
 62
7
  6
CONTINUOUS
 70
0
 71
3
 72
8
 73
4
 74
0
 42
0.0000001
 43
0.0000001
 44
0.0000000001
 40
0.0
 40
0.0
 40
0.0
 40
0.0
 40
1.0
 40
1.0
 40
1.0
 40
1.0
 10
271.8316478031
 20
471.1128896804
 30
0.0
 10
271.7239313207
 20
470.9885641102
 30
0.0
 10
271.6267394995
 20
470.853750727
 30
0.0
 10
271.5462637135
 20
470.71028179
 30
0.0
  0
SPLINE
  5
3F0
100
AcDbEntity
  8
0
100
AcDbSpline
 62
7
  6
CONTINUOUS
 70
0
 71
3
 72
8
 73
4
 74
0
 42
0.0000001
 43
0.0000001
 44
0.0000000001
 40
0.0
 40
0.0
 40
0.0
 40
0.0
 40
1.0
 40
1.0
 40
1.0
 40
1.0
 10
176.7985222536
 20
508.8133400705
 30
0.0
 10
176.7377656552
 20
508.9304197455
 30
0.0
 10
176.6651431401
 20
509.0418289559
 30
0.0
 10
176.5842962347
 20
509.1460536767
 30
0.0
  0
SPLINE
  5
3F1
100
AcDbEntity
  8
0
100
AcDbSpline
 62
7
  6
CONTINUOUS
 70
0
 71
3
 72
9
 73
5
 74
0
 42
0.0000001
 43
0.0000001
 44
0.0000000001
 40
0.0
 40
0.0
 40
0.0
 40
0.0
 40
0.2325095271
 40
1.0
 40
1.0
 40
1.0
 40
1.0
 10
176.5842962347
 20
509.1460536767
 30
0.0
 10
176.5189593114
 20
509.2302835251
 30
0.0
 10
176.2142912187
 20
509.5742375241
 30
0.0
 10
175.839503288
 20
509.8499660922
 30
0.0
 10
175.5390391831
 20
510.0331003437
 30
0.0
  0
SPLINE
  5
3F2
100
AcDbEntity
  8
0
100
AcDbSpline
 62
7
  6
CONTINUOUS
 70
0
 71
3
 72
11
 73
7
 74
0
 42
0.0000001
 43
0.0000001
 44
0.0000000001
 40
0.0
 40
0.0
 40
0.0
 40
0.0
 40
0.2429352872
 40
0.5116814784
 40
0.7738834538
 40
1.0
 40
1.0
 40
1.0
 40
1.0
 10
260.7457610633
 20
460.840089424
 30
0.0
 10
260.1795737432
 20
461.1504306431
 30
0.0
 10
258.8785784385
 20
461.6179705079
 30
0.0
 10
256.8042272986
 20
461.758846373
 30
0.0
 10
254.8040804177
 20
461.4259168983
 30
0.0
 10
253.6021860177
 20
460.8509790221
 30
0.0
 10
253.1361015247
 20
460.4716100866
 30
0.0
  0
SPLINE
  5
3F3
100
AcDbEntity
  8
0
100
AcDbSpline
 62
7
  6
CONTINUOUS
 70
0
 71
3
 72
8
 73
4
 74
0
 42
0.0000001
 43
0.0000001
 44
0.0000000001
 40
0.0
 40
0.0
 40
0.0
 40
0.0
 40
1.0
 40
1.0
 40
1.0
 40
1.0
 10
253.1361015247
 20
460.4716100866
 30
0.0
 10
252.9939338397
 20
460.3558928634
 30
0.0
 10
252.8598781629
 20
460.2288398434
 30
0.0
 10
252.7398441983
 20
460.0902975258
 30
0.0
  0
SPLINE
  5
3F4
100
AcDbEntity
  8
0
100
AcDbSpline
 62
7
  6
CONTINUOUS
 70
0
 71
3
 72
8
 73
4
 74
0
 42
0.0000001
 43
0.0000001
 44
0.0000000001
 40
0.0
 40
0.0
 40
0.0
 40
0.0
 40
1.0
 40
1.0
 40
1.0
 40
1.0
 10
252.7398441983
 20
460.0902975258
 30
0.0
 10
252.6321277158
 20
459.9659719556
 30
0.0
 10
252.5349358946
 20
459.8311585723
 30
0.0
 10
252.4544601087
 20
459.6876896353
 30
0.0
  0
SPLINE
  5
3F5
100
AcDbEntity
  8
0
100
AcDbSpline
 62
7
  6
CONTINUOUS
 70
0
 71
3
 72
11
 73
7
 74
0
 42
0.0000001
 43
0.0000001
 44
0.0000000001
 40
0.0
 40
0.0
 40
0.0
 40
0.0
 40
0.2429352872
 40
0.5116814784
 40
0.7738834538
 40
1.0
 40
1.0
 40
1.0
 40
1.0
 10
270.2916628656
 20
466.3513855013
 30
0.0
 10
269.7254755455
 20
466.6617267204
 30
0.0
 10
268.4244802409
 20
467.1292665852
 30
0.0
 10
266.3501291011
 20
467.2701424502
 30
0.0
 10
264.3499822202
 20
466.9372129756
 30
0.0
 10
263.1480878202
 20
466.3622750995
 30
0.0
 10
262.6820033273
 20
465.982906164
 30
0.0
  0
SPLINE
  5
3F6
100
AcDbEntity
  8
0
100
AcDbSpline
 62
7
  6
CONTINUOUS
 70
0
 71
3
 72
8
 73
4
 74
0
 42
0.0000001
 43
0.0000001
 44
0.0000000001
 40
0.0
 40
0.0
 40
0.0
 40
0.0
 40
1.0
 40
1.0
 40
1.0
 40
1.0
 10
262.6820033273
 20
465.982906164
 30
0.0
 10
262.5398356422
 20
465.8671889407
 30
0.0
 10
262.4057799654
 20
465.7401359207
 30
0.0
 10
262.2857460007
 20
465.6015936031
 30
0.0
  0
SPLINE
  5
3F7
100
AcDbEntity
  8
0
100
AcDbSpline
 62
7
  6
CONTINUOUS
 70
0
 71
3
 72
8
 73
4
 74
0
 42
0.0000001
 43
0.0000001
 44
0.0000000001
 40
0.0
 40
0.0
 40
0.0
 40
0.0
 40
1.0
 40
1.0
 40
1.0
 40
1.0
 10
262.2857460007
 20
465.6015936031
 30
0.0
 10
262.1780295183
 20
465.4772680329
 30
0.0
 10
262.0808376971
 20
465.3424546496
 30
0.0
 10
262.0003619112
 20
465.1989857127
 30
0.0
  0
SPLINE
  5
3F8
100
AcDbEntity
  8
0
100
AcDbSpline
 62
7
  6
CONTINUOUS
 70
0
 71
3
 72
9
 73
5
 74
0
 42
0.0000001
 43
0.0000001
 44
0.0000000001
 40
0.0
 40
0.0
 40
0.0
 40
0.0
 40
0.2370165144
 40
1.0
 40
1.0
 40
1.0
 40
1.0
 10
196.0664361072
 20
520.3381664955
 30
0.0
 10
196.0499432442
 20
520.2514709793
 30
0.0
 10
195.9525728409
 20
519.8908863886
 30
0.0
 10
195.7475894926
 20
519.5648507445
 30
0.0
 10
195.5610087137
 20
519.3506226824
 30
0.0
  0
SPLINE
  5
3F9
100
AcDbEntity
  8
0
100
AcDbSpline
 62
7
  6
CONTINUOUS
 70
0
 71
3
 72
8
 73
4
 74
0
 42
0.0000001
 43
0.0000001
 44
0.0000000001
 40
0.0
 40
0.0
 40
0.0
 40
0.0
 40
1.0
 40
1.0
 40
1.0
 40
1.0
 10
195.5610087137
 20
519.3506226824
 30
0.0
 10
195.4486895488
 20
519.2216602182
 30
0.0
 10
195.3242414313
 20
519.102706018
 30
0.0
 10
195.1925074892
 20
518.9936506169
 30
0.0
  0
SPLINE
  5
3FA
100
AcDbEntity
  8
0
100
AcDbSpline
 62
7
  6
CONTINUOUS
 70
0
 71
3
 72
11
 73
7
 74
0
 42
0.0000001
 43
0.0000001
 44
0.0000000001
 40
0.0
 40
0.0
 40
0.0
 40
0.0
 40
0.2255537092
 40
0.4877169555
 40
0.7567668393
 40
1.0
 40
1.0
 40
1.0
 40
1.0
 10
195.1925074892
 20
518.9936506169
 30
0.0
 10
194.7290445009
 20
518.609974692
 30
0.0
 10
193.5264614716
 20
518.0271565442
 30
0.0
 10
191.5205379199
 20
517.6877636538
 30
0.0
 10
189.4366427518
 20
517.8255841323
 30
0.0
 10
188.1287685958
 20
518.2943925093
 30
0.0
 10
187.5598044157
 20
518.6062557938
 30
0.0
  0
SPLINE
  5
3FB
100
AcDbEntity
  8
0
100
AcDbSpline
 62
7
  6
CONTINUOUS
 70
0
 71
3
 72
9
 73
5
 74
0
 42
0.0000001
 43
0.0000001
 44
0.0000000001
 40
0.0
 40
0.0
 40
0.0
 40
0.0
 40
0.2322714657
 40
1.0
 40
1.0
 40
1.0
 40
1.0
 10
251.1998592609
 20
455.3287933467
 30
0.0
 10
251.0162209112
 20
455.4294500504
 30
0.0
 10
250.2038365005
 20
455.8226007285
 30
0.0
 10
249.3116871261
 20
456.0442045395
 30
0.0
 10
248.6238591934
 20
456.1217224033
 30
0.0
  0
SPLINE
  5
3FC
100
AcDbEntity
  8
0
100
AcDbSpline
 62
7
  6
CONTINUOUS
 70
0
 71
3
 72
8
 73
4
 74
0
 42
0.0000001
 43
0.0000001
 44
0.0000000001
 40
0.0
 40
0.0
 40
0.0
 40
0.0
 40
1.0
 40
1.0
 40
1.0
 40
1.0
 10
195.8903258583
 20
519.8359322251
 30
0.0
 10
195.8295692599
 20
519.9530119
 30
0.0
 10
195.7569467448
 20
520.0644211104
 30
0.0
 10
195.6760998395
 20
520.1686458312
 30
0.0
  0
SPLINE
  5
3FD
100
AcDbEntity
  8
0
100
AcDbSpline
 62
7
  6
CONTINUOUS
 70
0
 71
3
 72
9
 73
5
 74
0
 42
0.0000001
 43
0.0000001
 44
0.0000000001
 40
0.0
 40
0.0
 40
0.0
 40
0.0
 40
0.2325095271
 40
1.0
 40
1.0
 40
1.0
 40
1.0
 10
195.6760998395
 20
520.1686458312
 30
0.0
 10
195.6107629162
 20
520.2528756797
 30
0.0
 10
195.3060948234
 20
520.5968296786
 30
0.0
 10
194.9313068928
 20
520.8725582467
 30
0.0
 10
194.6308427878
 20
521.0556924982
 30
0.0
  0
SPLINE
  5
3FE
100
AcDbEntity
  8
0
100
AcDbSpline
 62
7
  6
CONTINUOUS
 70
0
 71
3
 72
11
 73
7
 74
0
 42
0.0000001
 43
0.0000001
 44
0.0000000001
 40
0.0
 40
0.0
 40
0.0
 40
0.0
 40
0.2429352872
 40
0.5116814784
 40
0.7738834538
 40
1.0
 40
1.0
 40
1.0
 40
1.0
 10
242.0071943727
 20
493.7035619453
 30
0.0
 10
241.4410070526
 20
494.0139031645
 30
0.0
 10
240.140011748
 20
494.4814430293
 30
0.0
 10
238.0656606081
 20
494.6223188943
 30
0.0
 10
236.0655137272
 20
494.2893894197
 30
0.0
 10
234.8636193272
 20
493.7144515436
 30
0.0
 10
234.3975348342
 20
493.3350826081
 30
0.0
  0
SPLINE
  5
3FF
100
AcDbEntity
  8
0
100
AcDbSpline
 62
7
  6
CONTINUOUS
 70
0
 71
3
 72
8
 73
4
 74
0
 42
0.0000001
 43
0.0000001
 44
0.0000000001
 40
0.0
 40
0.0
 40
0.0
 40
0.0
 40
1.0
 40
1.0
 40
1.0
 40
1.0
 10
234.3975348342
 20
493.3350826081
 30
0.0
 10
234.2553671492
 20
493.2193653848
 30
0.0
 10
234.1213114724
 20
493.0923123648
 30
0.0
 10
234.0012775077
 20
492.9537700473
 30
0.0
  0
SPLINE
  5
400
100
AcDbEntity
  8
0
100
AcDbSpline
 62
7
  6
CONTINUOUS
 70
0
 71
3
 72
8
 73
4
 74
0
 42
0.0000001
 43
0.0000001
 44
0.0000000001
 40
0.0
 40
0.0
 40
0.0
 40
0.0
 40
1.0
 40
1.0
 40
1.0
 40
1.0
 10
234.0012775077
 20
492.9537700473
 30
0.0
 10
233.8935610253
 20
492.829444477
 30
0.0
 10
233.7963692041
 20
492.6946310938
 30
0.0
 10
233.7158934182
 20
492.5511621568
 30
0.0
  0
SPLINE
  5
401
100
AcDbEntity
  8
0
100
AcDbSpline
 62
7
  6
CONTINUOUS
 70
0
 71
3
 72
11
 73
7
 74
0
 42
0.0000001
 43
0.0000001
 44
0.0000000001
 40
0.0
 40
0.0
 40
0.0
 40
0.0
 40
0.2429352872
 40
0.5116814784
 40
0.7738834538
 40
1.0
 40
1.0
 40
1.0
 40
1.0
 10
222.9153907679
 20
482.6809697908
 30
0.0
 10
222.3492034478
 20
482.99131101
 30
0.0
 10
221.0482081432
 20
483.4588508747
 30
0.0
 10
218.9738570032
 20
483.5997267398
 30
0.0
 10
216.9737101223
 20
483.2667972651
 30
0.0
 10
215.7718157223
 20
482.691859389
 30
0.0
 10
215.3057312294
 20
482.3124904535
 30
0.0
  0
SPLINE
  5
402
100
AcDbEntity
  8
0
100
AcDbSpline
 62
7
  6
CONTINUOUS
 70
0
 71
3
 72
8
 73
4
 74
0
 42
0.0000001
 43
0.0000001
 44
0.0000000001
 40
0.0
 40
0.0
 40
0.0
 40
0.0
 40
1.0
 40
1.0
 40
1.0
 40
1.0
 10
215.3057312294
 20
482.3124904535
 30
0.0
 10
215.1635635443
 20
482.1967732302
 30
0.0
 10
215.0295078675
 20
482.0697202102
 30
0.0
 10
214.9094739029
 20
481.9311778927
 30
0.0
  0
SPLINE
  5
403
100
AcDbEntity
  8
0
100
AcDbSpline
 62
7
  6
CONTINUOUS
 70
0
 71
3
 72
8
 73
4
 74
0
 42
0.0000001
 43
0.0000001
 44
0.0000000001
 40
0.0
 40
0.0
 40
0.0
 40
0.0
 40
1.0
 40
1.0
 40
1.0
 40
1.0
 10
214.9094739029
 20
481.9311778927
 30
0.0
 10
214.8017574205
 20
481.8068523224
 30
0.0
 10
214.7045655993
 20
481.6720389392
 30
0.0
 10
214.6240898133
 20
481.5285700021
 30
0.0
  0
SPLINE
  5
404
100
AcDbEntity
  8
0
100
AcDbSpline
 62
7
  6
CONTINUOUS
 70
0
 71
3
 72
9
 73
5
 74
0
 42
0.0000001
 43
0.0000001
 44
0.0000000001
 40
0.0
 40
0.0
 40
0.0
 40
0.0
 40
0.2370165144
 40
1.0
 40
1.0
 40
1.0
 40
1.0
 10
224.3509046002
 20
492.9859900515
 30
0.0
 10
224.3344117372
 20
492.8992945353
 30
0.0
 10
224.2370413339
 20
492.5387099445
 30
0.0
 10
224.0320579856
 20
492.2126743004
 30
0.0
 10
223.8454772067
 20
491.9984462384
 30
0.0
  0
SPLINE
  5
405
100
AcDbEntity
  8
0
100
AcDbSpline
 62
7
  6
CONTINUOUS
 70
0
 71
3
 72
8
 73
4
 74
0
 42
0.0000001
 43
0.0000001
 44
0.0000000001
 40
0.0
 40
0.0
 40
0.0
 40
0.0
 40
1.0
 40
1.0
 40
1.0
 40
1.0
 10
223.8454772067
 20
491.9984462384
 30
0.0
 10
223.7331580418
 20
491.8694837742
 30
0.0
 10
223.6087099243
 20
491.750529574
 30
0.0
 10
223.4769759822
 20
491.6414741729
 30
0.0
  0
SPLINE
  5
406
100
AcDbEntity
  8
0
100
AcDbSpline
 62
7
  6
CONTINUOUS
 70
0
 71
3
 72
11
 73
7
 74
0
 42
0.0000001
 43
0.0000001
 44
0.0000000001
 40
0.0
 40
0.0
 40
0.0
 40
0.0
 40
0.2255537092
 40
0.4877169555
 40
0.7567668393
 40
1.0
 40
1.0
 40
1.0
 40
1.0
 10
223.4769759822
 20
491.6414741729
 30
0.0
 10
223.0135129939
 20
491.257798248
 30
0.0
 10
221.8109299646
 20
490.6749801002
 30
0.0
 10
219.8050064129
 20
490.3355872097
 30
0.0
 10
217.7211112448
 20
490.4734076883
 30
0.0
 10
216.4132370888
 20
490.9422160652
 30
0.0
 10
215.8442729087
 20
491.2540793497
 30
0.0
  0
SPLINE
  5
407
100
AcDbEntity
  8
0
100
AcDbSpline
 62
7
  6
CONTINUOUS
 70
0
 71
3
 72
11
 73
7
 74
0
 42
0.0000001
 43
0.0000001
 44
0.0000000001
 40
0.0
 40
0.0
 40
0.0
 40
0.0
 40
0.2429352872
 40
0.5116814784
 40
0.7738834538
 40
1.0
 40
1.0
 40
1.0
 40
1.0
 10
232.4612925703
 20
488.1922658681
 30
0.0
 10
231.8951052502
 20
488.5026070872
 30
0.0
 10
230.5941099456
 20
488.970146952
 30
0.0
 10
228.5197588057
 20
489.1110228171
 30
0.0
 10
226.5196119248
 20
488.7780933424
 30
0.0
 10
225.3177175249
 20
488.2031554663
 30
0.0
 10
224.8516330319
 20
487.8237865309
 30
0.0
  0
SPLINE
  5
408
100
AcDbEntity
  8
0
100
AcDbSpline
 62
7
  6
CONTINUOUS
 70
0
 71
3
 72
8
 73
4
 74
0
 42
0.0000001
 43
0.0000001
 44
0.0000000001
 40
0.0
 40
0.0
 40
0.0
 40
0.0
 40
1.0
 40
1.0
 40
1.0
 40
1.0
 10
224.8516330319
 20
487.8237865309
 30
0.0
 10
224.7094653468
 20
487.7080693076
 30
0.0
 10
224.57540967
 20
487.5810162875
 30
0.0
 10
224.4553757053
 20
487.44247397
 30
0.0
  0
SPLINE
  5
409
100
AcDbEntity
  8
0
100
AcDbSpline
 62
7
  6
CONTINUOUS
 70
0
 71
3
 72
8
 73
4
 74
0
 42
0.0000001
 43
0.0000001
 44
0.0000000001
 40
0.0
 40
0.0
 40
0.0
 40
0.0
 40
1.0
 40
1.0
 40
1.0
 40
1.0
 10
224.4553757053
 20
487.44247397
 30
0.0
 10
224.3476592229
 20
487.3181483997
 30
0.0
 10
224.2504674017
 20
487.1833350165
 30
0.0
 10
224.1699916158
 20
487.0398660795
 30
0.0
  0
SPLINE
  5
40A
100
AcDbEntity
  8
0
100
AcDbSpline
 62
7
  6
CONTINUOUS
 70
0
 71
3
 72
8
 73
4
 74
0
 42
0.0000001
 43
0.0000001
 44
0.0000000001
 40
0.0
 40
0.0
 40
0.0
 40
0.0
 40
1.0
 40
1.0
 40
1.0
 40
1.0
 10
224.1747943513
 20
492.4837557811
 30
0.0
 10
224.1140377529
 20
492.600835456
 30
0.0
 10
224.0414152379
 20
492.7122446664
 30
0.0
 10
223.9605683325
 20
492.8164693872
 30
0.0
  0
SPLINE
  5
40B
100
AcDbEntity
  8
0
100
AcDbSpline
 62
7
  6
CONTINUOUS
 70
0
 71
3
 72
9
 73
5
 74
0
 42
0.0000001
 43
0.0000001
 44
0.0000000001
 40
0.0
 40
0.0
 40
0.0
 40
0.0
 40
0.2325095271
 40
1.0
 40
1.0
 40
1.0
 40
1.0
 10
223.9605683325
 20
492.8164693872
 30
0.0
 10
223.8952314092
 20
492.9006992356
 30
0.0
 10
223.5905633165
 20
493.2446532346
 30
0.0
 10
223.2157753858
 20
493.5203818027
 30
0.0
 10
222.9153112808
 20
493.7035160541
 30
0.0
  0
SPLINE
  5
40C
100
AcDbEntity
  8
0
100
AcDbSpline
 62
7
  6
CONTINUOUS
 70
0
 71
3
 72
9
 73
5
 74
0
 42
0.0000001
 43
0.0000001
 44
0.0000000001
 40
0.0
 40
0.0
 40
0.0
 40
0.0
 40
0.2322714657
 40
1.0
 40
1.0
 40
1.0
 40
1.0
 10
213.3694889655
 20
477.1696737135
 30
0.0
 10
213.1858506158
 20
477.2703304173
 30
0.0
 10
212.3734662052
 20
477.6634810953
 30
0.0
 10
211.4813168307
 20
477.8850849064
 30
0.0
 10
210.793488898
 20
477.9626027701
 30
0.0
  0
SPLINE
  5
40D
100
AcDbEntity
  8
0
100
AcDbSpline
 62
7
  6
CONTINUOUS
 70
0
 71
3
 72
11
 73
7
 74
0
 42
0.0000001
 43
0.0000001
 44
0.0000000001
 40
0.0
 40
0.0
 40
0.0
 40
0.0
 40
0.2429352872
 40
0.5116814784
 40
0.7738834538
 40
1.0
 40
1.0
 40
1.0
 40
1.0
 10
204.1768240773
 20
515.5444423122
 30
0.0
 10
203.6106367572
 20
515.8547835313
 30
0.0
 10
202.3096414526
 20
516.3223233961
 30
0.0
 10
200.2352903128
 20
516.4631992612
 30
0.0
 10
198.2351434318
 20
516.1302697865
 30
0.0
 10
197.0332490318
 20
515.5553319104
 30
0.0
 10
196.5671645389
 20
515.175962975
 30
0.0
  0
SPLINE
  5
40E
100
AcDbEntity
  8
0
100
AcDbSpline
 62
7
  6
CONTINUOUS
 70
0
 71
3
 72
8
 73
4
 74
0
 42
0.0000001
 43
0.0000001
 44
0.0000000001
 40
0.0
 40
0.0
 40
0.0
 40
0.0
 40
1.0
 40
1.0
 40
1.0
 40
1.0
 10
196.5671645389
 20
515.175962975
 30
0.0
 10
196.4249968538
 20
515.0602457517
 30
0.0
 10
196.290941177
 20
514.9331927317
 30
0.0
 10
196.1709072123
 20
514.7946504141
 30
0.0
  0
SPLINE
  5
40F
100
AcDbEntity
  8
0
100
AcDbSpline
 62
7
  6
CONTINUOUS
 70
0
 71
3
 72
8
 73
4
 74
0
 42
0.0000001
 43
0.0000001
 44
0.0000000001
 40
0.0
 40
0.0
 40
0.0
 40
0.0
 40
1.0
 40
1.0
 40
1.0
 40
1.0
 10
196.1709072123
 20
514.7946504141
 30
0.0
 10
196.0631907299
 20
514.6703248438
 30
0.0
 10
195.9659989087
 20
514.5355114606
 30
0.0
 10
195.8855231228
 20
514.3920425236
 30
0.0
  0
SPLINE
  5
410
100
AcDbEntity
  8
0
100
AcDbSpline
 62
7
  6
CONTINUOUS
 70
0
 71
3
 72
9
 73
5
 74
0
 42
0.0000001
 43
0.0000001
 44
0.0000000001
 40
0.0
 40
0.0
 40
0.0
 40
0.0
 40
0.2370165144
 40
1.0
 40
1.0
 40
1.0
 40
1.0
 10
214.8050027978
 20
487.4746939741
 30
0.0
 10
214.7885099348
 20
487.3879984579
 30
0.0
 10
214.6911395315
 20
487.0274138672
 30
0.0
 10
214.4861561833
 20
486.7013782231
 30
0.0
 10
214.2995754044
 20
486.4871501611
 30
0.0
  0
SPLINE
  5
411
100
AcDbEntity
  8
0
100
AcDbSpline
 62
7
  6
CONTINUOUS
 70
0
 71
3
 72
8
 73
4
 74
0
 42
0.0000001
 43
0.0000001
 44
0.0000000001
 40
0.0
 40
0.0
 40
0.0
 40
0.0
 40
1.0
 40
1.0
 40
1.0
 40
1.0
 10
214.2995754044
 20
486.4871501611
 30
0.0
 10
214.1872562394
 20
486.3581876968
 30
0.0
 10
214.0628081218
 20
486.2392334966
 30
0.0
 10
213.9310741797
 20
486.1301780955
 30
0.0
  0
SPLINE
  5
412
100
AcDbEntity
  8
0
100
AcDbSpline
 62
7
  6
CONTINUOUS
 70
0
 71
3
 72
11
 73
7
 74
0
 42
0.0000001
 43
0.0000001
 44
0.0000000001
 40
0.0
 40
0.0
 40
0.0
 40
0.0
 40
0.2255537092
 40
0.4877169555
 40
0.7567668393
 40
1.0
 40
1.0
 40
1.0
 40
1.0
 10
213.9310741797
 20
486.1301780955
 30
0.0
 10
213.4676111914
 20
485.7465021706
 30
0.0
 10
212.2650281621
 20
485.1636840229
 30
0.0
 10
210.2591046104
 20
484.8242911324
 30
0.0
 10
208.1752094424
 20
484.962111611
 30
0.0
 10
206.8673352864
 20
485.4309199879
 30
0.0
 10
206.2983711064
 20
485.7427832724
 30
0.0
  0
SPLINE
  5
413
100
AcDbEntity
  8
0
100
AcDbSpline
 62
7
  6
CONTINUOUS
 70
0
 71
3
 72
11
 73
7
 74
0
 42
0.0000001
 43
0.0000001
 44
0.0000000001
 40
0.0
 40
0.0
 40
0.0
 40
0.0
 40
0.2429352872
 40
0.5116814784
 40
0.7738834538
 40
1.0
 40
1.0
 40
1.0
 40
1.0
 10
185.0850204726
 20
504.5218501576
 30
0.0
 10
184.5188331524
 20
504.8321913768
 30
0.0
 10
183.2178378478
 20
505.2997312415
 30
0.0
 10
181.1434867079
 20
505.4406071066
 30
0.0
 10
179.1433398269
 20
505.1076776319
 30
0.0
 10
177.9414454269
 20
504.5327397558
 30
0.0
 10
177.475360934
 20
504.1533708203
 30
0.0
  0
SPLINE
  5
414
100
AcDbEntity
  8
0
100
AcDbSpline
 62
7
  6
CONTINUOUS
 70
0
 71
3
 72
8
 73
4
 74
0
 42
0.0000001
 43
0.0000001
 44
0.0000000001
 40
0.0
 40
0.0
 40
0.0
 40
0.0
 40
1.0
 40
1.0
 40
1.0
 40
1.0
 10
177.475360934
 20
504.1533708203
 30
0.0
 10
177.333193249
 20
504.0376535971
 30
0.0
 10
177.1991375722
 20
503.9106005771
 30
0.0
 10
177.0791036075
 20
503.7720582595
 30
0.0
  0
SPLINE
  5
415
100
AcDbEntity
  8
0
100
AcDbSpline
 62
7
  6
CONTINUOUS
 70
0
 71
3
 72
8
 73
4
 74
0
 42
0.0000001
 43
0.0000001
 44
0.0000000001
 40
0.0
 40
0.0
 40
0.0
 40
0.0
 40
1.0
 40
1.0
 40
1.0
 40
1.0
 10
177.0791036075
 20
503.7720582595
 30
0.0
 10
176.9713871251
 20
503.6477326892
 30
0.0
 10
176.8741953039
 20
503.512919306
 30
0.0
 10
176.793719518
 20
503.369450369
 30
0.0
  0
SPLINE
  5
416
100
AcDbEntity
  8
0
100
AcDbSpline
 62
7
  6
CONTINUOUS
 70
0
 71
3
 72
8
 73
4
 74
0
 42
0.0000001
 43
0.0000001
 44
0.0000000001
 40
0.0
 40
0.0
 40
0.0
 40
0.0
 40
1.0
 40
1.0
 40
1.0
 40
1.0
 10
214.628892549
 20
486.9724597037
 30
0.0
 10
214.5681359505
 20
487.0895393787
 30
0.0
 10
214.4955134355
 20
487.200948589
 30
0.0
 10
214.4146665301
 20
487.3051733099
 30
0.0
  0
SPLINE
  5
417
100
AcDbEntity
  8
0
100
AcDbSpline
 62
7
  6
CONTINUOUS
 70
0
 71
3
 72
9
 73
5
 74
0
 42
0.0000001
 43
0.0000001
 44
0.0000000001
 40
0.0
 40
0.0
 40
0.0
 40
0.0
 40
0.2325095271
 40
1.0
 40
1.0
 40
1.0
 40
1.0
 10
214.4146665301
 20
487.3051733099
 30
0.0
 10
214.3493296068
 20
487.3894031583
 30
0.0
 10
214.044661514
 20
487.7333571572
 30
0.0
 10
213.6698735833
 20
488.0090857254
 30
0.0
 10
213.3694094784
 20
488.1922199768
 30
0.0
  0
SPLINE
  5
418
100
AcDbEntity
  8
0
100
AcDbSpline
 62
7
  6
CONTINUOUS
 70
0
 71
3
 72
11
 73
7
 74
0
 42
0.0000001
 43
0.0000001
 44
0.0000000001
 40
0.0
 40
0.0
 40
0.0
 40
0.0
 40
0.2429352872
 40
0.5116814784
 40
0.7738834538
 40
1.0
 40
1.0
 40
1.0
 40
1.0
 10
194.6309222749
 20
510.0331462349
 30
0.0
 10
194.0647349548
 20
510.3434874541
 30
0.0
 10
192.7637396502
 20
510.8110273189
 30
0.0
 10
190.6893885103
 20
510.9519031839
 30
0.0
 10
188.6892416295
 20
510.6189737092
 30
0.0
 10
187.4873472295
 20
510.0440358332
 30
0.0
 10
187.0212627365
 20
509.6646668977
 30
0.0
  0
SPLINE
  5
419
100
AcDbEntity
  8
0
100
AcDbSpline
 62
7
  6
CONTINUOUS
 70
0
 71
3
 72
8
 73
4
 74
0
 42
0.0000001
 43
0.0000001
 44
0.0000000001
 40
0.0
 40
0.0
 40
0.0
 40
0.0
 40
1.0
 40
1.0
 40
1.0
 40
1.0
 10
187.0212627365
 20
509.6646668977
 30
0.0
 10
186.8790950515
 20
509.5489496744
 30
0.0
 10
186.7450393746
 20
509.4218966544
 30
0.0
 10
186.6250054099
 20
509.2833543368
 30
0.0
  0
SPLINE
  5
41A
100
AcDbEntity
  8
0
100
AcDbSpline
 62
7
  6
CONTINUOUS
 70
0
 71
3
 72
8
 73
4
 74
0
 42
0.0000001
 43
0.0000001
 44
0.0000000001
 40
0.0
 40
0.0
 40
0.0
 40
0.0
 40
1.0
 40
1.0
 40
1.0
 40
1.0
 10
186.6250054099
 20
509.2833543368
 30
0.0
 10
186.5172889276
 20
509.1590287665
 30
0.0
 10
186.4200971064
 20
509.0242153833
 30
0.0
 10
186.3396213204
 20
508.8807464463
 30
0.0
  0
SPLINE
  5
41B
100
AcDbEntity
  8
0
100
AcDbSpline
 62
7
  6
CONTINUOUS
 70
0
 71
3
 72
9
 73
5
 74
0
 42
0.0000001
 43
0.0000001
 44
0.0000000001
 40
0.0
 40
0.0
 40
0.0
 40
0.0
 40
0.2322714657
 40
1.0
 40
1.0
 40
1.0
 40
1.0
 10
175.5391186702
 20
499.0105540804
 30
0.0
 10
175.3554803205
 20
499.1112107841
 30
0.0
 10
174.5430959098
 20
499.5043614621
 30
0.0
 10
173.6509465353
 20
499.7259652732
 30
0.0
 10
172.9631186026
 20
499.8034831369
 30
0.0
  0
SPLINE
  5
41C
100
AcDbEntity
  8
0
100
AcDbSpline
 62
7
  6
CONTINUOUS
 70
0
 71
3
 72
9
 73
5
 74
0
 42
0.0000001
 43
0.0000001
 44
0.0000000001
 40
0.0
 40
0.0
 40
0.0
 40
0.0
 40
0.2370165144
 40
1.0
 40
1.0
 40
1.0
 40
1.0
 10
233.8968064025
 20
498.4972861287
 30
0.0
 10
233.8803135396
 20
498.4105906125
 30
0.0
 10
233.7829431362
 20
498.0500060217
 30
0.0
 10
233.577959788
 20
497.7239703776
 30
0.0
 10
233.3913790091
 20
497.5097423156
 30
0.0
  0
SPLINE
  5
41D
100
AcDbEntity
  8
0
100
AcDbSpline
 62
7
  6
CONTINUOUS
 70
0
 71
3
 72
8
 73
4
 74
0
 42
0.0000001
 43
0.0000001
 44
0.0000000001
 40
0.0
 40
0.0
 40
0.0
 40
0.0
 40
1.0
 40
1.0
 40
1.0
 40
1.0
 10
233.3913790091
 20
497.5097423156
 30
0.0
 10
233.2790598441
 20
497.3807798513
 30
0.0
 10
233.1546117266
 20
497.2618256512
 30
0.0
 10
233.0228777845
 20
497.1527702501
 30
0.0
  0
SPLINE
  5
41E
100
AcDbEntity
  8
0
100
AcDbSpline
 62
7
  6
CONTINUOUS
 70
0
 71
3
 72
11
 73
7
 74
0
 42
0.0000001
 43
0.0000001
 44
0.0000000001
 40
0.0
 40
0.0
 40
0.0
 40
0.0
 40
0.2255537092
 40
0.4877169555
 40
0.7567668393
 40
1.0
 40
1.0
 40
1.0
 40
1.0
 10
233.0228777845
 20
497.1527702501
 30
0.0
 10
232.5594147962
 20
496.7690943252
 30
0.0
 10
231.356831767
 20
496.1862761774
 30
0.0
 10
229.3509082152
 20
495.846883287
 30
0.0
 10
227.2670130471
 20
495.9847037655
 30
0.0
 10
225.9591388911
 20
496.4535121424
 30
0.0
 10
225.3901747111
 20
496.7653754269
 30
0.0
  0
SPLINE
  5
41F
100
AcDbEntity
  8
0
100
AcDbSpline
 62
7
  6
CONTINUOUS
 70
0
 71
3
 72
11
 73
7
 74
0
 42
0.0000001
 43
0.0000001
 44
0.0000000001
 40
0.0
 40
0.0
 40
0.0
 40
0.0
 40
0.2429352872
 40
0.5116814784
 40
0.7738834538
 40
1.0
 40
1.0
 40
1.0
 40
1.0
 10
166.346453782
 20
537.385322679
 30
0.0
 10
165.7802664619
 20
537.6956638982
 30
0.0
 10
164.4792711573
 20
538.1632037629
 30
0.0
 10
162.4049200174
 20
538.304079628
 30
0.0
 10
160.4047731365
 20
537.9711501533
 30
0.0
 10
159.2028787365
 20
537.3962122773
 30
0.0
 10
158.7367942435
 20
537.0168433418
 30
0.0
  0
SPLINE
  5
420
100
AcDbEntity
  8
0
100
AcDbSpline
 62
7
  6
CONTINUOUS
 70
0
 71
3
 72
8
 73
4
 74
0
 42
0.0000001
 43
0.0000001
 44
0.0000000001
 40
0.0
 40
0.0
 40
0.0
 40
0.0
 40
1.0
 40
1.0
 40
1.0
 40
1.0
 10
158.7367942435
 20
537.0168433418
 30
0.0
 10
158.5946265584
 20
536.9011261185
 30
0.0
 10
158.4605708816
 20
536.7740730985
 30
0.0
 10
158.340536917
 20
536.6355307809
 30
0.0
  0
SPLINE
  5
421
100
AcDbEntity
  8
0
100
AcDbSpline
 62
7
  6
CONTINUOUS
 70
0
 71
3
 72
8
 73
4
 74
0
 42
0.0000001
 43
0.0000001
 44
0.0000000001
 40
0.0
 40
0.0
 40
0.0
 40
0.0
 40
1.0
 40
1.0
 40
1.0
 40
1.0
 10
158.340536917
 20
536.6355307809
 30
0.0
 10
158.2328204346
 20
536.5112052107
 30
0.0
 10
158.1356286134
 20
536.3763918275
 30
0.0
 10
158.0551528274
 20
536.2329228905
 30
0.0
  0
SPLINE
  5
422
100
AcDbEntity
  8
0
100
AcDbSpline
 62
7
  6
CONTINUOUS
 70
0
 71
3
 72
8
 73
4
 74
0
 42
0.0000001
 43
0.0000001
 44
0.0000000001
 40
0.0
 40
0.0
 40
0.0
 40
0.0
 40
1.0
 40
1.0
 40
1.0
 40
1.0
 10
233.7206961537
 20
497.9950518582
 30
0.0
 10
233.6599395553
 20
498.1121315332
 30
0.0
 10
233.5873170402
 20
498.2235407436
 30
0.0
 10
233.5064701348
 20
498.3277654644
 30
0.0
  0
SPLINE
  5
423
100
AcDbEntity
  8
0
100
AcDbSpline
 62
7
  6
CONTINUOUS
 70
0
 71
3
 72
9
 73
5
 74
0
 42
0.0000001
 43
0.0000001
 44
0.0000000001
 40
0.0
 40
0.0
 40
0.0
 40
0.0
 40
0.2325095271
 40
1.0
 40
1.0
 40
1.0
 40
1.0
 10
233.5064701348
 20
498.3277654644
 30
0.0
 10
233.4411332115
 20
498.4119953128
 30
0.0
 10
233.1364651188
 20
498.7559493118
 30
0.0
 10
232.7616771881
 20
499.0316778799
 30
0.0
 10
232.4612130832
 20
499.2148121314
 30
0.0
  0
SPLINE
  5
424
100
AcDbEntity
  8
0
100
AcDbSpline
 62
7
  6
CONTINUOUS
 70
0
 71
3
 72
11
 73
7
 74
0
 42
0.0000001
 43
0.0000001
 44
0.0000000001
 40
0.0
 40
0.0
 40
0.0
 40
0.0
 40
0.2429352872
 40
0.5116814784
 40
0.7738834538
 40
1.0
 40
1.0
 40
1.0
 40
1.0
 10
147.2546501772
 20
526.3627305245
 30
0.0
 10
146.6884628571
 20
526.6730717436
 30
0.0
 10
145.3874675525
 20
527.1406116084
 30
0.0
 10
143.3131164125
 20
527.2814874735
 30
0.0
 10
141.3129695316
 20
526.9485579988
 30
0.0
 10
140.1110751316
 20
526.3736201227
 30
0.0
 10
139.6449906386
 20
525.9942511872
 30
0.0
  0
SPLINE
  5
425
100
AcDbEntity
  8
0
100
AcDbSpline
 62
7
  6
CONTINUOUS
 70
0
 71
3
 72
8
 73
4
 74
0
 42
0.0000001
 43
0.0000001
 44
0.0000000001
 40
0.0
 40
0.0
 40
0.0
 40
0.0
 40
1.0
 40
1.0
 40
1.0
 40
1.0
 10
139.6449906386
 20
525.9942511872
 30
0.0
 10
139.5028229536
 20
525.8785339639
 30
0.0
 10
139.3687672768
 20
525.7514809439
 30
0.0
 10
139.2487333121
 20
525.6129386264
 30
0.0
  0
SPLINE
  5
426
100
AcDbEntity
  8
0
100
AcDbSpline
 62
7
  6
CONTINUOUS
 70
0
 71
3
 72
8
 73
4
 74
0
 42
0.0000001
 43
0.0000001
 44
0.0000000001
 40
0.0
 40
0.0
 40
0.0
 40
0.0
 40
1.0
 40
1.0
 40
1.0
 40
1.0
 10
139.2487333121
 20
525.6129386264
 30
0.0
 10
139.1410168297
 20
525.4886130561
 30
0.0
 10
139.0438250085
 20
525.3537996729
 30
0.0
 10
138.9633492226
 20
525.2103307358
 30
0.0
  0
SPLINE
  5
427
100
AcDbEntity
  8
0
100
AcDbSpline
 62
7
  6
CONTINUOUS
 70
0
 71
3
 72
11
 73
7
 74
0
 42
0.0000001
 43
0.0000001
 44
0.0000000001
 40
0.0
 40
0.0
 40
0.0
 40
0.0
 40
0.2429352872
 40
0.5116814784
 40
0.7738834538
 40
1.0
 40
1.0
 40
1.0
 40
1.0
 10
156.8005519796
 20
531.8740266018
 30
0.0
 10
156.2343646595
 20
532.1843678209
 30
0.0
 10
154.9333693549
 20
532.6519076857
 30
0.0
 10
152.859018215
 20
532.7927835508
 30
0.0
 10
150.8588713341
 20
532.4598540761
 30
0.0
 10
149.6569769341
 20
531.8849162
 30
0.0
 10
149.1908924412
 20
531.5055472646
 30
0.0
  0
SPLINE
  5
428
100
AcDbEntity
  8
0
100
AcDbSpline
 62
7
  6
CONTINUOUS
 70
0
 71
3
 72
8
 73
4
 74
0
 42
0.0000001
 43
0.0000001
 44
0.0000000001
 40
0.0
 40
0.0
 40
0.0
 40
0.0
 40
1.0
 40
1.0
 40
1.0
 40
1.0
 10
149.1908924412
 20
531.5055472646
 30
0.0
 10
149.0487247561
 20
531.3898300413
 30
0.0
 10
148.9146690793
 20
531.2627770212
 30
0.0
 10
148.7946351146
 20
531.1242347037
 30
0.0
  0
SPLINE
  5
429
100
AcDbEntity
  8
0
100
AcDbSpline
 62
7
  6
CONTINUOUS
 70
0
 71
3
 72
8
 73
4
 74
0
 42
0.0000001
 43
0.0000001
 44
0.0000000001
 40
0.0
 40
0.0
 40
0.0
 40
0.0
 40
1.0
 40
1.0
 40
1.0
 40
1.0
 10
148.7946351146
 20
531.1242347037
 30
0.0
 10
148.6869186322
 20
530.9999091334
 30
0.0
 10
148.589726811
 20
530.8650957502
 30
0.0
 10
148.5092510251
 20
530.7216268132
 30
0.0
  0
SPLINE
  5
42A
100
AcDbEntity
  8
0
100
AcDbSpline
 62
7
  6
CONTINUOUS
 70
0
 71
3
 72
9
 73
5
 74
0
 42
0.0000001
 43
0.0000001
 44
0.0000000001
 40
0.0
 40
0.0
 40
0.0
 40
0.0
 40
0.2370165144
 40
1.0
 40
1.0
 40
1.0
 40
1.0
 10
262.1812748955
 20
471.1451096846
 30
0.0
 10
262.1647820326
 20
471.0584141684
 30
0.0
 10
262.0674116292
 20
470.6978295777
 30
0.0
 10
261.862428281
 20
470.3717939336
 30
0.0
 10
261.6758475021
 20
470.1575658716
 30
0.0
  0
SPLINE
  5
42B
100
AcDbEntity
  8
0
100
AcDbSpline
 62
7
  6
CONTINUOUS
 70
0
 71
3
 72
8
 73
4
 74
0
 42
0.0000001
 43
0.0000001
 44
0.0000000001
 40
0.0
 40
0.0
 40
0.0
 40
0.0
 40
1.0
 40
1.0
 40
1.0
 40
1.0
 10
261.6758475021
 20
470.1575658716
 30
0.0
 10
261.5635283372
 20
470.0286034073
 30
0.0
 10
261.4390802197
 20
469.9096492072
 30
0.0
 10
261.3073462776
 20
469.8005938061
 30
0.0
  0
SPLINE
  5
42C
100
AcDbEntity
  8
0
100
AcDbSpline
 62
7
  6
CONTINUOUS
 70
0
 71
3
 72
11
 73
7
 74
0
 42
0.0000001
 43
0.0000001
 44
0.0000000001
 40
0.0
 40
0.0
 40
0.0
 40
0.0
 40
0.2255537092
 40
0.4877169555
 40
0.7567668393
 40
1.0
 40
1.0
 40
1.0
 40
1.0
 10
261.3073462776
 20
469.8005938061
 30
0.0
 10
260.8438832893
 20
469.4169178812
 30
0.0
 10
259.64130026
 20
468.8340997333
 30
0.0
 10
257.6353767083
 20
468.4947068429
 30
0.0
 10
255.5514815402
 20
468.6325273214
 30
0.0
 10
254.2436073841
 20
469.1013356983
 30
0.0
 10
253.6746432041
 20
469.4131989828
 30
0.0
  0
SPLINE
  5
42D
100
AcDbEntity
  8
0
100
AcDbSpline
 62
7
  6
CONTINUOUS
 70
0
 71
3
 72
9
 73
5
 74
0
 42
0.0000001
 43
0.0000001
 44
0.0000000001
 40
0.0
 40
0.0
 40
0.0
 40
0.0
 40
0.2322714657
 40
1.0
 40
1.0
 40
1.0
 40
1.0
 10
137.7087483748
 20
520.8514344472
 30
0.0
 10
137.5251100251
 20
520.9520911509
 30
0.0
 10
136.7127256144
 20
521.345241829
 30
0.0
 10
135.8205762399
 20
521.5668456401
 30
0.0
 10
135.1327483072
 20
521.6443635038
 30
0.0
  0
SPLINE
  5
42E
100
AcDbEntity
  8
0
100
AcDbSpline
 62
7
  6
CONTINUOUS
 70
0
 71
3
 72
8
 73
4
 74
0
 42
0.0000001
 43
0.0000001
 44
0.0000000001
 40
0.0
 40
0.0
 40
0.0
 40
0.0
 40
1.0
 40
1.0
 40
1.0
 40
1.0
 10
262.0051646467
 20
470.6428754142
 30
0.0
 10
261.9444080483
 20
470.7599550892
 30
0.0
 10
261.8717855332
 20
470.8713642995
 30
0.0
 10
261.7909386279
 20
470.9755890204
 30
0.0
  0
SPLINE
  5
42F
100
AcDbEntity
  8
0
100
AcDbSpline
 62
7
  6
CONTINUOUS
 70
0
 71
3
 72
9
 73
5
 74
0
 42
0.0000001
 43
0.0000001
 44
0.0000000001
 40
0.0
 40
0.0
 40
0.0
 40
0.0
 40
0.2325095271
 40
1.0
 40
1.0
 40
1.0
 40
1.0
 10
261.7909386279
 20
470.9755890204
 30
0.0
 10
261.7256017046
 20
471.0598188688
 30
0.0
 10
261.4209336118
 20
471.4037728677
 30
0.0
 10
261.0461456811
 20
471.6795014358
 30
0.0
 10
260.7456815762
 20
471.8626356873
 30
0.0
  0
SPLINE
  5
430
100
AcDbEntity
  8
0
100
AcDbSpline
 62
7
  6
CONTINUOUS
 70
0
 71
3
 72
9
 73
5
 74
0
 42
0.0000001
 43
0.0000001
 44
0.0000000001
 40
0.0
 40
0.0
 40
0.0
 40
0.0
 40
0.2418859386
 40
1.0
 40
1.0
 40
1.0
 40
1.0
 10
128.5160834866
 20
559.2262030459
 30
0.0
 10
128.4514979863
 20
559.2616039497
 30
0.0
 10
128.1818435611
 20
559.403088243
 30
0.0
 10
127.9020019624
 20
559.5250620657
 30
0.0
 10
127.6859815426
 20
559.6064291601
 30
0.0
  0
SPLINE
  5
431
100
AcDbEntity
  8
0
100
AcDbSpline
 62
7
  6
CONTINUOUS
 70
0
 71
3
 72
9
 73
5
 74
0
 42
0.0000001
 43
0.0000001
 44
0.0000000001
 40
0.0
 40
0.0
 40
0.0
 40
0.0
 40
0.2418859386
 40
1.0
 40
1.0
 40
1.0
 40
1.0
 10
109.4242798818
 20
548.2036108913
 30
0.0
 10
109.3596943815
 20
548.2390117952
 30
0.0
 10
109.0900399563
 20
548.3804960885
 30
0.0
 10
108.8101983576
 20
548.5024699112
 30
0.0
 10
108.5941779378
 20
548.5838370056
 30
0.0
  0
SPLINE
  5
432
100
AcDbEntity
  8
0
100
AcDbSpline
 62
7
  6
CONTINUOUS
 70
0
 71
3
 72
9
 73
5
 74
0
 42
0.0000001
 43
0.0000001
 44
0.0000000001
 40
0.0
 40
0.0
 40
0.0
 40
0.0
 40
0.2370165144
 40
1.0
 40
1.0
 40
1.0
 40
1.0
 10
252.6353730932
 20
465.6338136073
 30
0.0
 10
252.6188802302
 20
465.5471180911
 30
0.0
 10
252.5215098269
 20
465.1865335004
 30
0.0
 10
252.3165264786
 20
464.8604978562
 30
0.0
 10
252.1299456997
 20
464.6462697943
 30
0.0
  0
SPLINE
  5
433
100
AcDbEntity
  8
0
100
AcDbSpline
 62
7
  6
CONTINUOUS
 70
0
 71
3
 72
8
 73
4
 74
0
 42
0.0000001
 43
0.0000001
 44
0.0000000001
 40
0.0
 40
0.0
 40
0.0
 40
0.0
 40
1.0
 40
1.0
 40
1.0
 40
1.0
 10
252.1299456997
 20
464.6462697943
 30
0.0
 10
252.0176265347
 20
464.51730733
 30
0.0
 10
251.8931784172
 20
464.3983531298
 30
0.0
 10
251.7614444751
 20
464.2892977287
 30
0.0
  0
SPLINE
  5
434
100
AcDbEntity
  8
0
100
AcDbSpline
 62
7
  6
CONTINUOUS
 70
0
 71
3
 72
11
 73
7
 74
0
 42
0.0000001
 43
0.0000001
 44
0.0000000001
 40
0.0
 40
0.0
 40
0.0
 40
0.0
 40
0.2255537092
 40
0.4877169555
 40
0.7567668393
 40
1.0
 40
1.0
 40
1.0
 40
1.0
 10
251.7614444751
 20
464.2892977287
 30
0.0
 10
251.2979814867
 20
463.9056218038
 30
0.0
 10
250.0953984575
 20
463.3228036561
 30
0.0
 10
248.0894749058
 20
462.9834107655
 30
0.0
 10
246.0055797377
 20
463.1212312441
 30
0.0
 10
244.6977055818
 20
463.5900396211
 30
0.0
 10
244.1287414017
 20
463.9019029055
 30
0.0
  0
SPLINE
  5
435
100
AcDbEntity
  8
0
100
AcDbSpline
 62
7
  6
CONTINUOUS
 70
0
 71
3
 72
9
 73
5
 74
0
 42
0.0000001
 43
0.0000001
 44
0.0000000001
 40
0.0
 40
0.0
 40
0.0
 40
0.0
 40
0.2418859386
 40
1.0
 40
1.0
 40
1.0
 40
1.0
 10
118.9701816842
 20
553.7149069686
 30
0.0
 10
118.9055961839
 20
553.7503078725
 30
0.0
 10
118.6359417587
 20
553.8917921657
 30
0.0
 10
118.35610016
 20
554.0137659884
 30
0.0
 10
118.1400797402
 20
554.0951330828
 30
0.0
  0
SPLINE
  5
436
100
AcDbEntity
  8
0
100
AcDbSpline
 62
7
  6
CONTINUOUS
 70
0
 71
3
 72
8
 73
4
 74
0
 42
0.0000001
 43
0.0000001
 44
0.0000000001
 40
0.0
 40
0.0
 40
0.0
 40
0.0
 40
1.0
 40
1.0
 40
1.0
 40
1.0
 10
252.4592628443
 20
465.1315793368
 30
0.0
 10
252.3985062459
 20
465.2486590118
 30
0.0
 10
252.3258837308
 20
465.3600682222
 30
0.0
 10
252.2450368254
 20
465.464292943
 30
0.0
  0
SPLINE
  5
437
100
AcDbEntity
  8
0
100
AcDbSpline
 62
7
  6
CONTINUOUS
 70
0
 71
3
 72
9
 73
5
 74
0
 42
0.0000001
 43
0.0000001
 44
0.0000000001
 40
0.0
 40
0.0
 40
0.0
 40
0.0
 40
0.2325095271
 40
1.0
 40
1.0
 40
1.0
 40
1.0
 10
252.2450368254
 20
465.464292943
 30
0.0
 10
252.1796999022
 20
465.5485227915
 30
0.0
 10
251.8750318094
 20
465.8924767904
 30
0.0
 10
251.5002438787
 20
466.1682053585
 30
0.0
 10
251.1997797738
 20
466.35133961
 30
0.0
  0
SPLINE
  5
438
100
AcDbEntity
  8
0
100
AcDbSpline
 62
7
  6
CONTINUOUS
 70
0
 71
3
 72
9
 73
5
 74
0
 42
0.0000001
 43
0.0000001
 44
0.0000000001
 40
0.0
 40
0.0
 40
0.0
 40
0.0
 40
0.2418859386
 40
1.0
 40
1.0
 40
1.0
 40
1.0
 10
99.8783780794
 20
542.6923148141
 30
0.0
 10
99.8137925791
 20
542.7277157179
 30
0.0
 10
99.5441381539
 20
542.8692000112
 30
0.0
 10
99.2642965552
 20
542.9911738339
 30
0.0
 10
99.0482761355
 20
543.0725409283
 30
0.0
  0
SPLINE
  5
439
100
AcDbEntity
  8
0
100
AcDbSpline
 62
7
  6
CONTINUOUS
 70
0
 71
3
 72
9
 73
5
 74
0
 42
0.0000001
 43
0.0000001
 44
0.0000000001
 40
0.0
 40
0.0
 40
0.0
 40
0.0
 40
0.2370165144
 40
1.0
 40
1.0
 40
1.0
 40
1.0
 10
271.7271766979
 20
476.6564057618
 30
0.0
 10
271.7106838349
 20
476.5697102456
 30
0.0
 10
271.6133134316
 20
476.2091256549
 30
0.0
 10
271.4083300834
 20
475.8830900108
 30
0.0
 10
271.2217493044
 20
475.6688619488
 30
0.0
  0
SPLINE
  5
43A
100
AcDbEntity
  8
0
100
AcDbSpline
 62
7
  6
CONTINUOUS
 70
0
 71
3
 72
8
 73
4
 74
0
 42
0.0000001
 43
0.0000001
 44
0.0000000001
 40
0.0
 40
0.0
 40
0.0
 40
0.0
 40
1.0
 40
1.0
 40
1.0
 40
1.0
 10
271.2217493044
 20
475.6688619488
 30
0.0
 10
271.1094301395
 20
475.5398994845
 30
0.0
 10
270.984982022
 20
475.4209452844
 30
0.0
 10
270.8532480799
 20
475.3118898833
 30
0.0
  0
SPLINE
  5
43B
100
AcDbEntity
  8
0
100
AcDbSpline
 62
7
  6
CONTINUOUS
 70
0
 71
3
 72
11
 73
7
 74
0
 42
0.0000001
 43
0.0000001
 44
0.0000000001
 40
0.0
 40
0.0
 40
0.0
 40
0.0
 40
0.2255537092
 40
0.4877169555
 40
0.7567668393
 40
1.0
 40
1.0
 40
1.0
 40
1.0
 10
270.8532480799
 20
475.3118898833
 30
0.0
 10
270.3897850916
 20
474.9282139584
 30
0.0
 10
269.1872020623
 20
474.3453958106
 30
0.0
 10
267.1812785106
 20
474.0060029201
 30
0.0
 10
265.0973833425
 20
474.1438233987
 30
0.0
 10
263.7895091865
 20
474.6126317756
 30
0.0
 10
263.2205450065
 20
474.9244950601
 30
0.0
  0
SPLINE
  5
43C
100
AcDbEntity
  8
0
100
AcDbSpline
 62
7
  6
CONTINUOUS
 70
0
 71
3
 72
9
 73
5
 74
0
 42
0.0000001
 43
0.0000001
 44
0.0000000001
 40
0.0
 40
0.0
 40
0.0
 40
0.0
 40
0.270205077
 40
1.0
 40
1.0
 40
1.0
 40
1.0
 10
187.7364729232
 20
531.9761615744
 30
0.0
 10
187.6275909319
 20
531.9132989026
 30
0.0
 10
187.2347602908
 20
531.6647534911
 30
0.0
 10
186.8804441814
 20
531.3465823744
 30
0.0
 10
186.677785663
 20
531.0741144072
 30
0.0
  0
SPLINE
  5
43D
100
AcDbEntity
  8
0
100
AcDbSpline
 62
7
  6
CONTINUOUS
 70
0
 71
3
 72
8
 73
4
 74
0
 42
0.0000001
 43
0.0000001
 44
0.0000000001
 40
0.0
 40
0.0
 40
0.0
 40
0.0
 40
1.0
 40
1.0
 40
1.0
 40
1.0
 10
186.677785663
 20
531.0741144072
 30
0.0
 10
186.6086249938
 20
530.9811300752
 30
0.0
 10
186.5457381785
 20
530.8829993102
 30
0.0
 10
186.4914170529
 20
530.7806347682
 30
0.0
  0
SPLINE
  5
43E
100
AcDbEntity
  8
0
100
AcDbSpline
 62
7
  6
CONTINUOUS
 70
0
 71
3
 72
11
 73
7
 74
0
 42
0.0000001
 43
0.0000001
 44
0.0000000001
 40
0.0
 40
0.0
 40
0.0
 40
0.0
 40
0.2372531816
 40
0.5000006935
 40
0.7627478297
 40
1.0
 40
1.0
 40
1.0
 40
1.0
 10
194.807540735
 20
531.9761785712
 30
0.0
 10
194.3055666336
 20
532.2659868974
 30
0.0
 10
193.1383070696
 20
532.6889523976
 30
0.0
 10
191.272000246
 20
532.8911650995
 30
0.0
 10
189.4056968826
 20
532.6889434802
 30
0.0
 10
188.2384427951
 20
532.2659722851
 30
0.0
 10
187.7364729232
 20
531.9761615744
 30
0.0
  0
SPLINE
  5
43F
100
AcDbEntity
  8
0
100
AcDbSpline
 62
7
  6
CONTINUOUS
 70
0
 71
3
 72
8
 73
4
 74
0
 42
0.0000001
 43
0.0000001
 44
0.0000000001
 40
0.0
 40
0.0
 40
0.0
 40
0.0
 40
1.0
 40
1.0
 40
1.0
 40
1.0
 10
271.5510664491
 20
476.1541714914
 30
0.0
 10
271.4903098506
 20
476.2712511664
 30
0.0
 10
271.4176873356
 20
476.3826603767
 30
0.0
 10
271.3368404302
 20
476.4868850976
 30
0.0
  0
SPLINE
  5
440
100
AcDbEntity
  8
0
100
AcDbSpline
 62
7
  6
CONTINUOUS
 70
0
 71
3
 72
9
 73
5
 74
0
 42
0.0000001
 43
0.0000001
 44
0.0000000001
 40
0.0
 40
0.0
 40
0.0
 40
0.0
 40
0.2325095271
 40
1.0
 40
1.0
 40
1.0
 40
1.0
 10
271.3368404302
 20
476.4868850976
 30
0.0
 10
271.2715035069
 20
476.571114946
 30
0.0
 10
270.9668354142
 20
476.9150689449
 30
0.0
 10
270.5920474835
 20
477.190797513
 30
0.0
 10
270.2915833786
 20
477.3739317645
 30
0.0
  0
SPLINE
  5
441
100
AcDbEntity
  8
0
100
AcDbSpline
 62
7
  6
CONTINUOUS
 70
0
 71
3
 72
9
 73
5
 74
0
 42
0.0000001
 43
0.0000001
 44
0.0000000001
 40
0.0
 40
0.0
 40
0.0
 40
0.0
 40
0.270205077
 40
1.0
 40
1.0
 40
1.0
 40
1.0
 10
226.2739529437
 20
509.727040453
 30
0.0
 10
226.1650709524
 20
509.6641777813
 30
0.0
 10
225.7722403113
 20
509.4156323698
 30
0.0
 10
225.4179242019
 20
509.0974612531
 30
0.0
 10
225.2152656835
 20
508.8249932858
 30
0.0
  0
SPLINE
  5
442
100
AcDbEntity
  8
0
100
AcDbSpline
 62
7
  6
CONTINUOUS
 70
0
 71
3
 72
8
 73
4
 74
0
 42
0.0000001
 43
0.0000001
 44
0.0000000001
 40
0.0
 40
0.0
 40
0.0
 40
0.0
 40
1.0
 40
1.0
 40
1.0
 40
1.0
 10
225.2152656835
 20
508.8249932858
 30
0.0
 10
225.1461050143
 20
508.7320089539
 30
0.0
 10
225.083218199
 20
508.6338781888
 30
0.0
 10
225.0288970734
 20
508.5315136468
 30
0.0
  0
SPLINE
  5
443
100
AcDbEntity
  8
0
100
AcDbSpline
 62
7
  6
CONTINUOUS
 70
0
 71
3
 72
11
 73
7
 74
0
 42
0.0000001
 43
0.0000001
 44
0.0000000001
 40
0.0
 40
0.0
 40
0.0
 40
0.0
 40
0.2372531816
 40
0.5000006935
 40
0.7627478297
 40
1.0
 40
1.0
 40
1.0
 40
1.0
 10
233.3450207555
 20
509.7270574498
 30
0.0
 10
232.8430466541
 20
510.016865776
 30
0.0
 10
231.6757870901
 20
510.4398312763
 30
0.0
 10
229.8094802665
 20
510.6420439782
 30
0.0
 10
227.9431769031
 20
510.4398223589
 30
0.0
 10
226.7759228156
 20
510.0168511638
 30
0.0
 10
226.2739529437
 20
509.727040453
 30
0.0
  0
SPLINE
  5
444
100
AcDbEntity
  8
0
100
AcDbSpline
 62
7
  6
CONTINUOUS
 70
0
 71
3
 72
9
 73
5
 74
0
 42
0.0000001
 43
0.0000001
 44
0.0000000001
 40
0.0
 40
0.0
 40
0.0
 40
0.0
 40
0.499998676
 40
1.0
 40
1.0
 40
1.0
 40
1.0
 10
196.9292776469
 20
268.4512672865
 30
0.0
 10
196.7718645957
 20
268.542147698
 30
0.0
 10
196.3989478563
 20
268.6141140602
 30
0.0
 10
196.0260307045
 20
268.5421467649
 30
0.0
 10
195.8686174751
 20
268.451264737
 30
0.0
  0
SPLINE
  5
445
100
AcDbEntity
  8
0
100
AcDbSpline
 62
7
  6
CONTINUOUS
 70
0
 71
3
 72
9
 73
5
 74
0
 42
0.0000001
 43
0.0000001
 44
0.0000000001
 40
0.0
 40
0.0
 40
0.0
 40
0.0
 40
0.277845252
 40
1.0
 40
1.0
 40
1.0
 40
1.0
 10
195.868621891
 20
268.4921029894
 30
0.0
 10
195.8463652242
 20
268.5049525913
 30
0.0
 10
195.7692390332
 20
268.5554729761
 30
0.0
 10
195.7023218465
 20
268.6264251663
 30
0.0
 10
195.6741784194
 20
268.6870034851
 30
0.0
  0
SPLINE
  5
446
100
AcDbEntity
  8
0
100
AcDbSpline
 62
7
  6
CONTINUOUS
 70
0
 71
3
 72
8
 73
4
 74
0
 42
0.0000001
 43
0.0000001
 44
0.0000000001
 40
0.0
 40
0.0
 40
0.0
 40
0.0
 40
1.0
 40
1.0
 40
1.0
 40
1.0
 10
195.6741784194
 20
268.6870034851
 30
0.0
 10
195.6581507498
 20
268.7215028115
 30
0.0
 10
195.6488805691
 20
268.7602454894
 30
0.0
 10
195.6488805499
 20
268.7982861218
 30
0.0
  0
SPLINE
  5
447
100
AcDbEntity
  8
0
100
AcDbSpline
 62
7
  6
CONTINUOUS
 70
0
 71
3
 72
9
 73
5
 74
0
 42
0.0000001
 43
0.0000001
 44
0.0000000001
 40
0.0
 40
0.0
 40
0.0
 40
0.0
 40
0.532032831
 40
1.0
 40
1.0
 40
1.0
 40
1.0
 10
100.154254029
 20
378.6770960413
 30
0.0
 10
100.4796744849
 20
377.6805138205
 30
0.0
 10
101.0850514013
 20
375.8064000448
 30
0.0
 10
101.7482101367
 20
373.9470974383
 30
0.0
 10
102.1236485822
 20
373.1048603036
 30
0.0
  0
SPLINE
  5
448
100
AcDbEntity
  8
0
100
AcDbSpline
 62
7
  6
CONTINUOUS
 70
0
 71
3
 72
9
 73
5
 74
0
 42
0.0000001
 43
0.0000001
 44
0.0000000001
 40
0.0
 40
0.0
 40
0.0
 40
0.0
 40
0.278340258
 40
1.0
 40
1.0
 40
1.0
 40
1.0
 10
102.2733231583
 20
372.7809978612
 30
0.0
 10
102.3094800774
 20
372.7057599208
 30
0.0
 10
102.4426525065
 20
372.437157773
 30
0.0
 10
102.5893822635
 20
372.1743901666
 30
0.0
 10
102.7110733217
 20
371.9954147242
 30
0.0
  0
SPLINE
  5
449
100
AcDbEntity
  8
0
100
AcDbSpline
 62
7
  6
CONTINUOUS
 70
0
 71
3
 72
9
 73
5
 74
0
 42
0.0000001
 43
0.0000001
 44
0.0000000001
 40
0.0
 40
0.0
 40
0.0
 40
0.0
 40
0.532032831
 40
1.0
 40
1.0
 40
1.0
 40
1.0
 10
123.1353200962
 20
365.4092715193
 30
0.0
 10
123.4607405522
 20
364.4126892986
 30
0.0
 10
124.0661174686
 20
362.5385755229
 30
0.0
 10
124.729276204
 20
360.6792729164
 30
0.0
 10
125.1047146495
 20
359.8370357817
 30
0.0
  0
SPLINE
  5
44A
100
AcDbEntity
  8
0
100
AcDbSpline
 62
7
  6
CONTINUOUS
 70
0
 71
3
 72
9
 73
5
 74
0
 42
0.0000001
 43
0.0000001
 44
0.0000000001
 40
0.0
 40
0.0
 40
0.0
 40
0.0
 40
0.2676341207
 40
1.0
 40
1.0
 40
1.0
 40
1.0
 10
125.2543892256
 20
359.5131733393
 30
0.0
 10
125.2789371348
 20
359.462092269
 30
0.0
 10
125.3721945944
 20
359.2719896752
 30
0.0
 10
125.4719659306
 20
359.084953676
 30
0.0
 10
125.5508394566
 20
358.9514250218
 30
0.0
  0
SPLINE
  5
44B
100
AcDbEntity
  8
0
100
AcDbSpline
 62
7
  6
CONTINUOUS
 70
0
 71
3
 72
8
 73
4
 74
0
 42
0.0000001
 43
0.0000001
 44
0.0000000001
 40
0.0
 40
0.0
 40
0.0
 40
0.0
 40
1.0
 40
1.0
 40
1.0
 40
1.0
 10
125.5508394566
 20
358.9514250218
 30
0.0
 10
125.5957143
 20
358.8754543161
 30
0.0
 10
125.6425277453
 20
358.8005558416
 30
0.0
 10
125.6921393889
 20
358.7275902023
 30
0.0
  0
SPLINE
  5
44C
100
AcDbEntity
  8
0
100
AcDbSpline
 62
7
  6
CONTINUOUS
 70
0
 71
3
 72
9
 73
5
 74
0
 42
0.0000001
 43
0.0000001
 44
0.0000000001
 40
0.0
 40
0.0
 40
0.0
 40
0.0
 40
0.532032831
 40
1.0
 40
1.0
 40
1.0
 40
1.0
 10
146.1163861635
 20
352.1414469974
 30
0.0
 10
146.4418066194
 20
351.1448647766
 30
0.0
 10
147.0471835358
 20
349.270751001
 30
0.0
 10
147.7103422712
 20
347.4114483945
 30
0.0
 10
148.0857807168
 20
346.5692112598
 30
0.0
  0
SPLINE
  5
44D
100
AcDbEntity
  8
0
100
AcDbSpline
 62
7
  6
CONTINUOUS
 70
0
 71
3
 72
9
 73
5
 74
0
 42
0.0000001
 43
0.0000001
 44
0.0000000001
 40
0.0
 40
0.0
 40
0.0
 40
0.0
 40
0.278340258
 40
1.0
 40
1.0
 40
1.0
 40
1.0
 10
148.2354552929
 20
346.2453488174
 30
0.0
 10
148.271612212
 20
346.170110877
 30
0.0
 10
148.404784641
 20
345.9015087292
 30
0.0
 10
148.551514398
 20
345.6387411227
 30
0.0
 10
148.6732054562
 20
345.4597656804
 30
0.0
  0
SPLINE
  5
44E
100
AcDbEntity
  8
0
100
AcDbSpline
 62
7
  6
CONTINUOUS
 70
0
 71
3
 72
9
 73
5
 74
0
 42
0.0000001
 43
0.0000001
 44
0.0000000001
 40
0.0
 40
0.0
 40
0.0
 40
0.0
 40
0.532032831
 40
1.0
 40
1.0
 40
1.0
 40
1.0
 10
169.0974522308
 20
338.8736224755
 30
0.0
 10
169.4228726867
 20
337.8770402547
 30
0.0
 10
170.0282496031
 20
336.0029264791
 30
0.0
 10
170.6914083385
 20
334.1436238726
 30
0.0
 10
171.0668467841
 20
333.3013867379
 30
0.0
  0
SPLINE
  5
44F
100
AcDbEntity
  8
0
100
AcDbSpline
 62
7
  6
CONTINUOUS
 70
0
 71
3
 72
9
 73
5
 74
0
 42
0.0000001
 43
0.0000001
 44
0.0000000001
 40
0.0
 40
0.0
 40
0.0
 40
0.0
 40
0.278340258
 40
1.0
 40
1.0
 40
1.0
 40
1.0
 10
171.2165213602
 20
332.9775242955
 30
0.0
 10
171.2526782793
 20
332.9022863551
 30
0.0
 10
171.3858507083
 20
332.6336842073
 30
0.0
 10
171.5325804653
 20
332.3709166008
 30
0.0
 10
171.6542715235
 20
332.1919411585
 30
0.0
  0
SPLINE
  5
450
100
AcDbEntity
  8
0
100
AcDbSpline
 62
7
  6
CONTINUOUS
 70
0
 71
3
 72
9
 73
5
 74
0
 42
0.0000001
 43
0.0000001
 44
0.0000000001
 40
0.0
 40
0.0
 40
0.0
 40
0.0
 40
0.532032831
 40
1.0
 40
1.0
 40
1.0
 40
1.0
 10
192.0785182981
 20
325.6057979536
 30
0.0
 10
192.403938754
 20
324.6092157328
 30
0.0
 10
193.0093156704
 20
322.7351019572
 30
0.0
 10
193.6724744058
 20
320.8757993507
 30
0.0
 10
194.0479128514
 20
320.033562216
 30
0.0
  0
SPLINE
  5
451
100
AcDbEntity
  8
0
100
AcDbSpline
 62
7
  6
CONTINUOUS
 70
0
 71
3
 72
9
 73
5
 74
0
 42
0.0000001
 43
0.0000001
 44
0.0000000001
 40
0.0
 40
0.0
 40
0.0
 40
0.0
 40
0.278340258
 40
1.0
 40
1.0
 40
1.0
 40
1.0
 10
194.1975874275
 20
319.7096997736
 30
0.0
 10
194.2337443466
 20
319.6344618332
 30
0.0
 10
194.3669167756
 20
319.3658596853
 30
0.0
 10
194.5136465326
 20
319.1030920789
 30
0.0
 10
194.6353375907
 20
318.9241166366
 30
0.0
  0
SPLINE
  5
452
100
AcDbEntity
  8
0
100
AcDbSpline
 62
7
  6
CONTINUOUS
 70
0
 71
3
 72
9
 73
5
 74
0
 42
0.0000001
 43
0.0000001
 44
0.0000000001
 40
0.0
 40
0.0
 40
0.0
 40
0.0
 40
0.532032831
 40
1.0
 40
1.0
 40
1.0
 40
1.0
 10
215.0595843654
 20
312.3379734317
 30
0.0
 10
215.3850048213
 20
311.3413912109
 30
0.0
 10
215.9903817377
 20
309.4672774353
 30
0.0
 10
216.6535404731
 20
307.6079748288
 30
0.0
 10
217.0289789186
 20
306.7657376941
 30
0.0
  0
SPLINE
  5
453
100
AcDbEntity
  8
0
100
AcDbSpline
 62
7
  6
CONTINUOUS
 70
0
 71
3
 72
9
 73
5
 74
0
 42
0.0000001
 43
0.0000001
 44
0.0000000001
 40
0.0
 40
0.0
 40
0.0
 40
0.0
 40
0.278340258
 40
1.0
 40
1.0
 40
1.0
 40
1.0
 10
217.1786534947
 20
306.4418752516
 30
0.0
 10
217.2148104138
 20
306.3666373113
 30
0.0
 10
217.3479828429
 20
306.0980351634
 30
0.0
 10
217.4947125998
 20
305.835267557
 30
0.0
 10
217.616403658
 20
305.6562921147
 30
0.0
  0
SPLINE
  5
454
100
AcDbEntity
  8
0
100
AcDbSpline
 62
7
  6
CONTINUOUS
 70
0
 71
3
 72
9
 73
5
 74
0
 42
0.0000001
 43
0.0000001
 44
0.0000000001
 40
0.0
 40
0.0
 40
0.0
 40
0.0
 40
0.532032831
 40
1.0
 40
1.0
 40
1.0
 40
1.0
 10
238.0406504326
 20
299.0701489098
 30
0.0
 10
238.3660708886
 20
298.073566689
 30
0.0
 10
238.9714478049
 20
296.1994529134
 30
0.0
 10
239.6346065404
 20
294.3401503068
 30
0.0
 10
240.0100449859
 20
293.4979131722
 30
0.0
  0
SPLINE
  5
455
100
AcDbEntity
  8
0
100
AcDbSpline
 62
7
  6
CONTINUOUS
 70
0
 71
3
 72
9
 73
5
 74
0
 42
0.0000001
 43
0.0000001
 44
0.0000000001
 40
0.0
 40
0.0
 40
0.0
 40
0.0
 40
0.278340258
 40
1.0
 40
1.0
 40
1.0
 40
1.0
 10
240.159719562
 20
293.1740507297
 30
0.0
 10
240.1958764811
 20
293.0988127894
 30
0.0
 10
240.3290489102
 20
292.8302106415
 30
0.0
 10
240.4757786671
 20
292.5674430351
 30
0.0
 10
240.5974697253
 20
292.3884675928
 30
0.0
  0
SPLINE
  5
456
100
AcDbEntity
  8
0
100
AcDbSpline
 62
7
  6
CONTINUOUS
 70
0
 71
3
 72
9
 73
5
 74
0
 42
0.0000001
 43
0.0000001
 44
0.0000000001
 40
0.0
 40
0.0
 40
0.0
 40
0.0
 40
0.532032831
 40
1.0
 40
1.0
 40
1.0
 40
1.0
 10
100.154254029
 20
350.0995114417
 30
0.0
 10
100.4796744849
 20
349.1029292209
 30
0.0
 10
101.0850514013
 20
347.2288154453
 30
0.0
 10
101.7482101367
 20
345.3695128388
 30
0.0
 10
102.1236485822
 20
344.5272757041
 30
0.0
  0
SPLINE
  5
457
100
AcDbEntity
  8
0
100
AcDbSpline
 62
7
  6
CONTINUOUS
 70
0
 71
3
 72
9
 73
5
 74
0
 42
0.0000001
 43
0.0000001
 44
0.0000000001
 40
0.0
 40
0.0
 40
0.0
 40
0.0
 40
0.278340258
 40
1.0
 40
1.0
 40
1.0
 40
1.0
 10
102.2733231583
 20
344.2034132617
 30
0.0
 10
102.3094800774
 20
344.1281753213
 30
0.0
 10
102.4426525065
 20
343.8595731735
 30
0.0
 10
102.5893822635
 20
343.596805567
 30
0.0
 10
102.7110733217
 20
343.4178301247
 30
0.0
  0
SPLINE
  5
458
100
AcDbEntity
  8
0
100
AcDbSpline
 62
7
  6
CONTINUOUS
 70
0
 71
3
 72
9
 73
5
 74
0
 42
0.0000001
 43
0.0000001
 44
0.0000000001
 40
0.0
 40
0.0
 40
0.0
 40
0.0
 40
0.4491683742
 40
1.0
 40
1.0
 40
1.0
 40
1.0
 10
140.8546958578
 20
572.4941739399
 30
0.0
 10
140.8549022386
 20
572.2215979076
 30
0.0
 10
140.6165116275
 20
571.6131967542
 30
0.0
 10
140.1192169631
 20
571.2324657321
 30
0.0
 10
139.8297301622
 20
571.0653314473
 30
0.0
  0
SPLINE
  5
459
100
AcDbEntity
  8
0
100
AcDbSpline
 62
7
  6
CONTINUOUS
 70
0
 71
3
 72
9
 73
5
 74
0
 42
0.0000001
 43
0.0000001
 44
0.0000000001
 40
0.0
 40
0.0
 40
0.0
 40
0.0
 40
0.532032831
 40
1.0
 40
1.0
 40
1.0
 40
1.0
 10
123.1353200962
 20
336.8316869198
 30
0.0
 10
123.4607405522
 20
335.835104699
 30
0.0
 10
124.0661174686
 20
333.9609909234
 30
0.0
 10
124.729276204
 20
332.1016883169
 30
0.0
 10
125.1047146495
 20
331.2594511822
 30
0.0
  0
SPLINE
  5
45A
100
AcDbEntity
  8
0
100
AcDbSpline
 62
7
  6
CONTINUOUS
 70
0
 71
3
 72
9
 73
5
 74
0
 42
0.0000001
 43
0.0000001
 44
0.0000000001
 40
0.0
 40
0.0
 40
0.0
 40
0.0
 40
0.278340258
 40
1.0
 40
1.0
 40
1.0
 40
1.0
 10
125.2543892256
 20
330.9355887398
 30
0.0
 10
125.2905461447
 20
330.8603507994
 30
0.0
 10
125.4237185738
 20
330.5917486515
 30
0.0
 10
125.5704483307
 20
330.3289810451
 30
0.0
 10
125.6921393889
 20
330.1500056028
 30
0.0
  0
SPLINE
  5
45B
100
AcDbEntity
  8
0
100
AcDbSpline
 62
7
  6
CONTINUOUS
 70
0
 71
3
 72
9
 73
5
 74
0
 42
0.0000001
 43
0.0000001
 44
0.0000000001
 40
0.0
 40
0.0
 40
0.0
 40
0.0
 40
0.532032831
 40
1.0
 40
1.0
 40
1.0
 40
1.0
 10
146.1163861635
 20
323.5638623979
 30
0.0
 10
146.4418066194
 20
322.5672801771
 30
0.0
 10
147.0471835358
 20
320.6931664015
 30
0.0
 10
147.7103422712
 20
318.833863795
 30
0.0
 10
148.0857807168
 20
317.9916266603
 30
0.0
  0
SPLINE
  5
45C
100
AcDbEntity
  8
0
100
AcDbSpline
 62
7
  6
CONTINUOUS
 70
0
 71
3
 72
9
 73
5
 74
0
 42
0.0000001
 43
0.0000001
 44
0.0000000001
 40
0.0
 40
0.0
 40
0.0
 40
0.0
 40
0.278340258
 40
1.0
 40
1.0
 40
1.0
 40
1.0
 10
148.2354552929
 20
317.6677642178
 30
0.0
 10
148.271612212
 20
317.5925262775
 30
0.0
 10
148.404784641
 20
317.3239241296
 30
0.0
 10
148.551514398
 20
317.0611565232
 30
0.0
 10
148.6732054562
 20
316.8821810809
 30
0.0
  0
SPLINE
  5
45D
100
AcDbEntity
  8
0
100
AcDbSpline
 62
7
  6
CONTINUOUS
 70
0
 71
3
 72
9
 73
5
 74
0
 42
0.0000001
 43
0.0000001
 44
0.0000000001
 40
0.0
 40
0.0
 40
0.0
 40
0.0
 40
0.532032831
 40
1.0
 40
1.0
 40
1.0
 40
1.0
 10
169.0974522308
 20
310.296037876
 30
0.0
 10
169.4228726867
 20
309.2994556552
 30
0.0
 10
170.0282496031
 20
307.4253418796
 30
0.0
 10
170.6914083385
 20
305.566039273
 30
0.0
 10
171.0668467841
 20
304.7238021384
 30
0.0
  0
SPLINE
  5
45E
100
AcDbEntity
  8
0
100
AcDbSpline
 62
7
  6
CONTINUOUS
 70
0
 71
3
 72
9
 73
5
 74
0
 42
0.0000001
 43
0.0000001
 44
0.0000000001
 40
0.0
 40
0.0
 40
0.0
 40
0.0
 40
0.278340258
 40
1.0
 40
1.0
 40
1.0
 40
1.0
 10
171.2165213602
 20
304.3999396959
 30
0.0
 10
171.2526782793
 20
304.3247017556
 30
0.0
 10
171.3858507083
 20
304.0560996077
 30
0.0
 10
171.5325804653
 20
303.7933320013
 30
0.0
 10
171.6542715235
 20
303.614356559
 30
0.0
  0
SPLINE
  5
45F
100
AcDbEntity
  8
0
100
AcDbSpline
 62
7
  6
CONTINUOUS
 70
0
 71
3
 72
9
 73
5
 74
0
 42
0.0000001
 43
0.0000001
 44
0.0000000001
 40
0.0
 40
0.0
 40
0.0
 40
0.0
 40
0.4491683742
 40
1.0
 40
1.0
 40
1.0
 40
1.0
 10
329.652992472
 20
463.493892483
 30
0.0
 10
329.6531988528
 20
463.2213164506
 30
0.0
 10
329.4148082417
 20
462.6129152973
 30
0.0
 10
328.9175135773
 20
462.2321842751
 30
0.0
 10
328.6280267764
 20
462.0650499904
 30
0.0
  0
SPLINE
  5
460
100
AcDbEntity
  8
0
100
AcDbSpline
 62
7
  6
CONTINUOUS
 70
0
 71
3
 72
9
 73
5
 74
0
 42
0.0000001
 43
0.0000001
 44
0.0000000001
 40
0.0
 40
0.0
 40
0.0
 40
0.0
 40
0.532032831
 40
1.0
 40
1.0
 40
1.0
 40
1.0
 10
192.0785182981
 20
297.0282133541
 30
0.0
 10
192.403938754
 20
296.0316311333
 30
0.0
 10
193.0093156704
 20
294.1575173576
 30
0.0
 10
193.6724744058
 20
292.2982147511
 30
0.0
 10
194.0479128514
 20
291.4559776165
 30
0.0
  0
SPLINE
  5
461
100
AcDbEntity
  8
0
100
AcDbSpline
 62
7
  6
CONTINUOUS
 70
0
 71
3
 72
9
 73
5
 74
0
 42
0.0000001
 43
0.0000001
 44
0.0000000001
 40
0.0
 40
0.0
 40
0.0
 40
0.0
 40
0.278340258
 40
1.0
 40
1.0
 40
1.0
 40
1.0
 10
194.1975874275
 20
291.132115174
 30
0.0
 10
194.2337443466
 20
291.0568772337
 30
0.0
 10
194.3669167756
 20
290.7882750858
 30
0.0
 10
194.5136465326
 20
290.5255074794
 30
0.0
 10
194.6353375907
 20
290.3465320371
 30
0.0
  0
SPLINE
  5
462
100
AcDbEntity
  8
0
100
AcDbSpline
 62
7
  6
CONTINUOUS
 70
0
 71
3
 72
9
 73
5
 74
0
 42
0.0000001
 43
0.0000001
 44
0.0000000001
 40
0.0
 40
0.0
 40
0.0
 40
0.0
 40
0.532032831
 40
1.0
 40
1.0
 40
1.0
 40
1.0
 10
215.0595843654
 20
283.7603888322
 30
0.0
 10
215.3850048213
 20
282.7638066114
 30
0.0
 10
215.9903817377
 20
280.8896928357
 30
0.0
 10
216.6535404731
 20
279.0303902292
 30
0.0
 10
217.0289789186
 20
278.1881530946
 30
0.0
  0
SPLINE
  5
463
100
AcDbEntity
  8
0
100
AcDbSpline
 62
7
  6
CONTINUOUS
 70
0
 71
3
 72
9
 73
5
 74
0
 42
0.0000001
 43
0.0000001
 44
0.0000000001
 40
0.0
 40
0.0
 40
0.0
 40
0.0
 40
0.278340258
 40
1.0
 40
1.0
 40
1.0
 40
1.0
 10
217.1786534947
 20
277.8642906521
 30
0.0
 10
217.2148104138
 20
277.7890527117
 30
0.0
 10
217.3479828429
 20
277.5204505639
 30
0.0
 10
217.4947125998
 20
277.2576829575
 30
0.0
 10
217.616403658
 20
277.0787075152
 30
0.0
  0
SPLINE
  5
464
100
AcDbEntity
  8
0
100
AcDbSpline
 62
7
  6
CONTINUOUS
 70
0
 71
3
 72
9
 73
5
 74
0
 42
0.0000001
 43
0.0000001
 44
0.0000000001
 40
0.0
 40
0.0
 40
0.0
 40
0.0
 40
0.532032831
 40
1.0
 40
1.0
 40
1.0
 40
1.0
 10
238.0406504326
 20
270.4925643102
 30
0.0
 10
238.3660708886
 20
269.4959820895
 30
0.0
 10
238.9714478049
 20
267.6218683138
 30
0.0
 10
239.6346065404
 20
265.7625657073
 30
0.0
 10
240.0100449859
 20
264.9203285727
 30
0.0
  0
SPLINE
  5
465
100
AcDbEntity
  8
0
100
AcDbSpline
 62
7
  6
CONTINUOUS
 70
0
 71
3
 72
9
 73
5
 74
0
 42
0.0000001
 43
0.0000001
 44
0.0000000001
 40
0.0
 40
0.0
 40
0.0
 40
0.0
 40
0.278340258
 40
1.0
 40
1.0
 40
1.0
 40
1.0
 10
240.159719562
 20
264.5964661302
 30
0.0
 10
240.1958764811
 20
264.5212281898
 30
0.0
 10
240.3290489102
 20
264.252626042
 30
0.0
 10
240.4757786671
 20
263.9898584356
 30
0.0
 10
240.5974697253
 20
263.8108829933
 30
0.0
  0
SPLINE
  5
466
100
AcDbEntity
  8
0
100
AcDbSpline
 62
7
  6
CONTINUOUS
 70
0
 71
3
 72
8
 73
4
 74
0
 42
0.0000001
 43
0.0000001
 44
0.0000000001
 40
0.0
 40
0.0
 40
0.0
 40
0.0
 40
1.0
 40
1.0
 40
1.0
 40
1.0
 10
243.1193777101
 20
460.4371217733
 30
0.0
 10
243.1193776911
 20
460.2773779646
 30
0.0
 10
243.0955119358
 20
460.1162512772
 30
0.0
 10
243.0512802928
 20
459.962753244
 30
0.0
  0
SPLINE
  5
467
100
AcDbEntity
  8
0
100
AcDbSpline
 62
7
  6
CONTINUOUS
 70
0
 71
3
 72
8
 73
4
 74
0
 42
0.0000001
 43
0.0000001
 44
0.0000000001
 40
0.0
 40
0.0
 40
0.0
 40
0.0
 40
1.0
 40
1.0
 40
1.0
 40
1.0
 10
242.9321669781
 20
459.5831021551
 30
0.0
 10
242.8676719481
 20
459.7139976824
 30
0.0
 10
242.7882392915
 20
459.83818393
 30
0.0
 10
242.6987737112
 20
459.95346254
 30
0.0
  0
SPLINE
  5
468
100
AcDbEntity
  8
0
100
AcDbSpline
 62
7
  6
CONTINUOUS
 70
0
 71
3
 72
9
 73
5
 74
0
 42
0.0000001
 43
0.0000001
 44
0.0000000001
 40
0.0
 40
0.0
 40
0.0
 40
0.0
 40
0.2325194521
 40
1.0
 40
1.0
 40
1.0
 40
1.0
 10
242.6987737112
 20
459.95346254
 30
0.0
 10
242.6334416284
 20
460.0376445423
 30
0.0
 10
242.3288408894
 20
460.3813949017
 30
0.0
 10
241.9542104592
 20
460.6569895025
 30
0.0
 10
241.6538779714
 20
460.8400435327
 30
0.0
  0
SPLINE
  5
469
100
AcDbEntity
  8
0
100
AcDbSpline
 62
7
  6
CONTINUOUS
 70
0
 71
3
 72
8
 73
4
 74
0
 42
0.0000001
 43
0.0000001
 44
0.0000000001
 40
0.0
 40
0.0
 40
0.0
 40
0.0
 40
1.0
 40
1.0
 40
1.0
 40
1.0
 10
205.2890074147
 20
482.2780021402
 30
0.0
 10
205.2890073957
 20
482.1182583314
 30
0.0
 10
205.2651416404
 20
481.957131644
 30
0.0
 10
205.2209099974
 20
481.8036336108
 30
0.0
  0
SPLINE
  5
46A
100
AcDbEntity
  8
0
100
AcDbSpline
 62
7
  6
CONTINUOUS
 70
0
 71
3
 72
8
 73
4
 74
0
 42
0.0000001
 43
0.0000001
 44
0.0000000001
 40
0.0
 40
0.0
 40
0.0
 40
0.0
 40
1.0
 40
1.0
 40
1.0
 40
1.0
 10
205.1017966827
 20
481.4239825219
 30
0.0
 10
205.0373016528
 20
481.5548780493
 30
0.0
 10
204.9578689961
 20
481.6790642969
 30
0.0
 10
204.8684034158
 20
481.7943429068
 30
0.0
  0
SPLINE
  5
46B
100
AcDbEntity
  8
0
100
AcDbSpline
 62
7
  6
CONTINUOUS
 70
0
 71
3
 72
9
 73
5
 74
0
 42
0.0000001
 43
0.0000001
 44
0.0000000001
 40
0.0
 40
0.0
 40
0.0
 40
0.0
 40
0.2325194521
 40
1.0
 40
1.0
 40
1.0
 40
1.0
 10
204.8684034158
 20
481.7943429068
 30
0.0
 10
204.8030713331
 20
481.8785249091
 30
0.0
 10
204.498470594
 20
482.2222752686
 30
0.0
 10
204.1238401639
 20
482.4978698693
 30
0.0
 10
203.823507676
 20
482.6809238996
 30
0.0
  0
SPLINE
  5
46C
100
AcDbEntity
  8
0
100
AcDbSpline
 62
7
  6
CONTINUOUS
 70
0
 71
3
 72
9
 73
5
 74
0
 42
0.0000001
 43
0.0000001
 44
0.0000000001
 40
0.0
 40
0.0
 40
0.0
 40
0.0
 40
0.2370165144
 40
1.0
 40
1.0
 40
1.0
 40
1.0
 10
139.1442622071
 20
531.1564547078
 30
0.0
 10
139.1277693441
 20
531.0697591916
 30
0.0
 10
139.0303989408
 20
530.7091746009
 30
0.0
 10
138.8254155925
 20
530.3831389568
 30
0.0
 10
138.6388348136
 20
530.1689108948
 30
0.0
  0
SPLINE
  5
46D
100
AcDbEntity
  8
0
100
AcDbSpline
 62
7
  6
CONTINUOUS
 70
0
 71
3
 72
8
 73
4
 74
0
 42
0.0000001
 43
0.0000001
 44
0.0000000001
 40
0.0
 40
0.0
 40
0.0
 40
0.0
 40
1.0
 40
1.0
 40
1.0
 40
1.0
 10
138.6388348136
 20
530.1689108948
 30
0.0
 10
138.5265156486
 20
530.0399484305
 30
0.0
 10
138.4020675311
 20
529.9209942303
 30
0.0
 10
138.270333589
 20
529.8119388292
 30
0.0
  0
SPLINE
  5
46E
100
AcDbEntity
  8
0
100
AcDbSpline
 62
7
  6
CONTINUOUS
 70
0
 71
3
 72
11
 73
7
 74
0
 42
0.0000001
 43
0.0000001
 44
0.0000000001
 40
0.0
 40
0.0
 40
0.0
 40
0.0
 40
0.2255537092
 40
0.4877169555
 40
0.7567668393
 40
1.0
 40
1.0
 40
1.0
 40
1.0
 10
138.270333589
 20
529.8119388292
 30
0.0
 10
137.8068706007
 20
529.4282629044
 30
0.0
 10
136.6042875714
 20
528.8454447566
 30
0.0
 10
134.5983640197
 20
528.5060518661
 30
0.0
 10
132.5144688516
 20
528.6438723446
 30
0.0
 10
131.2065946957
 20
529.1126807216
 30
0.0
 10
130.6376305156
 20
529.4245440061
 30
0.0
  0
SPLINE
  5
46F
100
AcDbEntity
  8
0
100
AcDbSpline
 62
7
  6
CONTINUOUS
 70
0
 71
3
 72
8
 73
4
 74
0
 42
0.0000001
 43
0.0000001
 44
0.0000000001
 40
0.0
 40
0.0
 40
0.0
 40
0.0
 40
1.0
 40
1.0
 40
1.0
 40
1.0
 10
138.9681519582
 20
530.6542204374
 30
0.0
 10
138.9073953598
 20
530.7713001123
 30
0.0
 10
138.8347728447
 20
530.8827093227
 30
0.0
 10
138.7539259394
 20
530.9869340435
 30
0.0
  0
SPLINE
  5
470
100
AcDbEntity
  8
0
100
AcDbSpline
 62
7
  6
CONTINUOUS
 70
0
 71
3
 72
9
 73
5
 74
0
 42
0.0000001
 43
0.0000001
 44
0.0000000001
 40
0.0
 40
0.0
 40
0.0
 40
0.0
 40
0.2325095271
 40
1.0
 40
1.0
 40
1.0
 40
1.0
 10
138.7539259394
 20
530.9869340435
 30
0.0
 10
138.6885890161
 20
531.071163892
 30
0.0
 10
138.3839209233
 20
531.4151178909
 30
0.0
 10
138.0091329926
 20
531.690846459
 30
0.0
 10
137.7086688877
 20
531.8739807105
 30
0.0
  0
SPLINE
  5
471
100
AcDbEntity
  8
0
100
AcDbSpline
 62
7
  6
CONTINUOUS
 70
0
 71
3
 72
9
 73
5
 74
0
 42
0.0000001
 43
0.0000001
 44
0.0000000001
 40
0.0
 40
0.0
 40
0.0
 40
0.0
 40
0.2370165144
 40
1.0
 40
1.0
 40
1.0
 40
1.0
 10
148.6901640095
 20
536.6677507851
 30
0.0
 10
148.6736711465
 20
536.5810552689
 30
0.0
 10
148.5763007432
 20
536.2204706782
 30
0.0
 10
148.3713173949
 20
535.8944350341
 30
0.0
 10
148.184736616
 20
535.6802069721
 30
0.0
  0
SPLINE
  5
472
100
AcDbEntity
  8
0
100
AcDbSpline
 62
7
  6
CONTINUOUS
 70
0
 71
3
 72
8
 73
4
 74
0
 42
0.0000001
 43
0.0000001
 44
0.0000000001
 40
0.0
 40
0.0
 40
0.0
 40
0.0
 40
1.0
 40
1.0
 40
1.0
 40
1.0
 10
148.184736616
 20
535.6802069721
 30
0.0
 10
148.0724174511
 20
535.5512445078
 30
0.0
 10
147.9479693336
 20
535.4322903077
 30
0.0
 10
147.8162353915
 20
535.3232349066
 30
0.0
  0
SPLINE
  5
473
100
AcDbEntity
  8
0
100
AcDbSpline
 62
7
  6
CONTINUOUS
 70
0
 71
3
 72
11
 73
7
 74
0
 42
0.0000001
 43
0.0000001
 44
0.0000000001
 40
0.0
 40
0.0
 40
0.0
 40
0.0
 40
0.2255537092
 40
0.4877169555
 40
0.7567668393
 40
1.0
 40
1.0
 40
1.0
 40
1.0
 10
147.8162353915
 20
535.3232349066
 30
0.0
 10
147.3527724032
 20
534.9395589817
 30
0.0
 10
146.150189374
 20
534.3567408338
 30
0.0
 10
144.1442658222
 20
534.0173479433
 30
0.0
 10
142.0603706541
 20
534.155168422
 30
0.0
 10
140.7524964981
 20
534.6239767988
 30
0.0
 10
140.183532318
 20
534.9358400833
 30
0.0
  0
SPLINE
  5
474
100
AcDbEntity
  8
0
100
AcDbSpline
 62
7
  6
CONTINUOUS
 70
0
 71
3
 72
8
 73
4
 74
0
 42
0.0000001
 43
0.0000001
 44
0.0000000001
 40
0.0
 40
0.0
 40
0.0
 40
0.0
 40
1.0
 40
1.0
 40
1.0
 40
1.0
 10
148.5140537606
 20
536.1655165147
 30
0.0
 10
148.4532971622
 20
536.2825961897
 30
0.0
 10
148.3806746472
 20
536.3940054
 30
0.0
 10
148.2998277418
 20
536.4982301208
 30
0.0
  0
SPLINE
  5
475
100
AcDbEntity
  8
0
100
AcDbSpline
 62
7
  6
CONTINUOUS
 70
0
 71
3
 72
9
 73
5
 74
0
 42
0.0000001
 43
0.0000001
 44
0.0000000001
 40
0.0
 40
0.0
 40
0.0
 40
0.0
 40
0.2325095271
 40
1.0
 40
1.0
 40
1.0
 40
1.0
 10
148.2998277418
 20
536.4982301208
 30
0.0
 10
148.2344908185
 20
536.5824599693
 30
0.0
 10
147.9298227258
 20
536.9264139682
 30
0.0
 10
147.555034795
 20
537.2021425363
 30
0.0
 10
147.2545706901
 20
537.3852767878
 30
0.0
  0
SPLINE
  5
476
100
AcDbEntity
  8
0
100
AcDbSpline
 62
7
  6
CONTINUOUS
 70
0
 71
3
 72
9
 73
5
 74
0
 42
0.0000001
 43
0.0000001
 44
0.0000000001
 40
0.0
 40
0.0
 40
0.0
 40
0.0
 40
0.2370165144
 40
1.0
 40
1.0
 40
1.0
 40
1.0
 10
158.2360658118
 20
542.1790468623
 30
0.0
 10
158.2195729489
 20
542.0923513461
 30
0.0
 10
158.1222025455
 20
541.7317667554
 30
0.0
 10
157.9172191973
 20
541.4057311113
 30
0.0
 10
157.7306384184
 20
541.1915030493
 30
0.0
  0
SPLINE
  5
477
100
AcDbEntity
  8
0
100
AcDbSpline
 62
7
  6
CONTINUOUS
 70
0
 71
3
 72
8
 73
4
 74
0
 42
0.0000001
 43
0.0000001
 44
0.0000000001
 40
0.0
 40
0.0
 40
0.0
 40
0.0
 40
1.0
 40
1.0
 40
1.0
 40
1.0
 10
157.7306384184
 20
541.1915030493
 30
0.0
 10
157.6183192534
 20
541.062540585
 30
0.0
 10
157.4938711359
 20
540.9435863849
 30
0.0
 10
157.3621371938
 20
540.8345309838
 30
0.0
  0
SPLINE
  5
478
100
AcDbEntity
  8
0
100
AcDbSpline
 62
7
  6
CONTINUOUS
 70
0
 71
3
 72
11
 73
7
 74
0
 42
0.0000001
 43
0.0000001
 44
0.0000000001
 40
0.0
 40
0.0
 40
0.0
 40
0.0
 40
0.2255537092
 40
0.4877169555
 40
0.7567668393
 40
1.0
 40
1.0
 40
1.0
 40
1.0
 10
157.3621371938
 20
540.8345309838
 30
0.0
 10
156.8986742055
 20
540.4508550589
 30
0.0
 10
155.6960911762
 20
539.8680369111
 30
0.0
 10
153.6901676245
 20
539.5286440206
 30
0.0
 10
151.6062724564
 20
539.6664644992
 30
0.0
 10
150.2983983004
 20
540.1352728761
 30
0.0
 10
149.7294341204
 20
540.4471361606
 30
0.0
  0
SPLINE
  5
479
100
AcDbEntity
  8
0
100
AcDbSpline
 62
7
  6
CONTINUOUS
 70
0
 71
3
 72
8
 73
4
 74
0
 42
0.0000001
 43
0.0000001
 44
0.0000000001
 40
0.0
 40
0.0
 40
0.0
 40
0.0
 40
1.0
 40
1.0
 40
1.0
 40
1.0
 10
158.059955563
 20
541.6768125919
 30
0.0
 10
157.9991989646
 20
541.7938922669
 30
0.0
 10
157.9265764495
 20
541.9053014772
 30
0.0
 10
157.8457295441
 20
542.0095261981
 30
0.0
  0
SPLINE
  5
47A
100
AcDbEntity
  8
0
100
AcDbSpline
 62
7
  6
CONTINUOUS
 70
0
 71
3
 72
9
 73
5
 74
0
 42
0.0000001
 43
0.0000001
 44
0.0000000001
 40
0.0
 40
0.0
 40
0.0
 40
0.0
 40
0.2325095271
 40
1.0
 40
1.0
 40
1.0
 40
1.0
 10
157.8457295441
 20
542.0095261981
 30
0.0
 10
157.7803926208
 20
542.0937560465
 30
0.0
 10
157.4757245281
 20
542.4377100455
 30
0.0
 10
157.1009365974
 20
542.7134386136
 30
0.0
 10
156.8004724925
 20
542.896572865
 30
0.0
  0
SPLINE
  5
47B
100
AcDbEntity
  8
0
100
AcDbSpline
 62
7
  6
CONTINUOUS
 70
0
 71
3
 72
8
 73
4
 74
0
 42
0.0000001
 43
0.0000001
 44
0.0000000001
 40
0.0
 40
0.0
 40
0.0
 40
0.0
 40
1.0
 40
1.0
 40
1.0
 40
1.0
 10
129.628266824
 20
525.9597628738
 30
0.0
 10
129.628266805
 20
525.8000190651
 30
0.0
 10
129.6044010497
 20
525.6388923777
 30
0.0
 10
129.5601694067
 20
525.4853943446
 30
0.0
  0
SPLINE
  5
47C
100
AcDbEntity
  8
0
100
AcDbSpline
 62
7
  6
CONTINUOUS
 70
0
 71
3
 72
8
 73
4
 74
0
 42
0.0000001
 43
0.0000001
 44
0.0000000001
 40
0.0
 40
0.0
 40
0.0
 40
0.0
 40
1.0
 40
1.0
 40
1.0
 40
1.0
 10
129.441056092
 20
525.1057432556
 30
0.0
 10
129.376561062
 20
525.236638783
 30
0.0
 10
129.2971284054
 20
525.3608250306
 30
0.0
 10
129.2076628251
 20
525.4761036405
 30
0.0
  0
SPLINE
  5
47D
100
AcDbEntity
  8
0
100
AcDbSpline
 62
7
  6
CONTINUOUS
 70
0
 71
3
 72
9
 73
5
 74
0
 42
0.0000001
 43
0.0000001
 44
0.0000000001
 40
0.0
 40
0.0
 40
0.0
 40
0.0
 40
0.2325194521
 40
1.0
 40
1.0
 40
1.0
 40
1.0
 10
129.2076628251
 20
525.4761036405
 30
0.0
 10
129.1423307423
 20
525.5602856428
 30
0.0
 10
128.8377300033
 20
525.9040360022
 30
0.0
 10
128.4630995732
 20
526.179630603
 30
0.0
 10
128.1627670853
 20
526.3626846332
 30
0.0
  0
SPLINE
  5
47E
100
AcDbEntity
  8
0
100
AcDbSpline
 62
7
  6
CONTINUOUS
 70
0
 71
3
 72
13
 73
9
 74
0
 42
0.0000001
 43
0.0000001
 44
0.0000000001
 40
0.0
 40
0.0
 40
0.0
 40
0.0
 40
0.2699040481
 40
0.5613092475
 40
0.6954524627
 40
0.8131377821
 40
0.9128550148
 40
1.0
 40
1.0
 40
1.0
 40
1.0
 10
328.6280267764
 20
462.0650499904
 30
0.0
 10
328.0865611236
 20
461.752436516
 30
0.0
 10
326.7922766888
 20
461.4021077543
 30
0.0
 10
325.1558072023
 20
461.4851007367
 30
0.0
 10
323.9540945427
 20
461.8853597987
 30
0.0
 10
323.2512806124
 20
462.3137311435
 30
0.0
 10
322.7749531453
 20
462.8551550251
 30
0.0
 10
322.6534458508
 20
463.2920224412
 30
0.0
 10
322.6532930048
 20
463.4938927795
 30
0.0
  0
SPLINE
  5
47F
100
AcDbEntity
  8
0
100
AcDbSpline
 62
7
  6
CONTINUOUS
 70
0
 71
3
 72
13
 73
9
 74
0
 42
0.0000001
 43
0.0000001
 44
0.0000000001
 40
0.0
 40
0.0
 40
0.0
 40
0.0
 40
0.2699040481
 40
0.5613092475
 40
0.6954524627
 40
0.8131377821
 40
0.9128550148
 40
1.0
 40
1.0
 40
1.0
 40
1.0
 10
139.8297301622
 20
571.0653314473
 30
0.0
 10
139.2882645093
 20
570.7527179729
 30
0.0
 10
137.9939800746
 20
570.4023892112
 30
0.0
 10
136.3575105881
 20
570.4853821936
 30
0.0
 10
135.1557979284
 20
570.8856412556
 30
0.0
 10
134.4529839982
 20
571.3140126004
 30
0.0
 10
133.9766565311
 20
571.855436482
 30
0.0
 10
133.8551492366
 20
572.2923038981
 30
0.0
 10
133.8549963906
 20
572.4941742364
 30
0.0
  0
SPLINE
  5
480
100
AcDbEntity
  8
0
100
AcDbSpline
 62
7
  6
CONTINUOUS
 70
0
 71
3
 72
11
 73
7
 74
0
 42
0.0000001
 43
0.0000001
 44
0.0000000001
 40
0.0
 40
0.0
 40
0.0
 40
0.0
 40
0.2935873606
 40
0.5761136221
 40
0.8191725688
 40
1.0
 40
1.0
 40
1.0
 40
1.0
 10
103.6756809501
 20
373.7951311404
 30
0.0
 10
103.4759380011
 20
373.4148896303
 30
0.0
 10
103.0892646131
 20
372.666607392
 30
0.0
 10
102.5114329125
 20
371.6137103333
 30
0.0
 10
101.9502302758
 20
370.7514514767
 30
0.0
 10
101.5195925356
 20
370.2808081231
 30
0.0
 10
101.2904878942
 20
370.148535289
 30
0.0
  0
SPLINE
  5
481
100
AcDbEntity
  8
0
100
AcDbSpline
 62
7
  6
CONTINUOUS
 70
0
 71
3
 72
9
 73
5
 74
0
 42
0.0000001
 43
0.0000001
 44
0.0000000001
 40
0.0
 40
0.0
 40
0.0
 40
0.0
 40
0.7539201956
 40
1.0
 40
1.0
 40
1.0
 40
1.0
 10
126.6567470174
 20
360.5273066185
 30
0.0
 10
126.4272244976
 20
360.0903751025
 30
0.0
 10
126.1275303333
 20
359.5082990589
 30
0.0
 10
125.8131743065
 20
358.9340258539
 30
0.0
 10
125.7343818327
 20
358.7935156786
 30
0.0
  0
SPLINE
  5
482
100
AcDbEntity
  8
0
100
AcDbSpline
 62
7
  6
CONTINUOUS
 70
0
 71
3
 72
9
 73
5
 74
0
 42
0.0000001
 43
0.0000001
 44
0.0000000001
 40
0.0
 40
0.0
 40
0.0
 40
0.0
 40
0.5553730533
 40
1.0
 40
1.0
 40
1.0
 40
1.0
 10
125.7343818327
 20
358.7935156786
 30
0.0
 10
125.5451090051
 20
358.4559865099
 30
0.0
 10
125.1906584885
 20
357.8575365872
 30
0.0
 10
124.7675637444
 20
357.2944761912
 30
0.0
 10
124.5401068954
 20
357.084130643
 30
0.0
  0
SPLINE
  5
483
100
AcDbEntity
  8
0
100
AcDbSpline
 62
7
  6
CONTINUOUS
 70
0
 71
3
 72
9
 73
5
 74
0
 42
0.0000001
 43
0.0000001
 44
0.0000000001
 40
0.0
 40
0.0
 40
0.0
 40
0.0
 40
0.2683547712
 40
1.0
 40
1.0
 40
1.0
 40
1.0
 10
124.5401068954
 20
357.084130643
 30
0.0
 10
124.5179579825
 20
357.0636479657
 30
0.0
 10
124.4338808352
 20
356.9890843003
 30
0.0
 10
124.3427852008
 20
356.921835896
 30
0.0
 10
124.2715539615
 20
356.8807107671
 30
0.0
  0
SPLINE
  5
484
100
AcDbEntity
  8
0
100
AcDbSpline
 62
7
  6
CONTINUOUS
 70
0
 71
3
 72
11
 73
7
 74
0
 42
0.0000001
 43
0.0000001
 44
0.0000000001
 40
0.0
 40
0.0
 40
0.0
 40
0.0
 40
0.2935873606
 40
0.5761136221
 40
0.8191725688
 40
1.0
 40
1.0
 40
1.0
 40
1.0
 10
149.6378130846
 20
347.2594820966
 30
0.0
 10
149.4380701356
 20
346.8792405865
 30
0.0
 10
149.0513967476
 20
346.1309583482
 30
0.0
 10
148.4735650471
 20
345.0780612895
 30
0.0
 10
147.9123624103
 20
344.2158024329
 30
0.0
 10
147.4817246702
 20
343.7451590792
 30
0.0
 10
147.2526200287
 20
343.6128862452
 30
0.0
  0
SPLINE
  5
485
100
AcDbEntity
  8
0
100
AcDbSpline
 62
7
  6
CONTINUOUS
 70
0
 71
3
 72
11
 73
7
 74
0
 42
0.0000001
 43
0.0000001
 44
0.0000000001
 40
0.0
 40
0.0
 40
0.0
 40
0.0
 40
0.2935873606
 40
0.5761136221
 40
0.8191725688
 40
1.0
 40
1.0
 40
1.0
 40
1.0
 10
172.6188791519
 20
333.9916575747
 30
0.0
 10
172.4191362029
 20
333.6114160646
 30
0.0
 10
172.0324628149
 20
332.8631338263
 30
0.0
 10
171.4546311144
 20
331.8102367675
 30
0.0
 10
170.8934284776
 20
330.947977911
 30
0.0
 10
170.4627907375
 20
330.4773345573
 30
0.0
 10
170.233686096
 20
330.3450617233
 30
0.0
  0
SPLINE
  5
486
100
AcDbEntity
  8
0
100
AcDbSpline
 62
7
  6
CONTINUOUS
 70
0
 71
3
 72
11
 73
7
 74
0
 42
0.0000001
 43
0.0000001
 44
0.0000000001
 40
0.0
 40
0.0
 40
0.0
 40
0.0
 40
0.2935873606
 40
0.5761136221
 40
0.8191725688
 40
1.0
 40
1.0
 40
1.0
 40
1.0
 10
195.5999452192
 20
320.7238330528
 30
0.0
 10
195.4002022702
 20
320.3435915427
 30
0.0
 10
195.0135288821
 20
319.5953093044
 30
0.0
 10
194.4356971816
 20
318.5424122456
 30
0.0
 10
193.8744945449
 20
317.6801533891
 30
0.0
 10
193.4438568047
 20
317.2095100354
 30
0.0
 10
193.2147521633
 20
317.0772372013
 30
0.0
  0
SPLINE
  5
487
100
AcDbEntity
  8
0
100
AcDbSpline
 62
7
  6
CONTINUOUS
 70
0
 71
3
 72
11
 73
7
 74
0
 42
0.0000001
 43
0.0000001
 44
0.0000000001
 40
0.0
 40
0.0
 40
0.0
 40
0.0
 40
0.2935873606
 40
0.5761136221
 40
0.8191725688
 40
1.0
 40
1.0
 40
1.0
 40
1.0
 10
218.5810112865
 20
307.4560085309
 30
0.0
 10
218.3812683374
 20
307.0757670208
 30
0.0
 10
217.9945949494
 20
306.3274847825
 30
0.0
 10
217.4167632489
 20
305.2745877237
 30
0.0
 10
216.8555606122
 20
304.4123288672
 30
0.0
 10
216.424922872
 20
303.9416855135
 30
0.0
 10
216.1958182306
 20
303.8094126794
 30
0.0
  0
SPLINE
  5
488
100
AcDbEntity
  8
0
100
AcDbSpline
 62
7
  6
CONTINUOUS
 70
0
 71
3
 72
11
 73
7
 74
0
 42
0.0000001
 43
0.0000001
 44
0.0000000001
 40
0.0
 40
0.0
 40
0.0
 40
0.0
 40
0.2935873606
 40
0.5761136221
 40
0.8191725688
 40
1.0
 40
1.0
 40
1.0
 40
1.0
 10
241.5620773538
 20
294.188184009
 30
0.0
 10
241.3623344047
 20
293.8079424989
 30
0.0
 10
240.9756610167
 20
293.0596602606
 30
0.0
 10
240.3978293162
 20
292.0067632018
 30
0.0
 10
239.8366266794
 20
291.1445043453
 30
0.0
 10
239.4059889393
 20
290.6738609916
 30
0.0
 10
239.1768842978
 20
290.5415881575
 30
0.0
  0
SPLINE
  5
489
100
AcDbEntity
  8
0
100
AcDbSpline
 62
7
  6
CONTINUOUS
 70
0
 71
3
 72
11
 73
7
 74
0
 42
0.0000001
 43
0.0000001
 44
0.0000000001
 40
0.0
 40
0.0
 40
0.0
 40
0.0
 40
0.2935873606
 40
0.5761136221
 40
0.8191725688
 40
1.0
 40
1.0
 40
1.0
 40
1.0
 10
103.6756809501
 20
345.2175465409
 30
0.0
 10
103.4759380011
 20
344.8373050308
 30
0.0
 10
103.0892646131
 20
344.0890227925
 30
0.0
 10
102.5114329125
 20
343.0361257337
 30
0.0
 10
101.9502302758
 20
342.1738668772
 30
0.0
 10
101.5195925356
 20
341.7032235235
 30
0.0
 10
101.2904878942
 20
341.5709506895
 30
0.0
  0
SPLINE
  5
48A
100
AcDbEntity
  8
0
100
AcDbSpline
 62
7
  6
CONTINUOUS
 70
0
 71
3
 72
11
 73
7
 74
0
 42
0.0000001
 43
0.0000001
 44
0.0000000001
 40
0.0
 40
0.0
 40
0.0
 40
0.0
 40
0.2935873606
 40
0.5761136221
 40
0.8191725688
 40
1.0
 40
1.0
 40
1.0
 40
1.0
 10
126.6567470174
 20
331.949722019
 30
0.0
 10
126.4570040683
 20
331.5694805089
 30
0.0
 10
126.0703306803
 20
330.8211982706
 30
0.0
 10
125.4924989798
 20
329.7683012118
 30
0.0
 10
124.9312963431
 20
328.9060423553
 30
0.0
 10
124.5006586029
 20
328.4353990016
 30
0.0
 10
124.2715539615
 20
328.3031261675
 30
0.0
  0
SPLINE
  5
48B
100
AcDbEntity
  8
0
100
AcDbSpline
 62
7
  6
CONTINUOUS
 70
0
 71
3
 72
11
 73
7
 74
0
 42
0.0000001
 43
0.0000001
 44
0.0000000001
 40
0.0
 40
0.0
 40
0.0
 40
0.0
 40
0.2935873606
 40
0.5761136221
 40
0.8191725688
 40
1.0
 40
1.0
 40
1.0
 40
1.0
 10
149.6378130846
 20
318.6818974971
 30
0.0
 10
149.4380701356
 20
318.301655987
 30
0.0
 10
149.0513967476
 20
317.5533737487
 30
0.0
 10
148.4735650471
 20
316.5004766899
 30
0.0
 10
147.9123624103
 20
315.6382178334
 30
0.0
 10
147.4817246702
 20
315.1675744797
 30
0.0
 10
147.2526200287
 20
315.0353016456
 30
0.0
  0
SPLINE
  5
48C
100
AcDbEntity
  8
0
100
AcDbSpline
 62
7
  6
CONTINUOUS
 70
0
 71
3
 72
11
 73
7
 74
0
 42
0.0000001
 43
0.0000001
 44
0.0000000001
 40
0.0
 40
0.0
 40
0.0
 40
0.0
 40
0.2935873606
 40
0.5761136221
 40
0.8191725688
 40
1.0
 40
1.0
 40
1.0
 40
1.0
 10
172.6188791519
 20
305.4140729752
 30
0.0
 10
172.4191362029
 20
305.0338314651
 30
0.0
 10
172.0324628149
 20
304.2855492268
 30
0.0
 10
171.4546311144
 20
303.232652168
 30
0.0
 10
170.8934284776
 20
302.3703933115
 30
0.0
 10
170.4627907375
 20
301.8997499578
 30
0.0
 10
170.233686096
 20
301.7674771237
 30
0.0
  0
SPLINE
  5
48D
100
AcDbEntity
  8
0
100
AcDbSpline
 62
7
  6
CONTINUOUS
 70
0
 71
3
 72
11
 73
7
 74
0
 42
0.0000001
 43
0.0000001
 44
0.0000000001
 40
0.0
 40
0.0
 40
0.0
 40
0.0
 40
0.2935873606
 40
0.5761136221
 40
0.8191725688
 40
1.0
 40
1.0
 40
1.0
 40
1.0
 10
195.5999452192
 20
292.1462484533
 30
0.0
 10
195.4002022702
 20
291.7660069432
 30
0.0
 10
195.0135288821
 20
291.0177247048
 30
0.0
 10
194.4356971816
 20
289.9648276461
 30
0.0
 10
193.8744945449
 20
289.1025687896
 30
0.0
 10
193.4438568047
 20
288.6319254359
 30
0.0
 10
193.2147521633
 20
288.4996526018
 30
0.0
  0
SPLINE
  5
48E
100
AcDbEntity
  8
0
100
AcDbSpline
 62
7
  6
CONTINUOUS
 70
0
 71
3
 72
11
 73
7
 74
0
 42
0.0000001
 43
0.0000001
 44
0.0000000001
 40
0.0
 40
0.0
 40
0.0
 40
0.0
 40
0.2935873606
 40
0.5761136221
 40
0.8191725688
 40
1.0
 40
1.0
 40
1.0
 40
1.0
 10
218.5810112865
 20
278.8784239314
 30
0.0
 10
218.3812683374
 20
278.4981824213
 30
0.0
 10
217.9945949494
 20
277.7499001829
 30
0.0
 10
217.4167632489
 20
276.6970031242
 30
0.0
 10
216.8555606122
 20
275.8347442676
 30
0.0
 10
216.424922872
 20
275.364100914
 30
0.0
 10
216.1958182306
 20
275.2318280799
 30
0.0
  0
SPLINE
  5
48F
100
AcDbEntity
  8
0
100
AcDbSpline
 62
7
  6
CONTINUOUS
 70
0
 71
3
 72
11
 73
7
 74
0
 42
0.0000001
 43
0.0000001
 44
0.0000000001
 40
0.0
 40
0.0
 40
0.0
 40
0.0
 40
0.2935873606
 40
0.5761136221
 40
0.8191725688
 40
1.0
 40
1.0
 40
1.0
 40
1.0
 10
241.5620773538
 20
265.6105994094
 30
0.0
 10
241.3623344047
 20
265.2303578994
 30
0.0
 10
240.9756610167
 20
264.482075661
 30
0.0
 10
240.3978293162
 20
263.4291786023
 30
0.0
 10
239.8366266794
 20
262.5669197457
 30
0.0
 10
239.4059889393
 20
262.0962763921
 30
0.0
 10
239.1768842978
 20
261.964003558
 30
0.0
  0
SPLINE
  5
490
100
AcDbEntity
  8
0
100
AcDbSpline
 62
7
  6
CONTINUOUS
 70
0
 71
3
 72
13
 73
9
 74
0
 42
0.0000001
 43
0.0000001
 44
0.0000000001
 40
0.0
 40
0.0
 40
0.0
 40
0.0
 40
0.2699323744
 40
0.5613230966
 40
0.6954668982
 40
0.8131376488
 40
0.9128505477
 40
1.0
 40
1.0
 40
1.0
 40
1.0
 10
175.1856874542
 20
478.4758807461
 30
0.0
 10
175.5724871843
 20
478.2525668698
 30
0.0
 10
176.2514112409
 20
477.5770118867
 30
0.0
 10
176.7846259112
 20
476.5350897175
 30
0.0
 10
176.9660758769
 20
475.6488048786
 30
0.0
 10
176.9519946764
 20
475.0610698118
 30
0.0
 10
176.7871193367
 20
474.5732032358
 30
0.0
 10
176.5605093841
 20
474.3417488899
 30
0.0
 10
176.4356616868
 20
474.2695931331
 30
0.0
  0
SPLINE
  5
491
100
AcDbEntity
  8
0
100
AcDbSpline
 62
7
  6
CONTINUOUS
 70
0
 71
3
 72
13
 73
9
 74
0
 42
0.0000001
 43
0.0000001
 44
0.0000000001
 40
0.0
 40
0.0
 40
0.0
 40
0.0
 40
0.2699323744
 40
0.5613230966
 40
0.6954668982
 40
0.8131376488
 40
0.9128505477
 40
1.0
 40
1.0
 40
1.0
 40
1.0
 10
175.1856874542
 20
120.6845215599
 30
0.0
 10
175.5724871843
 20
120.4612076836
 30
0.0
 10
176.2514112409
 20
119.7856527006
 30
0.0
 10
176.7846259112
 20
118.7437305313
 30
0.0
 10
176.9660758769
 20
117.8574456924
 30
0.0
 10
176.9519946764
 20
117.2697106256
 30
0.0
 10
176.7871193367
 20
116.7818440496
 30
0.0
 10
176.5605093841
 20
116.5503897037
 30
0.0
 10
176.4356616868
 20
116.478233947
 30
0.0
  0
SPLINE
  5
492
100
AcDbEntity
  8
0
100
AcDbSpline
 62
7
  6
CONTINUOUS
 70
0
 71
3
 72
9
 73
5
 74
0
 42
0.0000001
 43
0.0000001
 44
0.0000000001
 40
0.0
 40
0.0
 40
0.0
 40
0.0
 40
0.2372207046
 40
1.0
 40
1.0
 40
1.0
 40
1.0
 10
195.1332902332
 20
378.5241371232
 30
0.0
 10
194.8868492496
 20
376.309549291
 30
0.0
 10
194.1758824471
 20
366.938048658
 30
0.0
 10
194.6951181823
 20
357.4932189839
 30
0.0
 10
195.614117693
 20
350.3874742923
 30
0.0
  0
SPLINE
  5
493
100
AcDbEntity
  8
0
100
AcDbSpline
 62
7
  6
CONTINUOUS
 70
0
 71
3
 72
9
 73
5
 74
0
 42
0.0000001
 43
0.0000001
 44
0.0000000001
 40
0.0
 40
0.0
 40
0.0
 40
0.0
 40
0.2553426043
 40
1.0
 40
1.0
 40
1.0
 40
1.0
 10
195.614117693
 20
350.3874742923
 30
0.0
 10
200.0211613192
 20
347.5532529944
 30
0.0
 10
217.408106111
 20
336.6540317052
 30
0.0
 10
235.3121007922
 20
326.5735582537
 30
0.0
 10
248.9160586557
 20
319.614280559
 30
0.0
  0
SPLINE
  5
494
100
AcDbEntity
  8
0
100
AcDbSpline
 62
7
  6
CONTINUOUS
 70
0
 71
3
 72
8
 73
4
 74
0
 42
0.0000001
 43
0.0000001
 44
0.0000000001
 40
0.0
 40
0.0
 40
0.0
 40
0.0
 40
1.0
 40
1.0
 40
1.0
 40
1.0
 10
167.4586371194
 20
504.118882507
 30
0.0
 10
167.4586371004
 20
503.9591386983
 30
0.0
 10
167.4347713451
 20
503.7980120108
 30
0.0
 10
167.390539702
 20
503.6445139777
 30
0.0
  0
SPLINE
  5
495
100
AcDbEntity
  8
0
100
AcDbSpline
 62
7
  6
CONTINUOUS
 70
0
 71
3
 72
8
 73
4
 74
0
 42
0.0000001
 43
0.0000001
 44
0.0000000001
 40
0.0
 40
0.0
 40
0.0
 40
0.0
 40
1.0
 40
1.0
 40
1.0
 40
1.0
 10
167.2714263874
 20
503.2648628887
 30
0.0
 10
167.2069313574
 20
503.3957584161
 30
0.0
 10
167.1274987008
 20
503.5199446637
 30
0.0
 10
167.0380331205
 20
503.6352232737
 30
0.0
  0
SPLINE
  5
496
100
AcDbEntity
  8
0
100
AcDbSpline
 62
7
  6
CONTINUOUS
 70
0
 71
3
 72
9
 73
5
 74
0
 42
0.0000001
 43
0.0000001
 44
0.0000000001
 40
0.0
 40
0.0
 40
0.0
 40
0.0
 40
0.2325194521
 40
1.0
 40
1.0
 40
1.0
 40
1.0
 10
167.0380331205
 20
503.6352232737
 30
0.0
 10
166.9727010377
 20
503.719405276
 30
0.0
 10
166.6681002986
 20
504.0631556354
 30
0.0
 10
166.2934698685
 20
504.3387502361
 30
0.0
 10
165.9931373807
 20
504.5218042664
 30
0.0
  0
SPLINE
  5
497
100
AcDbEntity
  8
0
100
AcDbSpline
 62
7
  6
CONTINUOUS
 70
0
 71
3
 72
9
 73
5
 74
0
 42
0.0000001
 43
0.0000001
 44
0.0000000001
 40
0.0
 40
0.0
 40
0.0
 40
0.0
 40
0.538661937
 40
1.0
 40
1.0
 40
1.0
 40
1.0
 10
248.497746188
 20
536.6446338292
 30
0.0
 10
249.0782755175
 20
537.7159830734
 30
0.0
 10
249.958315265
 20
539.8176284926
 30
0.0
 10
250.3559130125
 20
542.0779989677
 30
0.0
 10
250.3559130125
 20
543.1216071883
 30
0.0
  0
SPLINE
  5
498
100
AcDbEntity
  8
0
100
AcDbSpline
 62
7
  6
CONTINUOUS
 70
0
 71
3
 72
9
 73
5
 74
0
 42
0.0000001
 43
0.0000001
 44
0.0000000001
 40
0.0
 40
0.0
 40
0.0
 40
0.0
 40
0.2376550356
 40
1.0
 40
1.0
 40
1.0
 40
1.0
 10
253.7885470991
 20
532.3631797273
 30
0.0
 10
253.7616336752
 20
532.5149074245
 30
0.0
 10
253.6008183546
 20
533.1450744026
 30
0.0
 10
253.2539984412
 20
533.7185143005
 30
0.0
 10
252.9364363656
 20
534.0973193364
 30
0.0
  0
SPLINE
  5
499
100
AcDbEntity
  8
0
100
AcDbSpline
 62
7
  6
CONTINUOUS
 70
0
 71
3
 72
9
 73
5
 74
0
 42
0.0000001
 43
0.0000001
 44
0.0000000001
 40
0.0
 40
0.0
 40
0.0
 40
0.0
 40
0.5178688606
 40
1.0
 40
1.0
 40
1.0
 40
1.0
 10
253.7276673252
 20
533.7029945736
 30
0.0
 10
254.5439778626
 20
535.1949730231
 30
0.0
 10
255.8220694627
 20
538.2498604966
 30
0.0
 10
256.3558690365
 20
541.5382760527
 30
0.0
 10
256.3558690365
 20
543.1216071883
 30
0.0
  0
SPLINE
  5
49A
100
AcDbEntity
  8
0
100
AcDbSpline
 62
7
  6
CONTINUOUS
 70
0
 71
3
 72
14
 73
10
 74
0
 42
0.0000001
 43
0.0000001
 44
0.0000000001
 40
0.0
 40
0.0
 40
0.0
 40
0.0
 40
0.1075646788
 40
0.2182960876
 40
0.3365938372
 40
0.4648885916
 40
0.7387415259
 40
0.8736869832
 40
1.0
 40
1.0
 40
1.0
 40
1.0
 10
252.3601879141
 20
551.2359207951
 30
0.0
 10
251.4220694698
 20
551.7775314786
 30
0.0
 10
249.2252034891
 20
552.4212090594
 30
0.0
 10
245.7952980589
 20
551.9360048427
 30
0.0
 10
242.5299213907
 20
550.317237065
 30
0.0
 10
238.4910379381
 20
546.9279727791
 30
0.0
 10
235.4179854262
 20
542.3054164997
 30
0.0
 10
233.6611876804
 20
537.1919980209
 30
0.0
 10
233.314961805
 20
534.5551147156
 30
0.0
 10
233.314961805
 20
533.2830681496
 30
0.0
  0
SPLINE
  5
49B
100
AcDbEntity
  8
0
100
AcDbSpline
 62
7
  6
CONTINUOUS
 70
0
 71
3
 72
11
 73
7
 74
0
 42
0.0000001
 43
0.0000001
 44
0.0000000001
 40
0.0
 40
0.0
 40
0.0
 40
0.0
 40
0.2637093767
 40
0.5148493733
 40
0.758763762
 40
1.0
 40
1.0
 40
1.0
 40
1.0
 10
256.3558690365
 20
543.1216071883
 30
0.0
 10
256.3558690365
 20
543.9526954226
 30
0.0
 10
256.2154033943
 20
545.5810623594
 30
0.0
 10
255.4938389054
 20
547.8848733421
 30
0.0
 10
254.2238834809
 20
549.8643867765
 30
0.0
 10
253.0185990942
 20
550.8557955226
 30
0.0
 10
252.3601879141
 20
551.2359207951
 30
0.0
  0
SPLINE
  5
49C
100
AcDbEntity
  8
0
100
AcDbSpline
 62
7
  6
CONTINUOUS
 70
0
 71
3
 72
11
 73
7
 74
0
 42
0.0000001
 43
0.0000001
 44
0.0000000001
 40
0.0
 40
0.0
 40
0.0
 40
0.0
 40
0.2637093767
 40
0.5148493733
 40
0.758763762
 40
1.0
 40
1.0
 40
1.0
 40
1.0
 10
233.314961805
 20
533.2830681496
 30
0.0
 10
233.314961805
 20
532.4519799153
 30
0.0
 10
233.4554274472
 20
530.8236129785
 30
0.0
 10
234.1769919361
 20
528.5198019958
 30
0.0
 10
235.4469473606
 20
526.5402885614
 30
0.0
 10
236.6522317473
 20
525.5488798153
 30
0.0
 10
237.3106429275
 20
525.1687545428
 30
0.0
  0
SPLINE
  5
49D
100
AcDbEntity
  8
0
100
AcDbSpline
 62
7
  6
CONTINUOUS
 70
0
 71
3
 72
9
 73
5
 74
0
 42
0.0000001
 43
0.0000001
 44
0.0000000001
 40
0.0
 40
0.0
 40
0.0
 40
0.0
 40
0.2164552357
 40
1.0
 40
1.0
 40
1.0
 40
1.0
 10
240.3105700388
 20
530.3648982684
 30
0.0
 10
240.3396342417
 20
530.3481184226
 30
0.0
 10
240.4777985874
 20
530.2772965218
 30
0.0
 10
240.6308497071
 20
530.2378848589
 30
0.0
 10
240.7511147429
 20
530.2207146247
 30
0.0
  0
SPLINE
  5
49E
100
AcDbEntity
  8
0
100
AcDbSpline
 62
7
  6
CONTINUOUS
 70
0
 71
3
 72
9
 73
5
 74
0
 42
0.0000001
 43
0.0000001
 44
0.0000000001
 40
0.0
 40
0.0
 40
0.0
 40
0.0
 40
0.6034051195
 40
1.0
 40
1.0
 40
1.0
 40
1.0
 10
239.314917829
 20
533.2830681496
 30
0.0
 10
239.314917829
 20
532.7686165042
 30
0.0
 10
239.3877028946
 20
531.9115683919
 30
0.0
 10
239.687175032
 20
531.0952344433
 30
0.0
 10
239.868898433
 20
530.810088937
 30
0.0
  0
SPLINE
  5
49F
100
AcDbEntity
  8
0
100
AcDbSpline
 62
7
  6
CONTINUOUS
 70
0
 71
3
 72
9
 73
5
 74
0
 42
0.0000001
 43
0.0000001
 44
0.0000000001
 40
0.0
 40
0.0
 40
0.0
 40
0.0
 40
0.319365259
 40
1.0
 40
1.0
 40
1.0
 40
1.0
 10
239.868898433
 20
530.810088937
 30
0.0
 10
239.9049930969
 20
530.7534521409
 30
0.0
 10
240.0257490105
 20
530.5813113469
 30
0.0
 10
240.1866120992
 20
530.4364637991
 30
0.0
 10
240.3105700388
 20
530.3648982684
 30
0.0
  0
SPLINE
  5
4A0
100
AcDbEntity
  8
0
100
AcDbSpline
 62
7
  6
CONTINUOUS
 70
0
 71
3
 72
16
 73
12
 74
0
 42
0.0000001
 43
0.0000001
 44
0.0000000001
 40
0.0
 40
0.0
 40
0.0
 40
0.0
 40
0.0373229461
 40
0.0692277343
 40
0.1119908415
 40
0.2281938821
 40
0.3745556457
 40
0.5378605845
 40
0.7051381184
 40
0.8635521113
 40
1.0
 40
1.0
 40
1.0
 40
1.0
 10
249.3602608028
 20
546.0397770695
 30
0.0
 10
249.1691808507
 20
546.1500946356
 30
0.0
 10
248.746981624
 20
546.2300310203
 30
0.0
 10
248.088223494
 20
546.1632710445
 30
0.0
 10
246.9961803629
 20
545.8528100912
 30
0.0
 10
245.4131031435
 20
544.9367133096
 30
0.0
 10
243.5384536592
 20
543.2368690158
 30
0.0
 10
241.8103400098
 20
540.9910413502
 30
0.0
 10
240.4365057609
 20
538.4326235636
 30
0.0
 10
239.5565838779
 20
535.8334317723
 30
0.0
 10
239.314917829
 20
534.0896954904
 30
0.0
 10
239.314917829
 20
533.2830681496
 30
0.0
  0
SPLINE
  5
4A1
100
AcDbEntity
  8
0
100
AcDbSpline
 62
7
  6
CONTINUOUS
 70
0
 71
3
 72
10
 73
6
 74
0
 42
0.0000001
 43
0.0000001
 44
0.0000000001
 40
0.0
 40
0.0
 40
0.0
 40
0.0
 40
0.3976579424
 40
0.6910575484
 40
1.0
 40
1.0
 40
1.0
 40
1.0
 10
250.3559130125
 20
543.1216071883
 30
0.0
 10
250.3559130125
 20
543.5429755114
 30
0.0
 10
250.3007431446
 20
544.2821310705
 30
0.0
 10
250.0179401144
 20
545.2961289031
 30
0.0
 10
249.6437672237
 20
545.876098264
 30
0.0
 10
249.3602608028
 20
546.0397770695
 30
0.0
  0
SPLINE
  5
4A2
100
AcDbEntity
  8
0
100
AcDbSpline
 62
7
  6
CONTINUOUS
 70
0
 71
3
 72
9
 73
5
 74
0
 42
0.0000001
 43
0.0000001
 44
0.0000000001
 40
0.0
 40
0.0
 40
0.0
 40
0.0
 40
0.4781708146
 40
1.0
 40
1.0
 40
1.0
 40
1.0
 10
291.1512113265
 20
477.0472535325
 30
0.0
 10
291.5329006431
 20
476.8029180217
 30
0.0
 10
292.2546965213
 20
476.1581897654
 30
0.0
 10
292.7106776658
 20
475.303926459
 30
0.0
 10
292.8771699926
 20
474.8382186123
 30
0.0
  0
SPLINE
  5
4A3
100
AcDbEntity
  8
0
100
AcDbSpline
 62
7
  6
CONTINUOUS
 70
0
 71
3
 72
9
 73
5
 74
0
 42
0.0000001
 43
0.0000001
 44
0.0000000001
 40
0.0
 40
0.0
 40
0.0
 40
0.0
 40
0.4781708146
 40
1.0
 40
1.0
 40
1.0
 40
1.0
 10
172.3567775018
 20
545.6317002919
 30
0.0
 10
172.7384668184
 20
545.3873647811
 30
0.0
 10
173.4602626966
 20
544.7426365248
 30
0.0
 10
173.9162438411
 20
543.8883732184
 30
0.0
 10
174.0827361679
 20
543.4226653717
 30
0.0
  0
SPLINE
  5
4A4
100
AcDbEntity
  8
0
100
AcDbSpline
 62
7
  6
CONTINUOUS
 70
0
 71
3
 72
13
 73
9
 74
0
 42
0.0000001
 43
0.0000001
 44
0.0000000001
 40
0.0
 40
0.0
 40
0.0
 40
0.0
 40
0.0602944718
 40
0.1465364929
 40
0.2564844488
 40
0.3859298195
 40
0.6838791958
 40
1.0
 40
1.0
 40
1.0
 40
1.0
 10
123.66567288
 20
328.2713344092
 30
0.0
 10
123.5298881549
 20
328.3497279833
 30
0.0
 10
123.2688637268
 20
328.643835856
 30
0.0
 10
122.9300872881
 20
329.2152889243
 30
0.0
 10
122.5704225528
 20
329.9845242901
 30
0.0
 10
122.0504274332
 20
331.2811081832
 30
0.0
 10
121.4203797993
 20
333.1102366912
 30
0.0
 10
120.929765842
 20
334.6295620784
 30
0.0
 10
120.6745987428
 20
335.4109972642
 30
0.0
  0
SPLINE
  5
4A5
100
AcDbEntity
  8
0
100
AcDbSpline
 62
7
  6
CONTINUOUS
 70
0
 71
3
 72
9
 73
5
 74
0
 42
0.0000001
 43
0.0000001
 44
0.0000000001
 40
0.0
 40
0.0
 40
0.0
 40
0.0
 40
0.2684059169
 40
1.0
 40
1.0
 40
1.0
 40
1.0
 10
251.1997797738
 20
467.9843444443
 30
0.0
 10
251.3090907471
 20
467.9177189042
 30
0.0
 10
251.7070048252
 20
467.6561117171
 30
0.0
 10
252.0720634587
 20
467.3326432594
 30
0.0
 10
252.2793591436
 20
467.0519635641
 30
0.0
  0
SPLINE
  5
4A6
100
AcDbEntity
  8
0
100
AcDbSpline
 62
7
  6
CONTINUOUS
 70
0
 71
3
 72
9
 73
5
 74
0
 42
0.0000001
 43
0.0000001
 44
0.0000000001
 40
0.0
 40
0.0
 40
0.0
 40
0.0
 40
0.2666301384
 40
1.0
 40
1.0
 40
1.0
 40
1.0
 10
252.2793591436
 20
467.0519635641
 30
0.0
 10
252.3416753986
 20
466.9675869526
 30
0.0
 10
252.5544075133
 20
466.6366116873
 30
0.0
 10
252.6652793977
 20
466.236930793
 30
0.0
 10
252.6652795125
 20
465.9484187057
 30
0.0
  0
SPLINE
  5
4A7
100
AcDbEntity
  8
0
100
AcDbSpline
 62
7
  6
CONTINUOUS
 70
0
 71
3
 72
13
 73
9
 74
0
 42
0.0000001
 43
0.0000001
 44
0.0000000001
 40
0.0
 40
0.0
 40
0.0
 40
0.0
 40
0.0871546865
 40
0.1867797444
 40
0.3043458698
 40
0.4384930943
 40
0.7300038827
 40
1.0
 40
1.0
 40
1.0
 40
1.0
 10
214.3788526571
 20
482.2674588248
 30
0.0
 10
214.3788525423
 20
482.556024153
 30
0.0
 10
214.5529723386
 20
483.1799084533
 30
0.0
 10
215.2305589028
 20
483.9551020795
 30
0.0
 10
216.2338200475
 20
484.5692590941
 30
0.0
 10
217.9507354915
 20
485.1396693379
 30
0.0
 10
220.2959137254
 20
485.2728441796
 30
0.0
 10
222.1314817521
 20
484.7436544696
 30
0.0
 10
222.9153907679
 20
484.3139746251
 30
0.0
  0
SPLINE
  5
4A8
100
AcDbEntity
  8
0
100
AcDbSpline
 62
7
  6
CONTINUOUS
 70
0
 71
3
 72
13
 73
9
 74
0
 42
0.0000001
 43
0.0000001
 44
0.0000000001
 40
0.0
 40
0.0
 40
0.0
 40
0.0
 40
0.0602944718
 40
0.1465364929
 40
0.2564844488
 40
0.3859298195
 40
0.6838791958
 40
1.0
 40
1.0
 40
1.0
 40
1.0
 10
146.6467389473
 20
315.0035098873
 30
0.0
 10
146.5109542222
 20
315.0819034614
 30
0.0
 10
146.2499297941
 20
315.3760113341
 30
0.0
 10
145.9111533554
 20
315.9474644024
 30
0.0
 10
145.5514886201
 20
316.7166997682
 30
0.0
 10
145.0314935005
 20
318.0132836612
 30
0.0
 10
144.4014458666
 20
319.8424121692
 30
0.0
 10
143.9108319093
 20
321.3617375563
 30
0.0
 10
143.6556648101
 20
322.1431727421
 30
0.0
  0
SPLINE
  5
4A9
100
AcDbEntity
  8
0
100
AcDbSpline
 62
7
  6
CONTINUOUS
 70
0
 71
3
 72
13
 73
9
 74
0
 42
0.0000001
 43
0.0000001
 44
0.0000000001
 40
0.0
 40
0.0
 40
0.0
 40
0.0
 40
0.0602944718
 40
0.1465364929
 40
0.2564844488
 40
0.3859298195
 40
0.6838791958
 40
1.0
 40
1.0
 40
1.0
 40
1.0
 10
169.6278050145
 20
301.7356853654
 30
0.0
 10
169.4920202894
 20
301.8140789395
 30
0.0
 10
169.2309958613
 20
302.1081868123
 30
0.0
 10
168.8922194225
 20
302.6796398809
 30
0.0
 10
168.532554687
 20
303.448875247
 30
0.0
 10
168.0125595673
 20
304.7454591406
 30
0.0
 10
167.3825119333
 20
306.5745876492
 30
0.0
 10
166.8918979759
 20
308.0939130368
 30
0.0
 10
166.6367308766
 20
308.8753482228
 30
0.0
  0
SPLINE
  5
4AA
100
AcDbEntity
  8
0
100
AcDbSpline
 62
7
  6
CONTINUOUS
 70
0
 71
3
 72
9
 73
5
 74
0
 42
0.0000001
 43
0.0000001
 44
0.0000000001
 40
0.0
 40
0.0
 40
0.0
 40
0.0
 40
0.2684059169
 40
1.0
 40
1.0
 40
1.0
 40
1.0
 10
260.7456815762
 20
473.4956405215
 30
0.0
 10
260.8549925495
 20
473.4290149815
 30
0.0
 10
261.2529066276
 20
473.1674077945
 30
0.0
 10
261.6179652611
 20
472.8439393368
 30
0.0
 10
261.8252609459
 20
472.5632596415
 30
0.0
  0
SPLINE
  5
4AB
100
AcDbEntity
  8
0
100
AcDbSpline
 62
7
  6
CONTINUOUS
 70
0
 71
3
 72
9
 73
5
 74
0
 42
0.0000001
 43
0.0000001
 44
0.0000000001
 40
0.0
 40
0.0
 40
0.0
 40
0.0
 40
0.2666301384
 40
1.0
 40
1.0
 40
1.0
 40
1.0
 10
261.8252609459
 20
472.5632596415
 30
0.0
 10
261.887577201
 20
472.47888303
 30
0.0
 10
262.1003093157
 20
472.1479077647
 30
0.0
 10
262.2111812001
 20
471.7482268704
 30
0.0
 10
262.2111813149
 20
471.4597147831
 30
0.0
  0
SPLINE
  5
4AC
100
AcDbEntity
  8
0
100
AcDbSpline
 62
7
  6
CONTINUOUS
 70
0
 71
3
 72
13
 73
9
 74
0
 42
0.0000001
 43
0.0000001
 44
0.0000000001
 40
0.0
 40
0.0
 40
0.0
 40
0.0
 40
0.0871546865
 40
0.1867797444
 40
0.3043458698
 40
0.4384930943
 40
0.7300038827
 40
1.0
 40
1.0
 40
1.0
 40
1.0
 10
233.4706562619
 20
493.2900509794
 30
0.0
 10
233.4706561471
 20
493.5786163077
 30
0.0
 10
233.6447759434
 20
494.2025006079
 30
0.0
 10
234.3223625076
 20
494.9776942341
 30
0.0
 10
235.3256236524
 20
495.5918512486
 30
0.0
 10
237.0425390963
 20
496.1622614925
 30
0.0
 10
239.3877173303
 20
496.2954363342
 30
0.0
 10
241.2232853569
 20
495.7662466241
 30
0.0
 10
242.0071943727
 20
495.3365667796
 30
0.0
  0
SPLINE
  5
4AD
100
AcDbEntity
  8
0
100
AcDbSpline
 62
7
  6
CONTINUOUS
 70
0
 71
3
 72
13
 73
9
 74
0
 42
0.0000001
 43
0.0000001
 44
0.0000000001
 40
0.0
 40
0.0
 40
0.0
 40
0.0
 40
0.0602944718
 40
0.1465364929
 40
0.2564844488
 40
0.3859298195
 40
0.6838791958
 40
1.0
 40
1.0
 40
1.0
 40
1.0
 10
192.6088710818
 20
288.4678608435
 30
0.0
 10
192.4730863567
 20
288.5462544176
 30
0.0
 10
192.2120619286
 20
288.8403622904
 30
0.0
 10
191.8732854897
 20
289.411815359
 30
0.0
 10
191.5136207543
 20
290.1810507251
 30
0.0
 10
190.9936256346
 20
291.4776346187
 30
0.0
 10
190.3635780006
 20
293.3067631273
 30
0.0
 10
189.8729640432
 20
294.8260885149
 30
0.0
 10
189.6177969438
 20
295.6075237009
 30
0.0
  0
SPLINE
  5
4AE
100
AcDbEntity
  8
0
100
AcDbSpline
 62
7
  6
CONTINUOUS
 70
0
 71
3
 72
9
 73
5
 74
0
 42
0.0000001
 43
0.0000001
 44
0.0000000001
 40
0.0
 40
0.0
 40
0.0
 40
0.0
 40
0.2684059169
 40
1.0
 40
1.0
 40
1.0
 40
1.0
 10
232.4612130832
 20
500.8478169656
 30
0.0
 10
232.5705240565
 20
500.7811914255
 30
0.0
 10
232.9684381346
 20
500.5195842385
 30
0.0
 10
233.3334967681
 20
500.1961157808
 30
0.0
 10
233.5407924529
 20
499.9154360855
 30
0.0
  0
SPLINE
  5
4AF
100
AcDbEntity
  8
0
100
AcDbSpline
 62
7
  6
CONTINUOUS
 70
0
 71
3
 72
9
 73
5
 74
0
 42
0.0000001
 43
0.0000001
 44
0.0000000001
 40
0.0
 40
0.0
 40
0.0
 40
0.0
 40
0.2666301384
 40
1.0
 40
1.0
 40
1.0
 40
1.0
 10
233.5407924529
 20
499.9154360855
 30
0.0
 10
233.6031087079
 20
499.831059474
 30
0.0
 10
233.8158408227
 20
499.5000842087
 30
0.0
 10
233.9267127071
 20
499.1004033144
 30
0.0
 10
233.9267128219
 20
498.8118912271
 30
0.0
  0
SPLINE
  5
4B0
100
AcDbEntity
  8
0
100
AcDbSpline
 62
7
  6
CONTINUOUS
 70
0
 71
3
 72
13
 73
9
 74
0
 42
0.0000001
 43
0.0000001
 44
0.0000000001
 40
0.0
 40
0.0
 40
0.0
 40
0.0
 40
0.0602944718
 40
0.1465364929
 40
0.2564844488
 40
0.3859298195
 40
0.6838791958
 40
1.0
 40
1.0
 40
1.0
 40
1.0
 10
215.5899371491
 20
275.2000363216
 30
0.0
 10
215.454152424
 20
275.2784298957
 30
0.0
 10
215.1931279958
 20
275.5725377685
 30
0.0
 10
214.854351557
 20
276.143990837
 30
0.0
 10
214.4946868216
 20
276.9132262032
 30
0.0
 10
213.9746917019
 20
278.2098100968
 30
0.0
 10
213.3446440679
 20
280.0389386053
 30
0.0
 10
212.8540301104
 20
281.558263993
 30
0.0
 10
212.5988630111
 20
282.339699179
 30
0.0
  0
SPLINE
  5
4B1
100
AcDbEntity
  8
0
100
AcDbSpline
 62
7
  6
CONTINUOUS
 70
0
 71
3
 72
13
 73
9
 74
0
 42
0.0000001
 43
0.0000001
 44
0.0000000001
 40
0.0
 40
0.0
 40
0.0
 40
0.0
 40
0.0602944718
 40
0.1465364929
 40
0.2564844488
 40
0.3859298195
 40
0.6838791958
 40
1.0
 40
1.0
 40
1.0
 40
1.0
 10
238.5710032164
 20
261.9322117997
 30
0.0
 10
238.4352184913
 20
262.0106053738
 30
0.0
 10
238.1741940631
 20
262.3047132466
 30
0.0
 10
237.8354176243
 20
262.8761663151
 30
0.0
 10
237.4757528889
 20
263.6454016813
 30
0.0
 10
236.9557577691
 20
264.9419855748
 30
0.0
 10
236.3257101351
 20
266.7711140834
 30
0.0
 10
235.8350961777
 20
268.2904394711
 30
0.0
 10
235.5799290784
 20
269.0718746571
 30
0.0
  0
SPLINE
  5
4B2
100
AcDbEntity
  8
0
100
AcDbSpline
 62
7
  6
CONTINUOUS
 70
0
 71
3
 72
9
 73
5
 74
0
 42
0.0000001
 43
0.0000001
 44
0.0000000001
 40
0.0
 40
0.0
 40
0.0
 40
0.0
 40
0.2684059169
 40
1.0
 40
1.0
 40
1.0
 40
1.0
 10
213.3694094784
 20
489.8252248111
 30
0.0
 10
213.4787204517
 20
489.758599271
 30
0.0
 10
213.8766345298
 20
489.496992084
 30
0.0
 10
214.2416931633
 20
489.1735236263
 30
0.0
 10
214.4489888482
 20
488.8928439309
 30
0.0
  0
SPLINE
  5
4B3
100
AcDbEntity
  8
0
100
AcDbSpline
 62
7
  6
CONTINUOUS
 70
0
 71
3
 72
9
 73
5
 74
0
 42
0.0000001
 43
0.0000001
 44
0.0000000001
 40
0.0
 40
0.0
 40
0.0
 40
0.0
 40
0.2666301384
 40
1.0
 40
1.0
 40
1.0
 40
1.0
 10
214.4489888482
 20
488.8928439309
 30
0.0
 10
214.5113051032
 20
488.8084673194
 30
0.0
 10
214.7240372179
 20
488.4774920541
 30
0.0
 10
214.8349091024
 20
488.0778111599
 30
0.0
 10
214.8349092171
 20
487.7892990726
 30
0.0
  0
SPLINE
  5
4B4
100
AcDbEntity
  8
0
100
AcDbSpline
 62
7
  6
CONTINUOUS
 70
0
 71
3
 72
13
 73
9
 74
0
 42
0.0000001
 43
0.0000001
 44
0.0000000001
 40
0.0
 40
0.0
 40
0.0
 40
0.0
 40
0.2699323744
 40
0.5613230966
 40
0.6954668982
 40
0.8131376488
 40
0.9128505477
 40
1.0
 40
1.0
 40
1.0
 40
1.0
 10
175.1856874542
 20
474.3933686604
 30
0.0
 10
174.7988877241
 20
474.6166825367
 30
0.0
 10
174.1199636675
 20
475.2922375197
 30
0.0
 10
173.5867489972
 20
476.334159689
 30
0.0
 10
173.4052990315
 20
477.2204445279
 30
0.0
 10
173.419380232
 20
477.8081795947
 30
0.0
 10
173.5842555717
 20
478.2960461707
 30
0.0
 10
173.8108655244
 20
478.5275005166
 30
0.0
 10
173.9357132216
 20
478.5996562733
 30
0.0
  0
SPLINE
  5
4B5
100
AcDbEntity
  8
0
100
AcDbSpline
 62
7
  6
CONTINUOUS
 70
0
 71
3
 72
13
 73
9
 74
0
 42
0.0000001
 43
0.0000001
 44
0.0000000001
 40
0.0
 40
0.0
 40
0.0
 40
0.0
 40
0.2699323744
 40
0.5613230966
 40
0.6954668982
 40
0.8131376488
 40
0.9128505477
 40
1.0
 40
1.0
 40
1.0
 40
1.0
 10
175.1856874542
 20
116.6020094742
 30
0.0
 10
174.7988877241
 20
116.8253233505
 30
0.0
 10
174.1199636675
 20
117.5008783335
 30
0.0
 10
173.5867489972
 20
118.5428005028
 30
0.0
 10
173.4052990315
 20
119.4290853417
 30
0.0
 10
173.419380232
 20
120.0168204085
 30
0.0
 10
173.5842555717
 20
120.5046869845
 30
0.0
 10
173.8108655244
 20
120.7361413304
 30
0.0
 10
173.9357132216
 20
120.8082970872
 30
0.0
  0
SPLINE
  5
4B6
100
AcDbEntity
  8
0
100
AcDbSpline
 62
7
  6
CONTINUOUS
 70
0
 71
3
 72
9
 73
5
 74
0
 42
0.0000001
 43
0.0000001
 44
0.0000000001
 40
0.0
 40
0.0
 40
0.0
 40
0.0
 40
0.2684059169
 40
1.0
 40
1.0
 40
1.0
 40
1.0
 10
222.9153112808
 20
495.3365208884
 30
0.0
 10
223.0246222541
 20
495.2698953483
 30
0.0
 10
223.4225363322
 20
495.0082881613
 30
0.0
 10
223.7875949657
 20
494.6848197036
 30
0.0
 10
223.9948906506
 20
494.4041400083
 30
0.0
  0
SPLINE
  5
4B7
100
AcDbEntity
  8
0
100
AcDbSpline
 62
7
  6
CONTINUOUS
 70
0
 71
3
 72
9
 73
5
 74
0
 42
0.0000001
 43
0.0000001
 44
0.0000000001
 40
0.0
 40
0.0
 40
0.0
 40
0.0
 40
0.2666301384
 40
1.0
 40
1.0
 40
1.0
 40
1.0
 10
223.9948906506
 20
494.4041400083
 30
0.0
 10
224.0572069056
 20
494.3197633968
 30
0.0
 10
224.2699390203
 20
493.9887881315
 30
0.0
 10
224.3808109047
 20
493.5891072373
 30
0.0
 10
224.3808110195
 20
493.3005951499
 30
0.0
  0
SPLINE
  5
4B8
100
AcDbEntity
  8
0
100
AcDbSpline
 62
7
  6
CONTINUOUS
 70
0
 71
3
 72
10
 73
6
 74
0
 42
0.0000001
 43
0.0000001
 44
0.0000000001
 40
0.0
 40
0.0
 40
0.0
 40
0.0
 40
0.5158344917
 40
0.7696828957
 40
1.0
 40
1.0
 40
1.0
 40
1.0
 10
240.9145825113
 20
527.156540209
 30
0.0
 10
242.6603837409
 20
526.6687143827
 30
0.0
 10
245.4388342539
 20
526.4658781127
 30
0.0
 10
248.9031905262
 20
527.1088428904
 30
0.0
 10
250.4984846642
 20
527.7547790809
 30
0.0
 10
251.1994029491
 20
528.1594520258
 30
0.0
  0
SPLINE
  5
4B9
100
AcDbEntity
  8
0
100
AcDbSpline
 62
7
  6
CONTINUOUS
 70
0
 71
3
 72
9
 73
5
 74
0
 42
0.0000001
 43
0.0000001
 44
0.0000000001
 40
0.0
 40
0.0
 40
0.0
 40
0.0
 40
0.4491683742
 40
1.0
 40
1.0
 40
1.0
 40
1.0
 10
133.8549963906
 20
572.4941742364
 30
0.0
 10
133.8547900098
 20
572.7667502687
 30
0.0
 10
134.0931806209
 20
573.3751514221
 30
0.0
 10
134.5904752853
 20
573.7558824442
 30
0.0
 10
134.8799620862
 20
573.9230167289
 30
0.0
  0
SPLINE
  5
4BA
100
AcDbEntity
  8
0
100
AcDbSpline
 62
7
  6
CONTINUOUS
 70
0
 71
3
 72
9
 73
5
 74
0
 42
0.0000001
 43
0.0000001
 44
0.0000000001
 40
0.0
 40
0.0
 40
0.0
 40
0.0
 40
0.2684059169
 40
1.0
 40
1.0
 40
1.0
 40
1.0
 10
194.6308427878
 20
522.6886973325
 30
0.0
 10
194.7401537611
 20
522.6220717924
 30
0.0
 10
195.1380678392
 20
522.3604646053
 30
0.0
 10
195.5031264727
 20
522.0369961476
 30
0.0
 10
195.7104221576
 20
521.7563164523
 30
0.0
  0
SPLINE
  5
4BB
100
AcDbEntity
  8
0
100
AcDbSpline
 62
7
  6
CONTINUOUS
 70
0
 71
3
 72
9
 73
5
 74
0
 42
0.0000001
 43
0.0000001
 44
0.0000000001
 40
0.0
 40
0.0
 40
0.0
 40
0.0
 40
0.2666301384
 40
1.0
 40
1.0
 40
1.0
 40
1.0
 10
195.7104221576
 20
521.7563164523
 30
0.0
 10
195.7727384126
 20
521.6719398408
 30
0.0
 10
195.9854705273
 20
521.3409645755
 30
0.0
 10
196.0963424117
 20
520.9412836813
 30
0.0
 10
196.0963425265
 20
520.6527715939
 30
0.0
  0
SPLINE
  5
4BC
100
AcDbEntity
  8
0
100
AcDbSpline
 62
7
  6
CONTINUOUS
 70
0
 71
3
 72
9
 73
5
 74
0
 42
0.0000001
 43
0.0000001
 44
0.0000000001
 40
0.0
 40
0.0
 40
0.0
 40
0.0
 40
0.2316366607
 40
1.0
 40
1.0
 40
1.0
 40
1.0
 10
140.7800927657
 20
572.0928162789
 30
0.0
 10
140.7556831327
 20
572.1600750658
 30
0.0
 10
140.6263206949
 20
572.4418538127
 30
0.0
 10
140.4120620509
 20
572.6785664609
 30
0.0
 10
140.2295462376
 20
572.8302887025
 30
0.0
  0
SPLINE
  5
4BD
100
AcDbEntity
  8
0
100
AcDbSpline
 62
7
  6
CONTINUOUS
 70
0
 71
3
 72
11
 73
7
 74
0
 42
0.0000001
 43
0.0000001
 44
0.0000000001
 40
0.0
 40
0.0
 40
0.0
 40
0.0
 40
0.2253720354
 40
0.4875920429
 40
0.7566893094
 40
1.0
 40
1.0
 40
1.0
 40
1.0
 10
140.2295462376
 20
572.8302887025
 30
0.0
 10
139.9054490603
 20
573.0997050856
 30
0.0
 10
139.0639139964
 20
573.5103647678
 30
0.0
 10
137.6567982148
 20
573.7503669517
 30
0.0
 10
136.1988540142
 20
573.6489798549
 30
0.0
 10
135.274004955
 20
573.3340137102
 30
0.0
 10
134.8799620862
 20
573.1065143118
 30
0.0
  0
SPLINE
  5
4BE
100
AcDbEntity
  8
0
100
AcDbSpline
 62
7
  6
CONTINUOUS
 70
0
 71
3
 72
12
 73
8
 74
0
 42
0.0000001
 43
0.0000001
 44
0.0000000001
 40
0.0
 40
0.0
 40
0.0
 40
0.0
 40
0.1402211719
 40
0.2573538847
 40
0.4801725839
 40
0.7241947744
 40
1.0
 40
1.0
 40
1.0
 40
1.0
 10
241.5890219687
 20
529.9593237554
 30
0.0
 10
241.7269486761
 20
529.8796935352
 30
0.0
 10
241.9629638979
 20
529.6871032039
 30
0.0
 10
242.1754606053
 20
529.1647345838
 30
0.0
 10
242.0537502308
 20
528.4743239771
 30
0.0
 10
241.6033020576
 20
527.7515421269
 30
0.0
 10
241.1656012882
 20
527.343946334
 30
0.0
 10
240.9145825113
 20
527.156540209
 30
0.0
  0
SPLINE
  5
4BF
100
AcDbEntity
  8
0
100
AcDbSpline
 62
7
  6
CONTINUOUS
 70
0
 71
3
 72
8
 73
4
 74
0
 42
0.0000001
 43
0.0000001
 44
0.0000000001
 40
0.0
 40
0.0
 40
0.0
 40
0.0
 40
1.0
 40
1.0
 40
1.0
 40
1.0
 10
224.8097813342
 20
509.3188415128
 30
0.0
 10
224.8097813679
 20
509.4702854997
 30
0.0
 10
224.8308416803
 20
509.6229707789
 30
0.0
 10
224.8707340223
 20
509.7690662347
 30
0.0
  0
SPLINE
  5
4C0
100
AcDbEntity
  8
0
100
AcDbSpline
 62
7
  6
CONTINUOUS
 70
0
 71
3
 72
9
 73
5
 74
0
 42
0.0000001
 43
0.0000001
 44
0.0000000001
 40
0.0
 40
0.0
 40
0.0
 40
0.0
 40
0.2397153053
 40
1.0
 40
1.0
 40
1.0
 40
1.0
 10
224.8707340223
 20
509.7690662347
 30
0.0
 10
224.8880498936
 20
509.832481165
 30
0.0
 10
224.9749213927
 20
510.093009515
 30
0.0
 10
225.1178642819
 20
510.3331419102
 30
0.0
 10
225.2455888166
 20
510.4979294825
 30
0.0
  0
SPLINE
  5
4C1
100
AcDbEntity
  8
0
100
AcDbSpline
 62
7
  6
CONTINUOUS
 70
0
 71
3
 72
9
 73
5
 74
0
 42
0.0000001
 43
0.0000001
 44
0.0000000001
 40
0.0
 40
0.0
 40
0.0
 40
0.0
 40
0.2316902968
 40
1.0
 40
1.0
 40
1.0
 40
1.0
 10
225.2455888166
 20
510.4979294825
 30
0.0
 10
225.3093105229
 20
510.5801419196
 30
0.0
 10
225.6061964512
 20
510.9180414491
 30
0.0
 10
225.9752357985
 20
511.1875818926
 30
0.0
 10
226.2739529437
 20
511.3600452873
 30
0.0
  0
SPLINE
  5
4C2
100
AcDbEntity
  8
0
100
AcDbSpline
 62
7
  6
CONTINUOUS
 70
0
 71
3
 72
9
 73
5
 74
0
 42
0.0000001
 43
0.0000001
 44
0.0000000001
 40
0.0
 40
0.0
 40
0.0
 40
0.0
 40
0.2684059169
 40
1.0
 40
1.0
 40
1.0
 40
1.0
 10
175.5390391831
 20
511.6661051779
 30
0.0
 10
175.6483501563
 20
511.5994796378
 30
0.0
 10
176.0462642344
 20
511.3378724508
 30
0.0
 10
176.411322868
 20
511.0144039931
 30
0.0
 10
176.6186185528
 20
510.7337242978
 30
0.0
  0
SPLINE
  5
4C3
100
AcDbEntity
  8
0
100
AcDbSpline
 62
7
  6
CONTINUOUS
 70
0
 71
3
 72
9
 73
5
 74
0
 42
0.0000001
 43
0.0000001
 44
0.0000000001
 40
0.0
 40
0.0
 40
0.0
 40
0.0
 40
0.2666301384
 40
1.0
 40
1.0
 40
1.0
 40
1.0
 10
176.6186185528
 20
510.7337242978
 30
0.0
 10
176.6809348078
 20
510.6493476863
 30
0.0
 10
176.8936669226
 20
510.318372421
 30
0.0
 10
177.004538807
 20
509.9186915267
 30
0.0
 10
177.0045389218
 20
509.6301794394
 30
0.0
  0
SPLINE
  5
4C4
100
AcDbEntity
  8
0
100
AcDbSpline
 62
7
  6
CONTINUOUS
 70
0
 71
3
 72
9
 73
5
 74
0
 42
0.0000001
 43
0.0000001
 44
0.0000000001
 40
0.0
 40
0.0
 40
0.0
 40
0.0
 40
0.5171521897
 40
1.0
 40
1.0
 40
1.0
 40
1.0
 10
239.1768842978
 20
261.964003558
 30
0.0
 10
239.08267386
 20
261.9096114622
 30
0.0
 10
238.8782165362
 20
261.8271591161
 30
0.0
 10
238.6589647366
 20
261.8814283412
 30
0.0
 10
238.5710032164
 20
261.9322117997
 30
0.0
  0
SPLINE
  5
4C5
100
AcDbEntity
  8
0
100
AcDbSpline
 62
7
  6
CONTINUOUS
 70
0
 71
3
 72
9
 73
5
 74
0
 42
0.0000001
 43
0.0000001
 44
0.0000000001
 40
0.0
 40
0.0
 40
0.0
 40
0.0
 40
0.2546742638
 40
1.0
 40
1.0
 40
1.0
 40
1.0
 10
249.3968865727
 20
347.1957439283
 30
0.0
 10
244.9055596361
 20
350.0471825103
 30
0.0
 10
227.1563759824
 20
361.0631119401
 30
0.0
 10
208.9479707522
 20
371.3432969896
 30
0.0
 10
195.1332902332
 20
378.5241371232
 30
0.0
  0
SPLINE
  5
4C6
100
AcDbEntity
  8
0
100
AcDbSpline
 62
7
  6
CONTINUOUS
 70
0
 71
3
 72
9
 73
5
 74
0
 42
0.0000001
 43
0.0000001
 44
0.0000000001
 40
0.0
 40
0.0
 40
0.0
 40
0.0
 40
0.2367597658
 40
1.0
 40
1.0
 40
1.0
 40
1.0
 10
248.9160586557
 20
319.614280559
 30
0.0
 10
249.2437778606
 20
321.7698215801
 30
0.0
 10
250.293475907
 20
330.9245028151
 30
0.0
 10
250.0866324228
 20
340.2010206094
 30
0.0
 10
249.3968865727
 20
347.1957439283
 30
0.0
  0
SPLINE
  5
4C7
100
AcDbEntity
  8
0
100
AcDbSpline
 62
7
  6
CONTINUOUS
 70
0
 71
3
 72
9
 73
5
 74
0
 42
0.0000001
 43
0.0000001
 44
0.0000000001
 40
0.0
 40
0.0
 40
0.0
 40
0.0
 40
0.5171521897
 40
1.0
 40
1.0
 40
1.0
 40
1.0
 10
216.1958182306
 20
275.2318280799
 30
0.0
 10
216.1016077927
 20
275.1774359841
 30
0.0
 10
215.8971504689
 20
275.094983638
 30
0.0
 10
215.6778986693
 20
275.1492528631
 30
0.0
 10
215.5899371491
 20
275.2000363216
 30
0.0
  0
SPLINE
  5
4C8
100
AcDbEntity
  8
0
100
AcDbSpline
 62
7
  6
CONTINUOUS
 70
0
 71
3
 72
9
 73
5
 74
0
 42
0.0000001
 43
0.0000001
 44
0.0000000001
 40
0.0
 40
0.0
 40
0.0
 40
0.0
 40
0.5171521897
 40
1.0
 40
1.0
 40
1.0
 40
1.0
 10
193.2147521633
 20
288.4996526018
 30
0.0
 10
193.1205417254
 20
288.445260506
 30
0.0
 10
192.9160844017
 20
288.3628081599
 30
0.0
 10
192.696832602
 20
288.417077385
 30
0.0
 10
192.6088710818
 20
288.4678608435
 30
0.0
  0
SPLINE
  5
4C9
100
AcDbEntity
  8
0
100
AcDbSpline
 62
7
  6
CONTINUOUS
 70
0
 71
3
 72
9
 73
5
 74
0
 42
0.0000001
 43
0.0000001
 44
0.0000000001
 40
0.0
 40
0.0
 40
0.0
 40
0.0
 40
0.5171521897
 40
1.0
 40
1.0
 40
1.0
 40
1.0
 10
170.233686096
 20
301.7674771237
 30
0.0
 10
170.1394756581
 20
301.7130850279
 30
0.0
 10
169.9350183344
 20
301.6306326818
 30
0.0
 10
169.7157665347
 20
301.6849019069
 30
0.0
 10
169.6278050145
 20
301.7356853654
 30
0.0
  0
SPLINE
  5
4CA
100
AcDbEntity
  8
0
100
AcDbSpline
 62
7
  6
CONTINUOUS
 70
0
 71
3
 72
9
 73
5
 74
0
 42
0.0000001
 43
0.0000001
 44
0.0000000001
 40
0.0
 40
0.0
 40
0.0
 40
0.0
 40
0.5171521897
 40
1.0
 40
1.0
 40
1.0
 40
1.0
 10
147.2526200287
 20
315.0353016456
 30
0.0
 10
147.1584095909
 20
314.9809095498
 30
0.0
 10
146.9539522671
 20
314.8984572037
 30
0.0
 10
146.7347004675
 20
314.9527264288
 30
0.0
 10
146.6467389473
 20
315.0035098873
 30
0.0
  0
SPLINE
  5
4CB
100
AcDbEntity
  8
0
100
AcDbSpline
 62
7
  6
CONTINUOUS
 70
0
 71
3
 72
9
 73
5
 74
0
 42
0.0000001
 43
0.0000001
 44
0.0000000001
 40
0.0
 40
0.0
 40
0.0
 40
0.0
 40
0.5171521897
 40
1.0
 40
1.0
 40
1.0
 40
1.0
 10
124.2715539615
 20
328.3031261675
 30
0.0
 10
124.1773435236
 20
328.2487340717
 30
0.0
 10
123.9728861998
 20
328.1662817256
 30
0.0
 10
123.7536344002
 20
328.2205509508
 30
0.0
 10
123.66567288
 20
328.2713344092
 30
0.0
  0
SPLINE
  5
4CC
100
AcDbEntity
  8
0
100
AcDbSpline
 62
7
  6
CONTINUOUS
 70
0
 71
3
 72
9
 73
5
 74
0
 42
0.0000001
 43
0.0000001
 44
0.0000000001
 40
0.0
 40
0.0
 40
0.0
 40
0.0
 40
0.5171521897
 40
1.0
 40
1.0
 40
1.0
 40
1.0
 10
101.2904878942
 20
341.5709506895
 30
0.0
 10
101.1962774563
 20
341.5165585936
 30
0.0
 10
100.9918201326
 20
341.4341062475
 30
0.0
 10
100.7725683329
 20
341.4883754727
 30
0.0
 10
100.6846068127
 20
341.5391589312
 30
0.0
  0
SPLINE
  5
4CD
100
AcDbEntity
  8
0
100
AcDbSpline
 62
7
  6
CONTINUOUS
 70
0
 71
3
 72
9
 73
5
 74
0
 42
0.0000001
 43
0.0000001
 44
0.0000000001
 40
0.0
 40
0.0
 40
0.0
 40
0.0
 40
0.5171521897
 40
1.0
 40
1.0
 40
1.0
 40
1.0
 10
239.1768842978
 20
290.5415881575
 30
0.0
 10
239.08267386
 20
290.4871960617
 30
0.0
 10
238.8782165362
 20
290.4047437156
 30
0.0
 10
238.6589647366
 20
290.4590129407
 30
0.0
 10
238.5710032164
 20
290.5097963992
 30
0.0
  0
SPLINE
  5
4CE
100
AcDbEntity
  8
0
100
AcDbSpline
 62
7
  6
CONTINUOUS
 70
0
 71
3
 72
9
 73
5
 74
0
 42
0.0000001
 43
0.0000001
 44
0.0000000001
 40
0.0
 40
0.0
 40
0.0
 40
0.0
 40
0.5171521897
 40
1.0
 40
1.0
 40
1.0
 40
1.0
 10
216.1958182306
 20
303.8094126794
 30
0.0
 10
216.1016077927
 20
303.7550205836
 30
0.0
 10
215.8971504689
 20
303.6725682375
 30
0.0
 10
215.6778986693
 20
303.7268374627
 30
0.0
 10
215.5899371491
 20
303.7776209211
 30
0.0
  0
SPLINE
  5
4CF
100
AcDbEntity
  8
0
100
AcDbSpline
 62
7
  6
CONTINUOUS
 70
0
 71
3
 72
9
 73
5
 74
0
 42
0.0000001
 43
0.0000001
 44
0.0000000001
 40
0.0
 40
0.0
 40
0.0
 40
0.0
 40
0.5171521897
 40
1.0
 40
1.0
 40
1.0
 40
1.0
 10
193.2147521633
 20
317.0772372013
 30
0.0
 10
193.1205417254
 20
317.0228451055
 30
0.0
 10
192.9160844017
 20
316.9403927594
 30
0.0
 10
192.696832602
 20
316.9946619846
 30
0.0
 10
192.6088710818
 20
317.045445443
 30
0.0
  0
SPLINE
  5
4D0
100
AcDbEntity
  8
0
100
AcDbSpline
 62
7
  6
CONTINUOUS
 70
0
 71
3
 72
9
 73
5
 74
0
 42
0.0000001
 43
0.0000001
 44
0.0000000001
 40
0.0
 40
0.0
 40
0.0
 40
0.0
 40
0.5171521897
 40
1.0
 40
1.0
 40
1.0
 40
1.0
 10
170.233686096
 20
330.3450617233
 30
0.0
 10
170.1394756581
 20
330.2906696274
 30
0.0
 10
169.9350183344
 20
330.2082172813
 30
0.0
 10
169.7157665347
 20
330.2624865065
 30
0.0
 10
169.6278050145
 20
330.313269965
 30
0.0
  0
SPLINE
  5
4D1
100
AcDbEntity
  8
0
100
AcDbSpline
 62
7
  6
CONTINUOUS
 70
0
 71
3
 72
9
 73
5
 74
0
 42
0.0000001
 43
0.0000001
 44
0.0000000001
 40
0.0
 40
0.0
 40
0.0
 40
0.0
 40
0.5171521897
 40
1.0
 40
1.0
 40
1.0
 40
1.0
 10
147.2526200287
 20
343.6128862452
 30
0.0
 10
147.1584095909
 20
343.5584941493
 30
0.0
 10
146.9539522671
 20
343.4760418032
 30
0.0
 10
146.7347004675
 20
343.5303110284
 30
0.0
 10
146.6467389473
 20
343.5810944869
 30
0.0
  0
SPLINE
  5
4D2
100
AcDbEntity
  8
0
100
AcDbSpline
 62
7
  6
CONTINUOUS
 70
0
 71
3
 72
9
 73
5
 74
0
 42
0.0000001
 43
0.0000001
 44
0.0000000001
 40
0.0
 40
0.0
 40
0.0
 40
0.0
 40
0.5171521897
 40
1.0
 40
1.0
 40
1.0
 40
1.0
 10
124.2715539615
 20
356.8807107671
 30
0.0
 10
124.1773435236
 20
356.8263186712
 30
0.0
 10
123.9728861998
 20
356.7438663252
 30
0.0
 10
123.7536344002
 20
356.7981355503
 30
0.0
 10
123.66567288
 20
356.8489190088
 30
0.0
  0
SPLINE
  5
4D3
100
AcDbEntity
  8
0
100
AcDbSpline
 62
7
  6
CONTINUOUS
 70
0
 71
3
 72
9
 73
5
 74
0
 42
0.0000001
 43
0.0000001
 44
0.0000000001
 40
0.0
 40
0.0
 40
0.0
 40
0.0
 40
0.5171521897
 40
1.0
 40
1.0
 40
1.0
 40
1.0
 10
101.2904878942
 20
370.148535289
 30
0.0
 10
101.1962774563
 20
370.0941431932
 30
0.0
 10
100.9918201326
 20
370.0116908471
 30
0.0
 10
100.7725683329
 20
370.0659600722
 30
0.0
 10
100.6846068127
 20
370.1167435307
 30
0.0
  0
SPLINE
  5
4D4
100
AcDbEntity
  8
0
100
AcDbSpline
 62
7
  6
CONTINUOUS
 70
0
 71
3
 72
8
 73
4
 74
0
 42
0.0000001
 43
0.0000001
 44
0.0000000001
 40
0.0
 40
0.0
 40
0.0
 40
0.0
 40
1.0
 40
1.0
 40
1.0
 40
1.0
 10
195.6488805499
 20
268.7982861218
 30
0.0
 10
195.6488805306
 20
268.8362953853
 30
0.0
 10
195.6581346908
 20
268.8750054538
 30
0.0
 10
195.674138291
 20
268.9094813714
 30
0.0
  0
SPLINE
  5
4D5
100
AcDbEntity
  8
0
100
AcDbSpline
 62
7
  6
CONTINUOUS
 70
0
 71
3
 72
9
 73
5
 74
0
 42
0.0000001
 43
0.0000001
 44
0.0000000001
 40
0.0
 40
0.0
 40
0.0
 40
0.0
 40
0.2254913534
 40
1.0
 40
1.0
 40
1.0
 40
1.0
 10
195.674138291
 20
268.9094813714
 30
0.0
 10
195.682933777
 20
268.9284291364
 30
0.0
 10
195.7309373824
 20
269.0083077493
 30
0.0
 10
195.8064791895
 20
269.068591329
 30
0.0
 10
195.8686174751
 20
269.1044666707
 30
0.0
  0
SPLINE
  5
4D6
100
AcDbEntity
  8
0
100
AcDbSpline
 62
7
  6
CONTINUOUS
 70
0
 71
3
 72
9
 73
5
 74
0
 42
0.0000001
 43
0.0000001
 44
0.0000000001
 40
0.0
 40
0.0
 40
0.0
 40
0.0
 40
0.4491683742
 40
1.0
 40
1.0
 40
1.0
 40
1.0
 10
322.6532930048
 20
463.4938927795
 30
0.0
 10
322.653086624
 20
463.7664688118
 30
0.0
 10
322.8914772351
 20
464.3748699652
 30
0.0
 10
323.3887718995
 20
464.7556009873
 30
0.0
 10
323.6782587004
 20
464.922735272
 30
0.0
  0
SPLINE
  5
4D7
100
AcDbEntity
  8
0
100
AcDbSpline
 62
7
  6
CONTINUOUS
 70
0
 71
3
 72
9
 73
5
 74
0
 42
0.0000001
 43
0.0000001
 44
0.0000000001
 40
0.0
 40
0.0
 40
0.0
 40
0.0
 40
0.2684059169
 40
1.0
 40
1.0
 40
1.0
 40
1.0
 10
185.0849409855
 20
517.1774012552
 30
0.0
 10
185.1942519587
 20
517.1107757151
 30
0.0
 10
185.5921660369
 20
516.8491685281
 30
0.0
 10
185.9572246704
 20
516.5257000705
 30
0.0
 10
186.1645203552
 20
516.2450203752
 30
0.0
  0
SPLINE
  5
4D8
100
AcDbEntity
  8
0
100
AcDbSpline
 62
7
  6
CONTINUOUS
 70
0
 71
3
 72
9
 73
5
 74
0
 42
0.0000001
 43
0.0000001
 44
0.0000000001
 40
0.0
 40
0.0
 40
0.0
 40
0.0
 40
0.2666301384
 40
1.0
 40
1.0
 40
1.0
 40
1.0
 10
186.1645203552
 20
516.2450203752
 30
0.0
 10
186.2268366102
 20
516.1606437637
 30
0.0
 10
186.439568725
 20
515.8296684984
 30
0.0
 10
186.5504406094
 20
515.4299876041
 30
0.0
 10
186.5504407241
 20
515.1414755168
 30
0.0
  0
SPLINE
  5
4D9
100
AcDbEntity
  8
0
100
AcDbSpline
 62
7
  6
CONTINUOUS
 70
0
 71
3
 72
10
 73
6
 74
0
 42
0.0000001
 43
0.0000001
 44
0.0000000001
 40
0.0
 40
0.0
 40
0.0
 40
0.0
 40
0.4919515747
 40
0.7546403535
 40
1.0
 40
1.0
 40
1.0
 40
1.0
 10
252.9364363656
 20
534.0973193364
 30
0.0
 10
252.1911648654
 20
533.7645749453
 30
0.0
 10
250.9495905345
 20
533.4519201276
 30
0.0
 10
249.3027707686
 20
533.3636525465
 30
0.0
 10
248.4330495515
 20
533.5036375243
 30
0.0
 10
248.0805168757
 20
533.7071677551
 30
0.0
  0
SPLINE
  5
4DA
100
AcDbEntity
  8
0
100
AcDbSpline
 62
7
  6
CONTINUOUS
 70
0
 71
3
 72
11
 73
7
 74
0
 42
0.0000001
 43
0.0000001
 44
0.0000000001
 40
0.0
 40
0.0
 40
0.0
 40
0.0
 40
0.2487299952
 40
0.4833503768
 40
0.7184685331
 40
1.0
 40
1.0
 40
1.0
 40
1.0
 10
247.877388927
 20
535.5881081604
 30
0.0
 10
247.7827363173
 20
535.4389144875
 30
0.0
 10
247.6258924096
 20
535.129927207
 30
0.0
 10
247.5150629385
 20
534.6242243094
 30
0.0
 10
247.6183065378
 20
534.0758756888
 30
0.0
 10
247.9073226162
 20
533.8071592454
 30
0.0
 10
248.0805168757
 20
533.7071677551
 30
0.0
  0
SPLINE
  5
4DB
100
AcDbEntity
  8
0
100
AcDbSpline
 62
7
  6
CONTINUOUS
 70
0
 71
3
 72
9
 73
5
 74
0
 42
0.0000001
 43
0.0000001
 44
0.0000000001
 40
0.0
 40
0.0
 40
0.0
 40
0.0
 40
0.2316366607
 40
1.0
 40
1.0
 40
1.0
 40
1.0
 10
329.57838938
 20
463.092534822
 30
0.0
 10
329.5539797469
 20
463.1597936088
 30
0.0
 10
329.4246173091
 20
463.4415723558
 30
0.0
 10
329.2103586651
 20
463.678285004
 30
0.0
 10
329.0278428519
 20
463.8300072456
 30
0.0
  0
SPLINE
  5
4DC
100
AcDbEntity
  8
0
100
AcDbSpline
 62
7
  6
CONTINUOUS
 70
0
 71
3
 72
11
 73
7
 74
0
 42
0.0000001
 43
0.0000001
 44
0.0000000001
 40
0.0
 40
0.0
 40
0.0
 40
0.0
 40
0.2253720354
 40
0.4875920429
 40
0.7566893094
 40
1.0
 40
1.0
 40
1.0
 40
1.0
 10
329.0278428519
 20
463.8300072456
 30
0.0
 10
328.7037456745
 20
464.0994236287
 30
0.0
 10
327.8622106107
 20
464.5100833109
 30
0.0
 10
326.455094829
 20
464.7500854947
 30
0.0
 10
324.9971506284
 20
464.648698398
 30
0.0
 10
324.0723015693
 20
464.3337322533
 30
0.0
 10
323.6782587004
 20
464.1062328549
 30
0.0
  0
SPLINE
  5
4DD
100
AcDbEntity
  8
0
100
AcDbSpline
 62
7
  6
CONTINUOUS
 70
0
 71
3
 72
11
 73
7
 74
0
 42
0.0000001
 43
0.0000001
 44
0.0000000001
 40
0.0
 40
0.0
 40
0.0
 40
0.0
 40
0.2177648073
 40
0.4508950352
 40
0.7103684932
 40
1.0
 40
1.0
 40
1.0
 40
1.0
 10
253.8352267662
 20
523.9135459777
 30
0.0
 10
253.8350906147
 20
523.57078243
 30
0.0
 10
253.7089598153
 20
522.8562654046
 30
0.0
 10
253.1670039127
 20
521.8606702905
 30
0.0
 10
252.3105946967
 20
520.9609373787
 30
0.0
 10
251.5942092286
 20
520.4673187308
 30
0.0
 10
251.1994029491
 20
520.2393785796
 30
0.0
  0
SPLINE
  5
4DE
100
AcDbEntity
  8
0
100
AcDbSpline
 62
7
  6
CONTINUOUS
 70
0
 71
3
 72
15
 73
11
 74
0
 42
0.0000001
 43
0.0000001
 44
0.0000000001
 40
0.0
 40
0.0
 40
0.0
 40
0.0
 40
0.1288281168
 40
0.2705730231
 40
0.4178855965
 40
0.5623847015
 40
0.6962026063
 40
0.8135940147
 40
0.9130657345
 40
1.0
 40
1.0
 40
1.0
 40
1.0
 10
251.1994029491
 20
520.2393785796
 30
0.0
 10
250.5331933491
 20
519.8547445837
 30
0.0
 10
249.0247654679
 20
519.2323793517
 30
0.0
 10
246.5664138287
 20
518.7404940281
 30
0.0
 10
243.9660466779
 20
518.668582724
 30
0.0
 10
241.4368331094
 20
519.0238146993
 30
0.0
 10
239.1806007185
 20
519.7775989926
 30
0.0
 10
237.3732909669
 20
520.8788084874
 30
0.0
 10
236.1490190017
 20
522.2711338363
 30
0.0
 10
235.8353978797
 20
523.3944341557
 30
0.0
 10
235.8356040792
 20
523.9135447629
 30
0.0
  0
SPLINE
  5
4DF
100
AcDbEntity
  8
0
100
AcDbSpline
 62
7
  6
CONTINUOUS
 70
0
 71
3
 72
11
 73
7
 74
0
 42
0.0000001
 43
0.0000001
 44
0.0000000001
 40
0.0
 40
0.0
 40
0.0
 40
0.0
 40
0.2372524156
 40
0.4999996414
 40
0.7627470637
 40
1.0
 40
1.0
 40
1.0
 40
1.0
 10
187.7364729232
 20
533.6091664087
 30
0.0
 10
188.238443314
 20
533.898977419
 30
0.0
 10
189.4056982872
 20
534.321948715
 30
0.0
 10
191.2720022965
 20
534.5241699338
 30
0.0
 10
193.1383084742
 20
534.3219568314
 30
0.0
 10
194.3055671526
 20
533.898991432
 30
0.0
 10
194.807540735
 20
533.6091834054
 30
0.0
  0
SPLINE
  5
4E0
100
AcDbEntity
  8
0
100
AcDbSpline
 62
7
  6
CONTINUOUS
 70
0
 71
3
 72
11
 73
7
 74
0
 42
0.0000001
 43
0.0000001
 44
0.0000000001
 40
0.0
 40
0.0
 40
0.0
 40
0.0
 40
0.2897401754
 40
0.5490872382
 40
0.7822293331
 40
1.0
 40
1.0
 40
1.0
 40
1.0
 10
251.1994029491
 20
528.1594520258
 30
0.0
 10
251.5943590614
 20
528.3874786825
 30
0.0
 10
252.3108470543
 20
528.8809057124
 30
0.0
 10
253.1671124855
 20
529.7808656062
 30
0.0
 10
253.7085984861
 20
530.7763789482
 30
0.0
 10
253.8354032293
 20
531.4908443774
 30
0.0
 10
253.83540432
 20
531.8336186533
 30
0.0
  0
SPLINE
  5
4E1
100
AcDbEntity
  8
0
100
AcDbSpline
 62
7
  6
CONTINUOUS
 70
0
 71
3
 72
11
 73
7
 74
0
 42
0.0000001
 43
0.0000001
 44
0.0000000001
 40
0.0
 40
0.0
 40
0.0
 40
0.0
 40
0.2468154305
 40
0.4840505575
 40
0.7320881341
 40
1.0
 40
1.0
 40
1.0
 40
1.0
 10
238.9045261819
 20
524.493655946
 30
0.0
 10
239.172329505
 20
524.416907068
 30
0.0
 10
239.751811408
 20
524.3936996017
 30
0.0
 10
240.4936117748
 20
524.8539111663
 30
0.0
 10
240.8954001779
 20
525.6378499952
 30
0.0
 10
240.9567485337
 20
526.2255006336
 30
0.0
 10
240.9567485337
 20
526.5278964048
 30
0.0
  0
SPLINE
  5
4E2
100
AcDbEntity
  8
0
100
AcDbSpline
 62
7
  6
CONTINUOUS
 70
0
 71
3
 72
9
 73
5
 74
0
 42
0.0000001
 43
0.0000001
 44
0.0000000001
 40
0.0
 40
0.0
 40
0.0
 40
0.0
 40
0.2692686161
 40
1.0
 40
1.0
 40
1.0
 40
1.0
 10
223.0919297409
 20
517.2795532246
 30
0.0
 10
223.1965863605
 20
517.219131064
 30
0.0
 10
223.5759047031
 20
516.9799418794
 30
0.0
 10
223.9194295416
 20
516.6766128613
 30
0.0
 10
224.1203337448
 20
516.4174069317
 30
0.0
  0
SPLINE
  5
4E3
100
AcDbEntity
  8
0
100
AcDbSpline
 62
7
  6
CONTINUOUS
 70
0
 71
3
 72
9
 73
5
 74
0
 42
0.0000001
 43
0.0000001
 44
0.0000000001
 40
0.0
 40
0.0
 40
0.0
 40
0.0
 40
0.2628667648
 40
1.0
 40
1.0
 40
1.0
 40
1.0
 10
224.1203337448
 20
516.4174069317
 30
0.0
 10
224.1644908333
 20
516.3604356041
 30
0.0
 10
224.3232580388
 20
516.1369270024
 30
0.0
 10
224.4419898186
 20
515.8834089926
 30
0.0
 10
224.4952170207
 20
515.6884147398
 30
0.0
  0
SPLINE
  5
4E4
100
AcDbEntity
  8
0
100
AcDbSpline
 62
7
  6
CONTINUOUS
 70
0
 71
3
 72
8
 73
4
 74
0
 42
0.0000001
 43
0.0000001
 44
0.0000000001
 40
0.0
 40
0.0
 40
0.0
 40
0.0
 40
1.0
 40
1.0
 40
1.0
 40
1.0
 10
224.4952170207
 20
515.6884147398
 30
0.0
 10
224.5350844632
 20
515.5423630626
 30
0.0
 10
224.5561308237
 20
515.3897276532
 30
0.0
 10
224.5561307901
 20
515.2383324571
 30
0.0
  0
SPLINE
  5
4E5
100
AcDbEntity
  8
0
100
AcDbSpline
 62
7
  6
CONTINUOUS
 70
0
 71
3
 72
9
 73
5
 74
0
 42
0.0000001
 43
0.0000001
 44
0.0000000001
 40
0.0
 40
0.0
 40
0.0
 40
0.0
 40
0.2658745184
 40
1.0
 40
1.0
 40
1.0
 40
1.0
 10
240.7511347195
 20
530.2206576676
 30
0.0
 10
240.8283681107
 20
530.2096270505
 30
0.0
 10
241.1170520953
 20
530.1597938074
 30
0.0
 10
241.4024628023
 20
530.0670313037
 30
0.0
 10
241.5890219687
 20
529.9593237554
 30
0.0
  0
SPLINE
  5
4E6
100
AcDbEntity
  8
0
100
AcDbSpline
 62
7
  6
CONTINUOUS
 70
0
 71
3
 72
13
 73
9
 74
0
 42
0.0000001
 43
0.0000001
 44
0.0000000001
 40
0.0
 40
0.0
 40
0.0
 40
0.0
 40
0.0871546865
 40
0.1867797444
 40
0.3043458698
 40
0.4384930943
 40
0.7300038827
 40
1.0
 40
1.0
 40
1.0
 40
1.0
 10
271.3010265573
 20
471.4491706126
 30
0.0
 10
271.3010264425
 20
471.7377359408
 30
0.0
 10
271.4751462388
 20
472.3616202411
 30
0.0
 10
272.152732803
 20
473.1368138673
 30
0.0
 10
273.1559939477
 20
473.7509708818
 30
0.0
 10
274.8729093917
 20
474.3213811256
 30
0.0
 10
277.2180876256
 20
474.4545559673
 30
0.0
 10
279.0536556523
 20
473.9253662573
 30
0.0
 10
279.8375646681
 20
473.4956864128
 30
0.0
  0
SPLINE
  5
4E7
100
AcDbEntity
  8
0
100
AcDbSpline
 62
7
  6
CONTINUOUS
 70
0
 71
3
 72
11
 73
7
 74
0
 42
0.0000001
 43
0.0000001
 44
0.0000000001
 40
0.0
 40
0.0
 40
0.0
 40
0.0
 40
0.2372524156
 40
0.4999996414
 40
0.7627470637
 40
1.0
 40
1.0
 40
1.0
 40
1.0
 10
226.2739529437
 20
511.3600452873
 30
0.0
 10
226.7759233346
 20
511.6498562976
 30
0.0
 10
227.9431783078
 20
512.0728275936
 30
0.0
 10
229.809482317
 20
512.2750488124
 30
0.0
 10
231.6757884947
 20
512.07283571
 30
0.0
 10
232.8430471731
 20
511.6498703107
 30
0.0
 10
233.3450207555
 20
511.3600622841
 30
0.0
  0
SPLINE
  5
4E8
100
AcDbEntity
  8
0
100
AcDbSpline
 62
7
  6
CONTINUOUS
 70
0
 71
3
 72
8
 73
4
 74
0
 42
0.0000001
 43
0.0000001
 44
0.0000000001
 40
0.0
 40
0.0
 40
0.0
 40
0.0
 40
1.0
 40
1.0
 40
1.0
 40
1.0
 10
240.9145825113
 20
527.156540209
 30
0.0
 10
240.9409272546
 20
526.9481803183
 30
0.0
 10
240.9567485337
 20
526.7379151886
 30
0.0
 10
240.9567485337
 20
526.5278964048
 30
0.0
  0
SPLINE
  5
4E9
100
AcDbEntity
  8
0
100
AcDbSpline
 62
7
  6
CONTINUOUS
 70
0
 71
3
 72
9
 73
5
 74
0
 42
0.0000001
 43
0.0000001
 44
0.0000000001
 40
0.0
 40
0.0
 40
0.0
 40
0.0
 40
0.2692686161
 40
1.0
 40
1.0
 40
1.0
 40
1.0
 10
261.6294097614
 20
495.0304321032
 30
0.0
 10
261.734066381
 20
494.9700099427
 30
0.0
 10
262.1133847237
 20
494.7308207581
 30
0.0
 10
262.4569095621
 20
494.4274917399
 30
0.0
 10
262.6578137653
 20
494.1682858103
 30
0.0
  0
SPLINE
  5
4EA
100
AcDbEntity
  8
0
100
AcDbSpline
 62
7
  6
CONTINUOUS
 70
0
 71
3
 72
9
 73
5
 74
0
 42
0.0000001
 43
0.0000001
 44
0.0000000001
 40
0.0
 40
0.0
 40
0.0
 40
0.0
 40
0.2628667648
 40
1.0
 40
1.0
 40
1.0
 40
1.0
 10
262.6578137653
 20
494.1682858103
 30
0.0
 10
262.7019708538
 20
494.1113144827
 30
0.0
 10
262.8607380593
 20
493.887805881
 30
0.0
 10
262.9794698391
 20
493.6342878713
 30
0.0
 10
263.0326970412
 20
493.4392936185
 30
0.0
  0
SPLINE
  5
4EB
100
AcDbEntity
  8
0
100
AcDbSpline
 62
7
  6
CONTINUOUS
 70
0
 71
3
 72
8
 73
4
 74
0
 42
0.0000001
 43
0.0000001
 44
0.0000000001
 40
0.0
 40
0.0
 40
0.0
 40
0.0
 40
1.0
 40
1.0
 40
1.0
 40
1.0
 10
263.0326970412
 20
493.4392936185
 30
0.0
 10
263.0725644837
 20
493.2932419412
 30
0.0
 10
263.0936108443
 20
493.1406065318
 30
0.0
 10
263.0936108106
 20
492.9892113358
 30
0.0
  0
SPLINE
  5
4EC
100
AcDbEntity
  8
0
100
AcDbSpline
 62
7
  6
CONTINUOUS
 70
0
 71
3
 72
13
 73
9
 74
0
 42
0.0000001
 43
0.0000001
 44
0.0000000001
 40
0.0
 40
0.0
 40
0.0
 40
0.0
 40
0.0871546865
 40
0.1867797444
 40
0.3043458698
 40
0.4384930943
 40
0.7300038827
 40
1.0
 40
1.0
 40
1.0
 40
1.0
 10
261.7551247549
 20
465.9378745353
 30
0.0
 10
261.7551246401
 20
466.2264398635
 30
0.0
 10
261.9292444364
 20
466.8503241637
 30
0.0
 10
262.6068310006
 20
467.62551779
 30
0.0
 10
263.6100921453
 20
468.2396748045
 30
0.0
 10
265.3270075892
 20
468.8100850483
 30
0.0
 10
267.6721858232
 20
468.9432598901
 30
0.0
 10
269.5077538498
 20
468.41407018
 30
0.0
 10
270.2916628656
 20
467.9843903355
 30
0.0
  0
SPLINE
  5
4ED
100
AcDbEntity
  8
0
100
AcDbSpline
 62
7
  6
CONTINUOUS
 70
0
 71
3
 72
12
 73
8
 74
0
 42
0.0000001
 43
0.0000001
 44
0.0000000001
 40
0.0
 40
0.0
 40
0.0
 40
0.0
 40
0.2988701696
 40
0.582762274
 40
0.7080001883
 40
0.8183617407
 40
1.0
 40
1.0
 40
1.0
 40
1.0
 10
290.265239255
 20
473.3142644909
 30
0.0
 10
289.9862707102
 20
473.6384995934
 30
0.0
 10
289.5380482374
 20
474.3547956525
 30
0.0
 10
289.2244445475
 20
475.3347721182
 30
0.0
 10
289.1946972756
 20
476.0834066162
 30
0.0
 10
289.2932565341
 20
476.673325319
 30
0.0
 10
289.5560859724
 20
477.0550097276
 30
0.0
 10
289.7812107956
 20
477.1849860976
 30
0.0
  0
SPLINE
  5
4EE
100
AcDbEntity
  8
0
100
AcDbSpline
 62
7
  6
CONTINUOUS
 70
0
 71
3
 72
8
 73
4
 74
0
 42
0.0000001
 43
0.0000001
 44
0.0000000001
 40
0.0
 40
0.0
 40
0.0
 40
0.0
 40
1.0
 40
1.0
 40
1.0
 40
1.0
 10
186.2723013137
 20
531.5679626342
 30
0.0
 10
186.2723013474
 20
531.719406621
 30
0.0
 10
186.2933616597
 20
531.8720919003
 30
0.0
 10
186.3332540018
 20
532.018187356
 30
0.0
  0
SPLINE
  5
4EF
100
AcDbEntity
  8
0
100
AcDbSpline
 62
7
  6
CONTINUOUS
 70
0
 71
3
 72
9
 73
5
 74
0
 42
0.0000001
 43
0.0000001
 44
0.0000000001
 40
0.0
 40
0.0
 40
0.0
 40
0.0
 40
0.2397153053
 40
1.0
 40
1.0
 40
1.0
 40
1.0
 10
186.3332540018
 20
532.018187356
 30
0.0
 10
186.350569873
 20
532.0816022864
 30
0.0
 10
186.4374413722
 20
532.3421306364
 30
0.0
 10
186.5803842614
 20
532.5822630316
 30
0.0
 10
186.7081087961
 20
532.7470506038
 30
0.0
  0
SPLINE
  5
4F0
100
AcDbEntity
  8
0
100
AcDbSpline
 62
7
  6
CONTINUOUS
 70
0
 71
3
 72
9
 73
5
 74
0
 42
0.0000001
 43
0.0000001
 44
0.0000000001
 40
0.0
 40
0.0
 40
0.0
 40
0.0
 40
0.2316902968
 40
1.0
 40
1.0
 40
1.0
 40
1.0
 10
186.7081087961
 20
532.7470506038
 30
0.0
 10
186.7718305024
 20
532.829263041
 30
0.0
 10
187.0687164307
 20
533.1671625705
 30
0.0
 10
187.437755778
 20
533.4367030139
 30
0.0
 10
187.7364729232
 20
533.6091664087
 30
0.0
  0
SPLINE
  5
4F1
100
AcDbEntity
  8
0
100
AcDbSpline
 62
7
  6
CONTINUOUS
 70
0
 71
3
 72
13
 73
9
 74
0
 42
0.0000001
 43
0.0000001
 44
0.0000000001
 40
0.0
 40
0.0
 40
0.0
 40
0.0
 40
0.0871546865
 40
0.1867797444
 40
0.3043458698
 40
0.4384930943
 40
0.7300038827
 40
1.0
 40
1.0
 40
1.0
 40
1.0
 10
252.2092229525
 20
460.426578458
 30
0.0
 10
252.2092228377
 20
460.7151437862
 30
0.0
 10
252.3833426339
 20
461.3390280864
 30
0.0
 10
253.0609291982
 20
462.1142217127
 30
0.0
 10
254.0641903429
 20
462.7283787272
 30
0.0
 10
255.7811057868
 20
463.2987889711
 30
0.0
 10
258.1262840208
 20
463.4319638128
 30
0.0
 10
259.9618520475
 20
462.9027741027
 30
0.0
 10
260.7457610633
 20
462.4730942582
 30
0.0
  0
SPLINE
  5
4F2
100
AcDbEntity
  8
0
100
AcDbSpline
 62
7
  6
CONTINUOUS
 70
0
 71
3
 72
13
 73
9
 74
0
 42
0.0000001
 43
0.0000001
 44
0.0000000001
 40
0.0
 40
0.0
 40
0.0
 40
0.0
 40
0.0871546865
 40
0.1867797444
 40
0.3043458698
 40
0.4384930943
 40
0.7300038827
 40
1.0
 40
1.0
 40
1.0
 40
1.0
 10
148.2640138688
 20
531.4605156358
 30
0.0
 10
148.264013754
 20
531.749080964
 30
0.0
 10
148.4381335503
 20
532.3729652643
 30
0.0
 10
149.1157201145
 20
533.1481588905
 30
0.0
 10
150.1189812592
 20
533.762315905
 30
0.0
 10
151.8358967032
 20
534.3327261489
 30
0.0
 10
154.1810749371
 20
534.4659009906
 30
0.0
 10
156.0166429638
 20
533.9367112805
 30
0.0
 10
156.8005519796
 20
533.507031436
 30
0.0
  0
SPLINE
  5
4F3
100
AcDbEntity
  8
0
100
AcDbSpline
 62
7
  6
CONTINUOUS
 70
0
 71
3
 72
9
 73
5
 74
0
 42
0.0000001
 43
0.0000001
 44
0.0000000001
 40
0.0
 40
0.0
 40
0.0
 40
0.0
 40
0.2602994218
 40
1.0
 40
1.0
 40
1.0
 40
1.0
 10
132.4356081955
 20
523.1493932082
 30
0.0
 10
132.8915281399
 20
523.2469021947
 30
0.0
 10
134.6685027837
 20
523.4664352619
 30
0.0
 10
136.5469298637
 20
523.1212606308
 30
0.0
 10
137.7087483748
 20
522.4844392815
 30
0.0
  0
SPLINE
  5
4F4
100
AcDbEntity
  8
0
100
AcDbSpline
 62
7
  6
CONTINUOUS
 70
0
 71
3
 72
12
 73
8
 74
0
 42
0.0000001
 43
0.0000001
 44
0.0000000001
 40
0.0
 40
0.0
 40
0.0
 40
0.0
 40
0.2988701696
 40
0.582762274
 40
0.7080001883
 40
0.8183617407
 40
1.0
 40
1.0
 40
1.0
 40
1.0
 10
171.4708054303
 20
541.8987112503
 30
0.0
 10
171.1918368855
 20
542.2229463528
 30
0.0
 10
170.7436144127
 20
542.9392424119
 30
0.0
 10
170.4300107228
 20
543.9192188776
 30
0.0
 10
170.4002634509
 20
544.6678533756
 30
0.0
 10
170.4988227094
 20
545.2577720784
 30
0.0
 10
170.7616521477
 20
545.6394564869
 30
0.0
 10
170.986776971
 20
545.769432857
 30
0.0
  0
SPLINE
  5
4F5
100
AcDbEntity
  8
0
100
AcDbSpline
 62
7
  6
CONTINUOUS
 70
0
 71
3
 72
9
 73
5
 74
0
 42
0.0000001
 43
0.0000001
 44
0.0000000001
 40
0.0
 40
0.0
 40
0.0
 40
0.0
 40
0.2669746153
 40
1.0
 40
1.0
 40
1.0
 40
1.0
 10
128.1627670853
 20
527.9956894675
 30
0.0
 10
128.2656971768
 20
527.9329531042
 30
0.0
 10
128.6430280506
 20
527.6859620022
 30
0.0
 10
128.9905078945
 20
527.3844977034
 30
0.0
 10
129.1954997597
 20
527.1246525818
 30
0.0
  0
SPLINE
  5
4F6
100
AcDbEntity
  8
0
100
AcDbSpline
 62
7
  6
CONTINUOUS
 70
0
 71
3
 72
9
 73
5
 74
0
 42
0.0000001
 43
0.0000001
 44
0.0000000001
 40
0.0
 40
0.0
 40
0.0
 40
0.0
 40
0.2636757488
 40
1.0
 40
1.0
 40
1.0
 40
1.0
 10
129.1954997597
 20
527.1246525818
 30
0.0
 10
129.241816927
 20
527.0659415204
 30
0.0
 10
129.4073631524
 20
526.8356776107
 30
0.0
 10
129.5270985137
 20
526.5710375936
 30
0.0
 10
129.5776183364
 20
526.3684105344
 30
0.0
  0
SPLINE
  5
4F7
100
AcDbEntity
  8
0
100
AcDbSpline
 62
7
  6
CONTINUOUS
 70
0
 71
3
 72
8
 73
4
 74
0
 42
0.0000001
 43
0.0000001
 44
0.0000000001
 40
0.0
 40
0.0
 40
0.0
 40
0.0
 40
1.0
 40
1.0
 40
1.0
 40
1.0
 10
129.5776183364
 20
526.3684105344
 30
0.0
 10
129.6108236054
 20
526.2352294251
 30
0.0
 10
129.6282668403
 20
526.0970210166
 30
0.0
 10
129.628266824
 20
525.9597628738
 30
0.0
  0
SPLINE
  5
4F8
100
AcDbEntity
  8
0
100
AcDbSpline
 62
7
  6
CONTINUOUS
 70
0
 71
3
 72
13
 73
9
 74
0
 42
0.0000001
 43
0.0000001
 44
0.0000000001
 40
0.0
 40
0.0
 40
0.0
 40
0.0
 40
0.0871546865
 40
0.1867797444
 40
0.3043458698
 40
0.4384930943
 40
0.7300038827
 40
1.0
 40
1.0
 40
1.0
 40
1.0
 10
138.7181120664
 20
525.9492195585
 30
0.0
 10
138.7181119516
 20
526.2377848867
 30
0.0
 10
138.8922317478
 20
526.861669187
 30
0.0
 10
139.5698183121
 20
527.6368628132
 30
0.0
 10
140.5730794568
 20
528.2510198277
 30
0.0
 10
142.2899949008
 20
528.8214300716
 30
0.0
 10
144.6351731347
 20
528.9546049133
 30
0.0
 10
146.4707411614
 20
528.4254152032
 30
0.0
 10
147.2546501772
 20
527.9957353587
 30
0.0
  0
SPLINE
  5
4F9
100
AcDbEntity
  8
0
100
AcDbSpline
 62
7
  6
CONTINUOUS
 70
0
 71
3
 72
9
 73
5
 74
0
 42
0.0000001
 43
0.0000001
 44
0.0000000001
 40
0.0
 40
0.0
 40
0.0
 40
0.0
 40
0.2684059169
 40
1.0
 40
1.0
 40
1.0
 40
1.0
 10
137.7086688877
 20
533.5069855448
 30
0.0
 10
137.817979861
 20
533.4403600047
 30
0.0
 10
138.2158939391
 20
533.1787528176
 30
0.0
 10
138.5809525726
 20
532.85528436
 30
0.0
 10
138.7882482574
 20
532.5746046646
 30
0.0
  0
SPLINE
  5
4FA
100
AcDbEntity
  8
0
100
AcDbSpline
 62
7
  6
CONTINUOUS
 70
0
 71
3
 72
9
 73
5
 74
0
 42
0.0000001
 43
0.0000001
 44
0.0000000001
 40
0.0
 40
0.0
 40
0.0
 40
0.0
 40
0.2666301384
 40
1.0
 40
1.0
 40
1.0
 40
1.0
 10
138.7882482574
 20
532.5746046646
 30
0.0
 10
138.8505645125
 20
532.4902280531
 30
0.0
 10
139.0632966272
 20
532.1592527878
 30
0.0
 10
139.1741685116
 20
531.7595718936
 30
0.0
 10
139.1741686264
 20
531.4710598062
 30
0.0
  0
SPLINE
  5
4FB
100
AcDbEntity
  8
0
100
AcDbSpline
 62
7
  6
CONTINUOUS
 70
0
 71
3
 72
9
 73
5
 74
0
 42
0.0000001
 43
0.0000001
 44
0.0000000001
 40
0.0
 40
0.0
 40
0.0
 40
0.0
 40
0.2684059169
 40
1.0
 40
1.0
 40
1.0
 40
1.0
 10
147.2545706901
 20
539.018281622
 30
0.0
 10
147.3638816634
 20
538.951656082
 30
0.0
 10
147.7617957415
 20
538.690048895
 30
0.0
 10
148.126854375
 20
538.3665804373
 30
0.0
 10
148.3341500598
 20
538.085900742
 30
0.0
  0
SPLINE
  5
4FC
100
AcDbEntity
  8
0
100
AcDbSpline
 62
7
  6
CONTINUOUS
 70
0
 71
3
 72
9
 73
5
 74
0
 42
0.0000001
 43
0.0000001
 44
0.0000000001
 40
0.0
 40
0.0
 40
0.0
 40
0.0
 40
0.2666301384
 40
1.0
 40
1.0
 40
1.0
 40
1.0
 10
148.3341500598
 20
538.085900742
 30
0.0
 10
148.3964663149
 20
538.0015241305
 30
0.0
 10
148.6091984296
 20
537.6705488652
 30
0.0
 10
148.720070314
 20
537.2708679709
 30
0.0
 10
148.7200704288
 20
536.9823558836
 30
0.0
  0
SPLINE
  5
4FD
100
AcDbEntity
  8
0
100
AcDbSpline
 62
7
  6
CONTINUOUS
 70
0
 71
3
 72
13
 73
9
 74
0
 42
0.0000001
 43
0.0000001
 44
0.0000000001
 40
0.0
 40
0.0
 40
0.0
 40
0.0
 40
0.0871546865
 40
0.1867797444
 40
0.3043458698
 40
0.4384930943
 40
0.7300038827
 40
1.0
 40
1.0
 40
1.0
 40
1.0
 10
157.8099156712
 20
536.9718117131
 30
0.0
 10
157.8099155564
 20
537.2603770413
 30
0.0
 10
157.9840353527
 20
537.8842613416
 30
0.0
 10
158.6616219169
 20
538.6594549678
 30
0.0
 10
159.6648830617
 20
539.2736119823
 30
0.0
 10
161.3817985056
 20
539.8440222262
 30
0.0
 10
163.7269767396
 20
539.9771970678
 30
0.0
 10
165.5625447662
 20
539.4480073578
 30
0.0
 10
166.346453782
 20
539.0183275133
 30
0.0
  0
SPLINE
  5
4FE
100
AcDbEntity
  8
0
100
AcDbSpline
 62
7
  6
CONTINUOUS
 70
0
 71
3
 72
9
 73
5
 74
0
 42
0.0000001
 43
0.0000001
 44
0.0000000001
 40
0.0
 40
0.0
 40
0.0
 40
0.0
 40
0.5174460133
 40
1.0
 40
1.0
 40
1.0
 40
1.0
 10
260.9231913627
 20
469.5020580609
 30
0.0
 10
260.6358202089
 20
469.7940622998
 30
0.0
 10
260.1887679296
 20
470.4660077004
 30
0.0
 10
259.9713873889
 20
471.2527043444
 30
0.0
 10
259.9672519651
 20
471.6347491989
 30
0.0
  0
SPLINE
  5
4FF
100
AcDbEntity
  8
0
100
AcDbSpline
 62
7
  6
CONTINUOUS
 70
0
 71
3
 72
9
 73
5
 74
0
 42
0.0000001
 43
0.0000001
 44
0.0000000001
 40
0.0
 40
0.0
 40
0.0
 40
0.0
 40
0.2743922525
 40
1.0
 40
1.0
 40
1.0
 40
1.0
 10
259.9672519651
 20
471.6347491989
 30
0.0
 10
259.9665873166
 20
471.6961517473
 30
0.0
 10
259.9744201214
 20
471.9194286594
 30
0.0
 10
260.0266068165
 20
472.1447369992
 30
0.0
 10
260.1004917709
 20
472.2893378819
 30
0.0
  0
SPLINE
  5
500
100
AcDbEntity
  8
0
100
AcDbSpline
 62
7
  6
CONTINUOUS
 70
0
 71
3
 72
9
 73
5
 74
0
 42
0.0000001
 43
0.0000001
 44
0.0000000001
 40
0.0
 40
0.0
 40
0.0
 40
0.0
 40
0.2684059169
 40
1.0
 40
1.0
 40
1.0
 40
1.0
 10
156.8004724925
 20
544.5295776993
 30
0.0
 10
156.9097834658
 20
544.4629521592
 30
0.0
 10
157.3076975439
 20
544.2013449722
 30
0.0
 10
157.6727561774
 20
543.8778765145
 30
0.0
 10
157.8800518622
 20
543.5971968192
 30
0.0
  0
SPLINE
  5
501
100
AcDbEntity
  8
0
100
AcDbSpline
 62
7
  6
CONTINUOUS
 70
0
 71
3
 72
9
 73
5
 74
0
 42
0.0000001
 43
0.0000001
 44
0.0000000001
 40
0.0
 40
0.0
 40
0.0
 40
0.0
 40
0.2666301384
 40
1.0
 40
1.0
 40
1.0
 40
1.0
 10
157.8800518622
 20
543.5971968192
 30
0.0
 10
157.9423681172
 20
543.5128202076
 30
0.0
 10
158.155100232
 20
543.1818449424
 30
0.0
 10
158.2659721164
 20
542.7821640481
 30
0.0
 10
158.2659722312
 20
542.4936519608
 30
0.0
  0
SPLINE
  5
502
100
AcDbEntity
  8
0
100
AcDbSpline
 62
7
  6
CONTINUOUS
 70
0
 71
3
 72
10
 73
6
 74
0
 42
0.0000001
 43
0.0000001
 44
0.0000000001
 40
0.0
 40
0.0
 40
0.0
 40
0.0
 40
0.5348816436
 40
0.7743865643
 40
1.0
 40
1.0
 40
1.0
 40
1.0
 10
124.1243233812
 20
361.3816973504
 30
0.0
 10
124.4216952304
 20
364.2293115621
 30
0.0
 10
125.3550039205
 20
368.3605667674
 30
0.0
 10
127.9141098055
 20
373.0925470182
 30
0.0
 10
129.5342113934
 20
375.0139615501
 30
0.0
 10
130.4138688656
 20
375.8413903954
 30
0.0
  0
SPLINE
  5
503
100
AcDbEntity
  8
0
100
AcDbSpline
 62
7
  6
CONTINUOUS
 70
0
 71
3
 72
13
 73
9
 74
0
 42
0.0000001
 43
0.0000001
 44
0.0000000001
 40
0.0
 40
0.0
 40
0.0
 40
0.0
 40
0.0871546865
 40
0.1867797444
 40
0.3043458698
 40
0.4384930943
 40
0.7300038827
 40
1.0
 40
1.0
 40
1.0
 40
1.0
 10
186.0943841642
 20
509.619635269
 30
0.0
 10
186.0943840494
 20
509.9082005972
 30
0.0
 10
186.2685038456
 20
510.5320848974
 30
0.0
 10
186.9460904099
 20
511.3072785236
 30
0.0
 10
187.9493515546
 20
511.9214355382
 30
0.0
 10
189.6662669985
 20
512.491845782
 30
0.0
 10
192.0114452324
 20
512.6250206238
 30
0.0
 10
193.8470132591
 20
512.0958309137
 30
0.0
 10
194.6309222749
 20
511.6661510692
 30
0.0
  0
SPLINE
  5
504
100
AcDbEntity
  8
0
100
AcDbSpline
 62
7
  6
CONTINUOUS
 70
0
 71
3
 72
13
 73
9
 74
0
 42
0.0000001
 43
0.0000001
 44
0.0000000001
 40
0.0
 40
0.0
 40
0.0
 40
0.0
 40
0.2699040481
 40
0.5613092475
 40
0.6954524627
 40
0.8131377821
 40
0.9128550148
 40
1.0
 40
1.0
 40
1.0
 40
1.0
 10
323.6782587004
 20
464.922735272
 30
0.0
 10
324.2197243533
 20
465.2353487464
 30
0.0
 10
325.514008788
 20
465.5856775081
 30
0.0
 10
327.1504782745
 20
465.5026845257
 30
0.0
 10
328.3521909342
 20
465.1024254637
 30
0.0
 10
329.0550048644
 20
464.6740541189
 30
0.0
 10
329.5313323316
 20
464.1326302373
 30
0.0
 10
329.652839626
 20
463.6957628212
 30
0.0
 10
329.652992472
 20
463.493892483
 30
0.0
  0
SPLINE
  5
505
100
AcDbEntity
  8
0
100
AcDbSpline
 62
7
  6
CONTINUOUS
 70
0
 71
3
 72
9
 73
5
 74
0
 42
0.0000001
 43
0.0000001
 44
0.0000000001
 40
0.0
 40
0.0
 40
0.0
 40
0.0
 40
0.2817857526
 40
1.0
 40
1.0
 40
1.0
 40
1.0
 10
323.6782587004
 20
464.1062328549
 30
0.0
 10
323.5662900997
 20
464.041588139
 30
0.0
 10
323.1843915957
 20
463.7909007615
 30
0.0
 10
322.8571378871
 20
463.4264594983
 30
0.0
 10
322.7378876898
 20
463.1192593834
 30
0.0
  0
SPLINE
  5
506
100
AcDbEntity
  8
0
100
AcDbSpline
 62
7
  6
CONTINUOUS
 70
0
 71
3
 72
9
 73
5
 74
0
 42
0.0000001
 43
0.0000001
 44
0.0000000001
 40
0.0
 40
0.0
 40
0.0
 40
0.0
 40
0.2817857526
 40
1.0
 40
1.0
 40
1.0
 40
1.0
 10
134.8799620862
 20
573.1065143118
 30
0.0
 10
134.7679934855
 20
573.041869596
 30
0.0
 10
134.3860949814
 20
572.7911822184
 30
0.0
 10
134.0588412729
 20
572.4267409552
 30
0.0
 10
133.9395910756
 20
572.1195408403
 30
0.0
  0
SPLINE
  5
507
100
AcDbEntity
  8
0
100
AcDbSpline
 62
7
  6
CONTINUOUS
 70
0
 71
3
 72
13
 73
9
 74
0
 42
0.0000001
 43
0.0000001
 44
0.0000000001
 40
0.0
 40
0.0
 40
0.0
 40
0.0
 40
0.2699040481
 40
0.5613092475
 40
0.6954524627
 40
0.8131377821
 40
0.9128550148
 40
1.0
 40
1.0
 40
1.0
 40
1.0
 10
134.8799620862
 20
573.9230167289
 30
0.0
 10
135.421427739
 20
574.2356302033
 30
0.0
 10
136.7157121738
 20
574.585958965
 30
0.0
 10
138.3521816603
 20
574.5029659827
 30
0.0
 10
139.55389432
 20
574.1027069206
 30
0.0
 10
140.2567082502
 20
573.6743355758
 30
0.0
 10
140.7330357173
 20
573.1329116942
 30
0.0
 10
140.8545430118
 20
572.6960442782
 30
0.0
 10
140.8546958578
 20
572.4941739399
 30
0.0
  0
SPLINE
  5
508
100
AcDbEntity
  8
0
100
AcDbSpline
 62
7
  6
CONTINUOUS
 70
0
 71
3
 72
9
 73
5
 74
0
 42
0.0000001
 43
0.0000001
 44
0.0000000001
 40
0.0
 40
0.0
 40
0.0
 40
0.0
 40
0.4999975881
 40
1.0
 40
1.0
 40
1.0
 40
1.0
 10
195.8686174751
 20
269.1044666707
 30
0.0
 10
196.0260295284
 20
269.1953480196
 30
0.0
 10
196.3989462267
 20
269.2673159939
 30
0.0
 10
196.7718634196
 20
269.1953503107
 30
0.0
 10
196.9292776469
 20
269.1044692202
 30
0.0
  0
SPLINE
  5
509
100
AcDbEntity
  8
0
100
AcDbSpline
 62
7
  6
CONTINUOUS
 70
0
 71
3
 72
9
 73
5
 74
0
 42
0.0000001
 43
0.0000001
 44
0.0000000001
 40
0.0
 40
0.0
 40
0.0
 40
0.0
 40
0.2634394645
 40
1.0
 40
1.0
 40
1.0
 40
1.0
 10
253.639509601
 20
349.645208819
 30
0.0
 10
253.8775572846
 20
347.2311635825
 30
0.0
 10
254.5362268407
 20
338.0481693889
 30
0.0
 10
254.1781124457
 20
328.7689514058
 30
0.0
 10
253.158681714
 20
322.0637454626
 30
0.0
  0
SPLINE
  5
50A
100
AcDbEntity
  8
0
100
AcDbSpline
 62
7
  6
CONTINUOUS
 70
0
 71
3
 72
9
 73
5
 74
0
 42
0.0000001
 43
0.0000001
 44
0.0000000001
 40
0.0
 40
0.0
 40
0.0
 40
0.0
 40
0.2453429251
 40
1.0
 40
1.0
 40
1.0
 40
1.0
 10
199.3759132688
 20
380.9736020388
 30
0.0
 10
203.9233865134
 20
378.609835585
 30
0.0
 10
222.3481768512
 20
368.7638443928
 30
0.0
 10
240.3306408025
 20
358.0946988051
 30
0.0
 10
253.639509601
 20
349.645208819
 30
0.0
  0
SPLINE
  5
50B
100
AcDbEntity
  8
0
100
AcDbSpline
 62
7
  6
CONTINUOUS
 70
0
 71
3
 72
13
 73
9
 74
0
 42
0.0000001
 43
0.0000001
 44
0.0000000001
 40
0.0
 40
0.0
 40
0.0
 40
0.0
 40
0.0602944718
 40
0.1465364929
 40
0.2564844488
 40
0.3859298195
 40
0.6838791958
 40
1.0
 40
1.0
 40
1.0
 40
1.0
 10
100.6846068127
 20
370.1167435307
 30
0.0
 10
100.5488220877
 20
370.1951371048
 30
0.0
 10
100.2877976596
 20
370.4892449774
 30
0.0
 10
99.9490212208
 20
371.0606980458
 30
0.0
 10
99.5893564855
 20
371.8299334116
 30
0.0
 10
99.0693613659
 20
373.1265173047
 30
0.0
 10
98.4393137321
 20
374.9556458126
 30
0.0
 10
97.9486997748
 20
376.4749711998
 30
0.0
 10
97.6935326755
 20
377.2564063856
 30
0.0
  0
SPLINE
  5
50C
100
AcDbEntity
  8
0
100
AcDbSpline
 62
7
  6
CONTINUOUS
 70
0
 71
3
 72
9
 73
5
 74
0
 42
0.0000001
 43
0.0000001
 44
0.0000000001
 40
0.0
 40
0.0
 40
0.0
 40
0.0
 40
0.2602994218
 40
1.0
 40
1.0
 40
1.0
 40
1.0
 10
245.9267190816
 20
457.6267521077
 30
0.0
 10
246.382639026
 20
457.7242610942
 30
0.0
 10
248.1596136698
 20
457.9437941614
 30
0.0
 10
250.0380407498
 20
457.5986195303
 30
0.0
 10
251.1998592609
 20
456.961798181
 30
0.0
  0
SPLINE
  5
50D
100
AcDbEntity
  8
0
100
AcDbSpline
 62
7
  6
CONTINUOUS
 70
0
 71
3
 72
13
 73
9
 74
0
 42
0.0000001
 43
0.0000001
 44
0.0000000001
 40
0.0
 40
0.0
 40
0.0
 40
0.0
 40
0.0602944718
 40
0.1465364929
 40
0.2564844488
 40
0.3859298195
 40
0.6838791958
 40
1.0
 40
1.0
 40
1.0
 40
1.0
 10
123.66567288
 20
356.8489190088
 30
0.0
 10
123.5298881549
 20
356.9273125828
 30
0.0
 10
123.2688637268
 20
357.2214204555
 30
0.0
 10
122.9300872881
 20
357.7928735238
 30
0.0
 10
122.5704225528
 20
358.5621088897
 30
0.0
 10
122.0504274332
 20
359.8586927827
 30
0.0
 10
121.4203797993
 20
361.6878212907
 30
0.0
 10
120.929765842
 20
363.2071466779
 30
0.0
 10
120.6745987428
 20
363.9885818637
 30
0.0
  0
SPLINE
  5
50E
100
AcDbEntity
  8
0
100
AcDbSpline
 62
7
  6
CONTINUOUS
 70
0
 71
3
 72
9
 73
5
 74
0
 42
0.0000001
 43
0.0000001
 44
0.0000000001
 40
0.0
 40
0.0
 40
0.0
 40
0.0
 40
0.2669746153
 40
1.0
 40
1.0
 40
1.0
 40
1.0
 10
241.6538779714
 20
462.473048367
 30
0.0
 10
241.7568080628
 20
462.4103120037
 30
0.0
 10
242.1341389367
 20
462.1633209017
 30
0.0
 10
242.4816187806
 20
461.8618566029
 30
0.0
 10
242.6866106458
 20
461.6020114812
 30
0.0
  0
SPLINE
  5
50F
100
AcDbEntity
  8
0
100
AcDbSpline
 62
7
  6
CONTINUOUS
 70
0
 71
3
 72
9
 73
5
 74
0
 42
0.0000001
 43
0.0000001
 44
0.0000000001
 40
0.0
 40
0.0
 40
0.0
 40
0.0
 40
0.2636757488
 40
1.0
 40
1.0
 40
1.0
 40
1.0
 10
242.6866106458
 20
461.6020114812
 30
0.0
 10
242.7329278131
 20
461.5433004199
 30
0.0
 10
242.8984740385
 20
461.3130365102
 30
0.0
 10
243.0182093998
 20
461.0483964931
 30
0.0
 10
243.0687292224
 20
460.8457694338
 30
0.0
  0
SPLINE
  5
510
100
AcDbEntity
  8
0
100
AcDbSpline
 62
7
  6
CONTINUOUS
 70
0
 71
3
 72
8
 73
4
 74
0
 42
0.0000001
 43
0.0000001
 44
0.0000000001
 40
0.0
 40
0.0
 40
0.0
 40
0.0
 40
1.0
 40
1.0
 40
1.0
 40
1.0
 10
243.0687292224
 20
460.8457694338
 30
0.0
 10
243.1019344915
 20
460.7125883246
 30
0.0
 10
243.1193777264
 20
460.574379916
 30
0.0
 10
243.1193777101
 20
460.4371217733
 30
0.0
  0
SPLINE
  5
511
100
AcDbEntity
  8
0
100
AcDbSpline
 62
7
  6
CONTINUOUS
 70
0
 71
3
 72
13
 73
9
 74
0
 42
0.0000001
 43
0.0000001
 44
0.0000000001
 40
0.0
 40
0.0
 40
0.0
 40
0.0
 40
0.0871546865
 40
0.1867797444
 40
0.3043458698
 40
0.4384930943
 40
0.7300038827
 40
1.0
 40
1.0
 40
1.0
 40
1.0
 10
176.5484823618
 20
504.1083391916
 30
0.0
 10
176.548482247
 20
504.3969045198
 30
0.0
 10
176.7226020432
 20
505.0207888201
 30
0.0
 10
177.4001886074
 20
505.7959824463
 30
0.0
 10
178.4034497521
 20
506.4101394609
 30
0.0
 10
180.1203651961
 20
506.9805497047
 30
0.0
 10
182.4655434301
 20
507.1137245464
 30
0.0
 10
184.3011114568
 20
506.5845348364
 30
0.0
 10
185.0850204726
 20
506.1548549919
 30
0.0
  0
SPLINE
  5
512
100
AcDbEntity
  8
0
100
AcDbSpline
 62
7
  6
CONTINUOUS
 70
0
 71
3
 72
13
 73
9
 74
0
 42
0.0000001
 43
0.0000001
 44
0.0000000001
 40
0.0
 40
0.0
 40
0.0
 40
0.0
 40
0.0602944718
 40
0.1465364929
 40
0.2564844488
 40
0.3859298195
 40
0.6838791958
 40
1.0
 40
1.0
 40
1.0
 40
1.0
 10
146.6467389473
 20
343.5810944869
 30
0.0
 10
146.5109542222
 20
343.6594880609
 30
0.0
 10
146.2499297941
 20
343.9535959336
 30
0.0
 10
145.9111533554
 20
344.5250490019
 30
0.0
 10
145.5514886201
 20
345.2942843677
 30
0.0
 10
145.0314935005
 20
346.5908682608
 30
0.0
 10
144.4014458666
 20
348.4199967687
 30
0.0
 10
143.9108319093
 20
349.9393221559
 30
0.0
 10
143.6556648101
 20
350.7207573417
 30
0.0
  0
SPLINE
  5
513
100
AcDbEntity
  8
0
100
AcDbSpline
 62
7
  6
CONTINUOUS
 70
0
 71
3
 72
9
 73
5
 74
0
 42
0.0000001
 43
0.0000001
 44
0.0000000001
 40
0.0
 40
0.0
 40
0.0
 40
0.0
 40
0.2602994218
 40
1.0
 40
1.0
 40
1.0
 40
1.0
 10
208.0963487862
 20
479.4676324745
 30
0.0
 10
208.5522687306
 20
479.565141461
 30
0.0
 10
210.3292433744
 20
479.7846745283
 30
0.0
 10
212.2076704544
 20
479.4394998971
 30
0.0
 10
213.3694889655
 20
478.8026785478
 30
0.0
  0
SPLINE
  5
514
100
AcDbEntity
  8
0
100
AcDbSpline
 62
7
  6
CONTINUOUS
 70
0
 71
3
 72
13
 73
9
 74
0
 42
0.0000001
 43
0.0000001
 44
0.0000000001
 40
0.0
 40
0.0
 40
0.0
 40
0.0
 40
0.0602944718
 40
0.1465364929
 40
0.2564844488
 40
0.3859298195
 40
0.6838791958
 40
1.0
 40
1.0
 40
1.0
 40
1.0
 10
169.6278050145
 20
330.313269965
 30
0.0
 10
169.4920202894
 20
330.3916635391
 30
0.0
 10
169.2309958613
 20
330.6857714119
 30
0.0
 10
168.8922194225
 20
331.2572244804
 30
0.0
 10
168.532554687
 20
332.0264598465
 30
0.0
 10
168.0125595673
 20
333.3230437401
 30
0.0
 10
167.3825119333
 20
335.1521722487
 30
0.0
 10
166.8918979759
 20
336.6714976363
 30
0.0
 10
166.6367308766
 20
337.4529328223
 30
0.0
  0
SPLINE
  5
515
100
AcDbEntity
  8
0
100
AcDbSpline
 62
7
  6
CONTINUOUS
 70
0
 71
3
 72
9
 73
5
 74
0
 42
0.0000001
 43
0.0000001
 44
0.0000000001
 40
0.0
 40
0.0
 40
0.0
 40
0.0
 40
0.2669746153
 40
1.0
 40
1.0
 40
1.0
 40
1.0
 10
203.823507676
 20
484.3139287338
 30
0.0
 10
203.9264377675
 20
484.2511923705
 30
0.0
 10
204.3037686413
 20
484.0042012685
 30
0.0
 10
204.6512484852
 20
483.7027369698
 30
0.0
 10
204.8562403504
 20
483.4428918481
 30
0.0
  0
SPLINE
  5
516
100
AcDbEntity
  8
0
100
AcDbSpline
 62
7
  6
CONTINUOUS
 70
0
 71
3
 72
9
 73
5
 74
0
 42
0.0000001
 43
0.0000001
 44
0.0000000001
 40
0.0
 40
0.0
 40
0.0
 40
0.0
 40
0.2636757488
 40
1.0
 40
1.0
 40
1.0
 40
1.0
 10
204.8562403504
 20
483.4428918481
 30
0.0
 10
204.9025575177
 20
483.3841807867
 30
0.0
 10
205.0681037431
 20
483.153916877
 30
0.0
 10
205.1878391045
 20
482.8892768599
 30
0.0
 10
205.2383589271
 20
482.6866498006
 30
0.0
  0
SPLINE
  5
517
100
AcDbEntity
  8
0
100
AcDbSpline
 62
7
  6
CONTINUOUS
 70
0
 71
3
 72
8
 73
4
 74
0
 42
0.0000001
 43
0.0000001
 44
0.0000000001
 40
0.0
 40
0.0
 40
0.0
 40
0.0
 40
1.0
 40
1.0
 40
1.0
 40
1.0
 10
205.2383589271
 20
482.6866498006
 30
0.0
 10
205.2715641961
 20
482.5534686914
 30
0.0
 10
205.289007431
 20
482.4152602829
 30
0.0
 10
205.2890074147
 20
482.2780021402
 30
0.0
  0
SPLINE
  5
518
100
AcDbEntity
  8
0
100
AcDbSpline
 62
7
  6
CONTINUOUS
 70
0
 71
3
 72
13
 73
9
 74
0
 42
0.0000001
 43
0.0000001
 44
0.0000000001
 40
0.0
 40
0.0
 40
0.0
 40
0.0
 40
0.0602944718
 40
0.1465364929
 40
0.2564844488
 40
0.3859298195
 40
0.6838791958
 40
1.0
 40
1.0
 40
1.0
 40
1.0
 10
192.6088710818
 20
317.0454454431
 30
0.0
 10
192.4730863567
 20
317.1238390171
 30
0.0
 10
192.2120619286
 20
317.4179468899
 30
0.0
 10
191.8732854897
 20
317.9893999585
 30
0.0
 10
191.5136207543
 20
318.7586353246
 30
0.0
 10
190.9936256346
 20
320.0552192182
 30
0.0
 10
190.3635780006
 20
321.8843477268
 30
0.0
 10
189.8729640432
 20
323.4036731144
 30
0.0
 10
189.6177969438
 20
324.1851083004
 30
0.0
  0
SPLINE
  5
519
100
AcDbEntity
  8
0
100
AcDbSpline
 62
7
  6
CONTINUOUS
 70
0
 71
3
 72
9
 73
5
 74
0
 42
0.0000001
 43
0.0000001
 44
0.0000000001
 40
0.0
 40
0.0
 40
0.0
 40
0.0
 40
0.2602994218
 40
1.0
 40
1.0
 40
1.0
 40
1.0
 10
170.2659784908
 20
501.3085128413
 30
0.0
 10
170.7218984352
 20
501.4060218278
 30
0.0
 10
172.498873079
 20
501.6255548951
 30
0.0
 10
174.3773001591
 20
501.280380264
 30
0.0
 10
175.5391186702
 20
500.6435589146
 30
0.0
  0
SPLINE
  5
51A
100
AcDbEntity
  8
0
100
AcDbSpline
 62
7
  6
CONTINUOUS
 70
0
 71
3
 72
13
 73
9
 74
0
 42
0.0000001
 43
0.0000001
 44
0.0000000001
 40
0.0
 40
0.0
 40
0.0
 40
0.0
 40
0.0871546865
 40
0.1867797444
 40
0.3043458698
 40
0.4384930943
 40
0.7300038827
 40
1.0
 40
1.0
 40
1.0
 40
1.0
 10
195.6402859665
 20
515.1309313463
 30
0.0
 10
195.6402858518
 20
515.4194966745
 30
0.0
 10
195.814405648
 20
516.0433809747
 30
0.0
 10
196.4919922123
 20
516.8185746009
 30
0.0
 10
197.495253357
 20
517.4327316155
 30
0.0
 10
199.2121688009
 20
518.0031418593
 30
0.0
 10
201.5573470349
 20
518.136316701
 30
0.0
 10
203.3929150616
 20
517.6071269909
 30
0.0
 10
204.1768240773
 20
517.1774471464
 30
0.0
  0
SPLINE
  5
51B
100
AcDbEntity
  8
0
100
AcDbSpline
 62
7
  6
CONTINUOUS
 70
0
 71
3
 72
9
 73
5
 74
0
 42
0.0000001
 43
0.0000001
 44
0.0000000001
 40
0.0
 40
0.0
 40
0.0
 40
0.0
 40
0.2669746153
 40
1.0
 40
1.0
 40
1.0
 40
1.0
 10
165.9931373807
 20
506.1548091007
 30
0.0
 10
166.0960674721
 20
506.0920727373
 30
0.0
 10
166.473398346
 20
505.8450816354
 30
0.0
 10
166.8208781899
 20
505.5436173366
 30
0.0
 10
167.0258700551
 20
505.2837722149
 30
0.0
  0
SPLINE
  5
51C
100
AcDbEntity
  8
0
100
AcDbSpline
 62
7
  6
CONTINUOUS
 70
0
 71
3
 72
9
 73
5
 74
0
 42
0.0000001
 43
0.0000001
 44
0.0000000001
 40
0.0
 40
0.0
 40
0.0
 40
0.0
 40
0.2636757488
 40
1.0
 40
1.0
 40
1.0
 40
1.0
 10
167.0258700551
 20
505.2837722149
 30
0.0
 10
167.0721872224
 20
505.2250611536
 30
0.0
 10
167.2377334478
 20
504.9947972439
 30
0.0
 10
167.3574688091
 20
504.7301572267
 30
0.0
 10
167.4079886317
 20
504.5275301675
 30
0.0
  0
SPLINE
  5
51D
100
AcDbEntity
  8
0
100
AcDbSpline
 62
7
  6
CONTINUOUS
 70
0
 71
3
 72
8
 73
4
 74
0
 42
0.0000001
 43
0.0000001
 44
0.0000000001
 40
0.0
 40
0.0
 40
0.0
 40
0.0
 40
1.0
 40
1.0
 40
1.0
 40
1.0
 10
167.4079886317
 20
504.5275301675
 30
0.0
 10
167.4411939007
 20
504.3943490582
 30
0.0
 10
167.4586371357
 20
504.2561406497
 30
0.0
 10
167.4586371194
 20
504.118882507
 30
0.0
  0
SPLINE
  5
51E
100
AcDbEntity
  8
0
100
AcDbSpline
 62
7
  6
CONTINUOUS
 70
0
 71
3
 72
13
 73
9
 74
0
 42
0.0000001
 43
0.0000001
 44
0.0000000001
 40
0.0
 40
0.0
 40
0.0
 40
0.0
 40
0.0602944718
 40
0.1465364929
 40
0.2564844488
 40
0.3859298195
 40
0.6838791958
 40
1.0
 40
1.0
 40
1.0
 40
1.0
 10
215.5899371491
 20
303.7776209211
 30
0.0
 10
215.454152424
 20
303.8560144952
 30
0.0
 10
215.1931279958
 20
304.150122368
 30
0.0
 10
214.854351557
 20
304.7215754366
 30
0.0
 10
214.4946868216
 20
305.4908108027
 30
0.0
 10
213.9746917019
 20
306.7873946963
 30
0.0
 10
213.3446440679
 20
308.6165232049
 30
0.0
 10
212.8540301104
 20
310.1358485925
 30
0.0
 10
212.5988630111
 20
310.9172837785
 30
0.0
  0
SPLINE
  5
51F
100
AcDbEntity
  8
0
100
AcDbSpline
 62
7
  6
CONTINUOUS
 70
0
 71
3
 72
13
 73
9
 74
0
 42
0.0000001
 43
0.0000001
 44
0.0000000001
 40
0.0
 40
0.0
 40
0.0
 40
0.0
 40
0.0602944718
 40
0.1465364929
 40
0.2564844488
 40
0.3859298195
 40
0.6838791958
 40
1.0
 40
1.0
 40
1.0
 40
1.0
 10
238.5710032164
 20
290.5097963992
 30
0.0
 10
238.4352184913
 20
290.5881899733
 30
0.0
 10
238.1741940631
 20
290.8822978461
 30
0.0
 10
237.8354176243
 20
291.4537509147
 30
0.0
 10
237.4757528889
 20
292.2229862808
 30
0.0
 10
236.9557577691
 20
293.5195701744
 30
0.0
 10
236.3257101351
 20
295.348698683
 30
0.0
 10
235.8350961777
 20
296.8680240706
 30
0.0
 10
235.5799290784
 20
297.6494592566
 30
0.0
  0
SPLINE
  5
520
100
AcDbEntity
  8
0
100
AcDbSpline
 62
7
  6
CONTINUOUS
 70
0
 71
3
 72
13
 73
9
 74
0
 42
0.0000001
 43
0.0000001
 44
0.0000000001
 40
0.0
 40
0.0
 40
0.0
 40
0.0
 40
0.0871546865
 40
0.1867797444
 40
0.3043458698
 40
0.4384930943
 40
0.7300038827
 40
1.0
 40
1.0
 40
1.0
 40
1.0
 10
223.9247544595
 20
487.7787549021
 30
0.0
 10
223.9247543447
 20
488.0673202303
 30
0.0
 10
224.098874141
 20
488.6912045306
 30
0.0
 10
224.7764607052
 20
489.4663981568
 30
0.0
 10
225.7797218499
 20
490.0805551713
 30
0.0
 10
227.4966372939
 20
490.6509654152
 30
0.0
 10
229.8418155278
 20
490.7841402569
 30
0.0
 10
231.6773835545
 20
490.2549505469
 30
0.0
 10
232.4612925703
 20
489.8252707024
 30
0.0
  0
SPLINE
  5
521
100
AcDbEntity
  8
0
100
AcDbSpline
 62
7
  6
CONTINUOUS
 70
0
 71
3
 72
13
 73
9
 74
0
 42
0.0000001
 43
0.0000001
 44
0.0000000001
 40
0.0
 40
0.0
 40
0.0
 40
0.0
 40
0.0602944718
 40
0.1465364929
 40
0.2564844488
 40
0.3859298195
 40
0.6838791958
 40
1.0
 40
1.0
 40
1.0
 40
1.0
 10
100.6846068127
 20
341.5391589312
 30
0.0
 10
100.5488220877
 20
341.6175525052
 30
0.0
 10
100.2877976596
 20
341.9116603779
 30
0.0
 10
99.9490212208
 20
342.4831134462
 30
0.0
 10
99.5893564855
 20
343.252348812
 30
0.0
 10
99.0693613659
 20
344.5489327051
 30
0.0
 10
98.4393137321
 20
346.3780612131
 30
0.0
 10
97.9486997748
 20
347.8973866003
 30
0.0
 10
97.6935326755
 20
348.6788217861
 30
0.0
  0
SPLINE
  5
522
100
AcDbEntity
  8
0
100
AcDbSpline
 62
7
  6
CONTINUOUS
 70
0
 71
3
 72
9
 73
5
 74
0
 42
0.0000001
 43
0.0000001
 44
0.0000000001
 40
0.0
 40
0.0
 40
0.0
 40
0.0
 40
0.2684059169
 40
1.0
 40
1.0
 40
1.0
 40
1.0
 10
270.2915833786
 20
479.0069365988
 30
0.0
 10
270.4008943518
 20
478.9403110587
 30
0.0
 10
270.7988084299
 20
478.6787038717
 30
0.0
 10
271.1638670634
 20
478.355235414
 30
0.0
 10
271.3711627483
 20
478.0745557186
 30
0.0
  0
SPLINE
  5
523
100
AcDbEntity
  8
0
100
AcDbSpline
 62
7
  6
CONTINUOUS
 70
0
 71
3
 72
9
 73
5
 74
0
 42
0.0000001
 43
0.0000001
 44
0.0000000001
 40
0.0
 40
0.0
 40
0.0
 40
0.0
 40
0.2666301384
 40
1.0
 40
1.0
 40
1.0
 40
1.0
 10
271.3711627483
 20
478.0745557186
 30
0.0
 10
271.4334790033
 20
477.9901791071
 30
0.0
 10
271.646211118
 20
477.6592038418
 30
0.0
 10
271.7570830025
 20
477.2595229476
 30
0.0
 10
271.7570831172
 20
476.9710108603
 30
0.0
  0
ENDSEC
  0
SECTION
  2
OBJECTS
  0
DICTIONARY
  5
C
100
AcDbDictionary
280
0
281
1
  3
ACAD_GROUP
350
D
  3
ACAD_MLINESTYLE
350
17
  3
ACAD_LAYOUT
350
1A
  3
ACAD_PLOTSETTINGS
350
19
  3
ACAD_PLOTSTYLENAME
350
E
  0
DICTIONARY
  5
D
102
{ACAD_REACTORS
330
C
102
}
100
AcDbDictionary
280
0
281
1
  0
ACDBDICTIONARYWDFLT
  5
E
102
{ACAD_REACTORS
330
C
102
}
100
AcDbDictionary
281
1
  3
Normal
350
F
100
AcDbDictionaryWithDefault
340
F
  0
DICTIONARY
  5
17
102
{ACAD_REACTORS
330
C
102
}
100
AcDbDictionary
280
0
281
1
  3
Standard
350
18
  0
DICTIONARY
  5
19
102
{ACAD_REACTORS
330
C
102
}
100
AcDbDictionary
281
1
  0
DICTIONARY
  5
1A
102
{ACAD_REACTORS
330
C
102
}
100
AcDbDictionary
281
1
  3
Model
350
524
  3
Layout1
350
525
  0
ACDBPLACEHOLDER
  5
F
102
{ACAD_REACTORS
330
E
102
}
  0
MLINESTYLE
  5
18
102
{ACAD_REACTORS
330
17
102
}
100
AcDbMlineStyle
  2
STANDARD
 70
0
  3

 62
256
 51
90.0
 52
90.0
 71
2
 49
0.5
 62
256
  6
BYLAYER
 49
-0.5
 62
256
  6
BYLAYER
  0
LAYOUT
  5
524
102
{ACAD_REACTORS
330
1A
102
}
100
AcDbPlotSettings
  1

  2
none_device
  4

  6

 40
0.0
 41
0.0
 42
0.0
 43
0.0
 44
210.0
 45
297.0
 46
0.0
 47
0.0
 48
0.0
 49
0.0
140
0.0
141
0.0
142
1.0
143
1.0
 70
1024
 72
1
 73
0
 74
0
  7

 75
0
147
1.0
148
0.0
149
0.0
100
AcDbLayout
  1
Model
 70
0
 71
0
 10
0.0
 20
0.0
 11
210.0
 21
297.0
 12
0.0
 22
0.0
 32
0.0
 14
0.0
 24
0.0
 34
0.0
 15
0.0
 25
0.0
 35
0.0
146
0.0
 13
0.0
 23
0.0
 33
0.0
 16
1.0
 26
0.0
 36
0.0
 17
0.0
 27
1.0
 37
0.0
 76
0
330
210
345
0
346
0
  0
LAYOUT
  5
525
102
{ACAD_REACTORS
330
1A
102
}
100
AcDbPlotSettings
  1

  2
none_device
  4

  6

 40
0.0
 41
0.0
 42
0.0
 43
0.0
 44
210.0
 45
297.0
 46
0.0
 47
0.0
 48
0.0
 49
0.0
140
0.0
141
0.0
142
1.0
143
1.0
 70
0
 72
1
 73
0
 74
0
  7

 75
0
147
1.0
148
0.0
149
0.0
100
AcDbLayout
  1
Layout1
 70
0
 71
1
 10
0.0
 20
0.0
 11
210.0
 21
297.0
 12
0.0
 22
0.0
 32
0.0
 14
0.0
 24
0.0
 34
0.0
 15
0.0
 25
0.0
 35
0.0
146
0.0
 13
0.0
 23
0.0
 33
0.0
 16
1.0
 26
0.0
 36
0.0
 17
0.0
 27
1.0
 37
0.0
 76
0
330
211
345
0
346
0
  0
ENDSEC
  0
EOF
