999
DXF file: C:\Users\sesa63760\Dev\_Creo\CAD\MCADID0000746_3D-CAD\drw0001_1.dxf
999
Pro/ENGINEER 2019471 by Parametric Technology Corporation
  0
SECTION
  2
HEADER
  9
$ACADVER
  1
AC1024
  9
$DWGCODEPAGE
  3
ANSI_1252
  9
$EXTMAX
 10
188.8004327734
 20
267.0177549224
 30
0.0
  9
$EXTMIN
 10
0.0
 20
0.0
 30
0.0
  9
$LIMMIN
 10
0.0
 20
0.0
  9
$LIMMAX
 10
188.8004327734
 20
267.0177549224
  9
$VIEWCTR
 10
94.4002163867
 20
133.5088774612
  9
$VIEWSIZE
 40
267.0177549224
  9
$CLAYER
  8
0
  9
$LTSCALE
 40
17.4056018024
  9
$CELTYPE
  6
BYLAYER
  9
$DIMSCALE
 40
1.0
  9
$DIMASZ
 40
2.2476241997
  9
$DIMEXO
 40
1.0
  9
$DIMDLI
 40
12.025688518
  9
$DIMEXE
 40
1.0
  9
$DIMCEN
 40
2.8481893858
  9
$DIMLFAC
 40
1.0
  9
$DIMBLK
  1
_FILLED
  9
$DIMALT
 70
0
  9
$DIMALTF
 40
0.0393700787
  9
$DIMTXT
 40
3.1466738796
  9
$DIMTOL
 70
1
  9
$DIMLIM
 70
0
  9
$DIMTFAC
 40
1.0
  9
$DIMTP
 40
0.01
  9
$DIMTM
 40
0.01
  9
$DIMGAP
 40
0.625
  9
$DIMDSEP
 70
46
  9
$AUNITS
 70
0
  9
$PDMODE
 70
3
  9
$PDSIZE
 40
0.3125
  9
$HANDSEED
  5
614
  9
$TILEMODE
 70
1
  9
$MEASUREMENT
 70
1
  9
$INSUNITS
 70
4
  0
ENDSEC
  0
SECTION
  2
CLASSES
  0
CLASS
  1
ACDBDICTIONARYWDFLT
  2
AcDbDictionaryWithDefault
  3
AutoCAD 2000
 90
0
 91
1
280
0
281
0
  0
CLASS
  1
ACDBPLACEHOLDER
  2
AcDbPlaceHolder
  3
AutoCAD 2000
 90
0
 91
1
280
0
281
0
  0
CLASS
  1
LAYOUT
  2
AcDbLayout
  3
AutoCAD 2000
 90
0
 91
0
280
0
281
0
  0
ENDSEC
  0
SECTION
  2
TABLES
  0
TABLE
  2
VPORT
  5
8
100
AcDbSymbolTable
 70
2
  0
VPORT
  5
1F4
100
AcDbSymbolTableRecord
100
AcDbViewportTableRecord
  2
*ACTIVE
 70
0
 10
0.0
 20
0.0
 11
1.0
 21
1.0
 12
94.4002163867
 22
133.5088774612
 13
0.0
 23
0.0
 14
1.0
 24
1.0
 15
0.0
 25
0.0
 16
0.0
 26
0.0
 36
1.0
 17
0.0
 27
0.0
 37
0.0
 40
267.0177549224
 41
0.7070707071
 42
50.0
 43
0.0
 44
0.0
 50
0.0
 51
0.0
 71
0
 72
100
 73
1
 74
1
 75
0
 76
0
 77
0
 78
0
  0
ENDTAB
  0
TABLE
  2
LTYPE
  5
5
100
AcDbSymbolTable
 70
6
  0
LTYPE
  5
14
100
AcDbSymbolTableRecord
100
AcDbLinetypeTableRecord
  2
BYBLOCK
 70
0
  3

 72
65
 73
0
 40
0.0
  0
LTYPE
  5
15
100
AcDbSymbolTableRecord
100
AcDbLinetypeTableRecord
  2
BYLAYER
 70
0
  3

 72
65
 73
0
 40
0.0
  0
LTYPE
  5
16
100
AcDbSymbolTableRecord
100
AcDbLinetypeTableRecord
  2
CONTINUOUS
 70
64
  3
Solid line
 72
65
 73
0
 40
0.0
  0
LTYPE
  5
1F5
100
AcDbSymbolTableRecord
100
AcDbLinetypeTableRecord
  2
CENTER
 70
64
  3
____ _ ____ _ ____ _ ____ _ ____ _ ____ _ ____
 72
65
 73
4
 40
0.6
 49
0.375
 74
0
 49
-0.075
 74
0
 49
0.075
 74
0
 49
-0.075
 74
0
  0
LTYPE
  5
1F6
100
AcDbSymbolTableRecord
100
AcDbLinetypeTableRecord
  2
HIDDEN
 70
64
  3
- - - - - - - - - - - - - - - - - - - -
 72
65
 73
2
 40
0.2
 49
0.1
 74
0
 49
-0.1
 74
0
  0
LTYPE
  5
1F7
100
AcDbSymbolTableRecord
100
AcDbLinetypeTableRecord
  2
PHANTOM
 70
64
  3
_____ _ _ _____ _ _ _____ _ _ _____
 72
65
 73
6
 40
0.8
 49
0.45
 74
0
 49
-0.05
 74
0
 49
0.1
 74
0
 49
-0.05
 74
0
 49
0.1
 74
0
 49
-0.05
 74
0
  0
LTYPE
  5
1F8
100
AcDbSymbolTableRecord
100
AcDbLinetypeTableRecord
  2
DOT
 70
64
  3
. . . . . . . . . . . . . . . . . . . .
 72
65
 73
2
 40
0.2
 49
0.1
 74
0
 49
-0.1
 74
0
  0
LTYPE
  5
1F9
100
AcDbSymbolTableRecord
100
AcDbLinetypeTableRecord
  2
DASHED
 70
64
  3
- - - - - - - - - - - - - - - - - - - -
 72
65
 73
2
 40
0.2
 49
0.1
 74
0
 49
-0.1
 74
0
  0
ENDTAB
  0
TABLE
  2
LAYER
  5
2
100
AcDbSymbolTable
 70
36
  0
LAYER
  5
10
100
AcDbSymbolTableRecord
100
AcDbLayerTableRecord
  2
0
 70
0
 62
7
  6
CONTINUOUS
370
-3
390
F
  0
LAYER
  5
1FA
100
AcDbSymbolTableRecord
100
AcDbLayerTableRecord
  2
DEFAULT_1
 70
0
 62
7
  6
CENTER
370
-3
390
F
  0
LAYER
  5
1FB
100
AcDbSymbolTableRecord
100
AcDbLayerTableRecord
  2
DEFAULT_2
 70
0
 62
8
  6
HIDDEN
370
-3
390
F
  0
LAYER
  5
1FC
100
AcDbSymbolTableRecord
100
AcDbLayerTableRecord
  2
DEFAULT_3
 70
0
 62
7
  6
PHANTOM
370
-3
390
F
  0
LAYER
  5
1FD
100
AcDbSymbolTableRecord
100
AcDbLayerTableRecord
  2
00_COMPONENTS
 70
0
 62
7
  6
CONTINUOUS
370
-3
390
F
  0
LAYER
  5
1FE
100
AcDbSymbolTableRecord
100
AcDbLayerTableRecord
  2
01_1_DEFAULT_DATUMS
 70
0
 62
7
  6
CONTINUOUS
370
-3
390
F
  0
LAYER
  5
1FF
100
AcDbSymbolTableRecord
100
AcDbLayerTableRecord
  2
01_PLANES
 70
0
 62
7
  6
CONTINUOUS
370
-3
390
F
  0
LAYER
  5
200
100
AcDbSymbolTableRecord
100
AcDbLayerTableRecord
  2
02_COORD_SYS
 70
0
 62
7
  6
CONTINUOUS
370
-3
390
F
  0
LAYER
  5
201
100
AcDbSymbolTableRecord
100
AcDbLayerTableRecord
  2
03_AXES
 70
0
 62
7
  6
CONTINUOUS
370
-3
390
F
  0
LAYER
  5
202
100
AcDbSymbolTableRecord
100
AcDbLayerTableRecord
  2
04_POINTS
 70
0
 62
7
  6
CONTINUOUS
370
-3
390
F
  0
LAYER
  5
203
100
AcDbSymbolTableRecord
100
AcDbLayerTableRecord
  2
05_CURVES
 70
0
 62
7
  6
CONTINUOUS
370
-3
390
F
  0
LAYER
  5
204
100
AcDbSymbolTableRecord
100
AcDbLayerTableRecord
  2
06_SURFS
 70
0
 62
7
  6
CONTINUOUS
370
-3
390
F
  0
LAYER
  5
205
100
AcDbSymbolTableRecord
100
AcDbLayerTableRecord
  2
07_COSMETICS
 70
0
 62
7
  6
CONTINUOUS
370
-3
390
F
  0
LAYER
  5
206
100
AcDbSymbolTableRecord
100
AcDbLayerTableRecord
  2
10_NOTES
 70
0
 62
7
  6
CONTINUOUS
370
-3
390
F
  0
LAYER
  5
207
100
AcDbSymbolTableRecord
100
AcDbLayerTableRecord
  2
11_NOTES_PUB
 70
0
 62
7
  6
CONTINUOUS
370
-3
390
F
  0
LAYER
  5
208
100
AcDbSymbolTableRecord
100
AcDbLayerTableRecord
  2
13_REF_GTOL
 70
0
 62
7
  6
CONTINUOUS
370
-3
390
F
  0
LAYER
  5
209
100
AcDbSymbolTableRecord
100
AcDbLayerTableRecord
  2
16_MISC
 70
0
 62
7
  6
CONTINUOUS
370
-3
390
F
  0
LAYER
  5
20A
100
AcDbSymbolTableRecord
100
AcDbLayerTableRecord
  2
17_NO_PRINT
 70
0
 62
7
  6
CONTINUOUS
370
-3
390
F
  0
LAYER
  5
20B
100
AcDbSymbolTableRecord
100
AcDbLayerTableRecord
  2
18_DATUM_CAMS_JOINTS
 70
0
 62
7
  6
CONTINUOUS
370
-3
390
F
  0
LAYER
  5
20C
100
AcDbSymbolTableRecord
100
AcDbLayerTableRecord
  2
19_DATUM_FUNCTIONAL
 70
0
 62
7
  6
CONTINUOUS
370
-3
390
F
  0
LAYER
  5
20D
100
AcDbSymbolTableRecord
100
AcDbLayerTableRecord
  2
20_DATUM_KINEMATIC_SCHEME
 70
0
 62
7
  6
CONTINUOUS
370
-3
390
F
  0
ENDTAB
  0
TABLE
  2
STYLE
  5
3
100
AcDbSymbolTable
 70
1
  0
STYLE
  5
11
100
AcDbSymbolTableRecord
100
AcDbTextStyleTableRecord
  2
STANDARD
 70
0
 40
0.0
 41
0.8
 50
0.0
 71
0
 42
0.2
  3
txt
  4

  0
STYLE
  5
20E
100
AcDbSymbolTableRecord
100
AcDbTextStyleTableRecord
  2
TEXTSTYLE_1
 70
0
 40
0.0
 41
0.8
 50
0.0
 71
0
 42
0.2
  3
gdt
  4

  0
ENDTAB
  0
TABLE
  2
VIEW
  5
6
100
AcDbSymbolTable
 70
0
  0
ENDTAB
  0
TABLE
  2
UCS
  5
7
100
AcDbSymbolTable
 70
0
  0
ENDTAB
  0
TABLE
  2
APPID
  5
9
100
AcDbSymbolTable
 70
1
  0
APPID
  5
20F
100
AcDbSymbolTableRecord
100
AcDbRegAppTableRecord
  2
ACAD
 70
0
  0
ENDTAB
  0
TABLE
  2
BLOCK_RECORD
  5
1
100
AcDbSymbolTable
 70
0
  0
BLOCK_RECORD
  5
210
100
AcDbSymbolTableRecord
100
AcDbBlockTableRecord
  2
*Model_Space
  0
BLOCK_RECORD
  5
211
100
AcDbSymbolTableRecord
100
AcDbBlockTableRecord
  2
*Paper_Space
  0
BLOCK_RECORD
  5
212
100
AcDbSymbolTableRecord
100
AcDbBlockTableRecord
  2
_FILLED
  0
ENDTAB
  0
TABLE
  2
DIMSTYLE
  5
A
100
AcDbSymbolTable
 70
1
100
AcDbDimStyleTable
 71
0
  0
DIMSTYLE
105
213
100
AcDbSymbolTableRecord
100
AcDbDimStyleTableRecord
  2
STANDARD
 70
0
  3

  4

 40
1.0
 41
2.2476241997
 42
1.0
 43
0.38
 44
1.0
 45
0.0
 46
0.0
 47
0.01
 48
0.01
140
3.1466738796
141
0.09
142
0.0
143
25.4
144
1.0
145
0.0
146
1.0
147
0.625
 71
1
 72
0
 73
0
 74
0
 75
0
 76
0
 77
1
 78
8
 79
2
170
0
171
1
172
0
173
0
174
0
175
0
176
0
177
0
178
0
270
2
179
2
271
2
272
2
273
2
274
2
275
0
280
0
281
0
282
0
283
1
284
8
285
0
286
0
287
3
288
0
340
11
278
46
341
212
342
212
343
212
344
212
  0
ENDTAB
  0
ENDSEC
  0
SECTION
  2
BLOCKS
  0
BLOCK
  5
20
100
AcDbEntity
  8
0
100
AcDbBlockBegin
  2
*Model_Space
 70
0
 10
0.0
 20
0.0
 30
0.0
  3
*Model_Space
  1

  0
ENDBLK
  5
21
100
AcDbEntity
  8
0
100
AcDbBlockEnd
  0
BLOCK
  5
1C
100
AcDbEntity
  8
0
100
AcDbBlockBegin
  2
*Paper_Space
 70
0
 10
0.0
 20
0.0
 30
0.0
  3
*Paper_Space
  1

  0
ENDBLK
  5
1D
100
AcDbEntity
  8
0
100
AcDbBlockEnd
  0
BLOCK
  5
214
100
AcDbEntity
  8
0
100
AcDbBlockBegin
  2
_FILLED
 70
64
 10
0.0
 20
0.0
  3
_FILLED
  1

  0
SOLID
  5
215
100
AcDbEntity
  8
0
  6
BYBLOCK
 62
0
100
AcDbTrace
 10
0.0
 20
0.0
 11
-1.0
 21
0.25
 12
-1.0
 22
-0.25
 13
-1.0
 23
-0.25
  0
ENDBLK
  5
216
100
AcDbEntity
  8
0
  6
BYBLOCK
 62
0
100
AcDbBlockEnd
  0
ENDSEC
  0
SECTION
  2
ENTITIES
  0
LINE
  5
217
100
AcDbEntity
  8
0
100
AcDbLine
 62
7
  6
CONTINUOUS
 10
21.9030224023
 20
182.9877966826
 11
21.9030224023
 21
101.3375549696
  0
LINE
  5
218
100
AcDbEntity
  8
0
100
AcDbLine
 62
7
  6
CONTINUOUS
 10
83.54485668
 20
214.792793235
 11
84.6975328761
 21
215.4819323867
  0
LINE
  5
219
100
AcDbEntity
  8
0
100
AcDbLine
 62
7
  6
CONTINUOUS
 10
82.1811575735
 20
215.5801074698
 11
81.3843798912
 21
215.1090558402
  0
LINE
  5
21A
100
AcDbEntity
  8
0
100
AcDbLine
 62
7
  6
CONTINUOUS
 10
81.4411654957
 20
217.3619544385
 11
21.9030224023
 21
182.9877966826
  0
LINE
  5
21B
100
AcDbEntity
  8
0
100
AcDbLine
 62
7
  6
CONTINUOUS
 10
83.9350419925
 20
212.6562207083
 11
84.5360802541
 21
213.0032282391
  0
LINE
  5
21C
100
AcDbEntity
  8
0
100
AcDbLine
 62
7
  6
CONTINUOUS
 10
28.4225740681
 20
140.5379324023
 11
28.4225740681
 21
153.7652715598
  0
LINE
  5
21D
100
AcDbEntity
  8
0
100
AcDbLine
 62
7
  6
CONTINUOUS
 10
28.4296451654
 20
105.7100219042
 11
28.4296451654
 21
118.6924103365
  0
LINE
  5
21E
100
AcDbEntity
  8
0
100
AcDbLine
 62
7
  6
CONTINUOUS
 10
28.4296451654
 20
123.1831736307
 11
28.4296451654
 21
136.1655620631
  0
LINE
  5
21F
100
AcDbEntity
  8
0
100
AcDbLine
 62
7
  6
CONTINUOUS
 10
28.705415603
 20
140.7012300638
 11
28.705415603
 21
153.6019766177
  0
LINE
  5
220
100
AcDbEntity
  8
0
100
AcDbLine
 62
7
  6
CONTINUOUS
 10
28.7124867003
 20
105.8733195657
 11
28.7124867003
 21
118.5291153944
  0
LINE
  5
221
100
AcDbEntity
  8
0
100
AcDbLine
 62
7
  6
CONTINUOUS
 10
28.7124867003
 20
123.3464712923
 11
28.7124867003
 21
136.002267121
  0
LINE
  5
222
100
AcDbEntity
  8
0
100
AcDbLine
 62
7
  6
CONTINUOUS
 10
28.8680508398
 20
148.8825866879
 11
28.8680508398
 21
145.5594218502
  0
LINE
  5
223
100
AcDbEntity
  8
0
100
AcDbLine
 62
7
  6
CONTINUOUS
 10
29.2781744804
 20
132.0830555188
 11
29.2781744804
 21
126.9390902909
  0
LINE
  5
224
100
AcDbEntity
  8
0
100
AcDbLine
 62
7
  6
CONTINUOUS
 10
29.2781744804
 20
114.6099037922
 11
29.2781744804
 21
109.4659385643
  0
LINE
  5
225
100
AcDbEntity
  8
0
100
AcDbLine
 62
7
  6
CONTINUOUS
 10
29.9004310385
 20
149.1969553814
 11
29.9004310385
 21
148.2865551863
  0
LINE
  5
226
100
AcDbEntity
  8
0
100
AcDbLine
 62
7
  6
CONTINUOUS
 10
29.9004310385
 20
144.9633903486
 11
29.9004310385
 21
144.0529901535
  0
LINE
  5
227
100
AcDbEntity
  8
0
100
AcDbLine
 62
7
  6
CONTINUOUS
 10
88.4084592201
 20
210.7675597783
 11
87.8074209585
 21
210.4205522475
  0
LINE
  5
228
100
AcDbEntity
  8
0
100
AcDbLine
 62
7
  6
CONTINUOUS
 10
91.2070128837
 20
208.4578413368
 11
92.8622743895
 21
209.4135013082
  0
LINE
  5
229
100
AcDbEntity
  8
0
100
AcDbLine
 62
7
  6
CONTINUOUS
 10
92.7017607726
 20
210.8607938001
 11
91.5081292825
 21
210.1952996636
  0
LINE
  5
22A
100
AcDbEntity
  8
0
100
AcDbLine
 62
7
  6
CONTINUOUS
 10
72.3248444062
 20
66.2343956227
 11
73.8234276299
 21
65.3692077682
  0
LINE
  5
22B
100
AcDbEntity
  8
0
100
AcDbLine
 62
7
  6
CONTINUOUS
 10
73.5304686661
 20
65.9710978955
 11
73.1346998139
 21
66.1995899797
  0
LINE
  5
22C
100
AcDbEntity
  8
0
100
AcDbLine
 62
7
  6
CONTINUOUS
 10
72.512018068
 20
66.5590873204
 11
72.1162492158
 21
66.7875794046
  0
LINE
  5
22D
100
AcDbEntity
  8
0
100
AcDbLine
 62
7
  6
CONTINUOUS
 10
72.7452597539
 20
66.6448761333
 11
73.1346998139
 21
66.4200378964
  0
LINE
  5
22E
100
AcDbEntity
  8
0
100
AcDbLine
 62
7
  6
CONTINUOUS
 10
73.7213848914
 20
66.0813227717
 11
73.8234276299
 21
66.0224097019
  0
LINE
  5
22F
100
AcDbEntity
  8
0
100
AcDbLine
 62
7
  6
CONTINUOUS
 10
68.0821772234
 20
69.9085675124
 11
70.1449283439
 21
68.7176645395
  0
LINE
  5
230
100
AcDbEntity
  8
0
100
AcDbLine
 62
7
  6
CONTINUOUS
 10
70.4863502889
 20
68.520548947
 11
72.1162492158
 21
67.5795476511
  0
LINE
  5
231
100
AcDbEntity
  8
0
100
AcDbLine
 62
7
  6
CONTINUOUS
 10
75.2637466635
 20
65.7623802623
 11
78.4766901831
 21
63.9074284209
  0
LINE
  5
232
100
AcDbEntity
  8
0
100
AcDbLine
 62
7
  6
CONTINUOUS
 10
75.2637466635
 20
66.415582196
 11
74.7820406472
 21
66.6936890025
  0
LINE
  5
233
100
AcDbEntity
  8
0
100
AcDbLine
 62
7
  6
CONTINUOUS
 10
72.1162492158
 20
69.9719388314
 11
72.512018068
 21
69.7434467472
  0
LINE
  5
234
100
AcDbEntity
  8
0
100
AcDbLine
 62
7
  6
CONTINUOUS
 10
73.1346998139
 20
69.3839494065
 11
73.5304686661
 21
69.1554573223
  0
LINE
  5
235
100
AcDbEntity
  8
0
100
AcDbLine
 62
7
  6
CONTINUOUS
 10
72.3248444062
 20
70.2352574666
 11
73.8234276299
 21
69.3700696122
  0
LINE
  5
236
100
AcDbEntity
  8
0
100
AcDbLine
 62
7
  6
CONTINUOUS
 10
73.5304686661
 20
70.1189301746
 11
73.1346998139
 21
70.3474222587
  0
LINE
  5
237
100
AcDbEntity
  8
0
100
AcDbLine
 62
7
  6
CONTINUOUS
 10
72.512018068
 20
70.7069195994
 11
72.1162492158
 21
70.9354116836
  0
LINE
  5
238
100
AcDbEntity
  8
0
100
AcDbLine
 62
7
  6
CONTINUOUS
 10
73.8234276299
 20
70.170241981
 11
73.7213848914
 21
70.2291550507
  0
LINE
  5
239
100
AcDbEntity
  8
0
100
AcDbLine
 62
7
  6
CONTINUOUS
 10
73.1346998139
 20
70.5678701754
 11
72.7452597539
 21
70.7927084123
  0
LINE
  5
23A
100
AcDbEntity
  8
0
100
AcDbLine
 62
7
  6
CONTINUOUS
 10
31.0742331823
 20
150.8218125452
 11
31.0742331823
 21
148.5192757289
  0
LINE
  5
23B
100
AcDbEntity
  8
0
100
AcDbLine
 62
7
  6
CONTINUOUS
 10
31.0742331823
 20
143.375310501
 11
31.0742331823
 21
141.0727736847
  0
LINE
  5
23C
100
AcDbEntity
  8
0
100
AcDbLine
 62
7
  6
CONTINUOUS
 10
31.4631435311
 20
133.1118808674
 11
31.4631435311
 21
130.8215915873
  0
LINE
  5
23D
100
AcDbEntity
  8
0
100
AcDbLine
 62
7
  6
CONTINUOUS
 10
31.4631435311
 20
125.6776263594
 11
31.4631435311
 21
123.3873370794
  0
LINE
  5
23E
100
AcDbEntity
  8
0
100
AcDbLine
 62
7
  6
CONTINUOUS
 10
31.4631435311
 20
115.6387291408
 11
31.4631435311
 21
113.3484398608
  0
LINE
  5
23F
100
AcDbEntity
  8
0
100
AcDbLine
 62
7
  6
CONTINUOUS
 10
31.4631435311
 20
108.2044746328
 11
31.4631435311
 21
105.9141853528
  0
LINE
  5
240
100
AcDbEntity
  8
0
100
AcDbLine
 62
7
  6
CONTINUOUS
 10
32.361172882
 20
133.2506995549
 11
32.361172882
 21
132.5934151091
  0
LINE
  5
241
100
AcDbEntity
  8
0
100
AcDbLine
 62
7
  6
CONTINUOUS
 10
32.361172882
 20
122.8688713211
 11
32.361172882
 21
122.2115868753
  0
LINE
  5
242
100
AcDbEntity
  8
0
100
AcDbLine
 62
7
  6
CONTINUOUS
 10
32.361172882
 20
115.7775478284
 11
32.361172882
 21
115.1202633826
  0
LINE
  5
243
100
AcDbEntity
  8
0
100
AcDbLine
 62
7
  6
CONTINUOUS
 10
32.361172882
 20
105.3957195946
 11
32.361172882
 21
104.7384351488
  0
LINE
  5
244
100
AcDbEntity
  8
0
100
AcDbLine
 62
7
  6
CONTINUOUS
 10
34.3410801125
 20
103.5953610361
 11
34.3410801125
 21
104.2526454819
  0
LINE
  5
245
100
AcDbEntity
  8
0
100
AcDbLine
 62
7
  6
CONTINUOUS
 10
34.3410801125
 20
113.9771892699
 11
34.3410801125
 21
114.6344737157
  0
LINE
  5
246
100
AcDbEntity
  8
0
100
AcDbLine
 62
7
  6
CONTINUOUS
 10
34.3410801125
 20
121.0685127627
 11
34.3410801125
 21
121.7257972085
  0
LINE
  5
247
100
AcDbEntity
  8
0
100
AcDbLine
 62
7
  6
CONTINUOUS
 10
34.3410801125
 20
131.4503409965
 11
34.3410801125
 21
132.1076254423
  0
LINE
  5
248
100
AcDbEntity
  8
0
100
AcDbLine
 62
7
  6
CONTINUOUS
 10
35.9250058968
 20
138.2722421087
 11
35.9250058968
 21
148.0212809692
  0
LINE
  5
249
100
AcDbEntity
  8
0
100
AcDbLine
 62
7
  6
CONTINUOUS
 10
36.2927029539
 20
103.1259009994
 11
36.2927029539
 21
112.8504447874
  0
LINE
  5
24A
100
AcDbEntity
  8
0
100
AcDbLine
 62
7
  6
CONTINUOUS
 10
36.2927029539
 20
120.599052726
 11
36.2927029539
 21
130.323596514
  0
LINE
  5
24B
100
AcDbEntity
  8
0
100
AcDbLine
 62
7
  6
CONTINUOUS
 10
36.572972278
 20
159.5559802527
 11
36.572972278
 21
129.7536420275
  0
LINE
  5
24C
100
AcDbEntity
  8
0
100
AcDbLine
 62
7
  6
CONTINUOUS
 10
37.0960350493
 20
159.2539966526
 11
37.0960350493
 21
129.4516584274
  0
LINE
  5
24D
100
AcDbEntity
  8
0
100
AcDbLine
 62
7
  6
CONTINUOUS
 10
37.2473299337
 20
129.5276065631
 11
37.2473299337
 21
159.3299447883
  0
LINE
  5
24E
100
AcDbEntity
  8
0
100
AcDbLine
 62
7
  6
CONTINUOUS
 10
75.2637466635
 20
65.7623802623
 11
73.8234276299
 21
65.3692077682
  0
LINE
  5
24F
100
AcDbEntity
  8
0
100
AcDbLine
 62
7
  6
CONTINUOUS
 10
73.8234276299
 20
66.0224097019
 11
75.2637466635
 21
66.415582196
  0
LINE
  5
250
100
AcDbEntity
  8
0
100
AcDbLine
 62
7
  6
CONTINUOUS
 10
21.9030224023
 20
101.3375549696
 11
68.0821772234
 21
74.6766106538
  0
LINE
  5
251
100
AcDbEntity
  8
0
100
AcDbLine
 62
7
  6
CONTINUOUS
 10
82.8181286193
 20
66.1689976166
 11
110.2917380457
 21
50.3074606546
  0
LINE
  5
252
100
AcDbEntity
  8
0
100
AcDbLine
 62
7
  6
CONTINUOUS
 10
75.2637466635
 20
70.563414475
 11
74.7820406472
 21
70.8415212815
  0
LINE
  5
253
100
AcDbEntity
  8
0
100
AcDbLine
 62
7
  6
CONTINUOUS
 10
72.1162492158
 20
74.1197711104
 11
72.512018068
 21
73.8912790262
  0
LINE
  5
254
100
AcDbEntity
  8
0
100
AcDbLine
 62
7
  6
CONTINUOUS
 10
73.1346998139
 20
73.5317816855
 11
73.5304686661
 21
73.3032896014
  0
LINE
  5
255
100
AcDbEntity
  8
0
100
AcDbLine
 62
7
  6
CONTINUOUS
 10
72.3248444062
 20
74.3830897456
 11
73.8234276299
 21
73.5179018912
  0
LINE
  5
256
100
AcDbEntity
  8
0
100
AcDbLine
 62
7
  6
CONTINUOUS
 10
73.5304686661
 20
74.2667624536
 11
73.1346998139
 21
74.4952545378
  0
LINE
  5
257
100
AcDbEntity
  8
0
100
AcDbLine
 62
7
  6
CONTINUOUS
 10
72.512018068
 20
74.8547518784
 11
72.1162492158
 21
75.0832439626
  0
LINE
  5
258
100
AcDbEntity
  8
0
100
AcDbLine
 62
7
  6
CONTINUOUS
 10
73.8234276299
 20
74.31807426
 11
73.7213848914
 21
74.3769873297
  0
LINE
  5
259
100
AcDbEntity
  8
0
100
AcDbLine
 62
7
  6
CONTINUOUS
 10
73.1346998139
 20
74.7157024544
 11
72.7452597539
 21
74.9405406913
  0
LINE
  5
25A
100
AcDbEntity
  8
0
100
AcDbLine
 62
7
  6
CONTINUOUS
 10
75.2637466635
 20
74.711246754
 11
74.7820406472
 21
74.9893535605
  0
LINE
  5
25B
100
AcDbEntity
  8
0
100
AcDbLine
 62
7
  6
CONTINUOUS
 10
72.1162492158
 20
78.2676033894
 11
72.512018068
 21
78.0391113052
  0
LINE
  5
25C
100
AcDbEntity
  8
0
100
AcDbLine
 62
7
  6
CONTINUOUS
 10
73.1346998139
 20
77.6796139646
 11
73.5304686661
 21
77.4511218804
  0
LINE
  5
25D
100
AcDbEntity
  8
0
100
AcDbLine
 62
7
  6
CONTINUOUS
 10
72.3248444062
 20
78.5309220247
 11
73.8234276299
 21
77.6657341702
  0
LINE
  5
25E
100
AcDbEntity
  8
0
100
AcDbLine
 62
7
  6
CONTINUOUS
 10
73.5304686661
 20
78.4145947326
 11
73.1346998139
 21
78.6430868168
  0
LINE
  5
25F
100
AcDbEntity
  8
0
100
AcDbLine
 62
7
  6
CONTINUOUS
 10
72.512018068
 20
79.0025841575
 11
72.1162492158
 21
79.2310762416
  0
LINE
  5
260
100
AcDbEntity
  8
0
100
AcDbLine
 62
7
  6
CONTINUOUS
 10
88.9701003997
 20
69.7208189785
 11
89.7148485766
 21
69.2908481454
  0
LINE
  5
261
100
AcDbEntity
  8
0
100
AcDbLine
 62
7
  6
CONTINUOUS
 10
73.8234276299
 20
78.465906539
 11
73.7213848914
 21
78.5248196087
  0
LINE
  5
262
100
AcDbEntity
  8
0
100
AcDbLine
 62
7
  6
CONTINUOUS
 10
73.1346998139
 20
78.8635347334
 11
72.7452597539
 21
79.0883729703
  0
LINE
  5
263
100
AcDbEntity
  8
0
100
AcDbLine
 62
7
  6
CONTINUOUS
 10
37.9756264549
 20
125.9026695027
 11
37.9756264549
 21
117.6719234447
  0
LINE
  5
264
100
AcDbEntity
  8
0
100
AcDbLine
 62
7
  6
CONTINUOUS
 10
37.9756264549
 20
113.1811601505
 11
37.9756264549
 21
100.1987717181
  0
LINE
  5
265
100
AcDbEntity
  8
0
100
AcDbLine
 62
7
  6
CONTINUOUS
 10
38.2726174926
 20
158.6563330146
 11
38.2726174926
 21
157.7581803558
  0
LINE
  5
266
100
AcDbEntity
  8
0
100
AcDbLine
 62
7
  6
CONTINUOUS
 10
38.2726174926
 20
156.0435252798
 11
38.2726174926
 21
155.1453726209
  0
LINE
  5
267
100
AcDbEntity
  8
0
100
AcDbLine
 62
7
  6
CONTINUOUS
 10
38.2726174926
 20
153.430717545
 11
38.2726174926
 21
152.5325648861
  0
LINE
  5
268
100
AcDbEntity
  8
0
100
AcDbLine
 62
7
  6
CONTINUOUS
 10
38.2726174926
 20
150.8179098102
 11
38.2726174926
 21
149.9197571513
  0
LINE
  5
269
100
AcDbEntity
  8
0
100
AcDbLine
 62
7
  6
CONTINUOUS
 10
38.2726174926
 20
148.2051020753
 11
38.2726174926
 21
147.3069494165
  0
LINE
  5
26A
100
AcDbEntity
  8
0
100
AcDbLine
 62
7
  6
CONTINUOUS
 10
38.2726174926
 20
145.5922943405
 11
38.2726174926
 21
144.6941416817
  0
LINE
  5
26B
100
AcDbEntity
  8
0
100
AcDbLine
 62
7
  6
CONTINUOUS
 10
38.2726174926
 20
142.9794866057
 11
38.2726174926
 21
142.0813339469
  0
LINE
  5
26C
100
AcDbEntity
  8
0
100
AcDbLine
 62
7
  6
CONTINUOUS
 10
38.2726174926
 20
140.3666788709
 11
38.2726174926
 21
139.4685262121
  0
LINE
  5
26D
100
AcDbEntity
  8
0
100
AcDbLine
 62
7
  6
CONTINUOUS
 10
38.2726174926
 20
137.7538711361
 11
38.2726174926
 21
136.8557184772
  0
LINE
  5
26E
100
AcDbEntity
  8
0
100
AcDbLine
 62
7
  6
CONTINUOUS
 10
38.2726174926
 20
135.1410634013
 11
38.2726174926
 21
134.2429107424
  0
LINE
  5
26F
100
AcDbEntity
  8
0
100
AcDbLine
 62
7
  6
CONTINUOUS
 10
38.2726174926
 20
132.5282556665
 11
38.2726174926
 21
131.6301030076
  0
LINE
  5
270
100
AcDbEntity
  8
0
100
AcDbLine
 62
7
  6
CONTINUOUS
 10
38.6968797949
 20
131.8750494999
 11
38.6968797949
 21
132.2833132533
  0
LINE
  5
271
100
AcDbEntity
  8
0
100
AcDbLine
 62
7
  6
CONTINUOUS
 10
38.6968797949
 20
134.4878572348
 11
38.6968797949
 21
134.8961209882
  0
LINE
  5
272
100
AcDbEntity
  8
0
100
AcDbLine
 62
7
  6
CONTINUOUS
 10
38.6968797949
 20
137.1006649696
 11
38.6968797949
 21
137.508928723
  0
LINE
  5
273
100
AcDbEntity
  8
0
100
AcDbLine
 62
7
  6
CONTINUOUS
 10
38.6968797949
 20
139.7134727044
 11
38.6968797949
 21
140.1217364578
  0
LINE
  5
274
100
AcDbEntity
  8
0
100
AcDbLine
 62
7
  6
CONTINUOUS
 10
38.6968797949
 20
142.3262804392
 11
38.6968797949
 21
142.7345441926
  0
LINE
  5
275
100
AcDbEntity
  8
0
100
AcDbLine
 62
7
  6
CONTINUOUS
 10
38.6968797949
 20
144.939088174
 11
38.6968797949
 21
145.3473519274
  0
LINE
  5
276
100
AcDbEntity
  8
0
100
AcDbLine
 62
7
  6
CONTINUOUS
 10
38.6968797949
 20
147.5518959088
 11
38.6968797949
 21
147.9601596622
  0
LINE
  5
277
100
AcDbEntity
  8
0
100
AcDbLine
 62
7
  6
CONTINUOUS
 10
38.6968797949
 20
150.1647036436
 11
38.6968797949
 21
150.572967397
  0
LINE
  5
278
100
AcDbEntity
  8
0
100
AcDbLine
 62
7
  6
CONTINUOUS
 10
38.6968797949
 20
152.7775113785
 11
38.6968797949
 21
153.1857751319
  0
LINE
  5
279
100
AcDbEntity
  8
0
100
AcDbLine
 62
7
  6
CONTINUOUS
 10
38.6968797949
 20
155.3903191133
 11
38.6968797949
 21
155.7985828667
  0
LINE
  5
27A
100
AcDbEntity
  8
0
100
AcDbLine
 62
7
  6
CONTINUOUS
 10
38.6968797949
 20
158.0031268481
 11
38.6968797949
 21
158.4113906015
  0
LINE
  5
27B
100
AcDbEntity
  8
0
100
AcDbLine
 62
7
  6
CONTINUOUS
 10
39.6868369429
 20
130.8136214986
 11
39.6868369429
 21
131.7117741574
  0
LINE
  5
27C
100
AcDbEntity
  8
0
100
AcDbLine
 62
7
  6
CONTINUOUS
 10
39.6868369429
 20
133.4264292334
 11
39.6868369429
 21
134.3245818922
  0
LINE
  5
27D
100
AcDbEntity
  8
0
100
AcDbLine
 62
7
  6
CONTINUOUS
 10
39.6868369429
 20
136.0392369682
 11
39.6868369429
 21
136.937389627
  0
LINE
  5
27E
100
AcDbEntity
  8
0
100
AcDbLine
 62
7
  6
CONTINUOUS
 10
39.6868369429
 20
138.652044703
 11
39.6868369429
 21
139.5501973619
  0
LINE
  5
27F
100
AcDbEntity
  8
0
100
AcDbLine
 62
7
  6
CONTINUOUS
 10
39.6868369429
 20
141.2648524378
 11
39.6868369429
 21
142.1630050967
  0
LINE
  5
280
100
AcDbEntity
  8
0
100
AcDbLine
 62
7
  6
CONTINUOUS
 10
39.6868369429
 20
143.8776601726
 11
39.6868369429
 21
144.7758128315
  0
LINE
  5
281
100
AcDbEntity
  8
0
100
AcDbLine
 62
7
  6
CONTINUOUS
 10
39.6868369429
 20
146.4904679075
 11
39.6868369429
 21
147.3886205663
  0
LINE
  5
282
100
AcDbEntity
  8
0
100
AcDbLine
 62
7
  6
CONTINUOUS
 10
39.6868369429
 20
149.1032756423
 11
39.6868369429
 21
150.0014283011
  0
LINE
  5
283
100
AcDbEntity
  8
0
100
AcDbLine
 62
7
  6
CONTINUOUS
 10
39.6868369429
 20
151.7160833771
 11
39.6868369429
 21
152.6142360359
  0
LINE
  5
284
100
AcDbEntity
  8
0
100
AcDbLine
 62
7
  6
CONTINUOUS
 10
39.6868369429
 20
154.3288911119
 11
39.6868369429
 21
155.2270437707
  0
LINE
  5
285
100
AcDbEntity
  8
0
100
AcDbLine
 62
7
  6
CONTINUOUS
 10
39.6868369429
 20
156.9416988467
 11
39.6868369429
 21
157.8398515056
  0
LINE
  5
286
100
AcDbEntity
  8
0
100
AcDbLine
 62
7
  6
CONTINUOUS
 10
37.4710662658
 20
161.6784671901
 11
40.6668170454
 21
163.8077498226
  0
LINE
  5
287
100
AcDbEntity
  8
0
100
AcDbLine
 62
7
  6
CONTINUOUS
 10
39.9343480668
 20
161.4967269563
 11
43.2577361017
 21
163.6165925483
  0
LINE
  5
288
100
AcDbEntity
  8
0
100
AcDbLine
 62
7
  6
CONTINUOUS
 10
75.2637466635
 20
69.7632421062
 11
73.8234276299
 21
69.3700696122
  0
LINE
  5
289
100
AcDbEntity
  8
0
100
AcDbLine
 62
7
  6
CONTINUOUS
 10
73.8234276299
 20
70.170241981
 11
75.2637466635
 21
70.563414475
  0
LINE
  5
28A
100
AcDbEntity
  8
0
100
AcDbLine
 62
7
  6
CONTINUOUS
 10
75.2637466635
 20
73.9110743852
 11
73.8234276299
 21
73.5179018912
  0
LINE
  5
28B
100
AcDbEntity
  8
0
100
AcDbLine
 62
7
  6
CONTINUOUS
 10
73.8234276299
 20
74.31807426
 11
75.2637466635
 21
74.711246754
  0
LINE
  5
28C
100
AcDbEntity
  8
0
100
AcDbLine
 62
7
  6
CONTINUOUS
 10
37.9756264549
 20
100.1987717181
 11
28.4296451654
 21
105.7100219042
  0
LINE
  5
28D
100
AcDbEntity
  8
0
100
AcDbLine
 62
7
  6
CONTINUOUS
 10
75.2637466635
 20
78.859079033
 11
74.7820406472
 21
79.1371858395
  0
LINE
  5
28E
100
AcDbEntity
  8
0
100
AcDbLine
 62
7
  6
CONTINUOUS
 10
37.9756264549
 20
100.5253643218
 11
28.7124867003
 21
105.8733195657
  0
LINE
  5
28F
100
AcDbEntity
  8
0
100
AcDbLine
 62
7
  6
CONTINUOUS
 10
32.361172882
 20
104.7384351488
 11
34.3410801125
 21
103.5953610361
  0
LINE
  5
290
100
AcDbEntity
  8
0
100
AcDbLine
 62
7
  6
CONTINUOUS
 10
72.1162492158
 20
82.4154356684
 11
72.512018068
 21
82.1869435843
  0
LINE
  5
291
100
AcDbEntity
  8
0
100
AcDbLine
 62
7
  6
CONTINUOUS
 10
73.1346998139
 20
81.8274462436
 11
73.5304686661
 21
81.5989541594
  0
LINE
  5
292
100
AcDbEntity
  8
0
100
AcDbLine
 62
7
  6
CONTINUOUS
 10
31.4631435311
 20
105.9141853528
 11
32.361172882
 21
105.3957195946
  0
LINE
  5
293
100
AcDbEntity
  8
0
100
AcDbLine
 62
7
  6
CONTINUOUS
 10
34.3410801125
 20
104.2526454819
 11
36.2927029539
 21
103.1259009994
  0
LINE
  5
294
100
AcDbEntity
  8
0
100
AcDbLine
 62
7
  6
CONTINUOUS
 10
72.3248444062
 20
82.6787543037
 11
73.8234276299
 21
81.8135664492
  0
LINE
  5
295
100
AcDbEntity
  8
0
100
AcDbLine
 62
7
  6
CONTINUOUS
 10
73.5304686661
 20
82.5624270116
 11
73.1346998139
 21
82.7909190958
  0
LINE
  5
296
100
AcDbEntity
  8
0
100
AcDbLine
 62
7
  6
CONTINUOUS
 10
72.512018068
 20
83.1504164365
 11
72.1162492158
 21
83.3789085207
  0
LINE
  5
297
100
AcDbEntity
  8
0
100
AcDbLine
 62
7
  6
CONTINUOUS
 10
73.8234276299
 20
82.613738818
 11
73.7213848914
 21
82.6726518877
  0
LINE
  5
298
100
AcDbEntity
  8
0
100
AcDbLine
 62
7
  6
CONTINUOUS
 10
73.1346998139
 20
83.0113670124
 11
72.7452597539
 21
83.2362052494
  0
LINE
  5
299
100
AcDbEntity
  8
0
100
AcDbLine
 62
7
  6
CONTINUOUS
 10
29.2781744804
 20
109.4659385643
 11
31.4631435311
 21
108.2044746328
  0
LINE
  5
29A
100
AcDbEntity
  8
0
100
AcDbLine
 62
7
  6
CONTINUOUS
 10
75.2637466635
 20
83.006911312
 11
74.7820406472
 21
83.2850181186
  0
LINE
  5
29B
100
AcDbEntity
  8
0
100
AcDbLine
 62
7
  6
CONTINUOUS
 10
72.1162492158
 20
86.5632679475
 11
72.512018068
 21
86.3347758633
  0
LINE
  5
29C
100
AcDbEntity
  8
0
100
AcDbLine
 62
7
  6
CONTINUOUS
 10
73.1346998139
 20
85.9752785226
 11
73.5304686661
 21
85.7467864384
  0
LINE
  5
29D
100
AcDbEntity
  8
0
100
AcDbLine
 62
7
  6
CONTINUOUS
 10
73.8234276299
 20
85.9613987282
 11
72.3248444062
 21
86.8265865827
  0
LINE
  5
29E
100
AcDbEntity
  8
0
100
AcDbLine
 62
7
  6
CONTINUOUS
 10
72.3248444062
 20
87.4797885164
 11
73.8234276299
 21
86.6146006619
  0
LINE
  5
29F
100
AcDbEntity
  8
0
100
AcDbLine
 62
7
  6
CONTINUOUS
 10
45.5451859258
 20
120.3196589886
 11
45.5451859258
 21
112.2116606027
  0
LINE
  5
2A0
100
AcDbEntity
  8
0
100
AcDbLine
 62
7
  6
CONTINUOUS
 10
46.2029100196
 20
119.1804537649
 11
46.2029100196
 21
112.5914086424
  0
LINE
  5
2A1
100
AcDbEntity
  8
0
100
AcDbLine
 62
7
  6
CONTINUOUS
 10
46.8031865177
 20
120.5699473496
 11
46.8031865177
 21
156.9271082762
  0
LINE
  5
2A2
100
AcDbEntity
  8
0
100
AcDbLine
 62
7
  6
CONTINUOUS
 10
46.9347066725
 20
113.0139096077
 11
46.9347066725
 21
118.7579603284
  0
LINE
  5
2A3
100
AcDbEntity
  8
0
100
AcDbLine
 62
7
  6
CONTINUOUS
 10
47.4794396274
 20
157.1406648601
 11
47.4794396274
 21
119.5755386011
  0
LINE
  5
2A4
100
AcDbEntity
  8
0
100
AcDbLine
 62
7
  6
CONTINUOUS
 10
47.5407270117
 20
117.7463162178
 11
47.5407270117
 21
116.3189831407
  0
LINE
  5
2A5
100
AcDbEntity
  8
0
100
AcDbLine
 62
7
  6
CONTINUOUS
 10
47.6080031927
 20
129.6016581671
 11
47.6080031927
 21
119.3835951681
  0
LINE
  5
2A6
100
AcDbEntity
  8
0
100
AcDbLine
 62
7
  6
CONTINUOUS
 10
47.6080031927
 20
131.522404805
 11
47.6080031927
 21
157.090713246
  0
LINE
  5
2A7
100
AcDbEntity
  8
0
100
AcDbLine
 62
7
  6
CONTINUOUS
 10
47.9492087034
 20
131.325414168
 11
47.9492087034
 21
129.8343038239
  0
LINE
  5
2A8
100
AcDbEntity
  8
0
100
AcDbLine
 62
7
  6
CONTINUOUS
 10
48.7024986492
 20
157.8140776169
 11
48.7024986492
 21
157.8953107779
  0
LINE
  5
2A9
100
AcDbEntity
  8
0
100
AcDbLine
 62
7
  6
CONTINUOUS
 10
49.0807345516
 20
110.9299334618
 11
49.0807345516
 21
117.5189785842
  0
LINE
  5
2AA
100
AcDbEntity
  8
0
100
AcDbLine
 62
7
  6
CONTINUOUS
 10
49.7384586453
 20
109.7907282381
 11
49.7384586453
 21
117.898726624
  0
LINE
  5
2AB
100
AcDbEntity
  8
0
100
AcDbLine
 62
7
  6
CONTINUOUS
 10
50.4702552982
 20
110.156203418
 11
50.4702552982
 21
117.7311105287
  0
LINE
  5
2AC
100
AcDbEntity
  8
0
100
AcDbLine
 62
7
  6
CONTINUOUS
 10
48.7681019292
 20
157.8574355634
 11
47.6080031927
 21
157.090713246
  0
LINE
  5
2AD
100
AcDbEntity
  8
0
100
AcDbLine
 62
7
  6
CONTINUOUS
 10
48.7024986492
 20
157.8953107779
 11
47.4794396274
 21
157.1406648601
  0
LINE
  5
2AE
100
AcDbEntity
  8
0
100
AcDbLine
 62
7
  6
CONTINUOUS
 10
38.2726174926
 20
157.7581803558
 11
38.6968797949
 21
158.0031268481
  0
LINE
  5
2AF
100
AcDbEntity
  8
0
100
AcDbLine
 62
7
  6
CONTINUOUS
 10
38.2726174926
 20
155.1453726209
 11
38.6968797949
 21
155.3903191133
  0
LINE
  5
2B0
100
AcDbEntity
  8
0
100
AcDbLine
 62
7
  6
CONTINUOUS
 10
29.9004310385
 20
148.2865551863
 11
30.6888720065
 21
148.7417590742
  0
LINE
  5
2B1
100
AcDbEntity
  8
0
100
AcDbLine
 62
7
  6
CONTINUOUS
 10
31.0742331823
 20
148.5192757289
 11
33.0683170654
 21
149.6705537234
  0
LINE
  5
2B2
100
AcDbEntity
  8
0
100
AcDbLine
 62
7
  6
CONTINUOUS
 10
38.2726174926
 20
152.5325648861
 11
38.6968797949
 21
152.7775113785
  0
LINE
  5
2B3
100
AcDbEntity
  8
0
100
AcDbLine
 62
7
  6
CONTINUOUS
 10
28.8680508398
 20
145.5594218502
 11
34.5285620046
 21
148.8274999871
  0
LINE
  5
2B4
100
AcDbEntity
  8
0
100
AcDbLine
 62
7
  6
CONTINUOUS
 10
37.0960350493
 20
159.2539966526
 11
37.2437553205
 21
159.336356221
  0
LINE
  5
2B5
100
AcDbEntity
  8
0
100
AcDbLine
 62
7
  6
CONTINUOUS
 10
75.2637466635
 20
78.0589066642
 11
73.8234276299
 21
77.6657341702
  0
LINE
  5
2B6
100
AcDbEntity
  8
0
100
AcDbLine
 62
7
  6
CONTINUOUS
 10
73.8234276299
 20
78.465906539
 11
75.2637466635
 21
78.859079033
  0
LINE
  5
2B7
100
AcDbEntity
  8
0
100
AcDbLine
 62
7
  6
CONTINUOUS
 10
75.2637466635
 20
82.2067389432
 11
73.8234276299
 21
81.8135664492
  0
LINE
  5
2B8
100
AcDbEntity
  8
0
100
AcDbLine
 62
7
  6
CONTINUOUS
 10
68.0821772234
 20
91.1539604061
 11
70.2035063988
 21
89.9292381425
  0
LINE
  5
2B9
100
AcDbEntity
  8
0
100
AcDbLine
 62
7
  6
CONTINUOUS
 10
70.4863502889
 20
89.7659418407
 11
73.385500162
 21
88.0921547472
  0
LINE
  5
2BA
100
AcDbEntity
  8
0
100
AcDbLine
 62
7
  6
CONTINUOUS
 10
75.2637466635
 20
87.007773156
 11
78.4766901831
 21
85.1528213147
  0
LINE
  5
2BB
100
AcDbEntity
  8
0
100
AcDbLine
 62
7
  6
CONTINUOUS
 10
68.6478602932
 20
91.4805557292
 11
69.7085248809
 21
90.8681945974
  0
LINE
  5
2BC
100
AcDbEntity
  8
0
100
AcDbLine
 62
7
  6
CONTINUOUS
 10
31.4631435311
 20
113.3484398608
 11
29.2781744804
 21
114.6099037922
  0
LINE
  5
2BD
100
AcDbEntity
  8
0
100
AcDbLine
 62
7
  6
CONTINUOUS
 10
36.2927029539
 20
112.8504447874
 11
34.3410801125
 21
113.9771892699
  0
LINE
  5
2BE
100
AcDbEntity
  8
0
100
AcDbLine
 62
7
  6
CONTINUOUS
 10
32.361172882
 20
115.1202633826
 11
31.4631435311
 21
115.6387291408
  0
LINE
  5
2BF
100
AcDbEntity
  8
0
100
AcDbLine
 62
7
  6
CONTINUOUS
 10
34.3410801125
 20
114.6344737157
 11
32.361172882
 21
115.7775478284
  0
LINE
  5
2C0
100
AcDbEntity
  8
0
100
AcDbLine
 62
7
  6
CONTINUOUS
 10
28.4296451654
 20
118.6924103365
 11
37.9756264549
 21
113.1811601505
  0
LINE
  5
2C1
100
AcDbEntity
  8
0
100
AcDbLine
 62
7
  6
CONTINUOUS
 10
45.5451859258
 20
112.2116606027
 11
49.7384586453
 21
109.7907282381
  0
LINE
  5
2C2
100
AcDbEntity
  8
0
100
AcDbLine
 62
7
  6
CONTINUOUS
 10
52.4995743288
 20
146.7255170602
 11
52.4995743288
 21
145.1782735876
  0
LINE
  5
2C3
100
AcDbEntity
  8
0
100
AcDbLine
 62
7
  6
CONTINUOUS
 10
53.8150526098
 20
144.4187990296
 11
53.8150526098
 21
145.9660425013
  0
LINE
  5
2C4
100
AcDbEntity
  8
0
100
AcDbLine
 62
7
  6
CONTINUOUS
 10
55.5917207836
 20
144.0382627981
 11
55.5917207836
 21
147.92352152
  0
LINE
  5
2C5
100
AcDbEntity
  8
0
100
AcDbLine
 62
7
  6
CONTINUOUS
 10
56.6457630736
 20
147.838838021
 11
56.6457630736
 21
126.304569748
  0
LINE
  5
2C6
100
AcDbEntity
  8
0
100
AcDbLine
 62
7
  6
CONTINUOUS
 10
56.6457630736
 20
118.1998002792
 11
56.6457630736
 21
124.3838231102
  0
LINE
  5
2C7
100
AcDbEntity
  8
0
100
AcDbLine
 62
7
  6
CONTINUOUS
 10
57.0116614001
 20
124.6022126857
 11
57.0116614001
 21
126.4801682451
  0
LINE
  5
2C8
100
AcDbEntity
  8
0
100
AcDbLine
 62
7
  6
CONTINUOUS
 10
57.8897212451
 20
148.6369410026
 11
57.8898173836
 21
118.8695800009
  0
LINE
  5
2C9
100
AcDbEntity
  8
0
100
AcDbLine
 62
7
  6
CONTINUOUS
 10
56.5867544207
 20
155.9212543256
 11
54.4653515581
 21
154.5680903592
  0
LINE
  5
2CA
100
AcDbEntity
  8
0
100
AcDbLine
 62
7
  6
CONTINUOUS
 10
54.3542687579
 20
154.6323336026
 11
53.1521922346
 21
153.8898466235
  0
LINE
  5
2CB
100
AcDbEntity
  8
0
100
AcDbLine
 62
7
  6
CONTINUOUS
 10
38.2726174926
 20
149.9197571513
 11
38.6968797949
 21
150.1647036436
  0
LINE
  5
2CC
100
AcDbEntity
  8
0
100
AcDbLine
 62
7
  6
CONTINUOUS
 10
29.9004310385
 20
144.9633903486
 11
35.5609422033
 21
148.2314684855
  0
LINE
  5
2CD
100
AcDbEntity
  8
0
100
AcDbLine
 62
7
  6
CONTINUOUS
 10
29.9004310385
 20
144.0529901535
 11
35.9250058968
 21
147.5312593072
  0
LINE
  5
2CE
100
AcDbEntity
  8
0
100
AcDbLine
 62
7
  6
CONTINUOUS
 10
31.0742331823
 20
143.375310501
 11
35.9250058968
 21
146.1758887163
  0
LINE
  5
2CF
100
AcDbEntity
  8
0
100
AcDbLine
 62
7
  6
CONTINUOUS
 10
38.2726174926
 20
147.3069494165
 11
38.6968797949
 21
147.5518959088
  0
LINE
  5
2D0
100
AcDbEntity
  8
0
100
AcDbLine
 62
7
  6
CONTINUOUS
 10
28.4225740681
 20
140.5379324023
 11
28.705415603
 21
140.7012300638
  0
LINE
  5
2D1
100
AcDbEntity
  8
0
100
AcDbLine
 62
7
  6
CONTINUOUS
 10
31.0742331823
 20
141.0727736847
 11
35.9250058968
 21
143.8733519
  0
LINE
  5
2D2
100
AcDbEntity
  8
0
100
AcDbLine
 62
7
  6
CONTINUOUS
 10
38.2726174926
 20
144.6941416817
 11
38.6968797949
 21
144.939088174
  0
LINE
  5
2D3
100
AcDbEntity
  8
0
100
AcDbLine
 62
7
  6
CONTINUOUS
 10
73.8234276299
 20
82.613738818
 11
75.2637466635
 21
83.006911312
  0
LINE
  5
2D4
100
AcDbEntity
  8
0
100
AcDbLine
 62
7
  6
CONTINUOUS
 10
75.2637466635
 20
86.3545712223
 11
73.8234276299
 21
85.9613987282
  0
LINE
  5
2D5
100
AcDbEntity
  8
0
100
AcDbLine
 62
7
  6
CONTINUOUS
 10
73.8234276299
 20
86.6146006619
 11
75.2637466635
 21
87.007773156
  0
LINE
  5
2D6
100
AcDbEntity
  8
0
100
AcDbLine
 62
7
  6
CONTINUOUS
 10
84.7168438343
 20
93.9851618108
 11
83.7509169304
 21
94.1345865982
  0
LINE
  5
2D7
100
AcDbEntity
  8
0
100
AcDbLine
 62
7
  6
CONTINUOUS
 10
46.2029100196
 20
112.5914086424
 11
49.0807345516
 21
110.9299334618
  0
LINE
  5
2D8
100
AcDbEntity
  8
0
100
AcDbLine
 62
7
  6
CONTINUOUS
 10
37.9756264549
 20
117.6719234447
 11
28.4296451654
 21
123.1831736307
  0
LINE
  5
2D9
100
AcDbEntity
  8
0
100
AcDbLine
 62
7
  6
CONTINUOUS
 10
37.9756264549
 20
117.9985160483
 11
28.7124867003
 21
123.3464712923
  0
LINE
  5
2DA
100
AcDbEntity
  8
0
100
AcDbLine
 62
7
  6
CONTINUOUS
 10
49.0807345516
 20
111.7749278636
 11
46.9347066725
 21
113.0139096077
  0
LINE
  5
2DB
100
AcDbEntity
  8
0
100
AcDbLine
 62
7
  6
CONTINUOUS
 10
32.361172882
 20
122.2115868753
 11
34.3410801125
 21
121.0685127627
  0
LINE
  5
2DC
100
AcDbEntity
  8
0
100
AcDbLine
 62
7
  6
CONTINUOUS
 10
31.4631435311
 20
123.3873370794
 11
32.361172882
 21
122.8688713211
  0
LINE
  5
2DD
100
AcDbEntity
  8
0
100
AcDbLine
 62
7
  6
CONTINUOUS
 10
34.3410801125
 20
121.7257972085
 11
36.2927029539
 21
120.599052726
  0
LINE
  5
2DE
100
AcDbEntity
  8
0
100
AcDbLine
 62
7
  6
CONTINUOUS
 10
83.7509169304
 20
94.1345865982
 11
79.5584813333
 21
96.5550356608
  0
LINE
  5
2DF
100
AcDbEntity
  8
0
100
AcDbLine
 62
7
  6
CONTINUOUS
 10
89.3613776171
 20
91.0508818344
 11
87.8760664067
 21
91.9084072617
  0
LINE
  5
2E0
100
AcDbEntity
  8
0
100
AcDbLine
 62
7
  6
CONTINUOUS
 10
87.8760664067
 20
92.1612250712
 11
84.7168438343
 21
93.9851618108
  0
LINE
  5
2E1
100
AcDbEntity
  8
0
100
AcDbLine
 62
7
  6
CONTINUOUS
 10
87.8760664067
 20
92.4799589537
 11
89.3613776171
 21
91.6224335264
  0
LINE
  5
2E2
100
AcDbEntity
  8
0
100
AcDbLine
 62
7
  6
CONTINUOUS
 10
89.3083443877
 20
91.7755269455
 11
88.9439280259
 21
91.9859180704
  0
LINE
  5
2E3
100
AcDbEntity
  8
0
100
AcDbLine
 62
7
  6
CONTINUOUS
 10
88.2585412993
 20
92.3816173296
 11
87.8941249374
 21
92.5920084546
  0
LINE
  5
2E4
100
AcDbEntity
  8
0
100
AcDbLine
 62
7
  6
CONTINUOUS
 10
87.8941249374
 20
92.7141858773
 11
83.987259803
 21
94.9697644863
  0
LINE
  5
2E5
100
AcDbEntity
  8
0
100
AcDbLine
 62
7
  6
CONTINUOUS
 10
49.0807345516
 20
115.4298794872
 11
47.5407270117
 21
116.3189831407
  0
LINE
  5
2E6
100
AcDbEntity
  8
0
100
AcDbLine
 62
7
  6
CONTINUOUS
 10
29.2781744804
 20
126.9390902909
 11
31.4631435311
 21
125.6776263594
  0
LINE
  5
2E7
100
AcDbEntity
  8
0
100
AcDbLine
 62
7
  6
CONTINUOUS
 10
94.3111368613
 20
89.4179239153
 11
93.038339356
 21
90.1527572735
  0
LINE
  5
2E8
100
AcDbEntity
  8
0
100
AcDbLine
 62
7
  6
CONTINUOUS
 10
92.696917411
 20
90.349872866
 11
90.4220333729
 21
91.6632480652
  0
LINE
  5
2E9
100
AcDbEntity
  8
0
100
AcDbLine
 62
7
  6
CONTINUOUS
 10
87.8941249374
 20
93.1227036636
 11
85.9672421045
 21
94.2351648187
  0
LINE
  5
2EA
100
AcDbEntity
  8
0
100
AcDbLine
 62
7
  6
CONTINUOUS
 10
85.8835421807
 20
94.3648590181
 11
84.2936704844
 21
95.2827511044
  0
LINE
  5
2EB
100
AcDbEntity
  8
0
100
AcDbLine
 62
7
  6
CONTINUOUS
 10
90.4220333729
 20
92.2347997572
 11
90.2629318519
 21
92.3266549851
  0
LINE
  5
2EC
100
AcDbEntity
  8
0
100
AcDbLine
 62
7
  6
CONTINUOUS
 10
47.5407270117
 20
117.7463162178
 11
49.0807345516
 21
116.8572125644
  0
LINE
  5
2ED
100
AcDbEntity
  8
0
100
AcDbLine
 62
7
  6
CONTINUOUS
 10
49.0807345516
 20
117.0807901641
 11
47.6591935651
 21
117.9014986684
  0
LINE
  5
2EE
100
AcDbEntity
  8
0
100
AcDbLine
 62
7
  6
CONTINUOUS
 10
89.3083443877
 20
94.0617337135
 11
88.9439280259
 21
94.2721248384
  0
LINE
  5
2EF
100
AcDbEntity
  8
0
100
AcDbLine
 62
7
  6
CONTINUOUS
 10
88.2585412993
 20
94.6678240976
 11
87.8941249374
 21
94.8782152225
  0
LINE
  5
2F0
100
AcDbEntity
  8
0
100
AcDbLine
 62
7
  6
CONTINUOUS
 10
89.3613776171
 20
94.1535910195
 11
87.8760664067
 21
95.0111164468
  0
LINE
  5
2F1
100
AcDbEntity
  8
0
100
AcDbLine
 62
7
  6
CONTINUOUS
 10
49.0807345516
 20
117.5189785842
 11
46.2029100196
 21
119.1804537649
  0
LINE
  5
2F2
100
AcDbEntity
  8
0
100
AcDbLine
 62
7
  6
CONTINUOUS
 10
89.3613776171
 20
94.7333077356
 11
87.8760664067
 21
95.590833163
  0
LINE
  5
2F3
100
AcDbEntity
  8
0
100
AcDbLine
 62
7
  6
CONTINUOUS
 10
89.3083443877
 20
94.8864011548
 11
88.9439280259
 21
95.0967922797
  0
LINE
  5
2F4
100
AcDbEntity
  8
0
100
AcDbLine
 62
7
  6
CONTINUOUS
 10
88.2585412993
 20
95.4924915389
 11
87.8941249374
 21
95.7028826638
  0
LINE
  5
2F5
100
AcDbEntity
  8
0
100
AcDbLine
 62
7
  6
CONTINUOUS
 10
49.7384586453
 20
117.898726624
 11
45.5451859258
 21
120.3196589886
  0
LINE
  5
2F6
100
AcDbEntity
  8
0
100
AcDbLine
 62
7
  6
CONTINUOUS
 10
90.3690001436
 20
94.6740999443
 11
90.3159650813
 21
94.7047190591
  0
LINE
  5
2F7
100
AcDbEntity
  8
0
100
AcDbLine
 62
7
  6
CONTINUOUS
 10
53.1521922346
 20
116.1827285456
 11
47.6080031927
 21
119.3835951681
  0
LINE
  5
2F8
100
AcDbEntity
  8
0
100
AcDbLine
 62
7
  6
CONTINUOUS
 10
39.9343480668
 20
123.9316006973
 11
47.4794396274
 21
119.5755386011
  0
LINE
  5
2F9
100
AcDbEntity
  8
0
100
AcDbLine
 62
7
  6
CONTINUOUS
 10
60.1223030465
 20
119.9952002421
 11
60.1223030465
 21
149.7975384673
  0
LINE
  5
2FA
100
AcDbEntity
  8
0
100
AcDbLine
 62
7
  6
CONTINUOUS
 10
57.8898173836
 20
118.8695800009
 11
57.8820303696
 21
118.8306047108
  0
LINE
  5
2FB
100
AcDbEntity
  8
0
100
AcDbLine
 62
7
  6
CONTINUOUS
 10
53.1822222413
 20
147.9500233412
 11
54.3234259348
 21
148.6557138183
  0
LINE
  5
2FC
100
AcDbEntity
  8
0
100
AcDbLine
 62
7
  6
CONTINUOUS
 10
38.2726174926
 20
142.0813339469
 11
38.6968797949
 21
142.3262804392
  0
LINE
  5
2FD
100
AcDbEntity
  8
0
100
AcDbLine
 62
7
  6
CONTINUOUS
 10
38.2726174926
 20
139.4685262121
 11
38.6968797949
 21
139.7134727044
  0
LINE
  5
2FE
100
AcDbEntity
  8
0
100
AcDbLine
 62
7
  6
CONTINUOUS
 10
54.521943014
 20
147.1765383629
 11
55.5917207836
 21
147.7941715256
  0
LINE
  5
2FF
100
AcDbEntity
  8
0
100
AcDbLine
 62
7
  6
CONTINUOUS
 10
38.2726174926
 20
136.8557184772
 11
38.6968797949
 21
137.1006649696
  0
LINE
  5
300
100
AcDbEntity
  8
0
100
AcDbLine
 62
7
  6
CONTINUOUS
 10
32.361172882
 20
132.5934151091
 11
32.9304060473
 21
132.9220600686
  0
LINE
  5
301
100
AcDbEntity
  8
0
100
AcDbLine
 62
7
  6
CONTINUOUS
 10
31.4631435311
 20
130.8215915873
 11
34.0158537503
 21
132.2953907222
  0
LINE
  5
302
100
AcDbEntity
  8
0
100
AcDbLine
 62
7
  6
CONTINUOUS
 10
38.2726174926
 20
134.2429107424
 11
38.6968797949
 21
134.4878572348
  0
LINE
  5
303
100
AcDbEntity
  8
0
100
AcDbLine
 62
7
  6
CONTINUOUS
 10
56.6457630736
 20
147.838838021
 11
57.8898173836
 21
148.5086177444
  0
LINE
  5
304
100
AcDbEntity
  8
0
100
AcDbLine
 62
7
  6
CONTINUOUS
 10
57.8897212451
 20
148.6369410026
 11
60.1223030465
 21
149.7975384673
  0
LINE
  5
305
100
AcDbEntity
  8
0
100
AcDbLine
 62
7
  6
CONTINUOUS
 10
90.4220333729
 20
95.3456739664
 11
90.2629318519
 21
95.4375291944
  0
LINE
  5
306
100
AcDbEntity
  8
0
100
AcDbLine
 62
7
  6
CONTINUOUS
 10
39.9343480668
 20
124.5355833635
 11
46.8031865177
 21
120.5699473496
  0
LINE
  5
307
100
AcDbEntity
  8
0
100
AcDbLine
 62
7
  6
CONTINUOUS
 10
46.8031865177
 20
120.7446453336
 11
40.0757688343
 21
124.6286338765
  0
LINE
  5
308
100
AcDbEntity
  8
0
100
AcDbLine
 62
7
  6
CONTINUOUS
 10
89.3083443877
 20
97.1726079227
 11
88.9439280259
 21
97.3829990477
  0
LINE
  5
309
100
AcDbEntity
  8
0
100
AcDbLine
 62
7
  6
CONTINUOUS
 10
88.2585412993
 20
97.7786983069
 11
87.8941249374
 21
97.9890894318
  0
LINE
  5
30A
100
AcDbEntity
  8
0
100
AcDbLine
 62
7
  6
CONTINUOUS
 10
89.3613776171
 20
97.2644652287
 11
87.8760664067
 21
98.1219906561
  0
LINE
  5
30B
100
AcDbEntity
  8
0
100
AcDbLine
 62
7
  6
CONTINUOUS
 10
31.4631435311
 20
130.8215915873
 11
29.2781744804
 21
132.0830555188
  0
LINE
  5
30C
100
AcDbEntity
  8
0
100
AcDbLine
 62
7
  6
CONTINUOUS
 10
89.3613776171
 20
97.8441819449
 11
87.8760664067
 21
98.7017073722
  0
LINE
  5
30D
100
AcDbEntity
  8
0
100
AcDbLine
 62
7
  6
CONTINUOUS
 10
89.3083443877
 20
97.997275364
 11
88.9439280259
 21
98.207666489
  0
LINE
  5
30E
100
AcDbEntity
  8
0
100
AcDbLine
 62
7
  6
CONTINUOUS
 10
88.2585412993
 20
98.6033657482
 11
87.8941249374
 21
98.8137568731
  0
LINE
  5
30F
100
AcDbEntity
  8
0
100
AcDbLine
 62
7
  6
CONTINUOUS
 10
90.3690001436
 20
97.7849741536
 11
90.3159650813
 21
97.8155932683
  0
LINE
  5
310
100
AcDbEntity
  8
0
100
AcDbLine
 62
7
  6
CONTINUOUS
 10
90.4220333729
 20
98.4565481757
 11
90.2629318519
 21
98.5484034037
  0
LINE
  5
311
100
AcDbEntity
  8
0
100
AcDbLine
 62
7
  6
CONTINUOUS
 10
36.2927029539
 20
130.323596514
 11
34.3410801125
 21
131.4503409965
  0
LINE
  5
312
100
AcDbEntity
  8
0
100
AcDbLine
 62
7
  6
CONTINUOUS
 10
32.361172882
 20
132.5934151091
 11
31.4631435311
 21
133.1118808674
  0
LINE
  5
313
100
AcDbEntity
  8
0
100
AcDbLine
 62
7
  6
CONTINUOUS
 10
89.3083443877
 20
100.283482132
 11
88.9439280259
 21
100.4938732569
  0
LINE
  5
314
100
AcDbEntity
  8
0
100
AcDbLine
 62
7
  6
CONTINUOUS
 10
88.2585412993
 20
100.8895725161
 11
87.8941249374
 21
101.099963641
  0
LINE
  5
315
100
AcDbEntity
  8
0
100
AcDbLine
 62
7
  6
CONTINUOUS
 10
34.3410801125
 20
132.1076254423
 11
32.361172882
 21
133.2506995549
  0
LINE
  5
316
100
AcDbEntity
  8
0
100
AcDbLine
 62
7
  6
CONTINUOUS
 10
89.3613776171
 20
100.375339438
 11
87.8760664067
 21
101.2328648653
  0
LINE
  5
317
100
AcDbEntity
  8
0
100
AcDbLine
 62
7
  6
CONTINUOUS
 10
89.3613776171
 20
100.9550561542
 11
87.8760664067
 21
101.8125815815
  0
LINE
  5
318
100
AcDbEntity
  8
0
100
AcDbLine
 62
7
  6
CONTINUOUS
 10
28.4296451654
 20
136.1655620631
 11
36.572972278
 21
131.4641163234
  0
LINE
  5
319
100
AcDbEntity
  8
0
100
AcDbLine
 62
7
  6
CONTINUOUS
 10
89.3083443877
 20
101.1081495733
 11
88.9439280259
 21
101.3185406982
  0
LINE
  5
31A
100
AcDbEntity
  8
0
100
AcDbLine
 62
7
  6
CONTINUOUS
 10
88.2585412993
 20
101.7142399574
 11
87.8941249374
 21
101.9246310823
  0
LINE
  5
31B
100
AcDbEntity
  8
0
100
AcDbLine
 62
7
  6
CONTINUOUS
 10
90.3690001436
 20
100.8958483628
 11
90.3159650813
 21
100.9264674776
  0
LINE
  5
31C
100
AcDbEntity
  8
0
100
AcDbLine
 62
7
  6
CONTINUOUS
 10
38.2726174926
 20
131.6301030076
 11
39.6868369429
 21
130.8136214986
  0
LINE
  5
31D
100
AcDbEntity
  8
0
100
AcDbLine
 62
7
  6
CONTINUOUS
 10
90.4220333729
 20
101.567422385
 11
90.2629318519
 21
101.6592776129
  0
LINE
  5
31E
100
AcDbEntity
  8
0
100
AcDbLine
 62
7
  6
CONTINUOUS
 10
39.6868369429
 20
131.303510404
 11
38.6968797949
 21
131.8750494999
  0
LINE
  5
31F
100
AcDbEntity
  8
0
100
AcDbLine
 62
7
  6
CONTINUOUS
 10
39.6868369429
 20
131.7117741574
 11
38.2726174926
 21
132.5282556665
  0
LINE
  5
320
100
AcDbEntity
  8
0
100
AcDbLine
 62
7
  6
CONTINUOUS
 10
89.3083443877
 20
103.3943563413
 11
88.9439280259
 21
103.6047474662
  0
LINE
  5
321
100
AcDbEntity
  8
0
100
AcDbLine
 62
7
  6
CONTINUOUS
 10
88.2585412993
 20
104.0004467254
 11
87.8941249374
 21
104.2108378503
  0
LINE
  5
322
100
AcDbEntity
  8
0
100
AcDbLine
 62
7
  6
CONTINUOUS
 10
89.3613776171
 20
103.4862136473
 11
87.8760664067
 21
104.3437390746
  0
LINE
  5
323
100
AcDbEntity
  8
0
100
AcDbLine
 62
7
  6
CONTINUOUS
 10
89.3613776171
 20
104.0659303634
 11
87.8760664067
 21
104.9234557908
  0
LINE
  5
324
100
AcDbEntity
  8
0
100
AcDbLine
 62
7
  6
CONTINUOUS
 10
89.3083443877
 20
104.2190237826
 11
88.9439280259
 21
104.4294149075
  0
LINE
  5
325
100
AcDbEntity
  8
0
100
AcDbLine
 62
7
  6
CONTINUOUS
 10
88.2585412993
 20
104.8251141667
 11
87.8941249374
 21
105.0355052916
  0
LINE
  5
326
100
AcDbEntity
  8
0
100
AcDbLine
 62
7
  6
CONTINUOUS
 10
54.0257823032
 20
143.9589294057
 11
53.8150526098
 21
144.4186907838
  0
LINE
  5
327
100
AcDbEntity
  8
0
100
AcDbLine
 62
7
  6
CONTINUOUS
 10
52.4995743288
 20
145.1782141373
 11
52.7030735585
 21
144.7225783546
  0
LINE
  5
328
100
AcDbEntity
  8
0
100
AcDbLine
 62
7
  6
CONTINUOUS
 10
68.0821772234
 20
69.9085675124
 11
68.0821772234
 21
91.1539604061
  0
LINE
  5
329
100
AcDbEntity
  8
0
100
AcDbLine
 62
7
  6
CONTINUOUS
 10
70.1449283439
 20
68.6021970979
 11
70.1449283439
 21
89.8475899916
  0
LINE
  5
32A
100
AcDbEntity
  8
0
100
AcDbLine
 62
7
  6
CONTINUOUS
 10
70.4863502889
 20
68.520548947
 11
70.4863502889
 21
89.7659418407
  0
LINE
  5
32B
100
AcDbEntity
  8
0
100
AcDbLine
 62
7
  6
CONTINUOUS
 10
72.1162492158
 20
86.5632679475
 11
72.1162492158
 21
83.3789085207
  0
LINE
  5
32C
100
AcDbEntity
  8
0
100
AcDbLine
 62
7
  6
CONTINUOUS
 10
72.1162492158
 20
82.4154356684
 11
72.1162492158
 21
79.2310762416
  0
LINE
  5
32D
100
AcDbEntity
  8
0
100
AcDbLine
 62
7
  6
CONTINUOUS
 10
72.1162492158
 20
78.2676033894
 11
72.1162492158
 21
75.0832439626
  0
LINE
  5
32E
100
AcDbEntity
  8
0
100
AcDbLine
 62
7
  6
CONTINUOUS
 10
72.1162492158
 20
74.1197711104
 11
72.1162492158
 21
70.9354116836
  0
LINE
  5
32F
100
AcDbEntity
  8
0
100
AcDbLine
 62
7
  6
CONTINUOUS
 10
72.1162492158
 20
69.9719388314
 11
72.1162492158
 21
66.7875794046
  0
LINE
  5
330
100
AcDbEntity
  8
0
100
AcDbLine
 62
7
  6
CONTINUOUS
 10
72.3248444062
 20
66.2343956227
 11
72.3248444062
 21
66.6671496397
  0
LINE
  5
331
100
AcDbEntity
  8
0
100
AcDbLine
 62
7
  6
CONTINUOUS
 10
72.3248444062
 20
70.2352574666
 11
72.3248444062
 21
70.8149819188
  0
LINE
  5
332
100
AcDbEntity
  8
0
100
AcDbLine
 62
7
  6
CONTINUOUS
 10
72.3248444062
 20
74.3830897456
 11
72.3248444062
 21
74.9628141978
  0
LINE
  5
333
100
AcDbEntity
  8
0
100
AcDbLine
 62
7
  6
CONTINUOUS
 10
72.3248444062
 20
78.5309220247
 11
72.3248444062
 21
79.1106464768
  0
LINE
  5
334
100
AcDbEntity
  8
0
100
AcDbLine
 62
7
  6
CONTINUOUS
 10
72.3248444062
 20
82.6787543037
 11
72.3248444062
 21
83.2584787558
  0
LINE
  5
335
100
AcDbEntity
  8
0
100
AcDbLine
 62
7
  6
CONTINUOUS
 10
72.3248444062
 20
86.8265865827
 11
72.3248444062
 21
87.4797885164
  0
LINE
  5
336
100
AcDbEntity
  8
0
100
AcDbLine
 62
7
  6
CONTINUOUS
 10
72.512018068
 20
66.5590873204
 11
72.512018068
 21
69.7434467472
  0
LINE
  5
337
100
AcDbEntity
  8
0
100
AcDbLine
 62
7
  6
CONTINUOUS
 10
72.512018068
 20
70.7069195994
 11
72.512018068
 21
73.8912790262
  0
LINE
  5
338
100
AcDbEntity
  8
0
100
AcDbLine
 62
7
  6
CONTINUOUS
 10
72.512018068
 20
74.8547518784
 11
72.512018068
 21
78.0391113052
  0
LINE
  5
339
100
AcDbEntity
  8
0
100
AcDbLine
 62
7
  6
CONTINUOUS
 10
72.512018068
 20
79.0025841575
 11
72.512018068
 21
82.1869435843
  0
LINE
  5
33A
100
AcDbEntity
  8
0
100
AcDbLine
 62
7
  6
CONTINUOUS
 10
72.512018068
 20
83.1504164365
 11
72.512018068
 21
86.3347758633
  0
LINE
  5
33B
100
AcDbEntity
  8
0
100
AcDbLine
 62
7
  6
CONTINUOUS
 10
73.1346998139
 20
85.9752785226
 11
73.1346998139
 21
82.7909190958
  0
LINE
  5
33C
100
AcDbEntity
  8
0
100
AcDbLine
 62
7
  6
CONTINUOUS
 10
73.1346998139
 20
81.8274462436
 11
73.1346998139
 21
78.6430868168
  0
LINE
  5
33D
100
AcDbEntity
  8
0
100
AcDbLine
 62
7
  6
CONTINUOUS
 10
73.1346998139
 20
77.6796139646
 11
73.1346998139
 21
74.4952545378
  0
LINE
  5
33E
100
AcDbEntity
  8
0
100
AcDbLine
 62
7
  6
CONTINUOUS
 10
73.1346998139
 20
73.5317816855
 11
73.1346998139
 21
70.3474222587
  0
LINE
  5
33F
100
AcDbEntity
  8
0
100
AcDbLine
 62
7
  6
CONTINUOUS
 10
73.1346998139
 20
69.3839494065
 11
73.1346998139
 21
66.1995899797
  0
LINE
  5
340
100
AcDbEntity
  8
0
100
AcDbLine
 62
7
  6
CONTINUOUS
 10
73.5304686661
 20
85.7467864384
 11
73.5304686661
 21
82.5624270116
  0
LINE
  5
341
100
AcDbEntity
  8
0
100
AcDbLine
 62
7
  6
CONTINUOUS
 10
73.5304686661
 20
81.5989541594
 11
73.5304686661
 21
78.4145947326
  0
LINE
  5
342
100
AcDbEntity
  8
0
100
AcDbLine
 62
7
  6
CONTINUOUS
 10
73.5304686661
 20
77.4511218804
 11
73.5304686661
 21
74.2667624536
  0
LINE
  5
343
100
AcDbEntity
  8
0
100
AcDbLine
 62
7
  6
CONTINUOUS
 10
73.5304686661
 20
73.3032896014
 11
73.5304686661
 21
70.1189301746
  0
LINE
  5
344
100
AcDbEntity
  8
0
100
AcDbLine
 62
7
  6
CONTINUOUS
 10
73.5304686661
 20
69.1554573223
 11
73.5304686661
 21
65.9710978955
  0
LINE
  5
345
100
AcDbEntity
  8
0
100
AcDbLine
 62
7
  6
CONTINUOUS
 10
73.8234276299
 20
86.6146006619
 11
73.8234276299
 21
85.9613987282
  0
LINE
  5
346
100
AcDbEntity
  8
0
100
AcDbLine
 62
7
  6
CONTINUOUS
 10
73.8234276299
 20
82.613738818
 11
73.8234276299
 21
81.8135664492
  0
LINE
  5
347
100
AcDbEntity
  8
0
100
AcDbLine
 62
7
  6
CONTINUOUS
 10
73.8234276299
 20
78.465906539
 11
73.8234276299
 21
77.6657341702
  0
LINE
  5
348
100
AcDbEntity
  8
0
100
AcDbLine
 62
7
  6
CONTINUOUS
 10
73.8234276299
 20
74.31807426
 11
73.8234276299
 21
73.5179018912
  0
LINE
  5
349
100
AcDbEntity
  8
0
100
AcDbLine
 62
7
  6
CONTINUOUS
 10
73.8234276299
 20
70.170241981
 11
73.8234276299
 21
69.3700696122
  0
LINE
  5
34A
100
AcDbEntity
  8
0
100
AcDbLine
 62
7
  6
CONTINUOUS
 10
73.8234276299
 20
66.0224097019
 11
73.8234276299
 21
65.3692077682
  0
LINE
  5
34B
100
AcDbEntity
  8
0
100
AcDbLine
 62
7
  6
CONTINUOUS
 10
47.5407270117
 20
117.7463162178
 11
47.6591935651
 21
117.9014986684
  0
LINE
  5
34C
100
AcDbEntity
  8
0
100
AcDbLine
 62
7
  6
CONTINUOUS
 10
47.9492087034
 20
129.8343038239
 11
47.6080031927
 21
129.6016581671
  0
LINE
  5
34D
100
AcDbEntity
  8
0
100
AcDbLine
 62
7
  6
CONTINUOUS
 10
29.2781744804
 20
126.9390902909
 11
35.716519784
 21
130.6562484966
  0
LINE
  5
34E
100
AcDbEntity
  8
0
100
AcDbLine
 62
7
  6
CONTINUOUS
 10
38.2726174926
 20
131.6301030076
 11
38.6968797949
 21
131.8750494999
  0
LINE
  5
34F
100
AcDbEntity
  8
0
100
AcDbLine
 62
7
  6
CONTINUOUS
 10
31.4631435311
 20
125.6776263594
 11
36.2927029539
 21
128.4659571481
  0
LINE
  5
350
100
AcDbEntity
  8
0
100
AcDbLine
 62
7
  6
CONTINUOUS
 10
28.4296451654
 20
123.1831736307
 11
28.7124867003
 21
123.3464712923
  0
LINE
  5
351
100
AcDbEntity
  8
0
100
AcDbLine
 62
7
  6
CONTINUOUS
 10
31.4631435311
 20
123.3873370794
 11
36.2927029539
 21
126.1756678681
  0
LINE
  5
352
100
AcDbEntity
  8
0
100
AcDbLine
 62
7
  6
CONTINUOUS
 10
32.361172882
 20
122.8688713211
 11
36.2927029539
 21
125.1387277172
  0
LINE
  5
353
100
AcDbEntity
  8
0
100
AcDbLine
 62
7
  6
CONTINUOUS
 10
32.361172882
 20
122.2115868753
 11
36.2927029539
 21
124.4814432714
  0
LINE
  5
354
100
AcDbEntity
  8
0
100
AcDbLine
 62
7
  6
CONTINUOUS
 10
37.2437553205
 20
129.5340179958
 11
37.0960350493
 21
129.4516584274
  0
LINE
  5
355
100
AcDbEntity
  8
0
100
AcDbLine
 62
7
  6
CONTINUOUS
 10
54.5219554298
 20
143.9965454542
 11
55.5917207836
 21
144.5717877383
  0
LINE
  5
356
100
AcDbEntity
  8
0
100
AcDbLine
 62
7
  6
CONTINUOUS
 10
90.3690001436
 20
104.0067225721
 11
90.3159650813
 21
104.0373416869
  0
LINE
  5
357
100
AcDbEntity
  8
0
100
AcDbLine
 62
7
  6
CONTINUOUS
 10
38.2726174926
 20
134.2429107424
 11
39.6868369429
 21
133.4264292334
  0
LINE
  5
358
100
AcDbEntity
  8
0
100
AcDbLine
 62
7
  6
CONTINUOUS
 10
103.5035041144
 20
96.8872036077
 11
106.2612320425
 21
95.2950646651
  0
LINE
  5
359
100
AcDbEntity
  8
0
100
AcDbLine
 62
7
  6
CONTINUOUS
 10
39.6868369429
 20
133.9163181388
 11
38.6968797949
 21
134.4878572348
  0
LINE
  5
35A
100
AcDbEntity
  8
0
100
AcDbLine
 62
7
  6
CONTINUOUS
 10
90.4220333729
 20
104.6782965942
 11
90.2629318519
 21
104.7701518222
  0
LINE
  5
35B
100
AcDbEntity
  8
0
100
AcDbLine
 62
7
  6
CONTINUOUS
 10
36.572972278
 20
135.8324042551
 11
28.4225740681
 21
140.5379324023
  0
LINE
  5
35C
100
AcDbEntity
  8
0
100
AcDbLine
 62
7
  6
CONTINUOUS
 10
47.6080031927
 20
129.6016581671
 11
56.6457630736
 21
124.3838231102
  0
LINE
  5
35D
100
AcDbEntity
  8
0
100
AcDbLine
 62
7
  6
CONTINUOUS
 10
103.5035041144
 20
97.3877933004
 11
106.2612320425
 21
95.7956543577
  0
LINE
  5
35E
100
AcDbEntity
  8
0
100
AcDbLine
 62
7
  6
CONTINUOUS
 10
39.6868369429
 20
134.3245818922
 11
38.2726174926
 21
135.1410634013
  0
LINE
  5
35F
100
AcDbEntity
  8
0
100
AcDbLine
 62
7
  6
CONTINUOUS
 10
36.572972278
 20
136.1589968587
 11
28.705415603
 21
140.7012300638
  0
LINE
  5
360
100
AcDbEntity
  8
0
100
AcDbLine
 62
7
  6
CONTINUOUS
 10
106.4026528099
 20
95.8887048707
 11
103.6449248819
 21
97.4808438133
  0
LINE
  5
361
100
AcDbEntity
  8
0
100
AcDbLine
 62
7
  6
CONTINUOUS
 10
57.0116614001
 20
124.6022126857
 11
47.9492087034
 21
129.8343038239
  0
LINE
  5
362
100
AcDbEntity
  8
0
100
AcDbLine
 62
7
  6
CONTINUOUS
 10
89.3083443877
 20
106.5052305505
 11
88.9439280259
 21
106.7156216754
  0
LINE
  5
363
100
AcDbEntity
  8
0
100
AcDbLine
 62
7
  6
CONTINUOUS
 10
88.2585412993
 20
107.1113209347
 11
87.8941249374
 21
107.3217120596
  0
LINE
  5
364
100
AcDbEntity
  8
0
100
AcDbLine
 62
7
  6
CONTINUOUS
 10
89.3613776171
 20
106.5970878565
 11
87.8760664067
 21
107.4546132839
  0
LINE
  5
365
100
AcDbEntity
  8
0
100
AcDbLine
 62
7
  6
CONTINUOUS
 10
89.3613776171
 20
107.1768045727
 11
87.8760664067
 21
108.03433
  0
LINE
  5
366
100
AcDbEntity
  8
0
100
AcDbLine
 62
7
  6
CONTINUOUS
 10
89.3083443877
 20
107.3298979918
 11
88.9439280259
 21
107.5402891167
  0
LINE
  5
367
100
AcDbEntity
  8
0
100
AcDbLine
 62
7
  6
CONTINUOUS
 10
88.2585412993
 20
107.935988376
 11
87.8941249374
 21
108.1463795009
  0
LINE
  5
368
100
AcDbEntity
  8
0
100
AcDbLine
 62
7
  6
CONTINUOUS
 10
38.2726174926
 20
136.8557184772
 11
39.6868369429
 21
136.0392369682
  0
LINE
  5
369
100
AcDbEntity
  8
0
100
AcDbLine
 62
7
  6
CONTINUOUS
 10
56.6457630736
 20
126.304569748
 11
47.6080031927
 21
131.522404805
  0
LINE
  5
36A
100
AcDbEntity
  8
0
100
AcDbLine
 62
7
  6
CONTINUOUS
 10
31.0742331823
 20
141.0727736847
 11
35.9250058968
 21
138.2722421087
  0
LINE
  5
36B
100
AcDbEntity
  8
0
100
AcDbLine
 62
7
  6
CONTINUOUS
 10
103.6802803681
 20
99.4200375767
 11
105.0944998184
 21
98.6035560676
  0
LINE
  5
36C
100
AcDbEntity
  8
0
100
AcDbLine
 62
7
  6
CONTINUOUS
 10
90.3690001436
 20
107.1175967813
 11
90.3159650813
 21
107.1482158961
  0
LINE
  5
36D
100
AcDbEntity
  8
0
100
AcDbLine
 62
7
  6
CONTINUOUS
 10
39.6868369429
 20
136.5291258736
 11
38.6968797949
 21
137.1006649696
  0
LINE
  5
36E
100
AcDbEntity
  8
0
100
AcDbLine
 62
7
  6
CONTINUOUS
 10
105.0944998184
 20
99.0934449731
 11
104.1045426705
 21
99.664984069
  0
LINE
  5
36F
100
AcDbEntity
  8
0
100
AcDbLine
 62
7
  6
CONTINUOUS
 10
39.6868369429
 20
136.937389627
 11
38.2726174926
 21
137.7538711361
  0
LINE
  5
370
100
AcDbEntity
  8
0
100
AcDbLine
 62
7
  6
CONTINUOUS
 10
90.4220333729
 20
107.7891708035
 11
90.2629318519
 21
107.8810260314
  0
LINE
  5
371
100
AcDbEntity
  8
0
100
AcDbLine
 62
7
  6
CONTINUOUS
 10
105.0944998184
 20
99.5017087265
 11
103.6802803681
 21
100.3181902355
  0
LINE
  5
372
100
AcDbEntity
  8
0
100
AcDbLine
 62
7
  6
CONTINUOUS
 10
89.3083443877
 20
109.6161047598
 11
88.9439280259
 21
109.8264958847
  0
LINE
  5
373
100
AcDbEntity
  8
0
100
AcDbLine
 62
7
  6
CONTINUOUS
 10
88.2585412993
 20
110.2221951439
 11
87.8941249374
 21
110.4325862688
  0
LINE
  5
374
100
AcDbEntity
  8
0
100
AcDbLine
 62
7
  6
CONTINUOUS
 10
89.3613776171
 20
109.7079620658
 11
87.8760664067
 21
110.5654874931
  0
LINE
  5
375
100
AcDbEntity
  8
0
100
AcDbLine
 62
7
  6
CONTINUOUS
 10
29.9004310385
 20
144.0529901535
 11
31.0742331823
 21
143.375310501
  0
LINE
  5
376
100
AcDbEntity
  8
0
100
AcDbLine
 62
7
  6
CONTINUOUS
 10
38.2726174926
 20
139.4685262121
 11
39.6868369429
 21
138.652044703
  0
LINE
  5
377
100
AcDbEntity
  8
0
100
AcDbLine
 62
7
  6
CONTINUOUS
 10
89.3613776171
 20
110.2876787819
 11
87.8760664067
 21
111.1452042093
  0
LINE
  5
378
100
AcDbEntity
  8
0
100
AcDbLine
 62
7
  6
CONTINUOUS
 10
103.6802803681
 20
102.0328453115
 11
105.0944998184
 21
101.2163638024
  0
LINE
  5
379
100
AcDbEntity
  8
0
100
AcDbLine
 62
7
  6
CONTINUOUS
 10
89.3083443877
 20
110.4407722011
 11
88.9439280259
 21
110.651163326
  0
LINE
  5
37A
100
AcDbEntity
  8
0
100
AcDbLine
 62
7
  6
CONTINUOUS
 10
88.2585412993
 20
111.0468625852
 11
87.8941249374
 21
111.2572537101
  0
LINE
  5
37B
100
AcDbEntity
  8
0
100
AcDbLine
 62
7
  6
CONTINUOUS
 10
39.6868369429
 20
139.1419336085
 11
38.6968797949
 21
139.7134727044
  0
LINE
  5
37C
100
AcDbEntity
  8
0
100
AcDbLine
 62
7
  6
CONTINUOUS
 10
28.8680508398
 20
145.5594218502
 11
29.9004310385
 21
144.9633903486
  0
LINE
  5
37D
100
AcDbEntity
  8
0
100
AcDbLine
 62
7
  6
CONTINUOUS
 10
105.0944998184
 20
101.7062527079
 11
104.1045426705
 21
102.2777918038
  0
LINE
  5
37E
100
AcDbEntity
  8
0
100
AcDbLine
 62
7
  6
CONTINUOUS
 10
90.3690001436
 20
110.2284709906
 11
90.3159650813
 21
110.2590901054
  0
LINE
  5
37F
100
AcDbEntity
  8
0
100
AcDbLine
 62
7
  6
CONTINUOUS
 10
39.6868369429
 20
139.5501973619
 11
38.2726174926
 21
140.3666788709
  0
LINE
  5
380
100
AcDbEntity
  8
0
100
AcDbLine
 62
7
  6
CONTINUOUS
 10
105.0944998184
 20
102.1145164613
 11
103.6802803681
 21
102.9309979703
  0
LINE
  5
381
100
AcDbEntity
  8
0
100
AcDbLine
 62
7
  6
CONTINUOUS
 10
90.4220333729
 20
110.9000450127
 11
90.2629318519
 21
110.9919002407
  0
LINE
  5
382
100
AcDbEntity
  8
0
100
AcDbLine
 62
7
  6
CONTINUOUS
 10
38.2726174926
 20
142.0813339469
 11
39.6868369429
 21
141.2648524378
  0
LINE
  5
383
100
AcDbEntity
  8
0
100
AcDbLine
 62
7
  6
CONTINUOUS
 10
89.3083443877
 20
112.7269789691
 11
88.9439280259
 21
112.937370094
  0
LINE
  5
384
100
AcDbEntity
  8
0
100
AcDbLine
 62
7
  6
CONTINUOUS
 10
88.2585412993
 20
113.3330693532
 11
87.8941249374
 21
113.5434604781
  0
LINE
  5
385
100
AcDbEntity
  8
0
100
AcDbLine
 62
7
  6
CONTINUOUS
 10
89.3613776171
 20
112.818836275
 11
87.8760664067
 21
113.6763617024
  0
LINE
  5
386
100
AcDbEntity
  8
0
100
AcDbLine
 62
7
  6
CONTINUOUS
 10
103.6802803681
 20
104.6456530463
 11
105.0944998184
 21
103.8291715373
  0
LINE
  5
387
100
AcDbEntity
  8
0
100
AcDbLine
 62
7
  6
CONTINUOUS
 10
74.8527528417
 20
66.7345144633
 11
74.8527528417
 21
69.6510506665
  0
LINE
  5
388
100
AcDbEntity
  8
0
100
AcDbLine
 62
7
  6
CONTINUOUS
 10
74.8527528417
 20
70.8823467423
 11
74.8527528417
 21
73.7988829456
  0
LINE
  5
389
100
AcDbEntity
  8
0
100
AcDbLine
 62
7
  6
CONTINUOUS
 10
74.8527528417
 20
75.0301790213
 11
74.8527528417
 21
77.9467152246
  0
LINE
  5
38A
100
AcDbEntity
  8
0
100
AcDbLine
 62
7
  6
CONTINUOUS
 10
74.8527528417
 20
79.1780113003
 11
74.8527528417
 21
82.0945475036
  0
LINE
  5
38B
100
AcDbEntity
  8
0
100
AcDbLine
 62
7
  6
CONTINUOUS
 10
74.8527528417
 20
83.3258435794
 11
74.8527528417
 21
86.2423797826
  0
LINE
  5
38C
100
AcDbEntity
  8
0
100
AcDbLine
 62
7
  6
CONTINUOUS
 10
75.2637466635
 20
65.7623802623
 11
75.2637466635
 21
66.415582196
  0
LINE
  5
38D
100
AcDbEntity
  8
0
100
AcDbLine
 62
7
  6
CONTINUOUS
 10
75.2637466635
 20
69.7632421062
 11
75.2637466635
 21
70.563414475
  0
LINE
  5
38E
100
AcDbEntity
  8
0
100
AcDbLine
 62
7
  6
CONTINUOUS
 10
75.2637466635
 20
73.9110743852
 11
75.2637466635
 21
74.711246754
  0
LINE
  5
38F
100
AcDbEntity
  8
0
100
AcDbLine
 62
7
  6
CONTINUOUS
 10
75.2637466635
 20
78.0589066642
 11
75.2637466635
 21
78.859079033
  0
LINE
  5
390
100
AcDbEntity
  8
0
100
AcDbLine
 62
7
  6
CONTINUOUS
 10
75.2637466635
 20
82.2067389432
 11
75.2637466635
 21
83.006911312
  0
LINE
  5
391
100
AcDbEntity
  8
0
100
AcDbLine
 62
7
  6
CONTINUOUS
 10
75.2637466635
 20
86.3545712223
 11
75.2637466635
 21
87.007773156
  0
LINE
  5
392
100
AcDbEntity
  8
0
100
AcDbLine
 62
7
  6
CONTINUOUS
 10
78.4766901831
 20
85.1528213147
 11
78.4766901831
 21
63.9074284209
  0
LINE
  5
393
100
AcDbEntity
  8
0
100
AcDbLine
 62
7
  6
CONTINUOUS
 10
78.9009542518
 20
63.9074294408
 11
78.9009542518
 21
85.1528223345
  0
LINE
  5
394
100
AcDbEntity
  8
0
100
AcDbLine
 62
7
  6
CONTINUOUS
 10
80.7098026941
 20
127.8008594682
 11
80.7098026941
 21
141.073922761
  0
LINE
  5
395
100
AcDbEntity
  8
0
100
AcDbLine
 62
7
  6
CONTINUOUS
 10
80.992644229
 20
127.9641571297
 11
80.992644229
 21
140.9106278189
  0
LINE
  5
396
100
AcDbEntity
  8
0
100
AcDbLine
 62
7
  6
CONTINUOUS
 10
81.6007585926
 20
135.9087346389
 11
81.6007585926
 21
132.5904688157
  0
LINE
  5
397
100
AcDbEntity
  8
0
100
AcDbLine
 62
7
  6
CONTINUOUS
 10
82.1596011745
 20
213.6811980311
 11
82.1596856268
 21
213.7137480925
  0
LINE
  5
398
100
AcDbEntity
  8
0
100
AcDbLine
 62
7
  6
CONTINUOUS
 10
45.8460918054
 20
120.5185310725
 11
45.5451859258
 21
120.3196589886
  0
LINE
  5
399
100
AcDbEntity
  8
0
100
AcDbLine
 62
7
  6
CONTINUOUS
 10
39.9343480668
 20
124.5355833635
 11
40.0795340259
 21
124.622332326
  0
LINE
  5
39A
100
AcDbEntity
  8
0
100
AcDbLine
 62
7
  6
CONTINUOUS
 10
34.3410801125
 20
121.7257972085
 11
36.2927029539
 21
122.8525604554
  0
LINE
  5
39B
100
AcDbEntity
  8
0
100
AcDbLine
 62
7
  6
CONTINUOUS
 10
32.361172882
 20
115.1202633826
 11
32.9304060473
 21
115.448908342
  0
LINE
  5
39C
100
AcDbEntity
  8
0
100
AcDbLine
 62
7
  6
CONTINUOUS
 10
31.4631435311
 20
113.3484398608
 11
34.0158537503
 21
114.8222389956
  0
LINE
  5
39D
100
AcDbEntity
  8
0
100
AcDbLine
 62
7
  6
CONTINUOUS
 10
39.6868369429
 20
141.7547413433
 11
38.6968797949
 21
142.3262804392
  0
LINE
  5
39E
100
AcDbEntity
  8
0
100
AcDbLine
 62
7
  6
CONTINUOUS
 10
89.3613776171
 20
113.3985529912
 11
87.8760664067
 21
114.2560784186
  0
LINE
  5
39F
100
AcDbEntity
  8
0
100
AcDbLine
 62
7
  6
CONTINUOUS
 10
105.0944998184
 20
104.3190604427
 11
104.1045426705
 21
104.8905995386
  0
LINE
  5
3A0
100
AcDbEntity
  8
0
100
AcDbLine
 62
7
  6
CONTINUOUS
 10
39.6868369429
 20
142.1630050967
 11
38.2726174926
 21
142.9794866057
  0
LINE
  5
3A1
100
AcDbEntity
  8
0
100
AcDbLine
 62
7
  6
CONTINUOUS
 10
89.3083443877
 20
113.5516464104
 11
88.9439280259
 21
113.7620375353
  0
LINE
  5
3A2
100
AcDbEntity
  8
0
100
AcDbLine
 62
7
  6
CONTINUOUS
 10
88.2585412993
 20
114.1577367945
 11
87.8941249374
 21
114.3681279194
  0
LINE
  5
3A3
100
AcDbEntity
  8
0
100
AcDbLine
 62
7
  6
CONTINUOUS
 10
105.0944998184
 20
104.7273241961
 11
103.6802803681
 21
105.5438057051
  0
LINE
  5
3A4
100
AcDbEntity
  8
0
100
AcDbLine
 62
7
  6
CONTINUOUS
 10
90.3690001436
 20
113.3393451999
 11
90.3159650813
 21
113.3699643147
  0
LINE
  5
3A5
100
AcDbEntity
  8
0
100
AcDbLine
 62
7
  6
CONTINUOUS
 10
29.9004310385
 20
148.2865551863
 11
28.8680508398
 21
148.8825866879
  0
LINE
  5
3A6
100
AcDbEntity
  8
0
100
AcDbLine
 62
7
  6
CONTINUOUS
 10
90.4220333729
 20
114.010919222
 11
90.2629318519
 21
114.10277445
  0
LINE
  5
3A7
100
AcDbEntity
  8
0
100
AcDbLine
 62
7
  6
CONTINUOUS
 10
31.0742331823
 20
148.5192757289
 11
29.9004310385
 21
149.1969553814
  0
LINE
  5
3A8
100
AcDbEntity
  8
0
100
AcDbLine
 62
7
  6
CONTINUOUS
 10
38.2726174926
 20
144.6941416817
 11
39.6868369429
 21
143.8776601726
  0
LINE
  5
3A9
100
AcDbEntity
  8
0
100
AcDbLine
 62
7
  6
CONTINUOUS
 10
103.6802803681
 20
107.2584607811
 11
105.0944998184
 21
106.4419792721
  0
LINE
  5
3AA
100
AcDbEntity
  8
0
100
AcDbLine
 62
7
  6
CONTINUOUS
 10
39.6868369429
 20
144.3675490781
 11
38.6968797949
 21
144.939088174
  0
LINE
  5
3AB
100
AcDbEntity
  8
0
100
AcDbLine
 62
7
  6
CONTINUOUS
 10
89.3083443877
 20
115.8378531783
 11
88.9439280259
 21
116.0482443032
  0
LINE
  5
3AC
100
AcDbEntity
  8
0
100
AcDbLine
 62
7
  6
CONTINUOUS
 10
88.2585412993
 20
116.4439435625
 11
87.8941249374
 21
116.6543346874
  0
LINE
  5
3AD
100
AcDbEntity
  8
0
100
AcDbLine
 62
7
  6
CONTINUOUS
 10
89.3613776171
 20
115.9297104843
 11
87.8760664067
 21
116.7872359117
  0
LINE
  5
3AE
100
AcDbEntity
  8
0
100
AcDbLine
 62
7
  6
CONTINUOUS
 10
105.0944998184
 20
106.9318681775
 11
104.1045426705
 21
107.5034072734
  0
LINE
  5
3AF
100
AcDbEntity
  8
0
100
AcDbLine
 62
7
  6
CONTINUOUS
 10
39.6868369429
 20
144.7758128315
 11
38.2726174926
 21
145.5922943405
  0
LINE
  5
3B0
100
AcDbEntity
  8
0
100
AcDbLine
 62
7
  6
CONTINUOUS
 10
105.0944998184
 20
107.3401319309
 11
103.6802803681
 21
108.15661344
  0
LINE
  5
3B1
100
AcDbEntity
  8
0
100
AcDbLine
 62
7
  6
CONTINUOUS
 10
89.3613776171
 20
116.5094272005
 11
87.8760664067
 21
117.3669526278
  0
LINE
  5
3B2
100
AcDbEntity
  8
0
100
AcDbLine
 62
7
  6
CONTINUOUS
 10
89.3083443877
 20
116.6625206196
 11
88.9439280259
 21
116.8729117445
  0
LINE
  5
3B3
100
AcDbEntity
  8
0
100
AcDbLine
 62
7
  6
CONTINUOUS
 10
88.2585412993
 20
117.2686110038
 11
87.8941249374
 21
117.4790021287
  0
LINE
  5
3B4
100
AcDbEntity
  8
0
100
AcDbLine
 62
7
  6
CONTINUOUS
 10
90.3690001436
 20
116.4502194091
 11
90.3159650813
 21
116.4808385239
  0
LINE
  5
3B5
100
AcDbEntity
  8
0
100
AcDbLine
 62
7
  6
CONTINUOUS
 10
35.9250058968
 20
148.0212809692
 11
31.0742331823
 21
150.8218125452
  0
LINE
  5
3B6
100
AcDbEntity
  8
0
100
AcDbLine
 62
7
  6
CONTINUOUS
 10
90.4220333729
 20
117.1217934313
 11
90.2629318519
 21
117.2136486592
  0
LINE
  5
3B7
100
AcDbEntity
  8
0
100
AcDbLine
 62
7
  6
CONTINUOUS
 10
38.2726174926
 20
147.3069494165
 11
39.6868369429
 21
146.4904679075
  0
LINE
  5
3B8
100
AcDbEntity
  8
0
100
AcDbLine
 62
7
  6
CONTINUOUS
 10
39.6868369429
 20
146.9803568129
 11
38.6968797949
 21
147.5518959088
  0
LINE
  5
3B9
100
AcDbEntity
  8
0
100
AcDbLine
 62
7
  6
CONTINUOUS
 10
28.4225740681
 20
153.7652715598
 11
36.572972278
 21
149.0597434126
  0
LINE
  5
3BA
100
AcDbEntity
  8
0
100
AcDbLine
 62
7
  6
CONTINUOUS
 10
39.6868369429
 20
147.3886205663
 11
38.2726174926
 21
148.2051020753
  0
LINE
  5
3BB
100
AcDbEntity
  8
0
100
AcDbLine
 62
7
  6
CONTINUOUS
 10
89.3083443877
 20
118.9487273876
 11
88.9439280259
 21
119.1591185125
  0
LINE
  5
3BC
100
AcDbEntity
  8
0
100
AcDbLine
 62
7
  6
CONTINUOUS
 10
88.2585412993
 20
119.5548177717
 11
87.8941249374
 21
119.7652088966
  0
LINE
  5
3BD
100
AcDbEntity
  8
0
100
AcDbLine
 62
7
  6
CONTINUOUS
 10
89.3613776171
 20
119.0405846936
 11
87.8760664067
 21
119.8981101209
  0
LINE
  5
3BE
100
AcDbEntity
  8
0
100
AcDbLine
 62
7
  6
CONTINUOUS
 10
89.3613776171
 20
119.6203014097
 11
87.8760664067
 21
120.4778268371
  0
LINE
  5
3BF
100
AcDbEntity
  8
0
100
AcDbLine
 62
7
  6
CONTINUOUS
 10
89.3083443877
 20
119.7733948289
 11
88.9439280259
 21
119.9837859538
  0
LINE
  5
3C0
100
AcDbEntity
  8
0
100
AcDbLine
 62
7
  6
CONTINUOUS
 10
88.2585412993
 20
120.379485213
 11
87.8941249374
 21
120.5898763379
  0
LINE
  5
3C1
100
AcDbEntity
  8
0
100
AcDbLine
 62
7
  6
CONTINUOUS
 10
90.3690001436
 20
119.5610936184
 11
90.3159650813
 21
119.5917127332
  0
LINE
  5
3C2
100
AcDbEntity
  8
0
100
AcDbLine
 62
7
  6
CONTINUOUS
 10
38.2726174926
 20
149.9197571513
 11
39.6868369429
 21
149.1032756423
  0
LINE
  5
3C3
100
AcDbEntity
  8
0
100
AcDbLine
 62
7
  6
CONTINUOUS
 10
90.4220333729
 20
120.2326676405
 11
90.2629318519
 21
120.3245228685
  0
LINE
  5
3C4
100
AcDbEntity
  8
0
100
AcDbLine
 62
7
  6
CONTINUOUS
 10
39.6868369429
 20
149.5931645477
 11
38.6968797949
 21
150.1647036436
  0
LINE
  5
3C5
100
AcDbEntity
  8
0
100
AcDbLine
 62
7
  6
CONTINUOUS
 10
103.6802803681
 20
112.7290269759
 11
105.0944998184
 21
111.9125454668
  0
LINE
  5
3C6
100
AcDbEntity
  8
0
100
AcDbLine
 62
7
  6
CONTINUOUS
 10
39.6868369429
 20
150.0014283011
 11
38.2726174926
 21
150.8179098102
  0
LINE
  5
3C7
100
AcDbEntity
  8
0
100
AcDbLine
 62
7
  6
CONTINUOUS
 10
105.0944998184
 20
112.4024343723
 11
104.1045426705
 21
112.9739734682
  0
LINE
  5
3C8
100
AcDbEntity
  8
0
100
AcDbLine
 62
7
  6
CONTINUOUS
 10
82.4089850085
 20
136.3545569076
 11
82.4089850085
 21
135.4421154564
  0
LINE
  5
3C9
100
AcDbEntity
  8
0
100
AcDbLine
 62
7
  6
CONTINUOUS
 10
82.4089850085
 20
132.1238496332
 11
82.4089850085
 21
131.2114081821
  0
LINE
  5
3CA
100
AcDbEntity
  8
0
100
AcDbLine
 62
7
  6
CONTINUOUS
 10
83.5941009078
 20
137.9622676879
 11
83.5941009078
 21
135.670345403
  0
LINE
  5
3CB
100
AcDbEntity
  8
0
100
AcDbLine
 62
7
  6
CONTINUOUS
 10
83.5941009078
 20
130.5271966775
 11
83.5941009078
 21
128.2352743926
  0
LINE
  5
3CC
100
AcDbEntity
  8
0
100
AcDbLine
 62
7
  6
CONTINUOUS
 10
83.987259803
 20
94.9697644863
 11
83.987259803
 21
94.0980253601
  0
LINE
  5
3CD
100
AcDbEntity
  8
0
100
AcDbLine
 62
7
  6
CONTINUOUS
 10
84.6975328761
 20
212.9100156331
 11
84.6975328761
 21
215.4819323867
  0
LINE
  5
3CE
100
AcDbEntity
  8
0
100
AcDbLine
 62
7
  6
CONTINUOUS
 10
84.9588226774
 20
137.4956567328
 11
84.9588226774
 21
137.1743630317
  0
LINE
  5
3CF
100
AcDbEntity
  8
0
100
AcDbLine
 62
7
  6
CONTINUOUS
 10
84.9588226774
 20
127.4473697364
 11
84.9588226774
 21
127.1260760353
  0
LINE
  5
3D0
100
AcDbEntity
  8
0
100
AcDbLine
 62
7
  6
CONTINUOUS
 10
85.8793732557
 20
129.2222912762
 11
85.8793732557
 21
94.3576380648
  0
LINE
  5
3D1
100
AcDbEntity
  8
0
100
AcDbLine
 62
7
  6
CONTINUOUS
 10
85.9672421045
 20
94.2351648187
 11
85.9672421045
 21
129.0998180301
  0
LINE
  5
3D2
100
AcDbEntity
  8
0
100
AcDbLine
 62
7
  6
CONTINUOUS
 10
86.9344872494
 20
136.0337383635
 11
86.9344872494
 21
136.3550320647
  0
LINE
  5
3D3
100
AcDbEntity
  8
0
100
AcDbLine
 62
7
  6
CONTINUOUS
 10
87.8760664067
 20
92.4799589537
 11
87.8760664067
 21
91.9084072617
  0
LINE
  5
3D4
100
AcDbEntity
  8
0
100
AcDbLine
 62
7
  6
CONTINUOUS
 10
87.8760664067
 20
95.0111164468
 11
87.8760664067
 21
95.590833163
  0
LINE
  5
3D5
100
AcDbEntity
  8
0
100
AcDbLine
 62
7
  6
CONTINUOUS
 10
87.8760664067
 20
98.1219906561
 11
87.8760664067
 21
98.7017073722
  0
LINE
  5
3D6
100
AcDbEntity
  8
0
100
AcDbLine
 62
7
  6
CONTINUOUS
 10
87.8760664067
 20
101.2328648653
 11
87.8760664067
 21
101.8125815815
  0
LINE
  5
3D7
100
AcDbEntity
  8
0
100
AcDbLine
 62
7
  6
CONTINUOUS
 10
87.8760664067
 20
104.3437390746
 11
87.8760664067
 21
104.9234557908
  0
LINE
  5
3D8
100
AcDbEntity
  8
0
100
AcDbLine
 62
7
  6
CONTINUOUS
 10
87.8760664067
 20
107.4546132839
 11
87.8760664067
 21
108.03433
  0
LINE
  5
3D9
100
AcDbEntity
  8
0
100
AcDbLine
 62
7
  6
CONTINUOUS
 10
87.8760664067
 20
110.5654874931
 11
87.8760664067
 21
111.1452042093
  0
LINE
  5
3DA
100
AcDbEntity
  8
0
100
AcDbLine
 62
7
  6
CONTINUOUS
 10
87.8760664067
 20
113.6763617024
 11
87.8760664067
 21
114.2560784186
  0
LINE
  5
3DB
100
AcDbEntity
  8
0
100
AcDbLine
 62
7
  6
CONTINUOUS
 10
87.8760664067
 20
116.7872359117
 11
87.8760664067
 21
117.3669526278
  0
LINE
  5
3DC
100
AcDbEntity
  8
0
100
AcDbLine
 62
7
  6
CONTINUOUS
 10
87.8760664067
 20
119.8981101209
 11
87.8760664067
 21
120.4778268371
  0
LINE
  5
3DD
100
AcDbEntity
  8
0
100
AcDbLine
 62
7
  6
CONTINUOUS
 10
87.8760664067
 20
123.0089843302
 11
87.8760664067
 21
123.5887010463
  0
LINE
  5
3DE
100
AcDbEntity
  8
0
100
AcDbLine
 62
7
  6
CONTINUOUS
 10
87.8760664067
 20
126.1198585394
 11
87.8760664067
 21
126.7730604732
  0
LINE
  5
3DF
100
AcDbEntity
  8
0
100
AcDbLine
 62
7
  6
CONTINUOUS
 10
87.8941249374
 20
125.9869573152
 11
87.8941249374
 21
123.7007505472
  0
LINE
  5
3E0
100
AcDbEntity
  8
0
100
AcDbLine
 62
7
  6
CONTINUOUS
 10
87.8941249374
 20
122.8760831059
 11
87.8941249374
 21
120.5898763379
  0
LINE
  5
3E1
100
AcDbEntity
  8
0
100
AcDbLine
 62
7
  6
CONTINUOUS
 10
87.8941249374
 20
119.7652088966
 11
87.8941249374
 21
117.4790021287
  0
LINE
  5
3E2
100
AcDbEntity
  8
0
100
AcDbLine
 62
7
  6
CONTINUOUS
 10
87.8941249374
 20
116.6543346874
 11
87.8941249374
 21
114.3681279194
  0
LINE
  5
3E3
100
AcDbEntity
  8
0
100
AcDbLine
 62
7
  6
CONTINUOUS
 10
87.8941249374
 20
113.5434604781
 11
87.8941249374
 21
111.2572537101
  0
LINE
  5
3E4
100
AcDbEntity
  8
0
100
AcDbLine
 62
7
  6
CONTINUOUS
 10
87.8941249374
 20
110.4325862688
 11
87.8941249374
 21
108.1463795009
  0
LINE
  5
3E5
100
AcDbEntity
  8
0
100
AcDbLine
 62
7
  6
CONTINUOUS
 10
87.8941249374
 20
107.3217120596
 11
87.8941249374
 21
105.0355052916
  0
LINE
  5
3E6
100
AcDbEntity
  8
0
100
AcDbLine
 62
7
  6
CONTINUOUS
 10
87.8941249374
 20
104.2108378503
 11
87.8941249374
 21
101.9246310823
  0
LINE
  5
3E7
100
AcDbEntity
  8
0
100
AcDbLine
 62
7
  6
CONTINUOUS
 10
87.8941249374
 20
101.099963641
 11
87.8941249374
 21
98.8137568731
  0
LINE
  5
3E8
100
AcDbEntity
  8
0
100
AcDbLine
 62
7
  6
CONTINUOUS
 10
87.8941249374
 20
97.9890894318
 11
87.8941249374
 21
95.7028826638
  0
LINE
  5
3E9
100
AcDbEntity
  8
0
100
AcDbLine
 62
7
  6
CONTINUOUS
 10
87.8941249374
 20
94.8782152225
 11
87.8941249374
 21
92.5920084546
  0
LINE
  5
3EA
100
AcDbEntity
  8
0
100
AcDbLine
 62
7
  6
CONTINUOUS
 10
88.2585412993
 20
92.3816173296
 11
88.2585412993
 21
94.6678240976
  0
LINE
  5
3EB
100
AcDbEntity
  8
0
100
AcDbLine
 62
7
  6
CONTINUOUS
 10
88.2585412993
 20
95.4924915389
 11
88.2585412993
 21
97.7786983069
  0
LINE
  5
3EC
100
AcDbEntity
  8
0
100
AcDbLine
 62
7
  6
CONTINUOUS
 10
88.2585412993
 20
98.6033657482
 11
88.2585412993
 21
100.8895725161
  0
LINE
  5
3ED
100
AcDbEntity
  8
0
100
AcDbLine
 62
7
  6
CONTINUOUS
 10
88.2585412993
 20
101.7142399574
 11
88.2585412993
 21
104.0004467254
  0
LINE
  5
3EE
100
AcDbEntity
  8
0
100
AcDbLine
 62
7
  6
CONTINUOUS
 10
88.2585412993
 20
104.8251141667
 11
88.2585412993
 21
107.1113209347
  0
LINE
  5
3EF
100
AcDbEntity
  8
0
100
AcDbLine
 62
7
  6
CONTINUOUS
 10
88.2585412993
 20
107.935988376
 11
88.2585412993
 21
110.2221951439
  0
LINE
  5
3F0
100
AcDbEntity
  8
0
100
AcDbLine
 62
7
  6
CONTINUOUS
 10
88.2585412993
 20
111.0468625852
 11
88.2585412993
 21
113.3330693532
  0
LINE
  5
3F1
100
AcDbEntity
  8
0
100
AcDbLine
 62
7
  6
CONTINUOUS
 10
88.2585412993
 20
114.1577367945
 11
88.2585412993
 21
116.4439435625
  0
LINE
  5
3F2
100
AcDbEntity
  8
0
100
AcDbLine
 62
7
  6
CONTINUOUS
 10
88.2585412993
 20
117.2686110038
 11
88.2585412993
 21
119.5548177717
  0
LINE
  5
3F3
100
AcDbEntity
  8
0
100
AcDbLine
 62
7
  6
CONTINUOUS
 10
88.2585412993
 20
120.379485213
 11
88.2585412993
 21
122.665691981
  0
LINE
  5
3F4
100
AcDbEntity
  8
0
100
AcDbLine
 62
7
  6
CONTINUOUS
 10
88.2585412993
 20
123.4903594223
 11
88.2585412993
 21
125.7765661902
  0
LINE
  5
3F5
100
AcDbEntity
  8
0
100
AcDbLine
 62
7
  6
CONTINUOUS
 10
88.8083280211
 20
130.9850564499
 11
88.8083280211
 21
134.9519003641
  0
LINE
  5
3F6
100
AcDbEntity
  8
0
100
AcDbLine
 62
7
  6
CONTINUOUS
 10
88.9439280259
 20
125.380866931
 11
88.9439280259
 21
123.0946601631
  0
LINE
  5
3F7
100
AcDbEntity
  8
0
100
AcDbLine
 62
7
  6
CONTINUOUS
 10
88.9439280259
 20
122.2699927218
 11
88.9439280259
 21
119.9837859538
  0
LINE
  5
3F8
100
AcDbEntity
  8
0
100
AcDbLine
 62
7
  6
CONTINUOUS
 10
88.9439280259
 20
119.1591185125
 11
88.9439280259
 21
116.8729117445
  0
LINE
  5
3F9
100
AcDbEntity
  8
0
100
AcDbLine
 62
7
  6
CONTINUOUS
 10
88.9439280259
 20
116.0482443032
 11
88.9439280259
 21
113.7620375353
  0
LINE
  5
3FA
100
AcDbEntity
  8
0
100
AcDbLine
 62
7
  6
CONTINUOUS
 10
88.9439280259
 20
112.937370094
 11
88.9439280259
 21
110.651163326
  0
LINE
  5
3FB
100
AcDbEntity
  8
0
100
AcDbLine
 62
7
  6
CONTINUOUS
 10
88.9439280259
 20
109.8264958847
 11
88.9439280259
 21
107.5402891167
  0
LINE
  5
3FC
100
AcDbEntity
  8
0
100
AcDbLine
 62
7
  6
CONTINUOUS
 10
88.9439280259
 20
106.7156216754
 11
88.9439280259
 21
104.4294149075
  0
LINE
  5
3FD
100
AcDbEntity
  8
0
100
AcDbLine
 62
7
  6
CONTINUOUS
 10
88.9439280259
 20
103.6047474662
 11
88.9439280259
 21
101.3185406982
  0
LINE
  5
3FE
100
AcDbEntity
  8
0
100
AcDbLine
 62
7
  6
CONTINUOUS
 10
88.9439280259
 20
100.4938732569
 11
88.9439280259
 21
98.207666489
  0
LINE
  5
3FF
100
AcDbEntity
  8
0
100
AcDbLine
 62
7
  6
CONTINUOUS
 10
88.9439280259
 20
97.3829990477
 11
88.9439280259
 21
95.0967922797
  0
LINE
  5
400
100
AcDbEntity
  8
0
100
AcDbLine
 62
7
  6
CONTINUOUS
 10
88.9439280259
 20
94.2721248384
 11
88.9439280259
 21
91.9859180704
  0
LINE
  5
401
100
AcDbEntity
  8
0
100
AcDbLine
 62
7
  6
CONTINUOUS
 10
89.3083443877
 20
91.7755269455
 11
89.3083443877
 21
94.0617337135
  0
LINE
  5
402
100
AcDbEntity
  8
0
100
AcDbLine
 62
7
  6
CONTINUOUS
 10
89.3083443877
 20
94.8864011548
 11
89.3083443877
 21
97.1726079227
  0
LINE
  5
403
100
AcDbEntity
  8
0
100
AcDbLine
 62
7
  6
CONTINUOUS
 10
89.3083443877
 20
97.997275364
 11
89.3083443877
 21
100.283482132
  0
LINE
  5
404
100
AcDbEntity
  8
0
100
AcDbLine
 62
7
  6
CONTINUOUS
 10
89.3083443877
 20
101.1081495733
 11
89.3083443877
 21
103.3943563413
  0
LINE
  5
405
100
AcDbEntity
  8
0
100
AcDbLine
 62
7
  6
CONTINUOUS
 10
89.3083443877
 20
104.2190237826
 11
89.3083443877
 21
106.5052305505
  0
LINE
  5
406
100
AcDbEntity
  8
0
100
AcDbLine
 62
7
  6
CONTINUOUS
 10
89.3083443877
 20
107.3298979918
 11
89.3083443877
 21
109.6161047598
  0
LINE
  5
407
100
AcDbEntity
  8
0
100
AcDbLine
 62
7
  6
CONTINUOUS
 10
89.3083443877
 20
110.4407722011
 11
89.3083443877
 21
112.7269789691
  0
LINE
  5
408
100
AcDbEntity
  8
0
100
AcDbLine
 62
7
  6
CONTINUOUS
 10
89.3083443877
 20
113.5516464104
 11
89.3083443877
 21
115.8378531783
  0
LINE
  5
409
100
AcDbEntity
  8
0
100
AcDbLine
 62
7
  6
CONTINUOUS
 10
89.3083443877
 20
116.6625206196
 11
89.3083443877
 21
118.9487273876
  0
LINE
  5
40A
100
AcDbEntity
  8
0
100
AcDbLine
 62
7
  6
CONTINUOUS
 10
89.3083443877
 20
119.7733948289
 11
89.3083443877
 21
122.0596015969
  0
LINE
  5
40B
100
AcDbEntity
  8
0
100
AcDbLine
 62
7
  6
CONTINUOUS
 10
89.3083443877
 20
122.8842690382
 11
89.3083443877
 21
125.1704758061
  0
LINE
  5
40C
100
AcDbEntity
  8
0
100
AcDbLine
 62
7
  6
CONTINUOUS
 10
89.3613776171
 20
113.3985529912
 11
89.3613776171
 21
112.818836275
  0
LINE
  5
40D
100
AcDbEntity
  8
0
100
AcDbLine
 62
7
  6
CONTINUOUS
 10
89.3613776171
 20
91.0508818344
 11
89.3613776171
 21
91.6224335264
  0
LINE
  5
40E
100
AcDbEntity
  8
0
100
AcDbLine
 62
7
  6
CONTINUOUS
 10
89.3613776171
 20
94.1535910195
 11
89.3613776171
 21
94.7333077356
  0
LINE
  5
40F
100
AcDbEntity
  8
0
100
AcDbLine
 62
7
  6
CONTINUOUS
 10
89.3613776171
 20
97.2644652287
 11
89.3613776171
 21
97.8441819449
  0
LINE
  5
410
100
AcDbEntity
  8
0
100
AcDbLine
 62
7
  6
CONTINUOUS
 10
89.3613776171
 20
100.375339438
 11
89.3613776171
 21
100.9550561542
  0
LINE
  5
411
100
AcDbEntity
  8
0
100
AcDbLine
 62
7
  6
CONTINUOUS
 10
89.3613776171
 20
103.4862136473
 11
89.3613776171
 21
104.0659303634
  0
LINE
  5
412
100
AcDbEntity
  8
0
100
AcDbLine
 62
7
  6
CONTINUOUS
 10
89.3613776171
 20
106.5970878565
 11
89.3613776171
 21
107.1768045727
  0
LINE
  5
413
100
AcDbEntity
  8
0
100
AcDbLine
 62
7
  6
CONTINUOUS
 10
89.3613776171
 20
109.7079620658
 11
89.3613776171
 21
110.2876787819
  0
LINE
  5
414
100
AcDbEntity
  8
0
100
AcDbLine
 62
7
  6
CONTINUOUS
 10
89.3613776171
 20
115.9297104843
 11
89.3613776171
 21
116.5094272005
  0
LINE
  5
415
100
AcDbEntity
  8
0
100
AcDbLine
 62
7
  6
CONTINUOUS
 10
89.3613776171
 20
119.0405846936
 11
89.3613776171
 21
119.6203014097
  0
LINE
  5
416
100
AcDbEntity
  8
0
100
AcDbLine
 62
7
  6
CONTINUOUS
 10
89.3613776171
 20
122.1514589028
 11
89.3613776171
 21
122.731175619
  0
LINE
  5
417
100
AcDbEntity
  8
0
100
AcDbLine
 62
7
  6
CONTINUOUS
 10
89.3613776171
 20
125.2623331121
 11
89.3613776171
 21
125.9155350458
  0
LINE
  5
418
100
AcDbEntity
  8
0
100
AcDbLine
 62
7
  6
CONTINUOUS
 10
82.1596444433
 20
213.6812237726
 11
82.1596856268
 21
213.7137480925
  0
LINE
  5
419
100
AcDbEntity
  8
0
100
AcDbLine
 62
7
  6
CONTINUOUS
 10
83.54485668
 20
214.792793235
 11
83.5307867235
 21
212.8896123167
  0
LINE
  5
41A
100
AcDbEntity
  8
0
100
AcDbLine
 62
7
  6
CONTINUOUS
 10
56.6457630736
 20
124.3838231102
 11
57.0116614001
 21
124.6022126857
  0
LINE
  5
41B
100
AcDbEntity
  8
0
100
AcDbLine
 62
7
  6
CONTINUOUS
 10
29.2781744804
 20
109.4659385643
 11
35.716519784
 21
113.18309677
  0
LINE
  5
41C
100
AcDbEntity
  8
0
100
AcDbLine
 62
7
  6
CONTINUOUS
 10
31.4631435311
 20
108.2044746328
 11
36.2927029539
 21
110.9928054215
  0
LINE
  5
41D
100
AcDbEntity
  8
0
100
AcDbLine
 62
7
  6
CONTINUOUS
 10
28.4296451654
 20
105.7100219042
 11
28.7124867003
 21
105.8733195657
  0
LINE
  5
41E
100
AcDbEntity
  8
0
100
AcDbLine
 62
7
  6
CONTINUOUS
 10
49.7384586453
 20
117.898726624
 11
49.9591919244
 21
118.02616643
  0
LINE
  5
41F
100
AcDbEntity
  8
0
100
AcDbLine
 62
7
  6
CONTINUOUS
 10
84.9588226774
 20
137.1743630317
 11
85.2370751625
 21
137.3350112199
  0
LINE
  5
420
100
AcDbEntity
  8
0
100
AcDbLine
 62
7
  6
CONTINUOUS
 10
82.4089850085
 20
135.4421154564
 11
83.1991937813
 21
135.8983399809
  0
LINE
  5
421
100
AcDbEntity
  8
0
100
AcDbLine
 62
7
  6
CONTINUOUS
 10
31.4631435311
 20
105.9141853528
 11
36.2927029539
 21
108.7025161415
  0
LINE
  5
422
100
AcDbEntity
  8
0
100
AcDbLine
 62
7
  6
CONTINUOUS
 10
83.5941009078
 20
135.670345403
 11
85.8572446908
 21
136.9769642759
  0
LINE
  5
423
100
AcDbEntity
  8
0
100
AcDbLine
 62
7
  6
CONTINUOUS
 10
32.361172882
 20
105.3957195946
 11
36.2927029539
 21
107.6655759906
  0
LINE
  5
424
100
AcDbEntity
  8
0
100
AcDbLine
 62
7
  6
CONTINUOUS
 10
32.361172882
 20
104.7384351488
 11
36.2927029539
 21
107.0082915448
  0
LINE
  5
425
100
AcDbEntity
  8
0
100
AcDbLine
 62
7
  6
CONTINUOUS
 10
47.4794396274
 20
119.5755386011
 11
47.6080031927
 21
119.6395709152
  0
LINE
  5
426
100
AcDbEntity
  8
0
100
AcDbLine
 62
7
  6
CONTINUOUS
 10
57.0116614001
 20
126.4801682451
 11
56.6457630736
 21
126.304569748
  0
LINE
  5
427
100
AcDbEntity
  8
0
100
AcDbLine
 62
7
  6
CONTINUOUS
 10
105.0944998184
 20
112.8106981257
 11
103.6802803681
 21
113.6271796347
  0
LINE
  5
428
100
AcDbEntity
  8
0
100
AcDbLine
 62
7
  6
CONTINUOUS
 10
89.3083443877
 20
122.0596015969
 11
88.9439280259
 21
122.2699927218
  0
LINE
  5
429
100
AcDbEntity
  8
0
100
AcDbLine
 62
7
  6
CONTINUOUS
 10
88.2585412993
 20
122.665691981
 11
87.8941249374
 21
122.8760831059
  0
LINE
  5
42A
100
AcDbEntity
  8
0
100
AcDbLine
 62
7
  6
CONTINUOUS
 10
89.3613776171
 20
122.1514589028
 11
87.8760664067
 21
123.0089843302
  0
LINE
  5
42B
100
AcDbEntity
  8
0
100
AcDbLine
 62
7
  6
CONTINUOUS
 10
89.3613776171
 20
122.731175619
 11
87.8760664067
 21
123.5887010463
  0
LINE
  5
42C
100
AcDbEntity
  8
0
100
AcDbLine
 62
7
  6
CONTINUOUS
 10
85.8793732557
 20
124.8162740332
 11
80.7098026941
 21
127.8008594682
  0
LINE
  5
42D
100
AcDbEntity
  8
0
100
AcDbLine
 62
7
  6
CONTINUOUS
 10
89.3083443877
 20
122.8842690382
 11
88.9439280259
 21
123.0946601631
  0
LINE
  5
42E
100
AcDbEntity
  8
0
100
AcDbLine
 62
7
  6
CONTINUOUS
 10
88.2585412993
 20
123.4903594223
 11
87.8941249374
 21
123.7007505472
  0
LINE
  5
42F
100
AcDbEntity
  8
0
100
AcDbLine
 62
7
  6
CONTINUOUS
 10
38.2726174926
 20
152.5325648861
 11
39.6868369429
 21
151.7160833771
  0
LINE
  5
430
100
AcDbEntity
  8
0
100
AcDbLine
 62
7
  6
CONTINUOUS
 10
85.8793732557
 20
125.1428666368
 11
80.992644229
 21
127.9641571297
  0
LINE
  5
431
100
AcDbEntity
  8
0
100
AcDbLine
 62
7
  6
CONTINUOUS
 10
90.3690001436
 20
122.6719678277
 11
90.3159650813
 21
122.7025869424
  0
LINE
  5
432
100
AcDbEntity
  8
0
100
AcDbLine
 62
7
  6
CONTINUOUS
 10
39.6868369429
 20
152.2059722825
 11
38.6968797949
 21
152.7775113785
  0
LINE
  5
433
100
AcDbEntity
  8
0
100
AcDbLine
 62
7
  6
CONTINUOUS
 10
54.0257801196
 20
143.9589257047
 11
52.7030714604
 21
144.7225746291
  0
LINE
  5
434
100
AcDbEntity
  8
0
100
AcDbLine
 62
7
  6
CONTINUOUS
 10
103.6802803681
 20
115.3418347107
 11
105.0944998184
 21
114.5253532017
  0
LINE
  5
435
100
AcDbEntity
  8
0
100
AcDbLine
 62
7
  6
CONTINUOUS
 10
53.8150526098
 20
144.4187990296
 11
52.4995743288
 21
145.1782735876
  0
LINE
  5
436
100
AcDbEntity
  8
0
100
AcDbLine
 62
7
  6
CONTINUOUS
 10
39.6868369429
 20
152.6142360359
 11
38.2726174926
 21
153.430717545
  0
LINE
  5
437
100
AcDbEntity
  8
0
100
AcDbLine
 62
7
  6
CONTINUOUS
 10
90.4220333729
 20
123.3435418498
 11
90.2629318519
 21
123.4353970778
  0
LINE
  5
438
100
AcDbEntity
  8
0
100
AcDbLine
 62
7
  6
CONTINUOUS
 10
105.0944998184
 20
115.0152421071
 11
104.1045426705
 21
115.586781203
  0
LINE
  5
439
100
AcDbEntity
  8
0
100
AcDbLine
 62
7
  6
CONTINUOUS
 10
105.0944998184
 20
115.4235058605
 11
103.6802803681
 21
116.2399873695
  0
LINE
  5
43A
100
AcDbEntity
  8
0
100
AcDbLine
 62
7
  6
CONTINUOUS
 10
55.113250864
 20
144.314501289
 11
55.5917207864
 21
144.0382627998
  0
LINE
  5
43B
100
AcDbEntity
  8
0
100
AcDbLine
 62
7
  6
CONTINUOUS
 10
84.9588226774
 20
127.1260760353
 11
85.8793732557
 21
126.5946079345
  0
LINE
  5
43C
100
AcDbEntity
  8
0
100
AcDbLine
 62
7
  6
CONTINUOUS
 10
83.5941009078
 20
128.2352743926
 11
84.9588226774
 21
127.4473697364
  0
LINE
  5
43D
100
AcDbEntity
  8
0
100
AcDbLine
 62
7
  6
CONTINUOUS
 10
89.3083443877
 20
125.1704758061
 11
88.9439280259
 21
125.380866931
  0
LINE
  5
43E
100
AcDbEntity
  8
0
100
AcDbLine
 62
7
  6
CONTINUOUS
 10
88.2585412993
 20
125.7765661902
 11
87.8941249374
 21
125.9869573152
  0
LINE
  5
43F
100
AcDbEntity
  8
0
100
AcDbLine
 62
7
  6
CONTINUOUS
 10
89.3613776171
 20
125.2623331121
 11
87.8760664067
 21
126.1198585394
  0
LINE
  5
440
100
AcDbEntity
  8
0
100
AcDbLine
 62
7
  6
CONTINUOUS
 10
52.4995743288
 20
146.7255170602
 11
53.8150526098
 21
145.9660425013
  0
LINE
  5
441
100
AcDbEntity
  8
0
100
AcDbLine
 62
7
  6
CONTINUOUS
 10
38.2726174926
 20
155.1453726209
 11
39.6868369429
 21
154.3288911119
  0
LINE
  5
442
100
AcDbEntity
  8
0
100
AcDbLine
 62
7
  6
CONTINUOUS
 10
89.3613776171
 20
125.9155350458
 11
87.8760664067
 21
126.7730604732
  0
LINE
  5
443
100
AcDbEntity
  8
0
100
AcDbLine
 62
7
  6
CONTINUOUS
 10
39.6868369429
 20
154.8187800173
 11
38.6968797949
 21
155.3903191133
  0
LINE
  5
444
100
AcDbEntity
  8
0
100
AcDbLine
 62
7
  6
CONTINUOUS
 10
103.6802803681
 20
117.9546424455
 11
105.0944998184
 21
117.1381609365
  0
LINE
  5
445
100
AcDbEntity
  8
0
100
AcDbLine
 62
7
  6
CONTINUOUS
 10
90.3690001436
 20
125.7828420369
 11
90.3159650813
 21
125.8134611517
  0
LINE
  5
446
100
AcDbEntity
  8
0
100
AcDbLine
 62
7
  6
CONTINUOUS
 10
39.6868369429
 20
155.2270437707
 11
38.2726174926
 21
156.0435252798
  0
LINE
  5
447
100
AcDbEntity
  8
0
100
AcDbLine
 62
7
  6
CONTINUOUS
 10
105.0944998184
 20
117.6280498419
 11
104.1045426705
 21
118.1995889378
  0
LINE
  5
448
100
AcDbEntity
  8
0
100
AcDbLine
 62
7
  6
CONTINUOUS
 10
54.521943014
 20
147.1765383629
 11
53.1822102586
 21
147.9500159314
  0
LINE
  5
449
100
AcDbEntity
  8
0
100
AcDbLine
 62
7
  6
CONTINUOUS
 10
105.0944998184
 20
118.0363135953
 11
103.6802803681
 21
118.8527951044
  0
LINE
  5
44A
100
AcDbEntity
  8
0
100
AcDbLine
 62
7
  6
CONTINUOUS
 10
94.3111368613
 20
124.2825771267
 11
93.038339356
 21
125.0174104849
  0
LINE
  5
44B
100
AcDbEntity
  8
0
100
AcDbLine
 62
7
  6
CONTINUOUS
 10
92.7554954659
 20
125.1807067867
 11
90.4220333729
 21
126.5279012766
  0
LINE
  5
44C
100
AcDbEntity
  8
0
100
AcDbLine
 62
7
  6
CONTINUOUS
 10
88.4421261425
 20
127.6709753893
 11
85.9672421045
 21
129.0998180301
  0
LINE
  5
44D
100
AcDbEntity
  8
0
100
AcDbLine
 62
7
  6
CONTINUOUS
 10
82.4089850085
 20
131.2114081821
 11
83.5941009078
 21
130.5271966775
  0
LINE
  5
44E
100
AcDbEntity
  8
0
100
AcDbLine
 62
7
  6
CONTINUOUS
 10
81.6007585926
 20
132.5904688157
 11
82.4089850085
 21
132.1238496332
  0
LINE
  5
44F
100
AcDbEntity
  8
0
100
AcDbLine
 62
7
  6
CONTINUOUS
 10
38.2726174926
 20
157.7581803558
 11
39.6868369429
 21
156.9416988467
  0
LINE
  5
450
100
AcDbEntity
  8
0
100
AcDbLine
 62
7
  6
CONTINUOUS
 10
54.3234259378
 20
148.6556908011
 11
53.9943875849
 21
148.845661265
  0
LINE
  5
451
100
AcDbEntity
  8
0
100
AcDbLine
 62
7
  6
CONTINUOUS
 10
39.6868369429
 20
157.4315877522
 11
38.6968797949
 21
158.0031268481
  0
LINE
  5
452
100
AcDbEntity
  8
0
100
AcDbLine
 62
7
  6
CONTINUOUS
 10
103.6802803681
 20
120.5674501803
 11
105.0944998184
 21
119.7509686713
  0
LINE
  5
453
100
AcDbEntity
  8
0
100
AcDbLine
 62
7
  6
CONTINUOUS
 10
39.6868369429
 20
157.8398515056
 11
38.2726174926
 21
158.6563330146
  0
LINE
  5
454
100
AcDbEntity
  8
0
100
AcDbLine
 62
7
  6
CONTINUOUS
 10
105.0944998184
 20
120.2408575767
 11
104.1045426705
 21
120.8123966727
  0
LINE
  5
455
100
AcDbEntity
  8
0
100
AcDbLine
 62
7
  6
CONTINUOUS
 10
105.0944998184
 20
120.6491213301
 11
103.6802803681
 21
121.4656028392
  0
LINE
  5
456
100
AcDbEntity
  8
0
100
AcDbLine
 62
7
  6
CONTINUOUS
 10
88.4084592201
 20
210.7675597783
 11
88.4189502007
 21
210.0674936621
  0
LINE
  5
457
100
AcDbEntity
  8
0
100
AcDbLine
 62
7
  6
CONTINUOUS
 10
89.4580145414
 20
70.0025146581
 11
89.4580145414
 21
91.1066748556
  0
LINE
  5
458
100
AcDbEntity
  8
0
100
AcDbLine
 62
7
  6
CONTINUOUS
 10
89.7148485766
 20
91.2549571698
 11
89.7148485766
 21
69.2908481454
  0
LINE
  5
459
100
AcDbEntity
  8
0
100
AcDbLine
 62
7
  6
CONTINUOUS
 10
89.9184926447
 20
135.7574034149
 11
89.9184926447
 21
131.6260064683
  0
LINE
  5
45A
100
AcDbEntity
  8
0
100
AcDbLine
 62
7
  6
CONTINUOUS
 10
90.139110879
 20
69.5357946377
 11
90.139110879
 21
91.4999036622
  0
LINE
  5
45B
100
AcDbEntity
  8
0
100
AcDbLine
 62
7
  6
CONTINUOUS
 10
90.3690001436
 20
92.3878931763
 11
90.3690001436
 21
94.6740999443
  0
LINE
  5
45C
100
AcDbEntity
  8
0
100
AcDbLine
 62
7
  6
CONTINUOUS
 10
90.3690001436
 20
95.4987673856
 11
90.3690001436
 21
97.7849741536
  0
LINE
  5
45D
100
AcDbEntity
  8
0
100
AcDbLine
 62
7
  6
CONTINUOUS
 10
90.3690001436
 20
98.6096415949
 11
90.3690001436
 21
100.8958483628
  0
LINE
  5
45E
100
AcDbEntity
  8
0
100
AcDbLine
 62
7
  6
CONTINUOUS
 10
90.3690001436
 20
101.7205158041
 11
90.3690001436
 21
104.0067225721
  0
LINE
  5
45F
100
AcDbEntity
  8
0
100
AcDbLine
 62
7
  6
CONTINUOUS
 10
90.3690001436
 20
104.8313900134
 11
90.3690001436
 21
107.1175967813
  0
LINE
  5
460
100
AcDbEntity
  8
0
100
AcDbLine
 62
7
  6
CONTINUOUS
 10
90.3690001436
 20
107.9422642226
 11
90.3690001436
 21
110.2284709906
  0
LINE
  5
461
100
AcDbEntity
  8
0
100
AcDbLine
 62
7
  6
CONTINUOUS
 10
90.3690001436
 20
111.0531384319
 11
90.3690001436
 21
113.3393451999
  0
LINE
  5
462
100
AcDbEntity
  8
0
100
AcDbLine
 62
7
  6
CONTINUOUS
 10
90.3690001436
 20
114.1640126412
 11
90.3690001436
 21
116.4502194091
  0
LINE
  5
463
100
AcDbEntity
  8
0
100
AcDbLine
 62
7
  6
CONTINUOUS
 10
90.3690001436
 20
117.2748868504
 11
90.3690001436
 21
119.5610936184
  0
LINE
  5
464
100
AcDbEntity
  8
0
100
AcDbLine
 62
7
  6
CONTINUOUS
 10
90.3690001436
 20
120.3857610597
 11
90.3690001436
 21
122.6719678277
  0
LINE
  5
465
100
AcDbEntity
  8
0
100
AcDbLine
 62
7
  6
CONTINUOUS
 10
90.3690001436
 20
123.496635269
 11
90.3690001436
 21
125.7828420369
  0
LINE
  5
466
100
AcDbEntity
  8
0
100
AcDbLine
 62
7
  6
CONTINUOUS
 10
90.4220333729
 20
123.3435418498
 11
90.4220333729
 21
122.7638251336
  0
LINE
  5
467
100
AcDbEntity
  8
0
100
AcDbLine
 62
7
  6
CONTINUOUS
 10
90.4220333729
 20
120.2326676405
 11
90.4220333729
 21
119.6529509244
  0
LINE
  5
468
100
AcDbEntity
  8
0
100
AcDbLine
 62
7
  6
CONTINUOUS
 10
90.4220333729
 20
117.1217934313
 11
90.4220333729
 21
116.5420767151
  0
LINE
  5
469
100
AcDbEntity
  8
0
100
AcDbLine
 62
7
  6
CONTINUOUS
 10
90.4220333729
 20
114.010919222
 11
90.4220333729
 21
113.4312025059
  0
LINE
  5
46A
100
AcDbEntity
  8
0
100
AcDbLine
 62
7
  6
CONTINUOUS
 10
90.4220333729
 20
110.9000450127
 11
90.4220333729
 21
110.3203282966
  0
LINE
  5
46B
100
AcDbEntity
  8
0
100
AcDbLine
 62
7
  6
CONTINUOUS
 10
90.4220333729
 20
107.7891708035
 11
90.4220333729
 21
107.2094540873
  0
LINE
  5
46C
100
AcDbEntity
  8
0
100
AcDbLine
 62
7
  6
CONTINUOUS
 10
90.4220333729
 20
104.6782965942
 11
90.4220333729
 21
104.0985798781
  0
LINE
  5
46D
100
AcDbEntity
  8
0
100
AcDbLine
 62
7
  6
CONTINUOUS
 10
90.4220333729
 20
101.567422385
 11
90.4220333729
 21
100.9877056688
  0
LINE
  5
46E
100
AcDbEntity
  8
0
100
AcDbLine
 62
7
  6
CONTINUOUS
 10
90.4220333729
 20
98.4565481757
 11
90.4220333729
 21
97.8768314595
  0
LINE
  5
46F
100
AcDbEntity
  8
0
100
AcDbLine
 62
7
  6
CONTINUOUS
 10
90.4220333729
 20
95.3456739664
 11
90.4220333729
 21
94.7659572503
  0
LINE
  5
470
100
AcDbEntity
  8
0
100
AcDbLine
 62
7
  6
CONTINUOUS
 10
90.4220333729
 20
91.6632480652
 11
90.4220333729
 21
92.2347997572
  0
LINE
  5
471
100
AcDbEntity
  8
0
100
AcDbLine
 62
7
  6
CONTINUOUS
 10
90.4220333729
 20
125.8746993429
 11
90.4220333729
 21
126.5279012766
  0
LINE
  5
472
100
AcDbEntity
  8
0
100
AcDbLine
 62
7
  6
CONTINUOUS
 10
92.696917411
 20
125.0990586358
 11
92.696917411
 21
90.2344054244
  0
LINE
  5
473
100
AcDbEntity
  8
0
100
AcDbLine
 62
7
  6
CONTINUOUS
 10
93.038339356
 20
90.1527572735
 11
93.038339356
 21
125.0174104849
  0
LINE
  5
474
100
AcDbEntity
  8
0
100
AcDbLine
 62
7
  6
CONTINUOUS
 10
94.3111368613
 20
124.2825771267
 11
94.3111368613
 21
89.4179239153
  0
LINE
  5
475
100
AcDbEntity
  8
0
100
AcDbLine
 62
7
  6
CONTINUOUS
 10
94.73540093
 20
89.4179249351
 11
94.73540093
 21
124.2825781466
  0
LINE
  5
476
100
AcDbEntity
  8
0
100
AcDbLine
 62
7
  6
CONTINUOUS
 10
91.4961040373
 20
208.6247471958
 11
91.5081292825
 21
210.1952996636
  0
LINE
  5
477
100
AcDbEntity
  8
0
100
AcDbLine
 62
7
  6
CONTINUOUS
 10
88.4421261425
 20
127.6709753893
 11
87.8760664067
 21
126.7730604732
  0
LINE
  5
478
100
AcDbEntity
  8
0
100
AcDbLine
 62
7
  6
CONTINUOUS
 10
87.9317507696
 20
123.6770306287
 11
87.8760664067
 21
123.5887010463
  0
LINE
  5
479
100
AcDbEntity
  8
0
100
AcDbLine
 62
7
  6
CONTINUOUS
 10
87.9317507696
 20
120.5661564194
 11
87.8760664067
 21
120.4778268371
  0
LINE
  5
47A
100
AcDbEntity
  8
0
100
AcDbLine
 62
7
  6
CONTINUOUS
 10
46.2029100196
 20
112.5914086424
 11
46.9347066725
 21
113.0139096077
  0
LINE
  5
47B
100
AcDbEntity
  8
0
100
AcDbLine
 62
7
  6
CONTINUOUS
 10
81.6007585926
 20
132.5904688157
 11
87.2496022454
 21
135.8518107516
  0
LINE
  5
47C
100
AcDbEntity
  8
0
100
AcDbLine
 62
7
  6
CONTINUOUS
 10
82.4089850085
 20
132.1238496332
 11
88.0578286612
 21
135.3851915692
  0
LINE
  5
47D
100
AcDbEntity
  8
0
100
AcDbLine
 62
7
  6
CONTINUOUS
 10
34.3410801125
 20
104.2526454819
 11
36.2927029539
 21
105.3794087289
  0
LINE
  5
47E
100
AcDbEntity
  8
0
100
AcDbLine
 62
7
  6
CONTINUOUS
 10
82.4089850085
 20
131.2114081821
 11
88.8083280211
 21
134.906048539
  0
LINE
  5
47F
100
AcDbEntity
  8
0
100
AcDbLine
 62
7
  6
CONTINUOUS
 10
156.0624645591
 20
172.9256799657
 11
154.4072030533
 21
171.9700199943
  0
LINE
  5
480
100
AcDbEntity
  8
0
100
AcDbLine
 62
7
  6
CONTINUOUS
 10
83.5941009078
 20
130.5271966775
 11
88.8083280211
 21
133.5376141352
  0
LINE
  5
481
100
AcDbEntity
  8
0
100
AcDbLine
 62
7
  6
CONTINUOUS
 10
158.5692858622
 20
172.8330207619
 11
157.3961320191
 21
172.1557041178
  0
LINE
  5
482
100
AcDbEntity
  8
0
100
AcDbLine
 62
7
  6
CONTINUOUS
 10
80.7098026941
 20
127.8008594682
 11
80.992644229
 21
127.9641571297
  0
LINE
  5
483
100
AcDbEntity
  8
0
100
AcDbLine
 62
7
  6
CONTINUOUS
 10
83.5941009078
 20
128.2352743926
 11
88.8083280211
 21
131.2456918503
  0
LINE
  5
484
100
AcDbEntity
  8
0
100
AcDbLine
 62
7
  6
CONTINUOUS
 10
85.9672403381
 20
129.3447635026
 11
94.7353279196
 21
134.4069910106
  0
LINE
  5
485
100
AcDbEntity
  8
0
100
AcDbLine
 62
7
  6
CONTINUOUS
 10
157.8067949786
 20
170.0073090836
 11
158.4078332402
 21
170.3543166144
  0
LINE
  5
486
100
AcDbEntity
  8
0
100
AcDbLine
 62
7
  6
CONTINUOUS
 10
84.9588226774
 20
127.4473697364
 11
85.8793732557
 21
127.9788466881
  0
LINE
  5
487
100
AcDbEntity
  8
0
100
AcDbLine
 62
7
  6
CONTINUOUS
 10
84.9588226774
 20
127.1260760353
 11
85.8793732557
 21
127.657552987
  0
LINE
  5
488
100
AcDbEntity
  8
0
100
AcDbLine
 62
7
  6
CONTINUOUS
 10
57.8898173836
 20
118.8695800026
 11
56.6457630736
 21
118.1998002792
  0
LINE
  5
489
100
AcDbEntity
  8
0
100
AcDbLine
 62
7
  6
CONTINUOUS
 10
55.5607446178
 20
115.9041333171
 11
56.7917616443
 21
116.5463289375
  0
LINE
  5
48A
100
AcDbEntity
  8
0
100
AcDbLine
 62
7
  6
CONTINUOUS
 10
60.1223030465
 20
119.9952002421
 11
57.8820303696
 21
118.8306047108
  0
LINE
  5
48B
100
AcDbEntity
  8
0
100
AcDbLine
 62
7
  6
CONTINUOUS
 10
49.7384586453
 20
109.7907282381
 11
50.4702552982
 21
110.156203418
  0
LINE
  5
48C
100
AcDbEntity
  8
0
100
AcDbLine
 62
7
  6
CONTINUOUS
 10
56.8445355958
 20
116.5930701671
 11
58.9923784802
 21
117.655755177
  0
LINE
  5
48D
100
AcDbEntity
  8
0
100
AcDbLine
 62
7
  6
CONTINUOUS
 10
82.4089850085
 20
135.4421154564
 11
81.6007585926
 21
135.9087346389
  0
LINE
  5
48E
100
AcDbEntity
  8
0
100
AcDbLine
 62
7
  6
CONTINUOUS
 10
83.5941009078
 20
135.670345403
 11
82.4089850085
 21
136.3545569076
  0
LINE
  5
48F
100
AcDbEntity
  8
0
100
AcDbLine
 62
7
  6
CONTINUOUS
 10
46.8031865177
 20
156.9271082762
 11
39.9343480668
 21
160.8927442901
  0
LINE
  5
490
100
AcDbEntity
  8
0
100
AcDbLine
 62
7
  6
CONTINUOUS
 10
47.4794396274
 20
157.1406648601
 11
39.9343480668
 21
161.4967269563
  0
LINE
  5
491
100
AcDbEntity
  8
0
100
AcDbLine
 62
7
  6
CONTINUOUS
 10
47.6080031927
 20
157.090713246
 11
53.1521922346
 21
153.8898466235
  0
LINE
  5
492
100
AcDbEntity
  8
0
100
AcDbLine
 62
7
  6
CONTINUOUS
 10
106.2612320425
 20
123.9061408713
 11
103.5035041144
 21
125.4982798139
  0
LINE
  5
493
100
AcDbEntity
  8
0
100
AcDbLine
 62
7
  6
CONTINUOUS
 10
106.2612320425
 20
124.4067305639
 11
103.5035041144
 21
125.9988695066
  0
LINE
  5
494
100
AcDbEntity
  8
0
100
AcDbLine
 62
7
  6
CONTINUOUS
 10
88.8083280211
 20
134.9519003641
 11
86.9344872494
 21
136.0337383635
  0
LINE
  5
495
100
AcDbEntity
  8
0
100
AcDbLine
 62
7
  6
CONTINUOUS
 10
84.9588226774
 20
137.1743630317
 11
83.5941009078
 21
137.9622676879
  0
LINE
  5
496
100
AcDbEntity
  8
0
100
AcDbLine
 62
7
  6
CONTINUOUS
 10
86.9344872494
 20
136.3550320647
 11
84.9588226774
 21
137.4956567328
  0
LINE
  5
497
100
AcDbEntity
  8
0
100
AcDbLine
 62
7
  6
CONTINUOUS
 10
80.7098026941
 20
141.073922761
 11
89.9184926447
 21
135.7574034149
  0
LINE
  5
498
100
AcDbEntity
  8
0
100
AcDbLine
 62
7
  6
CONTINUOUS
 10
108.5946747053
 20
125.8951468306
 11
105.8369467772
 21
127.4872857733
  0
LINE
  5
499
100
AcDbEntity
  8
0
100
AcDbLine
 62
7
  6
CONTINUOUS
 10
56.5867544207
 20
155.9212543256
 11
43.2577361017
 21
163.6165925483
  0
LINE
  5
49A
100
AcDbEntity
  8
0
100
AcDbLine
 62
7
  6
CONTINUOUS
 10
102.8670915252
 20
129.4672768611
 11
103.2913573602
 21
129.2223324084
  0
LINE
  5
49B
100
AcDbEntity
  8
0
100
AcDbLine
 62
7
  6
CONTINUOUS
 10
94.7353279196
 20
134.4069910106
 11
102.8670800548
 21
129.7122279361
  0
LINE
  5
49C
100
AcDbEntity
  8
0
100
AcDbLine
 62
7
  6
CONTINUOUS
 10
102.1430094002
 20
130.3752115914
 11
97.2639522967
 21
133.1920727976
  0
LINE
  5
49D
100
AcDbEntity
  8
0
100
AcDbLine
 62
7
  6
CONTINUOUS
 10
102.6733378669
 20
130.599746216
 11
97.7235697909
 21
133.4574314976
  0
LINE
  5
49E
100
AcDbEntity
  8
0
100
AcDbLine
 62
7
  6
CONTINUOUS
 10
48.7024986492
 20
157.8953107779
 11
54.4653515581
 21
154.5680903592
  0
LINE
  5
49F
100
AcDbEntity
  8
0
100
AcDbLine
 62
7
  6
CONTINUOUS
 10
97.2639522967
 20
133.1920727976
 11
97.2639522967
 21
132.9471220724
  0
LINE
  5
4A0
100
AcDbEntity
  8
0
100
AcDbLine
 62
7
  6
CONTINUOUS
 10
101.9287323404
 20
125.0896486037
 11
101.9287323404
 21
99.6147731893
  0
LINE
  5
4A1
100
AcDbEntity
  8
0
100
AcDbLine
 62
7
  6
CONTINUOUS
 10
102.1430094002
 20
130.3752115914
 11
102.1430094002
 21
130.1302608663
  0
LINE
  5
4A2
100
AcDbEntity
  8
0
100
AcDbLine
 62
7
  6
CONTINUOUS
 10
102.2844307565
 20
130.0486130553
 11
102.2844307565
 21
130.3752119313
  0
LINE
  5
4A3
100
AcDbEntity
  8
0
100
AcDbLine
 62
7
  6
CONTINUOUS
 10
102.3622544373
 20
124.8393601667
 11
102.3622544373
 21
99.3644847523
  0
LINE
  5
4A4
100
AcDbEntity
  8
0
100
AcDbLine
 62
7
  6
CONTINUOUS
 10
102.5135493216
 20
99.4404328879
 11
102.5135493216
 21
124.9153083024
  0
LINE
  5
4A5
100
AcDbEntity
  8
0
100
AcDbLine
 62
7
  6
CONTINUOUS
 10
102.6733378669
 20
129.8240825099
 11
102.6733378669
 21
130.599746216
  0
LINE
  5
4A6
100
AcDbEntity
  8
0
100
AcDbLine
 62
7
  6
CONTINUOUS
 10
102.9549586076
 20
129.5897490875
 11
102.9549586076
 21
129.416547925
  0
LINE
  5
4A7
100
AcDbEntity
  8
0
100
AcDbLine
 62
7
  6
CONTINUOUS
 10
103.2913573602
 20
129.2223324084
 11
103.2913573602
 21
126.7115719187
  0
LINE
  5
4A8
100
AcDbEntity
  8
0
100
AcDbLine
 62
7
  6
CONTINUOUS
 10
103.2913573602
 20
97.0893457433
 11
103.2913573602
 21
94.357679197
  0
LINE
  5
4A9
100
AcDbEntity
  8
0
100
AcDbLine
 62
7
  6
CONTINUOUS
 10
103.6802803681
 20
121.4656028392
 11
103.6802803681
 21
120.5674501803
  0
LINE
  5
4AA
100
AcDbEntity
  8
0
100
AcDbLine
 62
7
  6
CONTINUOUS
 10
103.6802803681
 20
118.8527951044
 11
103.6802803681
 21
117.9546424455
  0
LINE
  5
4AB
100
AcDbEntity
  8
0
100
AcDbLine
 62
7
  6
CONTINUOUS
 10
103.6802803681
 20
116.2399873695
 11
103.6802803681
 21
115.3418347107
  0
LINE
  5
4AC
100
AcDbEntity
  8
0
100
AcDbLine
 62
7
  6
CONTINUOUS
 10
103.6802803681
 20
113.6271796347
 11
103.6802803681
 21
112.7290269759
  0
LINE
  5
4AD
100
AcDbEntity
  8
0
100
AcDbLine
 62
7
  6
CONTINUOUS
 10
103.6802803681
 20
108.15661344
 11
103.6802803681
 21
107.2584607811
  0
LINE
  5
4AE
100
AcDbEntity
  8
0
100
AcDbLine
 62
7
  6
CONTINUOUS
 10
103.6802803681
 20
105.5438057051
 11
103.6802803681
 21
104.6456530463
  0
LINE
  5
4AF
100
AcDbEntity
  8
0
100
AcDbLine
 62
7
  6
CONTINUOUS
 10
103.6802803681
 20
102.9309979703
 11
103.6802803681
 21
102.0328453115
  0
LINE
  5
4B0
100
AcDbEntity
  8
0
100
AcDbLine
 62
7
  6
CONTINUOUS
 10
103.6802803681
 20
100.3181902355
 11
103.6802803681
 21
99.4200375767
  0
LINE
  5
4B1
100
AcDbEntity
  8
0
100
AcDbLine
 62
7
  6
CONTINUOUS
 10
104.1045426705
 20
99.664984069
 11
104.1045426705
 21
100.0732478224
  0
LINE
  5
4B2
100
AcDbEntity
  8
0
100
AcDbLine
 62
7
  6
CONTINUOUS
 10
104.1045426705
 20
102.2777918038
 11
104.1045426705
 21
102.6860555572
  0
LINE
  5
4B3
100
AcDbEntity
  8
0
100
AcDbLine
 62
7
  6
CONTINUOUS
 10
104.1045426705
 20
104.8905995386
 11
104.1045426705
 21
105.298863292
  0
LINE
  5
4B4
100
AcDbEntity
  8
0
100
AcDbLine
 62
7
  6
CONTINUOUS
 10
104.1045426705
 20
107.5034072734
 11
104.1045426705
 21
107.9116710268
  0
LINE
  5
4B5
100
AcDbEntity
  8
0
100
AcDbLine
 62
7
  6
CONTINUOUS
 10
104.1045426705
 20
112.9739734682
 11
104.1045426705
 21
113.3822372216
  0
LINE
  5
4B6
100
AcDbEntity
  8
0
100
AcDbLine
 62
7
  6
CONTINUOUS
 10
104.1045426705
 20
115.586781203
 11
104.1045426705
 21
115.9950449564
  0
LINE
  5
4B7
100
AcDbEntity
  8
0
100
AcDbLine
 62
7
  6
CONTINUOUS
 10
104.1045426705
 20
118.1995889378
 11
104.1045426705
 21
118.6078526912
  0
LINE
  5
4B8
100
AcDbEntity
  8
0
100
AcDbLine
 62
7
  6
CONTINUOUS
 10
104.1045426705
 20
120.8123966727
 11
104.1045426705
 21
121.2206604261
  0
LINE
  5
4B9
100
AcDbEntity
  8
0
100
AcDbLine
 62
7
  6
CONTINUOUS
 10
87.9317507696
 20
117.4552822102
 11
87.8760664067
 21
117.3669526278
  0
LINE
  5
4BA
100
AcDbEntity
  8
0
100
AcDbLine
 62
7
  6
CONTINUOUS
 10
87.9317507696
 20
114.3444080009
 11
87.8760664067
 21
114.2560784186
  0
LINE
  5
4BB
100
AcDbEntity
  8
0
100
AcDbLine
 62
7
  6
CONTINUOUS
 10
87.9317507696
 20
111.2335337917
 11
87.8760664067
 21
111.1452042093
  0
LINE
  5
4BC
100
AcDbEntity
  8
0
100
AcDbLine
 62
7
  6
CONTINUOUS
 10
87.9317507696
 20
108.1226595824
 11
87.8760664067
 21
108.03433
  0
LINE
  5
4BD
100
AcDbEntity
  8
0
100
AcDbLine
 62
7
  6
CONTINUOUS
 10
89.0264813476
 20
125.4556811893
 11
88.9439280259
 21
125.380866931
  0
LINE
  5
4BE
100
AcDbEntity
  8
0
100
AcDbLine
 62
7
  6
CONTINUOUS
 10
89.0264813476
 20
122.3448069801
 11
88.9439280259
 21
122.2699927218
  0
LINE
  5
4BF
100
AcDbEntity
  8
0
100
AcDbLine
 62
7
  6
CONTINUOUS
 10
89.0264813476
 20
119.2339327708
 11
88.9439280259
 21
119.1591185125
  0
LINE
  5
4C0
100
AcDbEntity
  8
0
100
AcDbLine
 62
7
  6
CONTINUOUS
 10
97.2639522967
 20
133.1920727976
 11
97.7235697909
 21
133.4574314976
  0
LINE
  5
4C1
100
AcDbEntity
  8
0
100
AcDbLine
 62
7
  6
CONTINUOUS
 10
88.0001932291
 20
126.0481955064
 11
87.8941249374
 21
125.9869573152
  0
LINE
  5
4C2
100
AcDbEntity
  8
0
100
AcDbLine
 62
7
  6
CONTINUOUS
 10
162.2802122062
 20
168.1186481535
 11
161.6791739446
 21
167.7716406227
  0
LINE
  5
4C3
100
AcDbEntity
  8
0
100
AcDbLine
 62
7
  6
CONTINUOUS
 10
90.4220333729
 20
126.5279012766
 11
89.3613776171
 21
125.9155350458
  0
LINE
  5
4C4
100
AcDbEntity
  8
0
100
AcDbLine
 62
7
  6
CONTINUOUS
 10
90.4220333729
 20
125.8746993429
 11
89.3613776171
 21
125.2623331121
  0
LINE
  5
4C5
100
AcDbEntity
  8
0
100
AcDbLine
 62
7
  6
CONTINUOUS
 10
89.3083443877
 20
125.1704758061
 11
90.3690001436
 21
125.7828420369
  0
LINE
  5
4C6
100
AcDbEntity
  8
0
100
AcDbLine
 62
7
  6
CONTINUOUS
 10
88.0001932291
 20
122.9373212971
 11
87.8941249374
 21
122.8760831059
  0
LINE
  5
4C7
100
AcDbEntity
  8
0
100
AcDbLine
 62
7
  6
CONTINUOUS
 10
165.4003599156
 20
167.5345655313
 11
166.5735137587
 21
168.2118821754
  0
LINE
  5
4C8
100
AcDbEntity
  8
0
100
AcDbLine
 62
7
  6
CONTINUOUS
 10
90.3690001436
 20
123.496635269
 11
89.3083443877
 21
122.8842690382
  0
LINE
  5
4C9
100
AcDbEntity
  8
0
100
AcDbLine
 62
7
  6
CONTINUOUS
 10
102.2844307565
 20
130.3752119313
 11
102.6733378669
 21
130.599746216
  0
LINE
  5
4CA
100
AcDbEntity
  8
0
100
AcDbLine
 62
7
  6
CONTINUOUS
 10
90.4220333729
 20
123.3435418498
 11
89.3613776171
 21
122.731175619
  0
LINE
  5
4CB
100
AcDbEntity
  8
0
100
AcDbLine
 62
7
  6
CONTINUOUS
 10
90.4220333729
 20
122.7638251336
 11
89.3613776171
 21
122.1514589028
  0
LINE
  5
4CC
100
AcDbEntity
  8
0
100
AcDbLine
 62
7
  6
CONTINUOUS
 10
165.0787658698
 20
165.808929712
 11
166.7340273756
 21
166.7645896834
  0
LINE
  5
4CD
100
AcDbEntity
  8
0
100
AcDbLine
 62
7
  6
CONTINUOUS
 10
89.3083443877
 20
122.0596015969
 11
90.3690001436
 21
122.6719678277
  0
LINE
  5
4CE
100
AcDbEntity
  8
0
100
AcDbLine
 62
7
  6
CONTINUOUS
 10
103.2913573602
 20
129.2223324084
 11
94.73540093
 21
124.2825781466
  0
LINE
  5
4CF
100
AcDbEntity
  8
0
100
AcDbLine
 62
7
  6
CONTINUOUS
 10
88.0001932291
 20
119.8264470878
 11
87.8941249374
 21
119.7652088966
  0
LINE
  5
4D0
100
AcDbEntity
  8
0
100
AcDbLine
 62
7
  6
CONTINUOUS
 10
88.2585412993
 20
125.7765661902
 11
88.3881245609
 21
125.8242283144
  0
LINE
  5
4D1
100
AcDbEntity
  8
0
100
AcDbLine
 62
7
  6
CONTINUOUS
 10
88.9439280259
 20
123.7424520678
 11
88.2585412993
 21
123.4903594223
  0
LINE
  5
4D2
100
AcDbEntity
  8
0
100
AcDbLine
 62
7
  6
CONTINUOUS
 10
88.2585412993
 20
122.665691981
 11
88.3881245609
 21
122.7133541051
  0
LINE
  5
4D3
100
AcDbEntity
  8
0
100
AcDbLine
 62
7
  6
CONTINUOUS
 10
21.9030224023
 20
182.9877966826
 11
110.2917380457
 21
131.9577023675
  0
LINE
  5
4D4
100
AcDbEntity
  8
0
100
AcDbLine
 62
7
  6
CONTINUOUS
 10
105.0944998184
 20
98.6035560676
 11
105.0944998184
 21
99.5017087265
  0
LINE
  5
4D5
100
AcDbEntity
  8
0
100
AcDbLine
 62
7
  6
CONTINUOUS
 10
105.0944998184
 20
101.2163638024
 11
105.0944998184
 21
102.1145164613
  0
LINE
  5
4D6
100
AcDbEntity
  8
0
100
AcDbLine
 62
7
  6
CONTINUOUS
 10
105.0944998184
 20
103.8291715373
 11
105.0944998184
 21
104.7273241961
  0
LINE
  5
4D7
100
AcDbEntity
  8
0
100
AcDbLine
 62
7
  6
CONTINUOUS
 10
105.0944998184
 20
106.4419792721
 11
105.0944998184
 21
107.3401319309
  0
LINE
  5
4D8
100
AcDbEntity
  8
0
100
AcDbLine
 62
7
  6
CONTINUOUS
 10
105.0944998184
 20
111.9125454668
 11
105.0944998184
 21
112.8106981257
  0
LINE
  5
4D9
100
AcDbEntity
  8
0
100
AcDbLine
 62
7
  6
CONTINUOUS
 10
105.0944998184
 20
114.5253532017
 11
105.0944998184
 21
115.4235058605
  0
LINE
  5
4DA
100
AcDbEntity
  8
0
100
AcDbLine
 62
7
  6
CONTINUOUS
 10
105.0944998184
 20
117.1381609365
 11
105.0944998184
 21
118.0363135953
  0
LINE
  5
4DB
100
AcDbEntity
  8
0
100
AcDbLine
 62
7
  6
CONTINUOUS
 10
105.0944998184
 20
119.7509686713
 11
105.0944998184
 21
120.6491213301
  0
LINE
  5
4DC
100
AcDbEntity
  8
0
100
AcDbLine
 62
7
  6
CONTINUOUS
 10
107.4024817197
 20
96.454574005
 11
107.4024817197
 21
121.9294494194
  0
LINE
  5
4DD
100
AcDbEntity
  8
0
100
AcDbLine
 62
7
  6
CONTINUOUS
 10
107.8360038165
 20
96.2042855679
 11
107.8360038165
 21
121.6791609824
  0
LINE
  5
4DE
100
AcDbEntity
  8
0
100
AcDbLine
 62
7
  6
CONTINUOUS
 10
110.2917380457
 20
50.3074606546
 11
110.2917380457
 21
131.9577023675
  0
LINE
  5
4DF
100
AcDbEntity
  8
0
100
AcDbLine
 62
7
  6
CONTINUOUS
 10
87.9317507696
 20
105.0117853731
 11
87.8760664067
 21
104.9234557908
  0
LINE
  5
4E0
100
AcDbEntity
  8
0
100
AcDbLine
 62
7
  6
CONTINUOUS
 10
87.9317507696
 20
101.9009111639
 11
87.8760664067
 21
101.8125815815
  0
LINE
  5
4E1
100
AcDbEntity
  8
0
100
AcDbLine
 62
7
  6
CONTINUOUS
 10
87.9317507696
 20
98.7900369546
 11
87.8760664067
 21
98.7017073722
  0
LINE
  5
4E2
100
AcDbEntity
  8
0
100
AcDbLine
 62
7
  6
CONTINUOUS
 10
87.9317507696
 20
95.6791627453
 11
87.8760664067
 21
95.590833163
  0
LINE
  5
4E3
100
AcDbEntity
  8
0
100
AcDbLine
 62
7
  6
CONTINUOUS
 10
87.9317507696
 20
92.5682885361
 11
87.8760664067
 21
92.4799589537
  0
LINE
  5
4E4
100
AcDbEntity
  8
0
100
AcDbLine
 62
7
  6
CONTINUOUS
 10
89.0264813476
 20
116.1230585615
 11
88.9439280259
 21
116.0482443032
  0
LINE
  5
4E5
100
AcDbEntity
  8
0
100
AcDbLine
 62
7
  6
CONTINUOUS
 10
89.0264813476
 20
113.0121843523
 11
88.9439280259
 21
112.937370094
  0
LINE
  5
4E6
100
AcDbEntity
  8
0
100
AcDbLine
 62
7
  6
CONTINUOUS
 10
89.0264813476
 20
109.901310143
 11
88.9439280259
 21
109.8264958847
  0
LINE
  5
4E7
100
AcDbEntity
  8
0
100
AcDbLine
 62
7
  6
CONTINUOUS
 10
89.0264813476
 20
106.7904359337
 11
88.9439280259
 21
106.7156216754
  0
LINE
  5
4E8
100
AcDbEntity
  8
0
100
AcDbLine
 62
7
  6
CONTINUOUS
 10
102.3494806147
 20
126.0840130336
 11
104.5933056302
 21
127.5790412649
  0
LINE
  5
4E9
100
AcDbEntity
  8
0
100
AcDbLine
 62
7
  6
CONTINUOUS
 10
103.5035041144
 20
125.9988695066
 11
105.8369467772
 21
127.4872857733
  0
LINE
  5
4EA
100
AcDbEntity
  8
0
100
AcDbLine
 62
7
  6
CONTINUOUS
 10
108.5946747053
 20
125.8951468306
 11
106.2612320425
 21
124.4067305639
  0
LINE
  5
4EB
100
AcDbEntity
  8
0
100
AcDbLine
 62
7
  6
CONTINUOUS
 10
110.2917380457
 20
131.9577023675
 11
169.8298811391
 21
166.3318601235
  0
LINE
  5
4EC
100
AcDbEntity
  8
0
100
AcDbLine
 62
7
  6
CONTINUOUS
 10
90.3690001436
 20
120.3857610597
 11
89.3083443877
 21
119.7733948289
  0
LINE
  5
4ED
100
AcDbEntity
  8
0
100
AcDbLine
 62
7
  6
CONTINUOUS
 10
90.4220333729
 20
120.2326676405
 11
89.3613776171
 21
119.6203014097
  0
LINE
  5
4EE
100
AcDbEntity
  8
0
100
AcDbLine
 62
7
  6
CONTINUOUS
 10
90.4220333729
 20
119.6529509244
 11
89.3613776171
 21
119.0405846936
  0
LINE
  5
4EF
100
AcDbEntity
  8
0
100
AcDbLine
 62
7
  6
CONTINUOUS
 10
89.3083443877
 20
118.9487273876
 11
90.3690001436
 21
119.5610936184
  0
LINE
  5
4F0
100
AcDbEntity
  8
0
100
AcDbLine
 62
7
  6
CONTINUOUS
 10
88.0001932291
 20
116.7155728786
 11
87.8941249374
 21
116.6543346874
  0
LINE
  5
4F1
100
AcDbEntity
  8
0
100
AcDbLine
 62
7
  6
CONTINUOUS
 10
90.3690001436
 20
117.2748868504
 11
89.3083443877
 21
116.6625206196
  0
LINE
  5
4F2
100
AcDbEntity
  8
0
100
AcDbLine
 62
7
  6
CONTINUOUS
 10
90.4220333729
 20
117.1217934313
 11
89.3613776171
 21
116.5094272005
  0
LINE
  5
4F3
100
AcDbEntity
  8
0
100
AcDbLine
 62
7
  6
CONTINUOUS
 10
90.4220333729
 20
116.5420767151
 11
89.3613776171
 21
115.9297104843
  0
LINE
  5
4F4
100
AcDbEntity
  8
0
100
AcDbLine
 62
7
  6
CONTINUOUS
 10
89.3083443877
 20
115.8378531783
 11
90.3690001436
 21
116.4502194091
  0
LINE
  5
4F5
100
AcDbEntity
  8
0
100
AcDbLine
 62
7
  6
CONTINUOUS
 10
161.015464541
 20
155.7849521758
 11
159.6719672503
 21
155.0092882835
  0
LINE
  5
4F6
100
AcDbEntity
  8
0
100
AcDbLine
 62
7
  6
CONTINUOUS
 10
88.0001932291
 20
113.6046986693
 11
87.8941249374
 21
113.5434604781
  0
LINE
  5
4F7
100
AcDbEntity
  8
0
100
AcDbLine
 62
7
  6
CONTINUOUS
 10
159.6719672503
 20
154.6010370749
 11
158.3284699596
 21
153.8253731826
  0
LINE
  5
4F8
100
AcDbEntity
  8
0
100
AcDbLine
 62
7
  6
CONTINUOUS
 10
90.3690001436
 20
114.1640126412
 11
89.3083443877
 21
113.5516464104
  0
LINE
  5
4F9
100
AcDbEntity
  8
0
100
AcDbLine
 62
7
  6
CONTINUOUS
 10
90.4220333729
 20
114.010919222
 11
89.3613776171
 21
113.3985529912
  0
LINE
  5
4FA
100
AcDbEntity
  8
0
100
AcDbLine
 62
7
  6
CONTINUOUS
 10
162.3600367091
 20
155.0086806343
 11
161.0165394184
 21
154.2330167419
  0
LINE
  5
4FB
100
AcDbEntity
  8
0
100
AcDbLine
 62
7
  6
CONTINUOUS
 10
90.4220333729
 20
113.4312025059
 11
89.3613776171
 21
112.818836275
  0
LINE
  5
4FC
100
AcDbEntity
  8
0
100
AcDbLine
 62
7
  6
CONTINUOUS
 10
89.3083443877
 20
112.7269789691
 11
90.3690001436
 21
113.3393451999
  0
LINE
  5
4FD
100
AcDbEntity
  8
0
100
AcDbLine
 62
7
  6
CONTINUOUS
 10
162.3600378867
 20
154.6820831692
 11
161.2993821309
 21
154.0697169384
  0
LINE
  5
4FE
100
AcDbEntity
  8
0
100
AcDbLine
 62
7
  6
CONTINUOUS
 10
161.0165394184
 20
153.8247655334
 11
159.6730421277
 21
153.049101641
  0
LINE
  5
4FF
100
AcDbEntity
  8
0
100
AcDbLine
 62
7
  6
CONTINUOUS
 10
104.1045426705
 20
120.8123966727
 11
103.6802803681
 21
120.5674501803
  0
LINE
  5
500
100
AcDbEntity
  8
0
100
AcDbLine
 62
7
  6
CONTINUOUS
 10
161.2993821309
 20
153.6614657298
 11
159.9558848402
 21
152.8858018374
  0
LINE
  5
501
100
AcDbEntity
  8
0
100
AcDbLine
 62
7
  6
CONTINUOUS
 10
160.6276334855
 20
153.0286830585
 11
161.6882892413
 21
153.6410492893
  0
LINE
  5
502
100
AcDbEntity
  8
0
100
AcDbLine
 62
7
  6
CONTINUOUS
 10
102.3622544373
 20
124.8393601667
 11
102.5099747084
 21
124.9217197351
  0
LINE
  5
503
100
AcDbEntity
  8
0
100
AcDbLine
 62
7
  6
CONTINUOUS
 10
157.1069505912
 20
154.8767431076
 11
164.8752157566
 21
159.2051522681
  0
LINE
  5
504
100
AcDbEntity
  8
0
100
AcDbLine
 62
7
  6
CONTINUOUS
 10
88.9439280259
 20
120.6315778585
 11
88.2585412993
 21
120.379485213
  0
LINE
  5
505
100
AcDbEntity
  8
0
100
AcDbLine
 62
7
  6
CONTINUOUS
 10
88.2585412993
 20
119.5548177717
 11
88.3881245609
 21
119.6024798958
  0
LINE
  5
506
100
AcDbEntity
  8
0
100
AcDbLine
 62
7
  6
CONTINUOUS
 10
88.9439280259
 20
117.5207036492
 11
88.2585412993
 21
117.2686110038
  0
LINE
  5
507
100
AcDbEntity
  8
0
100
AcDbLine
 62
7
  6
CONTINUOUS
 10
88.2585412993
 20
116.4439435625
 11
88.3881245609
 21
116.4916056866
  0
LINE
  5
508
100
AcDbEntity
  8
0
100
AcDbLine
 62
7
  6
CONTINUOUS
 10
88.9439280259
 20
114.40982944
 11
88.2585412993
 21
114.1577367945
  0
LINE
  5
509
100
AcDbEntity
  8
0
100
AcDbLine
 62
7
  6
CONTINUOUS
 10
54.5219554298
 20
143.9965454542
 11
54.0257823032
 21
143.9589294057
  0
LINE
  5
50A
100
AcDbEntity
  8
0
100
AcDbLine
 62
7
  6
CONTINUOUS
 10
84.2936704844
 20
95.2827511044
 11
83.987259803
 21
94.9697644863
  0
LINE
  5
50B
100
AcDbEntity
  8
0
100
AcDbLine
 62
7
  6
CONTINUOUS
 10
89.0264813476
 20
103.6795617245
 11
88.9439280259
 21
103.6047474662
  0
LINE
  5
50C
100
AcDbEntity
  8
0
100
AcDbLine
 62
7
  6
CONTINUOUS
 10
89.0264813476
 20
100.5686875152
 11
88.9439280259
 21
100.4938732569
  0
LINE
  5
50D
100
AcDbEntity
  8
0
100
AcDbLine
 62
7
  6
CONTINUOUS
 10
73.3933616742
 20
86.2096918064
 11
73.1346998139
 21
85.9752785226
  0
LINE
  5
50E
100
AcDbEntity
  8
0
100
AcDbLine
 62
7
  6
CONTINUOUS
 10
89.0264813476
 20
97.4578133059
 11
88.9439280259
 21
97.3829990477
  0
LINE
  5
50F
100
AcDbEntity
  8
0
100
AcDbLine
 62
7
  6
CONTINUOUS
 10
73.3933616742
 20
82.0618595274
 11
73.1346998139
 21
81.8274462436
  0
LINE
  5
510
100
AcDbEntity
  8
0
100
AcDbLine
 62
7
  6
CONTINUOUS
 10
167.0014657902
 20
152.4513472511
 11
169.8298811391
 21
154.2554881804
  0
LINE
  5
511
100
AcDbEntity
  8
0
100
AcDbLine
 62
7
  6
CONTINUOUS
 10
88.0001932291
 20
110.49382446
 11
87.8941249374
 21
110.4325862688
  0
LINE
  5
512
100
AcDbEntity
  8
0
100
AcDbLine
 62
7
  6
CONTINUOUS
 10
90.3690001436
 20
111.0531384319
 11
89.3083443877
 21
110.4407722011
  0
LINE
  5
513
100
AcDbEntity
  8
0
100
AcDbLine
 62
7
  6
CONTINUOUS
 10
90.4220333729
 20
110.9000450127
 11
89.3613776171
 21
110.2876787819
  0
LINE
  5
514
100
AcDbEntity
  8
0
100
AcDbLine
 62
7
  6
CONTINUOUS
 10
90.4220333729
 20
110.3203282966
 11
89.3613776171
 21
109.7079620658
  0
LINE
  5
515
100
AcDbEntity
  8
0
100
AcDbLine
 62
7
  6
CONTINUOUS
 10
104.1045426705
 20
118.1995889378
 11
103.6802803681
 21
117.9546424455
  0
LINE
  5
516
100
AcDbEntity
  8
0
100
AcDbLine
 62
7
  6
CONTINUOUS
 10
89.3083443877
 20
109.6161047598
 11
90.3690001436
 21
110.2284709906
  0
LINE
  5
517
100
AcDbEntity
  8
0
100
AcDbLine
 62
7
  6
CONTINUOUS
 10
88.0001932291
 20
107.3829502508
 11
87.8941249374
 21
107.3217120596
  0
LINE
  5
518
100
AcDbEntity
  8
0
100
AcDbLine
 62
7
  6
CONTINUOUS
 10
90.3690001436
 20
107.9422642226
 11
89.3083443877
 21
107.3298979918
  0
LINE
  5
519
100
AcDbEntity
  8
0
100
AcDbLine
 62
7
  6
CONTINUOUS
 10
90.4220333729
 20
107.7891708035
 11
89.3613776171
 21
107.1768045727
  0
LINE
  5
51A
100
AcDbEntity
  8
0
100
AcDbLine
 62
7
  6
CONTINUOUS
 10
103.6802803681
 20
115.3418347107
 11
104.1045426705
 21
115.586781203
  0
LINE
  5
51B
100
AcDbEntity
  8
0
100
AcDbLine
 62
7
  6
CONTINUOUS
 10
90.4220333729
 20
107.2094540873
 11
89.3613776171
 21
106.5970878565
  0
LINE
  5
51C
100
AcDbEntity
  8
0
100
AcDbLine
 62
7
  6
CONTINUOUS
 10
89.3083443877
 20
106.5052305505
 11
90.3690001436
 21
107.1175967813
  0
LINE
  5
51D
100
AcDbEntity
  8
0
100
AcDbLine
 62
7
  6
CONTINUOUS
 10
88.0001932291
 20
104.2720760415
 11
87.8941249374
 21
104.2108378503
  0
LINE
  5
51E
100
AcDbEntity
  8
0
100
AcDbLine
 62
7
  6
CONTINUOUS
 10
103.6802803681
 20
112.7290269759
 11
104.1045426705
 21
112.9739734682
  0
LINE
  5
51F
100
AcDbEntity
  8
0
100
AcDbLine
 62
7
  6
CONTINUOUS
 10
90.3690001436
 20
104.8313900134
 11
89.3083443877
 21
104.2190237826
  0
LINE
  5
520
100
AcDbEntity
  8
0
100
AcDbLine
 62
7
  6
CONTINUOUS
 10
90.4220333729
 20
104.6782965942
 11
89.3613776171
 21
104.0659303634
  0
LINE
  5
521
100
AcDbEntity
  8
0
100
AcDbLine
 62
7
  6
CONTINUOUS
 10
90.4220333729
 20
104.0985798781
 11
89.3613776171
 21
103.4862136473
  0
LINE
  5
522
100
AcDbEntity
  8
0
100
AcDbLine
 62
7
  6
CONTINUOUS
 10
68.6478602932
 20
91.4805557292
 11
68.0821772234
 21
91.1539604061
  0
LINE
  5
523
100
AcDbEntity
  8
0
100
AcDbLine
 62
7
  6
CONTINUOUS
 10
89.3083443877
 20
103.3943563413
 11
90.3690001436
 21
104.0067225721
  0
LINE
  5
524
100
AcDbEntity
  8
0
100
AcDbLine
 62
7
  6
CONTINUOUS
 10
110.2917380457
 20
122.9557632187
 11
107.8360038165
 21
121.6791609824
  0
LINE
  5
525
100
AcDbEntity
  8
0
100
AcDbLine
 62
7
  6
CONTINUOUS
 10
88.2585412993
 20
113.3330693532
 11
88.3881245609
 21
113.3807314773
  0
LINE
  5
526
100
AcDbEntity
  8
0
100
AcDbLine
 62
7
  6
CONTINUOUS
 10
88.9439280259
 20
111.2989552307
 11
88.2585412993
 21
111.0468625852
  0
LINE
  5
527
100
AcDbEntity
  8
0
100
AcDbLine
 62
7
  6
CONTINUOUS
 10
88.2585412993
 20
110.2221951439
 11
88.3881245609
 21
110.269857268
  0
LINE
  5
528
100
AcDbEntity
  8
0
100
AcDbLine
 62
7
  6
CONTINUOUS
 10
88.9439280259
 20
108.1880810214
 11
88.2585412993
 21
107.935988376
  0
LINE
  5
529
100
AcDbEntity
  8
0
100
AcDbLine
 62
7
  6
CONTINUOUS
 10
88.2585412993
 20
107.1113209347
 11
88.3881245609
 21
107.1589830588
  0
LINE
  5
52A
100
AcDbEntity
  8
0
100
AcDbLine
 62
7
  6
CONTINUOUS
 10
169.8298811391
 20
115.047490062
 11
167.0014657902
 21
116.6804394828
  0
LINE
  5
52B
100
AcDbEntity
  8
0
100
AcDbLine
 62
7
  6
CONTINUOUS
 10
89.0264813476
 20
94.3469390967
 11
88.9439280259
 21
94.2721248384
  0
LINE
  5
52C
100
AcDbEntity
  8
0
100
AcDbLine
 62
7
  6
CONTINUOUS
 10
73.3933616742
 20
77.9140272483
 11
73.1346998139
 21
77.6796139646
  0
LINE
  5
52D
100
AcDbEntity
  8
0
100
AcDbLine
 62
7
  6
CONTINUOUS
 10
73.3933616742
 20
73.7661949693
 11
73.1346998139
 21
73.5317816855
  0
LINE
  5
52E
100
AcDbEntity
  8
0
100
AcDbLine
 62
7
  6
CONTINUOUS
 10
168.062121546
 20
143.0257818569
 11
167.0014657902
 21
142.392037472
  0
LINE
  5
52F
100
AcDbEntity
  8
0
100
AcDbLine
 62
7
  6
CONTINUOUS
 10
79.5584813333
 20
96.5550356608
 11
69.7085248809
 21
90.8681945974
  0
LINE
  5
530
100
AcDbEntity
  8
0
100
AcDbLine
 62
7
  6
CONTINUOUS
 10
88.0001932291
 20
101.1612018322
 11
87.8941249374
 21
101.099963641
  0
LINE
  5
531
100
AcDbEntity
  8
0
100
AcDbLine
 62
7
  6
CONTINUOUS
 10
90.3690001436
 20
101.7205158041
 11
89.3083443877
 21
101.1081495733
  0
LINE
  5
532
100
AcDbEntity
  8
0
100
AcDbLine
 62
7
  6
CONTINUOUS
 10
90.4220333729
 20
101.567422385
 11
89.3613776171
 21
100.9550561542
  0
LINE
  5
533
100
AcDbEntity
  8
0
100
AcDbLine
 62
7
  6
CONTINUOUS
 10
90.4220333729
 20
100.9877056688
 11
89.3613776171
 21
100.375339438
  0
LINE
  5
534
100
AcDbEntity
  8
0
100
AcDbLine
 62
7
  6
CONTINUOUS
 10
89.3083443877
 20
100.283482132
 11
90.3690001436
 21
100.8958483628
  0
LINE
  5
535
100
AcDbEntity
  8
0
100
AcDbLine
 62
7
  6
CONTINUOUS
 10
103.6802803681
 20
107.2584607811
 11
104.1045426705
 21
107.5034072734
  0
LINE
  5
536
100
AcDbEntity
  8
0
100
AcDbLine
 62
7
  6
CONTINUOUS
 10
88.0001932291
 20
98.050327623
 11
87.8941249374
 21
97.9890894318
  0
LINE
  5
537
100
AcDbEntity
  8
0
100
AcDbLine
 62
7
  6
CONTINUOUS
 10
90.3690001436
 20
98.6096415949
 11
89.3083443877
 21
97.997275364
  0
LINE
  5
538
100
AcDbEntity
  8
0
100
AcDbLine
 62
7
  6
CONTINUOUS
 10
90.4220333729
 20
98.4565481757
 11
89.3613776171
 21
97.8441819449
  0
LINE
  5
539
100
AcDbEntity
  8
0
100
AcDbLine
 62
7
  6
CONTINUOUS
 10
73.385500162
 20
88.0921547472
 11
72.3248444062
 21
87.4797885164
  0
LINE
  5
53A
100
AcDbEntity
  8
0
100
AcDbLine
 62
7
  6
CONTINUOUS
 10
90.4220333729
 20
97.8768314595
 11
89.3613776171
 21
97.2644652287
  0
LINE
  5
53B
100
AcDbEntity
  8
0
100
AcDbLine
 62
7
  6
CONTINUOUS
 10
89.3083443877
 20
97.1726079227
 11
90.3690001436
 21
97.7849741536
  0
LINE
  5
53C
100
AcDbEntity
  8
0
100
AcDbLine
 62
7
  6
CONTINUOUS
 10
160.6276334855
 20
138.3316395501
 11
161.6882892413
 21
138.944005781
  0
LINE
  5
53D
100
AcDbEntity
  8
0
100
AcDbLine
 62
7
  6
CONTINUOUS
 10
159.6730421277
 20
137.5355557155
 11
161.2993821309
 21
138.4745207712
  0
LINE
  5
53E
100
AcDbEntity
  8
0
100
AcDbLine
 62
7
  6
CONTINUOUS
 10
161.0165394184
 20
137.9029683993
 11
162.3600378867
 21
138.6786357934
  0
LINE
  5
53F
100
AcDbEntity
  8
0
100
AcDbLine
 62
7
  6
CONTINUOUS
 10
72.44858983
 20
86.7551437452
 11
72.1162492158
 21
86.5632679475
  0
LINE
  5
540
100
AcDbEntity
  8
0
100
AcDbLine
 62
7
  6
CONTINUOUS
 10
103.6802803681
 20
104.6456530463
 11
104.1045426705
 21
104.8905995386
  0
LINE
  5
541
100
AcDbEntity
  8
0
100
AcDbLine
 62
7
  6
CONTINUOUS
 10
88.0001932291
 20
94.9394534137
 11
87.8941249374
 21
94.8782152225
  0
LINE
  5
542
100
AcDbEntity
  8
0
100
AcDbLine
 62
7
  6
CONTINUOUS
 10
90.3690001436
 20
95.4987673856
 11
89.3083443877
 21
94.8864011548
  0
LINE
  5
543
100
AcDbEntity
  8
0
100
AcDbLine
 62
7
  6
CONTINUOUS
 10
73.9728288071
 20
86.0021816604
 11
73.5304686661
 21
85.7467864384
  0
LINE
  5
544
100
AcDbEntity
  8
0
100
AcDbLine
 62
7
  6
CONTINUOUS
 10
90.4220333729
 20
95.3456739664
 11
89.3613776171
 21
94.7333077356
  0
LINE
  5
545
100
AcDbEntity
  8
0
100
AcDbLine
 62
7
  6
CONTINUOUS
 10
167.0014657902
 20
144.8415447234
 11
168.062121546
 21
145.4325328002
  0
LINE
  5
546
100
AcDbEntity
  8
0
100
AcDbLine
 62
7
  6
CONTINUOUS
 10
88.9439280259
 20
105.0772068122
 11
88.2585412993
 21
104.8251141667
  0
LINE
  5
547
100
AcDbEntity
  8
0
100
AcDbLine
 62
7
  6
CONTINUOUS
 10
88.2585412993
 20
104.0004467254
 11
88.3881245609
 21
104.0481088495
  0
LINE
  5
548
100
AcDbEntity
  8
0
100
AcDbLine
 62
7
  6
CONTINUOUS
 10
88.9439280259
 20
101.9663326029
 11
88.2585412993
 21
101.7142399574
  0
LINE
  5
549
100
AcDbEntity
  8
0
100
AcDbLine
 62
7
  6
CONTINUOUS
 10
88.2585412993
 20
100.8895725161
 11
88.3881245609
 21
100.9372346402
  0
LINE
  5
54A
100
AcDbEntity
  8
0
100
AcDbLine
 62
7
  6
CONTINUOUS
 10
88.9439280259
 20
98.8554583937
 11
88.2585412993
 21
98.6033657482
  0
LINE
  5
54B
100
AcDbEntity
  8
0
100
AcDbLine
 62
7
  6
CONTINUOUS
 10
81.4824715635
 20
214.9189849999
 11
81.3843798912
 21
215.1090558402
  0
LINE
  5
54C
100
AcDbEntity
  8
0
100
AcDbLine
 62
7
  6
CONTINUOUS
 10
73.3933616742
 20
69.6183626903
 11
73.1346998139
 21
69.3839494065
  0
LINE
  5
54D
100
AcDbEntity
  8
0
100
AcDbLine
 62
7
  6
CONTINUOUS
 10
157.1069505912
 20
134.3878101844
 11
163.5963935469
 21
138.2652680792
  0
LINE
  5
54E
100
AcDbEntity
  8
0
100
AcDbLine
 62
7
  6
CONTINUOUS
 10
164.7387323335
 20
137.6057533934
 11
157.1069505912
 21
133.0457453049
  0
LINE
  5
54F
100
AcDbEntity
  8
0
100
AcDbLine
 62
7
  6
CONTINUOUS
 10
157.1069505912
 20
132.8853006463
 11
164.8752157566
 21
137.5268579109
  0
LINE
  5
550
100
AcDbEntity
  8
0
100
AcDbLine
 62
7
  6
CONTINUOUS
 10
103.5035041144
 20
97.3877933004
 11
103.6486900736
 21
97.4745422628
  0
LINE
  5
551
100
AcDbEntity
  8
0
100
AcDbLine
 62
7
  6
CONTINUOUS
 10
106.4064180016
 20
95.8824033202
 11
106.2612320425
 21
95.7956543577
  0
LINE
  5
552
100
AcDbEntity
  8
0
100
AcDbLine
 62
7
  6
CONTINUOUS
 10
90.4220333729
 20
94.7659572503
 11
89.3613776171
 21
94.1535910195
  0
LINE
  5
553
100
AcDbEntity
  8
0
100
AcDbLine
 62
7
  6
CONTINUOUS
 10
89.3083443877
 20
94.0617337135
 11
90.3690001436
 21
94.6740999443
  0
LINE
  5
554
100
AcDbEntity
  8
0
100
AcDbLine
 62
7
  6
CONTINUOUS
 10
103.6802803681
 20
102.0328453115
 11
104.1045426705
 21
102.2777918038
  0
LINE
  5
555
100
AcDbEntity
  8
0
100
AcDbLine
 62
7
  6
CONTINUOUS
 10
72.44858983
 20
82.6073114662
 11
72.1162492158
 21
82.4154356684
  0
LINE
  5
556
100
AcDbEntity
  8
0
100
AcDbLine
 62
7
  6
CONTINUOUS
 10
90.3690001436
 20
92.3878931763
 11
89.3083443877
 21
91.7755269455
  0
LINE
  5
557
100
AcDbEntity
  8
0
100
AcDbLine
 62
7
  6
CONTINUOUS
 10
73.5304686661
 20
82.5624270116
 11
74.8527528417
 21
83.3258435794
  0
LINE
  5
558
100
AcDbEntity
  8
0
100
AcDbLine
 62
7
  6
CONTINUOUS
 10
89.3613776171
 20
91.6224335264
 11
90.4220333729
 21
92.2347997572
  0
LINE
  5
559
100
AcDbEntity
  8
0
100
AcDbLine
 62
7
  6
CONTINUOUS
 10
78.9009542518
 20
85.1528223345
 11
89.2390647658
 21
91.1214975945
  0
LINE
  5
55A
100
AcDbEntity
  8
0
100
AcDbLine
 62
7
  6
CONTINUOUS
 10
103.6802803681
 20
99.4200375767
 11
104.1045426705
 21
99.664984069
  0
LINE
  5
55B
100
AcDbEntity
  8
0
100
AcDbLine
 62
7
  6
CONTINUOUS
 10
90.4220333729
 20
91.6632480652
 11
89.3613776171
 21
91.0508818344
  0
LINE
  5
55C
100
AcDbEntity
  8
0
100
AcDbLine
 62
7
  6
CONTINUOUS
 10
73.9728288071
 20
81.8543493814
 11
73.5304686661
 21
81.5989541594
  0
LINE
  5
55D
100
AcDbEntity
  8
0
100
AcDbLine
 62
7
  6
CONTINUOUS
 10
72.44858983
 20
78.4594791872
 11
72.1162492158
 21
78.2676033894
  0
LINE
  5
55E
100
AcDbEntity
  8
0
100
AcDbLine
 62
7
  6
CONTINUOUS
 10
73.5304686661
 20
78.4145947326
 11
74.8527528417
 21
79.1780113003
  0
LINE
  5
55F
100
AcDbEntity
  8
0
100
AcDbLine
 62
7
  6
CONTINUOUS
 10
73.9728288071
 20
77.7065171024
 11
73.5304686661
 21
77.4511218804
  0
LINE
  5
560
100
AcDbEntity
  8
0
100
AcDbLine
 62
7
  6
CONTINUOUS
 10
103.2913573602
 20
94.357679197
 11
94.73540093
 21
89.4179249351
  0
LINE
  5
561
100
AcDbEntity
  8
0
100
AcDbLine
 62
7
  6
CONTINUOUS
 10
102.5099747084
 20
99.4468443206
 11
102.3622544373
 21
99.3644847523
  0
LINE
  5
562
100
AcDbEntity
  8
0
100
AcDbLine
 62
7
  6
CONTINUOUS
 10
88.2585412993
 20
97.7786983069
 11
88.3881245609
 21
97.826360431
  0
LINE
  5
563
100
AcDbEntity
  8
0
100
AcDbLine
 62
7
  6
CONTINUOUS
 10
88.9439280259
 20
95.7445841844
 11
88.2585412993
 21
95.4924915389
  0
LINE
  5
564
100
AcDbEntity
  8
0
100
AcDbLine
 62
7
  6
CONTINUOUS
 10
88.2585412993
 20
94.6678240976
 11
88.3881245609
 21
94.7154862217
  0
LINE
  5
565
100
AcDbEntity
  8
0
100
AcDbLine
 62
7
  6
CONTINUOUS
 10
88.9439280259
 20
92.6337099751
 11
88.2585412993
 21
92.3816173296
  0
LINE
  5
566
100
AcDbEntity
  8
0
100
AcDbLine
 62
7
  6
CONTINUOUS
 10
72.512018068
 20
86.3347758633
 11
72.9180374361
 21
86.484114175
  0
LINE
  5
567
100
AcDbEntity
  8
0
100
AcDbLine
 62
7
  6
CONTINUOUS
 10
158.3284699596
 20
138.3118272571
 11
159.6730421277
 21
137.5355557155
  0
LINE
  5
568
100
AcDbEntity
  8
0
100
AcDbLine
 62
7
  6
CONTINUOUS
 10
160.6629760024
 20
138.1070937148
 11
161.0165394184
 21
137.9029683993
  0
LINE
  5
569
100
AcDbEntity
  8
0
100
AcDbLine
 62
7
  6
CONTINUOUS
 10
160.6276334855
 20
139.5563618138
 11
161.6882892413
 21
138.944005781
  0
LINE
  5
56A
100
AcDbEntity
  8
0
100
AcDbLine
 62
7
  6
CONTINUOUS
 10
164.8752157566
 20
137.5268579109
 11
163.5963935469
 21
138.2652680792
  0
LINE
  5
56B
100
AcDbEntity
  8
0
100
AcDbLine
 62
7
  6
CONTINUOUS
 10
72.44858983
 20
74.3116469081
 11
72.1162492158
 21
74.1197711104
  0
LINE
  5
56C
100
AcDbEntity
  8
0
100
AcDbLine
 62
7
  6
CONTINUOUS
 10
73.5304686661
 20
74.2667624536
 11
74.8527528417
 21
75.0301790213
  0
LINE
  5
56D
100
AcDbEntity
  8
0
100
AcDbLine
 62
7
  6
CONTINUOUS
 10
73.9728288071
 20
73.5586848234
 11
73.5304686661
 21
73.3032896014
  0
LINE
  5
56E
100
AcDbEntity
  8
0
100
AcDbLine
 62
7
  6
CONTINUOUS
 10
72.44858983
 20
70.1638146291
 11
72.1162492158
 21
69.9719388314
  0
LINE
  5
56F
100
AcDbEntity
  8
0
100
AcDbLine
 62
7
  6
CONTINUOUS
 10
73.5304686661
 20
70.1189301746
 11
74.8527528417
 21
70.8823467423
  0
LINE
  5
570
100
AcDbEntity
  8
0
100
AcDbLine
 62
7
  6
CONTINUOUS
 10
73.9728288071
 20
69.4108525443
 11
73.5304686661
 21
69.1554573223
  0
LINE
  5
571
100
AcDbEntity
  8
0
100
AcDbLine
 62
7
  6
CONTINUOUS
 10
110.2917380457
 20
97.4808878035
 11
107.8360038165
 21
96.2042855679
  0
LINE
  5
572
100
AcDbEntity
  8
0
100
AcDbLine
 62
7
  6
CONTINUOUS
 10
107.3327231373
 20
95.1622713163
 11
109.7493742538
 21
96.357954173
  0
LINE
  5
573
100
AcDbEntity
  8
0
100
AcDbLine
 62
7
  6
CONTINUOUS
 10
73.1346998139
 20
83.3794455123
 11
72.512018068
 21
83.1504164365
  0
LINE
  5
574
100
AcDbEntity
  8
0
100
AcDbLine
 62
7
  6
CONTINUOUS
 10
72.512018068
 20
82.1869435843
 11
72.9180374361
 21
82.3362818959
  0
LINE
  5
575
100
AcDbEntity
  8
0
100
AcDbLine
 62
7
  6
CONTINUOUS
 10
73.1346998139
 20
79.2316132333
 11
72.512018068
 21
79.0025841575
  0
LINE
  5
576
100
AcDbEntity
  8
0
100
AcDbLine
 62
7
  6
CONTINUOUS
 10
72.512018068
 20
78.0391113052
 11
72.9180374361
 21
78.1884496169
  0
LINE
  5
577
100
AcDbEntity
  8
0
100
AcDbLine
 62
7
  6
CONTINUOUS
 10
73.5304686661
 20
65.9710978955
 11
74.8527528417
 21
66.7345144633
  0
LINE
  5
578
100
AcDbEntity
  8
0
100
AcDbLine
 62
7
  6
CONTINUOUS
 10
78.9009542518
 20
63.9074294408
 11
89.4580145414
 21
70.0025146581
  0
LINE
  5
579
100
AcDbEntity
  8
0
100
AcDbLine
 62
7
  6
CONTINUOUS
 10
89.7148485766
 20
69.2908481454
 11
90.139110879
 21
69.5357946377
  0
LINE
  5
57A
100
AcDbEntity
  8
0
100
AcDbLine
 62
7
  6
CONTINUOUS
 10
169.8298811391
 20
115.047490062
 11
167.0014657902
 21
113.4715218573
  0
LINE
  5
57B
100
AcDbEntity
  8
0
100
AcDbLine
 62
7
  6
CONTINUOUS
 10
73.1346998139
 20
75.0837809543
 11
72.512018068
 21
74.8547518784
  0
LINE
  5
57C
100
AcDbEntity
  8
0
100
AcDbLine
 62
7
  6
CONTINUOUS
 10
72.512018068
 20
73.8912790262
 11
72.9180374361
 21
74.0406173379
  0
LINE
  5
57D
100
AcDbEntity
  8
0
100
AcDbLine
 62
7
  6
CONTINUOUS
 10
73.1346998139
 20
70.9359486753
 11
72.512018068
 21
70.7069195994
  0
LINE
  5
57E
100
AcDbEntity
  8
0
100
AcDbLine
 62
7
  6
CONTINUOUS
 10
72.512018068
 20
69.7434467472
 11
72.9180374361
 21
69.8927850589
  0
LINE
  5
57F
100
AcDbEntity
  8
0
100
AcDbLine
 62
7
  6
CONTINUOUS
 10
168.062121546
 20
145.4325328002
 11
167.0014657902
 21
146.044888833
  0
LINE
  5
580
100
AcDbEntity
  8
0
100
AcDbLine
 62
7
  6
CONTINUOUS
 10
159.9558848402
 20
152.8858018374
 11
158.3284699596
 21
153.8253731826
  0
LINE
  5
581
100
AcDbEntity
  8
0
100
AcDbLine
 62
7
  6
CONTINUOUS
 10
159.6719672503
 20
154.6010370749
 11
161.2993821309
 21
153.6614657298
  0
LINE
  5
582
100
AcDbEntity
  8
0
100
AcDbLine
 62
7
  6
CONTINUOUS
 10
161.2993821309
 20
154.0697169384
 11
159.6719672503
 21
155.0092882835
  0
LINE
  5
583
100
AcDbEntity
  8
0
100
AcDbLine
 62
7
  6
CONTINUOUS
 10
161.015464541
 20
155.7849521758
 11
162.3600367091
 21
155.0086806343
  0
LINE
  5
584
100
AcDbEntity
  8
0
100
AcDbLine
 62
7
  6
CONTINUOUS
 10
156.0624645591
 20
172.9256799657
 11
156.0624646783
 21
171.0143758691
  0
LINE
  5
585
100
AcDbEntity
  8
0
100
AcDbLine
 62
7
  6
CONTINUOUS
 10
73.1346998139
 20
66.7881163963
 11
72.512018068
 21
66.5590873204
  0
LINE
  5
586
100
AcDbEntity
  8
0
100
AcDbLine
 62
7
  6
CONTINUOUS
 10
162.2802122062
 20
168.1186481535
 11
162.2907031868
 21
167.4185820374
  0
LINE
  5
587
100
AcDbEntity
  8
0
100
AcDbLine
 62
7
  6
CONTINUOUS
 10
157.1069505912
 20
154.8767431076
 11
157.1069505912
 21
132.8853006463
  0
LINE
  5
588
100
AcDbEntity
  8
0
100
AcDbLine
 62
7
  6
CONTINUOUS
 10
158.3284699596
 20
153.8253731826
 11
158.3284699596
 21
138.3118272571
  0
LINE
  5
589
100
AcDbEntity
  8
0
100
AcDbLine
 62
7
  6
CONTINUOUS
 10
158.5692858622
 20
170.2611040084
 11
158.5692858622
 21
172.8330207619
  0
LINE
  5
58A
100
AcDbEntity
  8
0
100
AcDbLine
 62
7
  6
CONTINUOUS
 10
159.6719672503
 20
154.6010370749
 11
159.6719672503
 21
155.0092882835
  0
LINE
  5
58B
100
AcDbEntity
  8
0
100
AcDbLine
 62
7
  6
CONTINUOUS
 10
159.6730421277
 20
137.5355557155
 11
159.6730421277
 21
153.049101641
  0
LINE
  5
58C
100
AcDbEntity
  8
0
100
AcDbLine
 62
7
  6
CONTINUOUS
 10
159.9558848402
 20
152.8858018374
 11
159.9558848402
 21
137.6988568788
  0
LINE
  5
58D
100
AcDbEntity
  8
0
100
AcDbLine
 62
7
  6
CONTINUOUS
 10
160.6276334855
 20
153.0286830585
 11
160.6276334855
 21
138.3316395501
  0
LINE
  5
58E
100
AcDbEntity
  8
0
100
AcDbLine
 62
7
  6
CONTINUOUS
 10
161.0165394184
 20
154.2330167419
 11
161.0165394184
 21
153.8247655334
  0
LINE
  5
58F
100
AcDbEntity
  8
0
100
AcDbLine
 62
7
  6
CONTINUOUS
 10
161.0165394184
 20
138.3112196079
 11
161.0165394184
 21
137.9029683993
  0
LINE
  5
590
100
AcDbEntity
  8
0
100
AcDbLine
 62
7
  6
CONTINUOUS
 10
161.2993821309
 20
138.0662695626
 11
161.2993821309
 21
138.4745207712
  0
LINE
  5
591
100
AcDbEntity
  8
0
100
AcDbLine
 62
7
  6
CONTINUOUS
 10
161.2993821309
 20
153.6614657298
 11
161.2993821309
 21
154.0697169384
  0
LINE
  5
592
100
AcDbEntity
  8
0
100
AcDbLine
 62
7
  6
CONTINUOUS
 10
161.6882892413
 20
138.944005781
 11
161.6882892413
 21
153.6410492893
  0
LINE
  5
593
100
AcDbEntity
  8
0
100
AcDbLine
 62
7
  6
CONTINUOUS
 10
162.3600378867
 20
138.6786357934
 11
162.3600367091
 21
155.0086806343
  0
LINE
  5
594
100
AcDbEntity
  8
0
100
AcDbLine
 62
7
  6
CONTINUOUS
 10
163.5963935469
 20
158.4926037584
 11
163.5963935469
 21
138.2652680792
  0
LINE
  5
595
100
AcDbEntity
  8
0
100
AcDbLine
 62
7
  6
CONTINUOUS
 10
157.3961320191
 20
172.1557041178
 11
157.3818121055
 21
170.252667509
  0
LINE
  5
596
100
AcDbEntity
  8
0
100
AcDbLine
 62
7
  6
CONTINUOUS
 10
165.0787658698
 20
165.808929712
 11
161.6791739446
 21
167.7716406227
  0
LINE
  5
597
100
AcDbEntity
  8
0
100
AcDbLine
 62
7
  6
CONTINUOUS
 10
157.8067949786
 20
170.0073090836
 11
154.4072030533
 21
171.9700199943
  0
LINE
  5
598
100
AcDbEntity
  8
0
100
AcDbLine
 62
7
  6
CONTINUOUS
 10
91.2070128837
 20
208.4578413368
 11
87.8074209585
 21
210.4205522475
  0
LINE
  5
599
100
AcDbEntity
  8
0
100
AcDbLine
 62
7
  6
CONTINUOUS
 10
83.9350419925
 20
212.6562207083
 11
80.5485736691
 21
214.6113548754
  0
LINE
  5
59A
100
AcDbEntity
  8
0
100
AcDbLine
 62
7
  6
CONTINUOUS
 10
84.5360802541
 20
213.0032282391
 11
88.4084592201
 21
210.7675597783
  0
LINE
  5
59B
100
AcDbEntity
  8
0
100
AcDbLine
 62
7
  6
CONTINUOUS
 10
158.4078332402
 20
170.3543166144
 11
162.2802122062
 21
168.1186481535
  0
LINE
  5
59C
100
AcDbEntity
  8
0
100
AcDbLine
 62
7
  6
CONTINUOUS
 10
166.7340273756
 20
166.7645896834
 11
165.4003599156
 21
167.5345655313
  0
LINE
  5
59D
100
AcDbEntity
  8
0
100
AcDbLine
 62
7
  6
CONTINUOUS
 10
157.3961320191
 20
172.1557041178
 11
156.0624645591
 21
172.9256799657
  0
LINE
  5
59E
100
AcDbEntity
  8
0
100
AcDbLine
 62
7
  6
CONTINUOUS
 10
92.8622743895
 20
209.4135013082
 11
91.5081292825
 21
210.1952996636
  0
LINE
  5
59F
100
AcDbEntity
  8
0
100
AcDbLine
 62
7
  6
CONTINUOUS
 10
83.5448566806
 20
214.7927932347
 11
82.1811589123
 21
215.5801066969
  0
LINE
  5
5A0
100
AcDbEntity
  8
0
100
AcDbLine
 62
7
  6
CONTINUOUS
 10
81.4411654957
 20
217.3619544385
 11
84.6975328761
 21
215.4819323867
  0
LINE
  5
5A1
100
AcDbEntity
  8
0
100
AcDbLine
 62
7
  6
CONTINUOUS
 10
92.7017607726
 20
210.8607938001
 11
158.5692858622
 21
172.8330207619
  0
LINE
  5
5A2
100
AcDbEntity
  8
0
100
AcDbLine
 62
7
  6
CONTINUOUS
 10
166.5735137587
 20
168.2118821754
 11
169.8298811391
 21
166.3318601235
  0
LINE
  5
5A3
100
AcDbEntity
  8
0
100
AcDbLine
 62
7
  6
CONTINUOUS
 10
164.7387323335
 20
137.6057533934
 11
164.7387323335
 21
159.1291049029
  0
LINE
  5
5A4
100
AcDbEntity
  8
0
100
AcDbLine
 62
7
  6
CONTINUOUS
 10
164.8752157566
 20
137.5268579109
 11
164.8752157566
 21
159.2051522681
  0
LINE
  5
5A5
100
AcDbEntity
  8
0
100
AcDbLine
 62
7
  6
CONTINUOUS
 10
167.0014657902
 20
113.4715218573
 11
167.0014657902
 21
142.392037472
  0
LINE
  5
5A6
100
AcDbEntity
  8
0
100
AcDbLine
 62
7
  6
CONTINUOUS
 10
167.0014657902
 20
144.8415447234
 11
167.0014657902
 21
152.4513472511
  0
LINE
  5
5A7
100
AcDbEntity
  8
0
100
AcDbLine
 62
7
  6
CONTINUOUS
 10
168.062121546
 20
145.4325328002
 11
168.062121546
 21
143.0257818569
  0
LINE
  5
5A8
100
AcDbEntity
  8
0
100
AcDbLine
 62
7
  6
CONTINUOUS
 10
169.8298811391
 20
166.3318601235
 11
169.8298811391
 21
154.2554881804
  0
LINE
  5
5A9
100
AcDbEntity
  8
0
100
AcDbLine
 62
7
  6
CONTINUOUS
 10
169.8298811391
 20
115.047490062
 11
169.8298811391
 21
84.6816184105
  0
LINE
  5
5AA
100
AcDbEntity
  8
0
100
AcDbLine
 62
7
  6
CONTINUOUS
 10
165.388721474
 20
165.9878815953
 11
165.4003599156
 21
167.5345655313
  0
LINE
  5
5AB
100
AcDbEntity
  8
0
100
AcDbLine
 62
7
  6
CONTINUOUS
 10
165.83911128
 20
82.2068159487
 11
163.8624762089
 21
80.8131467888
  0
LINE
  5
5AC
100
AcDbEntity
  8
0
100
AcDbLine
 62
7
  6
CONTINUOUS
 10
110.2917380457
 20
50.3074606546
 11
169.8298811391
 21
84.6816184105
  0
ARC
  5
5AD
100
AcDbEntity
  8
0
100
AcDbCircle
 62
7
  6
CONTINUOUS
 10
-55.47552742
 20
148.4495928428
 40
109.4728373368
100
AcDbArc
 50
0.0017264219
 51
0.2079789337
  0
ARC
  5
5AE
100
AcDbEntity
  8
0
100
AcDbCircle
 62
7
  6
CONTINUOUS
 10
42.3352891042
 20
128.0794595413
 40
4.7926246311
100
AcDbArc
 50
236.1043372803
 51
239.9360825204
  0
ARC
  5
5AF
100
AcDbEntity
  8
0
100
AcDbCircle
 62
7
  6
CONTINUOUS
 10
40.7436013435
 20
159.2545295564
 40
3.6475663331
100
AcDbArc
 50
178.0360655553
 51
180.0083708245
  0
ARC
  5
5B0
100
AcDbEntity
  8
0
100
AcDbCircle
 62
7
  6
CONTINUOUS
 10
56.0254167177
 20
118.015298048
 40
1.6568601992
100
AcDbArc
 50
297.5522857599
 51
299.9397726254
  0
ARC
  5
5B1
100
AcDbEntity
  8
0
100
AcDbCircle
 62
7
  6
CONTINUOUS
 10
38.6028912044
 20
159.9184495372
 40
1.3537156945
100
AcDbArc
 50
113.1466419987
 51
114.670539074
  0
ARC
  5
5B2
100
AcDbEntity
  8
0
100
AcDbCircle
 62
7
  6
CONTINUOUS
 10
38.5971343189
 20
159.9308275848
 40
1.3400645572
100
AcDbArc
 50
114.6677677032
 51
118.7630468026
  0
ARC
  5
5B3
100
AcDbEntity
  8
0
100
AcDbCircle
 62
7
  6
CONTINUOUS
 10
102.9779602648
 20
125.0795603405
 40
0.573028523
100
AcDbArc
 50
103.9182467333
 51
105.8587993857
  0
ARC
  5
5B4
100
AcDbEntity
  8
0
100
AcDbCircle
 62
7
  6
CONTINUOUS
 10
106.7771229898
 20
96.2087430746
 40
0.5729769367
100
AcDbArc
 50
314.1417671825
 51
316.0625891741
  0
ARC
  5
5B5
100
AcDbEntity
  8
0
100
AcDbCircle
 62
7
  6
CONTINUOUS
 10
102.9721838153
 20
125.0988462659
 40
0.5528982151
100
AcDbArc
 50
105.8291235505
 51
118.7091088947
  0
ARC
  5
5B6
100
AcDbEntity
  8
0
100
AcDbCircle
 62
7
  6
CONTINUOUS
 10
106.7909009066
 20
96.1941340208
 40
0.5528978408
100
AcDbArc
 50
301.2905845791
 51
314.1715064227
  0
ARC
  5
5B7
100
AcDbEntity
  8
0
100
AcDbCircle
 62
7
  6
CONTINUOUS
 10
103.1218049751
 20
125.1711396011
 40
0.5511781736
100
AcDbArc
 50
123.1754838918
 51
135.3124216757
  0
ARC
  5
5B8
100
AcDbEntity
  8
0
100
AcDbCircle
 62
7
  6
CONTINUOUS
 10
106.9283260457
 20
96.287546004
 40
0.5511604064
100
AcDbArc
 50
284.6944977012
 51
296.825354804
  0
SPLINE
  5
5B9
100
AcDbEntity
  8
0
100
AcDbSpline
 62
7
  6
CONTINUOUS
 70
0
 71
3
 72
11
 73
7
 74
0
 42
0.0000001
 43
0.0000001
 44
0.0000000001
 40
0.0
 40
0.0
 40
0.0
 40
0.0
 40
0.2176899422
 40
0.4508856506
 40
0.7106204681
 40
1.0
 40
1.0
 40
1.0
 40
1.0
 10
166.3765031862
 20
160.3748775463
 30
0.0
 10
166.3352706336
 20
160.3986410304
 30
0.0
 10
166.2581181407
 20
160.4634785723
 30
0.0
 10
166.1758998495
 20
160.5978060624
 30
0.0
 10
166.1273107022
 20
160.763370941
 30
0.0
 10
166.1175859937
 20
160.8838011364
 30
0.0
 10
166.1175859937
 20
160.9470637197
 30
0.0
  0
SPLINE
  5
5BA
100
AcDbEntity
  8
0
100
AcDbSpline
 62
7
  6
CONTINUOUS
 70
0
 71
3
 72
11
 73
7
 74
0
 42
0.0000001
 43
0.0000001
 44
0.0000000001
 40
0.0
 40
0.0
 40
0.0
 40
0.0
 40
0.2176672639
 40
0.4512046973
 40
0.7110486573
 40
1.0
 40
1.0
 40
1.0
 40
1.0
 10
139.5519297702
 20
77.8991554185
 30
0.0
 10
139.5106429539
 20
77.9241388382
 30
0.0
 10
139.4336657995
 20
77.9913424887
 30
0.0
 10
139.3517920674
 20
78.128463607
 30
0.0
 10
139.3033838367
 20
78.2965596549
 30
0.0
 10
139.2936654765
 20
78.418603946
 30
0.0
 10
139.2936654765
 20
78.4826651544
 30
0.0
  0
SPLINE
  5
5BB
100
AcDbEntity
  8
0
100
AcDbSpline
 62
7
  6
CONTINUOUS
 70
0
 71
3
 72
11
 73
7
 74
0
 42
0.0000001
 43
0.0000001
 44
0.0000000001
 40
0.0
 40
0.0
 40
0.0
 40
0.0
 40
0.2176672639
 40
0.4512046973
 40
0.7110486573
 40
1.0
 40
1.0
 40
1.0
 40
1.0
 10
139.5519297702
 20
144.8523536231
 30
0.0
 10
139.5106429539
 20
144.8773370428
 30
0.0
 10
139.4336657995
 20
144.9445406934
 30
0.0
 10
139.3517920674
 20
145.0816618116
 30
0.0
 10
139.3033838367
 20
145.2497578595
 30
0.0
 10
139.2936654765
 20
145.3718021506
 30
0.0
 10
139.2936654765
 20
145.435863359
 30
0.0
  0
SPLINE
  5
5BC
100
AcDbEntity
  8
0
100
AcDbSpline
 62
7
  6
CONTINUOUS
 70
0
 71
3
 72
9
 73
5
 74
0
 42
0.0000001
 43
0.0000001
 44
0.0000000001
 40
0.0
 40
0.0
 40
0.0
 40
0.0
 40
0.2442088923
 40
1.0
 40
1.0
 40
1.0
 40
1.0
 10
165.8391017065
 20
82.2068312667
 30
0.0
 10
165.8677695445
 20
82.2270574739
 30
0.0
 10
165.9808309913
 20
82.3159693809
 30
0.0
 10
166.0746395305
 20
82.4284387957
 30
0.0
 10
166.1326492228
 20
82.5202266913
 30
0.0
  0
SPLINE
  5
5BD
100
AcDbEntity
  8
0
100
AcDbSpline
 62
7
  6
CONTINUOUS
 70
0
 71
3
 72
11
 73
7
 74
0
 42
0.0000001
 43
0.0000001
 44
0.0000000001
 40
0.0
 40
0.0
 40
0.0
 40
0.0
 40
0.2179264642
 40
0.452520419
 40
0.712284828
 40
1.0
 40
1.0
 40
1.0
 40
1.0
 10
37.969802304
 20
161.0929912214
 30
0.0
 10
37.8529348251
 20
161.0098888451
 30
0.0
 10
37.6373605193
 20
160.7965809104
 30
0.0
 10
37.4098435366
 20
160.3809370008
 30
0.0
 10
37.2743218285
 20
159.8805527006
 30
0.0
 10
37.2473299337
 20
159.5192692461
 30
0.0
 10
37.2473299337
 20
159.3299447883
 30
0.0
  0
SPLINE
  5
5BE
100
AcDbEntity
  8
0
100
AcDbSpline
 62
7
  6
CONTINUOUS
 70
0
 71
3
 72
9
 73
5
 74
0
 42
0.0000001
 43
0.0000001
 44
0.0000000001
 40
0.0
 40
0.0
 40
0.0
 40
0.0
 40
0.245407116
 40
1.0
 40
1.0
 40
1.0
 40
1.0
 10
38.070764824
 20
161.1631935659
 30
0.0
 10
38.1051680771
 20
161.1779015085
 30
0.0
 10
38.2477937208
 20
161.2320585489
 30
0.0
 10
38.3991279606
 20
161.2624783087
 30
0.0
 10
38.5137075665
 20
161.2728378738
 30
0.0
  0
SPLINE
  5
5BF
100
AcDbEntity
  8
0
100
AcDbSpline
 62
7
  6
CONTINUOUS
 70
0
 71
3
 72
9
 73
5
 74
0
 42
0.0000001
 43
0.0000001
 44
0.0000000001
 40
0.0
 40
0.0
 40
0.0
 40
0.0
 40
0.2244733977
 40
1.0
 40
1.0
 40
1.0
 40
1.0
 10
38.5137075665
 20
161.2728378738
 30
0.0
 10
38.6243244775
 20
161.2828391569
 30
0.0
 10
39.1221100696
 20
161.2759960563
 30
0.0
 10
39.6020297211
 20
161.0846040361
 30
0.0
 10
39.9343480668
 20
160.8927442901
 30
0.0
  0
SPLINE
  5
5C0
100
AcDbEntity
  8
0
100
AcDbSpline
 62
7
  6
CONTINUOUS
 70
0
 71
3
 72
11
 73
7
 74
0
 42
0.0000001
 43
0.0000001
 44
0.0000000001
 40
0.0
 40
0.0
 40
0.0
 40
0.0
 40
0.2178138247
 40
0.4519393201
 40
0.7116136892
 40
1.0
 40
1.0
 40
1.0
 40
1.0
 10
37.4710869833
 20
161.6784331657
 30
0.0
 10
37.3264918517
 20
161.5820357387
 30
0.0
 10
37.0585861739
 20
161.3302146188
 30
0.0
 10
36.775143769
 20
160.8305607066
 30
0.0
 10
36.6064464915
 20
160.2246573864
 30
0.0
 10
36.572972278
 20
159.7860683882
 30
0.0
 10
36.572972278
 20
159.5559802527
 30
0.0
  0
SPLINE
  5
5C1
100
AcDbEntity
  8
0
100
AcDbSpline
 62
7
  6
CONTINUOUS
 70
0
 71
3
 72
9
 73
5
 74
0
 42
0.0000001
 43
0.0000001
 44
0.0000000001
 40
0.0
 40
0.0
 40
0.0
 40
0.0
 40
0.4499490531
 40
1.0
 40
1.0
 40
1.0
 40
1.0
 10
102.9550038922
 20
129.5897490949
 30
0.0
 10
102.9550035399
 20
129.6131501163
 30
0.0
 10
102.9343079958
 20
129.6651802932
 30
0.0
 10
102.8918547018
 20
129.6979246106
 30
0.0
 10
102.8670800548
 20
129.7122279361
 30
0.0
  0
SPLINE
  5
5C2
100
AcDbEntity
  8
0
100
AcDbSpline
 62
7
  6
CONTINUOUS
 70
0
 71
3
 72
9
 73
5
 74
0
 42
0.0000001
 43
0.0000001
 44
0.0000000001
 40
0.0
 40
0.0
 40
0.0
 40
0.0
 40
0.4562611328
 40
1.0
 40
1.0
 40
1.0
 40
1.0
 10
102.7299437764
 20
125.5587504627
 30
0.0
 10
102.6559159081
 20
125.4840127826
 30
0.0
 10
102.5404979461
 20
125.2735314079
 30
0.0
 10
102.5135493216
 20
125.0406712563
 30
0.0
 10
102.5135493216
 20
124.9153083024
 30
0.0
  0
SPLINE
  5
5C3
100
AcDbEntity
  8
0
100
AcDbSpline
 62
7
  6
CONTINUOUS
 70
0
 71
3
 72
9
 73
5
 74
0
 42
0.0000001
 43
0.0000001
 44
0.0000000001
 40
0.0
 40
0.0
 40
0.0
 40
0.0
 40
0.4567597745
 40
1.0
 40
1.0
 40
1.0
 40
1.0
 10
102.8401256055
 20
125.6357647048
 30
0.0
 10
102.9420649267
 20
125.6610315547
 30
0.0
 10
103.1809867589
 20
125.6537408333
 30
0.0
 10
103.395329419
 20
125.5607330906
 30
0.0
 10
103.5035041144
 20
125.4982798139
 30
0.0
  0
SPLINE
  5
5C4
100
AcDbEntity
  8
0
100
AcDbSpline
 62
7
  6
CONTINUOUS
 70
0
 71
3
 72
11
 73
7
 74
0
 42
0.0000001
 43
0.0000001
 44
0.0000000001
 40
0.0
 40
0.0
 40
0.0
 40
0.0
 40
0.2177627546
 40
0.4519157887
 40
0.7117851435
 40
1.0
 40
1.0
 40
1.0
 40
1.0
 10
102.3495402562
 20
126.0839141984
 30
0.0
 10
102.2817873791
 20
126.0388080128
 30
0.0
 10
102.156225063
 20
125.9208964266
 30
0.0
 10
102.0233898032
 20
125.686751833
 30
0.0
 10
101.9445268663
 20
125.40283752
 30
0.0
 10
101.9287323404
 20
125.1973760512
 30
0.0
 10
101.9287323404
 20
125.0896486037
 30
0.0
  0
SPLINE
  5
5C5
100
AcDbEntity
  8
0
100
AcDbSpline
 62
7
  6
CONTINUOUS
 70
0
 71
3
 72
15
 73
11
 74
0
 42
0.0000001
 43
0.0000001
 44
0.0000000001
 40
0.0
 40
0.0
 40
0.0
 40
0.0
 40
0.1285364781
 40
0.2700314939
 40
0.4170364944
 40
0.5614135233
 40
0.6953327164
 40
0.8130522142
 40
0.9129244896
 40
1.0
 40
1.0
 40
1.0
 40
1.0
 10
139.2936654765
 20
145.435863359
 30
0.0
 10
139.2936654765
 20
145.5450552728
 30
0.0
 10
139.3241170866
 20
145.7746984495
 30
0.0
 10
139.4375636743
 20
146.1120657393
 30
0.0
 10
139.6127669871
 20
146.4373712935
 30
0.0
 10
139.8353236826
 20
146.7241902274
 30
0.0
 10
140.0878236924
 20
146.9498564293
 30
0.0
 10
140.3515530775
 20
147.096383503
 30
0.0
 10
140.6100859455
 20
147.1514503981
 30
0.0
 10
140.7718037603
 20
147.1131927259
 30
0.0
 10
140.8366654498
 20
147.0776310144
 30
0.0
  0
SPLINE
  5
5C6
100
AcDbEntity
  8
0
100
AcDbSpline
 62
7
  6
CONTINUOUS
 70
0
 71
3
 72
15
 73
11
 74
0
 42
0.0000001
 43
0.0000001
 44
0.0000000001
 40
0.0
 40
0.0
 40
0.0
 40
0.0
 40
0.1285364781
 40
0.2700314939
 40
0.4170364944
 40
0.5614135233
 40
0.6953327164
 40
0.8130522142
 40
0.9129244896
 40
1.0
 40
1.0
 40
1.0
 40
1.0
 10
139.2936654765
 20
78.4826651544
 30
0.0
 10
139.2936654765
 20
78.5918570682
 30
0.0
 10
139.3241170866
 20
78.8215002448
 30
0.0
 10
139.4375636743
 20
79.1588675347
 30
0.0
 10
139.6127669871
 20
79.4841730888
 30
0.0
 10
139.8353236826
 20
79.7709920228
 30
0.0
 10
140.0878236924
 20
79.9966582246
 30
0.0
 10
140.3515530775
 20
80.1431852984
 30
0.0
 10
140.6100859455
 20
80.1982521935
 30
0.0
 10
140.7718037603
 20
80.1599945213
 30
0.0
 10
140.8366654498
 20
80.1244328097
 30
0.0
  0
SPLINE
  5
5C7
100
AcDbEntity
  8
0
100
AcDbSpline
 62
7
  6
CONTINUOUS
 70
0
 71
3
 72
15
 73
11
 74
0
 42
0.0000001
 43
0.0000001
 44
0.0000000001
 40
0.0
 40
0.0
 40
0.0
 40
0.0
 40
0.1287974769
 40
0.2706060703
 40
0.4178807568
 40
0.5623765801
 40
0.6961925898
 40
0.8135912016
 40
0.913066129
 40
1.0
 40
1.0
 40
1.0
 40
1.0
 10
166.1175859937
 20
160.9470637197
 30
0.0
 10
166.1175859937
 20
161.0538798266
 30
0.0
 10
166.1475351401
 20
161.2785482122
 30
0.0
 10
166.25900188
 20
161.6084209474
 30
0.0
 10
166.4310215622
 20
161.9261605072
 30
0.0
 10
166.6493232815
 20
162.2056993087
 30
0.0
 10
166.8966778466
 20
162.4247364305
 30
0.0
 10
167.1546150511
 20
162.5656565761
 30
0.0
 10
167.4071459849
 20
162.6162896415
 30
0.0
 10
167.56396276
 20
162.5758609862
 30
0.0
 10
167.6264283942
 20
162.5398602777
 30
0.0
  0
LINE
  5
5C8
100
AcDbEntity
  8
0
100
AcDbLine
 62
7
  6
CONTINUOUS
 10
55.5917209483
 20
147.9235214215
 11
54.3234259378
 21
148.6556908011
  0
SPLINE
  5
5C9
100
AcDbEntity
  8
0
100
AcDbSpline
 62
7
  6
CONTINUOUS
 70
0
 71
3
 72
11
 73
7
 74
0
 42
0.0000001
 43
0.0000001
 44
0.0000000001
 40
0.0
 40
0.0
 40
0.0
 40
0.0
 40
0.2888418084
 40
0.5484344504
 40
0.7822274214
 40
1.0
 40
1.0
 40
1.0
 40
1.0
 10
53.1521922346
 20
116.1827285456
 30
0.0
 10
53.3625278944
 20
116.061293943
 30
0.0
 10
53.7810714074
 20
115.8610297695
 30
0.0
 10
54.4240573216
 20
115.6988864915
 30
0.0
 10
55.0294479474
 20
115.7008841102
 30
0.0
 10
55.3983601773
 20
115.8195012861
 30
0.0
 10
55.5607286247
 20
115.9041620315
 30
0.0
  0
SPLINE
  5
5CA
100
AcDbEntity
  8
0
100
AcDbSpline
 62
7
  6
CONTINUOUS
 70
0
 71
3
 72
9
 73
5
 74
0
 42
0.0000001
 43
0.0000001
 44
0.0000000001
 40
0.0
 40
0.0
 40
0.0
 40
0.0
 40
0.507444197
 40
1.0
 40
1.0
 40
1.0
 40
1.0
 10
57.4101502476
 20
117.0933133901
 30
0.0
 10
57.335407119
 20
116.9881389174
 30
0.0
 10
57.1672552942
 20
116.7946683784
 30
0.0
 10
56.9608662343
 20
116.6420530492
 30
0.0
 10
56.8523380596
 20
116.5795450003
 30
0.0
  0
SPLINE
  5
5CB
100
AcDbEntity
  8
0
100
AcDbSpline
 62
7
  6
CONTINUOUS
 70
0
 71
3
 72
9
 73
5
 74
0
 42
0.0000001
 43
0.0000001
 44
0.0000000001
 40
0.0
 40
0.0
 40
0.0
 40
0.0
 40
0.5209854541
 40
1.0
 40
1.0
 40
1.0
 40
1.0
 10
163.0033556163
 20
80.643691093
 30
0.0
 10
163.1563993743
 20
80.6186801563
 30
0.0
 10
163.4612675391
 20
80.6130087523
 30
0.0
 10
163.7458973644
 20
80.73107033
 30
0.0
 10
163.8624070452
 20
80.8132583524
 30
0.0
  0
SPLINE
  5
5CC
100
AcDbEntity
  8
0
100
AcDbSpline
 62
7
  6
CONTINUOUS
 70
0
 71
3
 72
11
 73
7
 74
0
 42
0.0000001
 43
0.0000001
 44
0.0000000001
 40
0.0
 40
0.0
 40
0.0
 40
0.0
 40
0.2882138263
 40
0.5480830303
 40
0.7822364462
 40
1.0
 40
1.0
 40
1.0
 40
1.0
 10
106.2612320425
 20
95.2950646651
 30
0.0
 10
106.3545243411
 20
95.2412035499
 30
0.0
 10
106.5403517467
 20
95.1521558392
 30
0.0
 10
106.8256524893
 20
95.0785002309
 30
0.0
 10
107.094838065
 20
95.0764681916
 30
0.0
 10
107.2597294404
 20
95.1262509431
 30
0.0
 10
107.3326673795
 20
95.1623723561
 30
0.0
  0
SPLINE
  5
5CD
100
AcDbEntity
  8
0
100
AcDbSpline
 62
7
  6
CONTINUOUS
 70
0
 71
3
 72
11
 73
7
 74
0
 42
0.0000001
 43
0.0000001
 44
0.0000000001
 40
0.0
 40
0.0
 40
0.0
 40
0.0
 40
0.2333156569
 40
0.491455343
 40
0.7541379637
 40
1.0
 40
1.0
 40
1.0
 40
1.0
 10
101.9287323404
 20
99.6147731893
 30
0.0
 10
101.9287323404
 20
99.382209459
 30
0.0
 10
102.0077113937
 20
98.891878554
 30
0.0
 10
102.2904062755
 20
98.1902186643
 30
0.0
 10
102.7124938191
 20
97.5474144967
 30
0.0
 10
103.0767653165
 20
97.18684915
 30
0.0
 10
103.2729663253
 20
97.0400012358
 30
0.0
  0
SPLINE
  5
5CE
100
AcDbEntity
  8
0
100
AcDbSpline
 62
7
  6
CONTINUOUS
 70
0
 71
3
 72
9
 73
5
 74
0
 42
0.0000001
 43
0.0000001
 44
0.0000000001
 40
0.0
 40
0.0
 40
0.0
 40
0.0
 40
0.2567494154
 40
1.0
 40
1.0
 40
1.0
 40
1.0
 10
103.2729663253
 20
97.0400012358
 30
0.0
 10
103.2919227438
 20
97.0258131818
 30
0.0
 10
103.3665062076
 20
96.9715698457
 30
0.0
 10
103.4441427997
 20
96.9214751035
 30
0.0
 10
103.5035041144
 20
96.8872036077
 30
0.0
  0
SPLINE
  5
5CF
100
AcDbEntity
  8
0
100
AcDbSpline
 62
7
  6
CONTINUOUS
 70
0
 71
3
 72
9
 73
5
 74
0
 42
0.0000001
 43
0.0000001
 44
0.0000000001
 40
0.0
 40
0.0
 40
0.0
 40
0.0
 40
0.543253318
 40
1.0
 40
1.0
 40
1.0
 40
1.0
 10
107.4024817197
 20
96.454574005
 30
0.0
 10
107.4024817197
 20
96.3296246922
 30
0.0
 10
107.3758455707
 20
96.0974221088
 30
0.0
 10
107.2626191347
 20
95.8868152645
 30
0.0
 10
107.1897226545
 20
95.8111703307
 30
0.0
  0
SPLINE
  5
5D0
100
AcDbEntity
  8
0
100
AcDbSpline
 62
7
  6
CONTINUOUS
 70
0
 71
3
 72
11
 73
7
 74
0
 42
0.0000001
 43
0.0000001
 44
0.0000000001
 40
0.0
 40
0.0
 40
0.0
 40
0.0
 40
0.2372523758
 40
0.4999990758
 40
0.7627462798
 40
1.0
 40
1.0
 40
1.0
 40
1.0
 10
106.2612320425
 20
123.9061408713
 30
0.0
 10
106.4232654065
 20
123.8125929813
 30
0.0
 10
106.7298992428
 20
123.554559188
 30
0.0
 10
107.0876460493
 20
123.0654781259
 30
0.0
 10
107.3323320721
 20
122.5111198434
 30
0.0
 10
107.4024817197
 20
122.116549434
 30
0.0
 10
107.4024817197
 20
121.9294494194
 30
0.0
  0
SPLINE
  5
5D1
100
AcDbEntity
  8
0
100
AcDbSpline
 62
7
  6
CONTINUOUS
 70
0
 71
3
 72
11
 73
7
 74
0
 42
0.0000001
 43
0.0000001
 44
0.0000000001
 40
0.0
 40
0.0
 40
0.0
 40
0.0
 40
0.2372539654
 40
0.5000012591
 40
0.7627478695
 40
1.0
 40
1.0
 40
1.0
 40
1.0
 10
102.5135493216
 20
99.4404328879
 30
0.0
 10
102.5135493216
 20
99.2549514749
 30
0.0
 10
102.5830921467
 20
98.8637946357
 30
0.0
 10
102.825661355
 20
98.3142325581
 30
0.0
 10
103.1803129361
 20
97.8293832791
 30
0.0
 10
103.4842936001
 20
97.573582229
 30
0.0
 10
103.6449248819
 20
97.4808438133
 30
0.0
  0
SPLINE
  5
5D2
100
AcDbEntity
  8
0
100
AcDbSpline
 62
7
  6
CONTINUOUS
 70
0
 71
3
 72
9
 73
5
 74
0
 42
0.0000001
 43
0.0000001
 44
0.0000000001
 40
0.0
 40
0.0
 40
0.0
 40
0.0
 40
0.5437419876
 40
1.0
 40
1.0
 40
1.0
 40
1.0
 10
106.4026528099
 20
95.8887048707
 30
0.0
 10
106.5112289803
 20
95.8260198076
 30
0.0
 10
106.7263835804
 20
95.7329251163
 30
0.0
 10
106.9663944484
 20
95.7276578951
 30
0.0
 10
107.0681361797
 20
95.7544128873
 30
0.0
  0
SPLINE
  5
5D3
100
AcDbEntity
  8
0
100
AcDbSpline
 62
7
  6
CONTINUOUS
 70
0
 71
3
 72
9
 73
5
 74
0
 42
0.0000001
 43
0.0000001
 44
0.0000000001
 40
0.0
 40
0.0
 40
0.0
 40
0.0
 40
0.5500408388
 40
1.0
 40
1.0
 40
1.0
 40
1.0
 10
92.7554954659
 20
125.1807067867
 30
0.0
 10
92.7389818108
 20
125.1711726803
 30
0.0
 10
92.710686405
 20
125.1493405057
 30
0.0
 10
92.6968989605
 20
125.114657392
 30
0.0
 10
92.6968989525
 20
125.0990586314
 30
0.0
  0
SPLINE
  5
5D4
100
AcDbEntity
  8
0
100
AcDbSpline
 62
7
  6
CONTINUOUS
 70
0
 71
3
 72
9
 73
5
 74
0
 42
0.0000001
 43
0.0000001
 44
0.0000000001
 40
0.0
 40
0.0
 40
0.0
 40
0.0
 40
0.5500408388
 40
1.0
 40
1.0
 40
1.0
 40
1.0
 10
85.9672403381
 20
129.3447635026
 30
0.0
 10
85.9424698554
 20
129.3304623431
 30
0.0
 10
85.9000267467
 20
129.2977140812
 30
0.0
 10
85.8793455799
 20
129.2456894106
 30
0.0
 10
85.8793455681
 20
129.2222912696
 30
0.0
  0
SPLINE
  5
5D5
100
AcDbEntity
  8
0
100
AcDbSpline
 62
7
  6
CONTINUOUS
 70
0
 71
3
 72
9
 73
5
 74
0
 42
0.0000001
 43
0.0000001
 44
0.0000000001
 40
0.0
 40
0.0
 40
0.0
 40
0.0
 40
0.5500415763
 40
1.0
 40
1.0
 40
1.0
 40
1.0
 10
92.7554966435
 20
90.1527565936
 30
0.0
 10
92.7389826865
 20
90.1622907154
 30
0.0
 10
92.7106867445
 20
90.184122953
 30
0.0
 10
92.6968989604
 20
90.2188064945
 30
0.0
 10
92.6968989525
 20
90.2344054289
 30
0.0
  0
SPLINE
  5
5D6
100
AcDbEntity
  8
0
100
AcDbSpline
 62
7
  6
CONTINUOUS
 70
0
 71
3
 72
9
 73
5
 74
0
 42
0.0000001
 43
0.0000001
 44
0.0000000001
 40
0.0
 40
0.0
 40
0.0
 40
0.0
 40
0.4999975881
 40
1.0
 40
1.0
 40
1.0
 40
1.0
 10
93.038339356
 20
90.1527572735
 30
0.0
 10
92.9963628084
 20
90.1285222471
 30
0.0
 10
92.8969183556
 20
90.1093307873
 30
0.0
 10
92.7974737708
 20
90.1285216361
 30
0.0
 10
92.7554966435
 20
90.1527565936
 30
0.0
  0
SPLINE
  5
5D7
100
AcDbEntity
  8
0
100
AcDbSpline
 62
7
  6
CONTINUOUS
 70
0
 71
3
 72
9
 73
5
 74
0
 42
0.0000001
 43
0.0000001
 44
0.0000000001
 40
0.0
 40
0.0
 40
0.0
 40
0.0
 40
0.4999975881
 40
1.0
 40
1.0
 40
1.0
 40
1.0
 10
94.73540093
 20
89.4179249351
 30
0.0
 10
94.6724361086
 20
89.3815723956
 30
0.0
 10
94.5232694293
 20
89.3527852059
 30
0.0
 10
94.3741025522
 20
89.3815714791
 30
0.0
 10
94.3111368613
 20
89.4179239153
 30
0.0
  0
SPLINE
  5
5D8
100
AcDbEntity
  8
0
100
AcDbSpline
 62
7
  6
CONTINUOUS
 70
0
 71
3
 72
9
 73
5
 74
0
 42
0.0000001
 43
0.0000001
 44
0.0000000001
 40
0.0
 40
0.0
 40
0.0
 40
0.0
 40
0.5500415763
 40
1.0
 40
1.0
 40
1.0
 40
1.0
 10
85.9672421045
 20
94.2351648187
 30
0.0
 10
85.942471169
 20
94.2494660014
 30
0.0
 10
85.900027256
 20
94.2822143578
 30
0.0
 10
85.8793455799
 20
94.33423967
 30
0.0
 10
85.879345568
 20
94.3576380716
 30
0.0
  0
SPLINE
  5
5D9
100
AcDbEntity
  8
0
100
AcDbSpline
 62
7
  6
CONTINUOUS
 70
0
 71
3
 72
11
 73
7
 74
0
 42
0.0000001
 43
0.0000001
 44
0.0000000001
 40
0.0
 40
0.0
 40
0.0
 40
0.0
 40
0.2349526735
 40
0.4950871186
 40
0.7578634025
 40
1.0
 40
1.0
 40
1.0
 40
1.0
 10
36.572972278
 20
129.7536420275
 30
0.0
 10
36.572972278
 20
129.2327616157
 30
0.0
 10
36.7582364826
 20
128.1342841499
 30
0.0
 10
37.4132527588
 20
126.5746800289
 30
0.0
 10
38.3828871949
 20
125.1691051788
 30
0.0
 10
39.216843363
 20
124.4005312703
 30
0.0
 10
39.6625272939
 20
124.1013198807
 30
0.0
  0
SPLINE
  5
5DA
100
AcDbEntity
  8
0
100
AcDbSpline
 62
7
  6
CONTINUOUS
 70
0
 71
3
 72
9
 73
5
 74
0
 42
0.0000001
 43
0.0000001
 44
0.0000000001
 40
0.0
 40
0.0
 40
0.0
 40
0.0
 40
0.5500408388
 40
1.0
 40
1.0
 40
1.0
 40
1.0
 10
70.2035063988
 20
89.9292381425
 30
0.0
 10
70.1869927437
 20
89.9197040362
 30
0.0
 10
70.1586973379
 20
89.8978718616
 30
0.0
 10
70.1449098934
 20
89.8631887479
 30
0.0
 10
70.1449098854
 20
89.8475899872
 30
0.0
  0
SPLINE
  5
5DB
100
AcDbEntity
  8
0
100
AcDbSpline
 62
7
  6
CONTINUOUS
 70
0
 71
3
 72
11
 73
7
 74
0
 42
0.0000001
 43
0.0000001
 44
0.0000000001
 40
0.0
 40
0.0
 40
0.0
 40
0.0
 40
0.2372413576
 40
0.5000010231
 40
0.762760128
 40
1.0
 40
1.0
 40
1.0
 40
1.0
 10
37.2473299337
 20
129.5276065631
 30
0.0
 10
37.2473299337
 20
129.0639261001
 30
0.0
 10
37.4212540935
 20
128.0860610696
 30
0.0
 10
38.0274139073
 20
126.7119938571
 30
0.0
 10
38.9143147533
 20
125.5000167364
 30
0.0
 10
39.6742100175
 20
124.8604687226
 30
0.0
 10
40.0757688343
 20
124.6286338765
 30
0.0
  0
SPLINE
  5
5DC
100
AcDbEntity
  8
0
100
AcDbSpline
 62
7
  6
CONTINUOUS
 70
0
 71
3
 72
9
 73
5
 74
0
 42
0.0000001
 43
0.0000001
 44
0.0000000001
 40
0.0
 40
0.0
 40
0.0
 40
0.0
 40
0.4999975881
 40
1.0
 40
1.0
 40
1.0
 40
1.0
 10
78.9009542518
 20
63.9074294408
 30
0.0
 10
78.8379894305
 20
63.8710769012
 30
0.0
 10
78.6888227511
 20
63.8422897115
 30
0.0
 10
78.539655874
 20
63.8710759848
 30
0.0
 10
78.4766901831
 20
63.9074284209
 30
0.0
  0
SPLINE
  5
5DD
100
AcDbEntity
  8
0
100
AcDbSpline
 62
7
  6
CONTINUOUS
 70
0
 71
3
 72
9
 73
5
 74
0
 42
0.0000001
 43
0.0000001
 44
0.0000000001
 40
0.0
 40
0.0
 40
0.0
 40
0.0
 40
0.4999975881
 40
1.0
 40
1.0
 40
1.0
 40
1.0
 10
70.4863502889
 20
68.520548947
 30
0.0
 10
70.4443737414
 20
68.4963139207
 30
0.0
 10
70.3449292885
 20
68.4771224609
 30
0.0
 10
70.2454847037
 20
68.4963133097
 30
0.0
 10
70.2035075764
 20
68.5205482672
 30
0.0
  0
SPLINE
  5
5DE
100
AcDbEntity
  8
0
100
AcDbSpline
 62
7
  6
CONTINUOUS
 70
0
 71
3
 72
9
 73
5
 74
0
 42
0.0000001
 43
0.0000001
 44
0.0000000001
 40
0.0
 40
0.0
 40
0.0
 40
0.0
 40
0.5500415763
 40
1.0
 40
1.0
 40
1.0
 40
1.0
 10
70.2035075764
 20
68.5205482672
 30
0.0
 10
70.1869936194
 20
68.530082389
 30
0.0
 10
70.1586976774
 20
68.5519146266
 30
0.0
 10
70.1449098934
 20
68.5865981681
 30
0.0
 10
70.1449098854
 20
68.6021971025
 30
0.0
  0
SPLINE
  5
5DF
100
AcDbEntity
  8
0
100
AcDbSpline
 62
7
  6
CONTINUOUS
 70
0
 71
3
 72
11
 73
7
 74
0
 42
0.0000001
 43
0.0000001
 44
0.0000000001
 40
0.0
 40
0.0
 40
0.0
 40
0.0
 40
0.2372543196
 40
0.5000017971
 40
0.7627512679
 40
1.0
 40
1.0
 40
1.0
 40
1.0
 10
53.1822222413
 20
147.9500233412
 30
0.0
 10
53.084687116
 20
147.889710173
 30
0.0
 10
52.9009512378
 20
147.7270437738
 30
0.0
 10
52.6871276281
 20
147.4235503141
 30
0.0
 10
52.5413687291
 20
147.0821162437
 30
0.0
 10
52.4995743288
 20
146.8402994506
 30
0.0
 10
52.4995743288
 20
146.7256253056
 30
0.0
  0
SPLINE
  5
5E0
100
AcDbEntity
  8
0
100
AcDbSpline
 62
7
  6
CONTINUOUS
 70
0
 71
3
 72
15
 73
11
 74
0
 42
0.0000001
 43
0.0000001
 44
0.0000000001
 40
0.0
 40
0.0
 40
0.0
 40
0.0
 40
0.1290571474
 40
0.2711775479
 40
0.4187189169
 40
0.5633288356
 40
0.6970357792
 40
0.814108834
 40
0.9131893026
 40
1.0
 40
1.0
 40
1.0
 40
1.0
 10
141.1107952431
 20
146.4849774565
 30
0.0
 10
141.1107952431
 20
146.3745705204
 30
0.0
 10
141.0796738178
 20
146.1423273313
 30
0.0
 10
140.9639563653
 20
145.8015264822
 30
0.0
 10
140.7855080223
 20
145.4736139934
 30
0.0
 10
140.5592676107
 20
145.1857582291
 30
0.0
 10
140.3032481067
 20
144.961141894
 30
0.0
 10
140.0367061584
 20
144.8179874332
 30
0.0
 10
139.7760820015
 20
144.7690208666
 30
0.0
 10
139.6154680435
 20
144.8139054333
 30
0.0
 10
139.5519297702
 20
144.8523536231
 30
0.0
  0
SPLINE
  5
5E1
100
AcDbEntity
  8
0
100
AcDbSpline
 62
7
  6
CONTINUOUS
 70
0
 71
3
 72
15
 73
11
 74
0
 42
0.0000001
 43
0.0000001
 44
0.0000000001
 40
0.0
 40
0.0
 40
0.0
 40
0.0
 40
0.1290571474
 40
0.2711775479
 40
0.4187189169
 40
0.5633288356
 40
0.6970357792
 40
0.814108834
 40
0.9131893026
 40
1.0
 40
1.0
 40
1.0
 40
1.0
 10
141.1107952431
 20
79.5317792519
 30
0.0
 10
141.1107952431
 20
79.4213723158
 30
0.0
 10
141.0796738178
 20
79.1891291267
 30
0.0
 10
140.9639563653
 20
78.8483282776
 30
0.0
 10
140.7855080223
 20
78.5204157888
 30
0.0
 10
140.5592676107
 20
78.2325600245
 30
0.0
 10
140.3032481067
 20
78.0079436894
 30
0.0
 10
140.0367061584
 20
77.8647892286
 30
0.0
 10
139.7760820015
 20
77.815822662
 30
0.0
 10
139.6154680435
 20
77.8607072287
 30
0.0
 10
139.5519297702
 20
77.8991554185
 30
0.0
  0
SPLINE
  5
5E2
100
AcDbEntity
  8
0
100
AcDbSpline
 62
7
  6
CONTINUOUS
 70
0
 71
3
 72
10
 73
6
 74
0
 42
0.0000001
 43
0.0000001
 44
0.0000000001
 40
0.0
 40
0.0
 40
0.0
 40
0.0
 40
0.2510915127
 40
0.5017629403
 40
1.0
 40
1.0
 40
1.0
 40
1.0
 10
80.5485736691
 20
214.6113548754
 30
0.0
 10
80.618224157
 20
214.6535206109
 30
0.0
 10
80.7595749909
 20
214.7341396502
 30
0.0
 10
81.0387909402
 20
214.8990195384
 30
0.0
 10
81.24617349
 20
215.0253870143
 30
0.0
 10
81.3843798911
 20
215.1090558402
 30
0.0
  0
SPLINE
  5
5E3
100
AcDbEntity
  8
0
100
AcDbSpline
 62
7
  6
CONTINUOUS
 70
0
 71
3
 72
15
 73
11
 74
0
 42
0.0000001
 43
0.0000001
 44
0.0000000001
 40
0.0
 40
0.0
 40
0.0
 40
0.0
 40
0.1287974769
 40
0.2706060703
 40
0.4178807568
 40
0.5623765801
 40
0.6961925898
 40
0.8135912016
 40
0.913066129
 40
1.0
 40
1.0
 40
1.0
 40
1.0
 10
167.8853455867
 20
161.9676741043
 30
0.0
 10
167.8853455867
 20
161.8608579974
 30
0.0
 10
167.8553964403
 20
161.6361896118
 30
0.0
 10
167.7439297004
 20
161.3063168766
 30
0.0
 10
167.5719100182
 20
160.9885773168
 30
0.0
 10
167.3536082989
 20
160.7090385153
 30
0.0
 10
167.1062537338
 20
160.4900013935
 30
0.0
 10
166.8483165293
 20
160.349081248
 30
0.0
 10
166.5957855956
 20
160.2984481825
 30
0.0
 10
166.4389688205
 20
160.3388768378
 30
0.0
 10
166.3765031862
 20
160.3748775463
 30
0.0
  0
SPLINE
  5
5E4
100
AcDbEntity
  8
0
100
AcDbSpline
 62
7
  6
CONTINUOUS
 70
0
 71
3
 72
8
 73
4
 74
0
 42
0.0000001
 43
0.0000001
 44
0.0000000001
 40
0.0
 40
0.0
 40
0.0
 40
0.0
 40
1.0
 40
1.0
 40
1.0
 40
1.0
 10
107.0780642637
 20
95.7216583827
 30
0.0
 10
107.0330107751
 20
95.6943545448
 30
0.0
 10
106.9834200202
 20
95.6735693689
 30
0.0
 10
106.9324696553
 20
95.6601762095
 30
0.0
  0
SPLINE
  5
5E5
100
AcDbEntity
  8
0
100
AcDbSpline
 62
7
  6
CONTINUOUS
 70
0
 71
3
 72
9
 73
5
 74
0
 42
0.0000001
 43
0.0000001
 44
0.0000000001
 40
0.0
 40
0.0
 40
0.0
 40
0.0
 40
0.4641011565
 40
1.0
 40
1.0
 40
1.0
 40
1.0
 10
106.9324696553
 20
95.6601762095
 30
0.0
 10
106.8482457531
 20
95.6380365417
 30
0.0
 10
106.6550517626
 20
95.6325951026
 30
0.0
 10
106.4740690157
 20
95.6916447686
 30
0.0
 10
106.3824856318
 20
95.7331694025
 30
0.0
  0
SPLINE
  5
5E6
100
AcDbEntity
  8
0
100
AcDbSpline
 62
7
  6
CONTINUOUS
 70
0
 71
3
 72
9
 73
5
 74
0
 42
0.0000001
 43
0.0000001
 44
0.0000000001
 40
0.0
 40
0.0
 40
0.0
 40
0.0
 40
0.2451122674
 40
1.0
 40
1.0
 40
1.0
 40
1.0
 10
106.3824856318
 20
95.7331694025
 30
0.0
 10
106.3723329591
 20
95.7377727049
 30
0.0
 10
106.3311565613
 20
95.7570885708
 30
0.0
 10
106.290964348
 20
95.7784887915
 30
0.0
 10
106.2612320425
 20
95.7956543577
 30
0.0
  0
SPLINE
  5
5E7
100
AcDbEntity
  8
0
100
AcDbSpline
 62
7
  6
CONTINUOUS
 70
0
 71
3
 72
9
 73
5
 74
0
 42
0.0000001
 43
0.0000001
 44
0.0000000001
 40
0.0
 40
0.0
 40
0.0
 40
0.0
 40
0.4499591041
 40
1.0
 40
1.0
 40
1.0
 40
1.0
 10
70.1449098854
 20
89.8475899872
 30
0.0
 10
70.1449098775
 20
89.831991045
 30
0.0
 10
70.1586980224
 20
89.7973076915
 30
0.0
 10
70.1869936565
 20
89.7754752613
 30
0.0
 10
70.2035075764
 20
89.7659411609
 30
0.0
  0
SPLINE
  5
5E8
100
AcDbEntity
  8
0
100
AcDbSpline
 62
7
  6
CONTINUOUS
 70
0
 71
3
 72
11
 73
7
 74
0
 42
0.0000001
 43
0.0000001
 44
0.0000000001
 40
0.0
 40
0.0
 40
0.0
 40
0.0
 40
0.2180302913
 40
0.4501532194
 40
0.7092955116
 40
1.0
 40
1.0
 40
1.0
 40
1.0
 10
104.5933698888
 20
127.5789347763
 30
0.0
 10
104.6726180683
 20
127.6316938575
 30
0.0
 10
104.8577036833
 20
127.7113191563
 30
0.0
 10
105.1718475104
 20
127.7297919409
 30
0.0
 10
105.5082380568
 20
127.6538038663
 30
0.0
 10
105.7270150587
 20
127.5507534447
 30
0.0
 10
105.8369467773
 20
127.4872857732
 30
0.0
  0
SPLINE
  5
5E9
100
AcDbEntity
  8
0
100
AcDbSpline
 62
7
  6
CONTINUOUS
 70
0
 71
3
 72
9
 73
5
 74
0
 42
0.0000001
 43
0.0000001
 44
0.0000000001
 40
0.0
 40
0.0
 40
0.0
 40
0.0
 40
0.499998676
 40
1.0
 40
1.0
 40
1.0
 40
1.0
 10
102.1430094002
 20
130.3752115914
 30
0.0
 10
102.163997807
 20
130.3630942032
 30
0.0
 10
102.213720039
 20
130.3534986882
 30
0.0
 10
102.2634423259
 20
130.3630943276
 30
0.0
 10
102.2844307565
 20
130.3752119313
 30
0.0
  0
SPLINE
  5
5EA
100
AcDbEntity
  8
0
100
AcDbSpline
 62
7
  6
CONTINUOUS
 70
0
 71
3
 72
9
 73
5
 74
0
 42
0.0000001
 43
0.0000001
 44
0.0000000001
 40
0.0
 40
0.0
 40
0.0
 40
0.0
 40
0.4823259245
 40
1.0
 40
1.0
 40
1.0
 40
1.0
 10
107.3326673795
 20
95.1623723561
 30
0.0
 10
107.4168292734
 20
95.2040522633
 30
0.0
 10
107.5757626033
 20
95.3255626959
 30
0.0
 10
107.6796754449
 20
95.4948585035
 30
0.0
 10
107.7203629255
 20
95.5870820728
 30
0.0
  0
SPLINE
  5
5EB
100
AcDbEntity
  8
0
100
AcDbSpline
 62
7
  6
CONTINUOUS
 70
0
 71
3
 72
9
 73
5
 74
0
 42
0.0000001
 43
0.0000001
 44
0.0000000001
 40
0.0
 40
0.0
 40
0.0
 40
0.0
 40
0.236860328
 40
1.0
 40
1.0
 40
1.0
 40
1.0
 10
107.7203629255
 20
95.5870820728
 30
0.0
 10
107.7329551019
 20
95.6156239102
 30
0.0
 10
107.7809905303
 20
95.7383830492
 30
0.0
 10
107.8090285521
 20
95.8684556527
 30
0.0
 10
107.8216242793
 20
95.9681740732
 30
0.0
  0
SPLINE
  5
5EC
100
AcDbEntity
  8
0
100
AcDbSpline
 62
7
  6
CONTINUOUS
 70
0
 71
3
 72
9
 73
5
 74
0
 42
0.0000001
 43
0.0000001
 44
0.0000000001
 40
0.0
 40
0.0
 40
0.0
 40
0.0
 40
0.2437253697
 40
1.0
 40
1.0
 40
1.0
 40
1.0
 10
107.8216242793
 20
95.9681740732
 30
0.0
 10
107.8240334847
 20
95.9872473785
 30
0.0
 10
107.8325952032
 20
96.065668841
 30
0.0
 10
107.8360038165
 20
96.1446312366
 30
0.0
 10
107.8360038165
 20
96.2042855679
 30
0.0
  0
SPLINE
  5
5ED
100
AcDbEntity
  8
0
100
AcDbSpline
 62
7
  6
CONTINUOUS
 70
0
 71
3
 72
11
 73
7
 74
0
 42
0.0000001
 43
0.0000001
 44
0.0000000001
 40
0.0
 40
0.0
 40
0.0
 40
0.0
 40
0.2176899422
 40
0.4508856506
 40
0.7106204681
 40
1.0
 40
1.0
 40
1.0
 40
1.0
 10
167.6264283942
 20
162.5398602777
 30
0.0
 10
167.6676609469
 20
162.5160967936
 30
0.0
 10
167.7448134397
 20
162.4512592517
 30
0.0
 10
167.8270317309
 20
162.3169317616
 30
0.0
 10
167.8756208783
 20
162.151366883
 30
0.0
 10
167.8853455867
 20
162.0309366876
 30
0.0
 10
167.8853455867
 20
161.9676741043
 30
0.0
  0
SPLINE
  5
5EE
100
AcDbEntity
  8
0
100
AcDbSpline
 62
7
  6
CONTINUOUS
 70
0
 71
3
 72
9
 73
5
 74
0
 42
0.0000001
 43
0.0000001
 44
0.0000000001
 40
0.0
 40
0.0
 40
0.0
 40
0.0
 40
0.4798600437
 40
1.0
 40
1.0
 40
1.0
 40
1.0
 10
163.8624070452
 20
80.8132583524
 30
0.0
 10
163.9558515134
 20
80.8791757594
 30
0.0
 10
164.1274770477
 20
81.0514128799
 30
0.0
 10
164.2383494648
 20
81.2660819242
 30
0.0
 10
164.2822032318
 20
81.3820187565
 30
0.0
  0
SPLINE
  5
5EF
100
AcDbEntity
  8
0
100
AcDbSpline
 62
7
  6
CONTINUOUS
 70
0
 71
3
 72
9
 73
5
 74
0
 42
0.0000001
 43
0.0000001
 44
0.0000000001
 40
0.0
 40
0.0
 40
0.0
 40
0.0
 40
0.5500500467
 40
1.0
 40
1.0
 40
1.0
 40
1.0
 10
102.8670913851
 20
129.467276942
 30
0.0
 10
102.891863992
 20
129.4815793279
 30
0.0
 10
102.934313841
 20
129.5143223689
 30
0.0
 10
102.9550042444
 20
129.566349818
 30
0.0
 10
102.9550038922
 20
129.5897490949
 30
0.0
  0
SPLINE
  5
5F0
100
AcDbEntity
  8
0
100
AcDbSpline
 62
7
  6
CONTINUOUS
 70
0
 71
3
 72
9
 73
5
 74
0
 42
0.0000001
 43
0.0000001
 44
0.0000000001
 40
0.0
 40
0.0
 40
0.0
 40
0.0
 40
0.499998676
 40
1.0
 40
1.0
 40
1.0
 40
1.0
 10
94.3111368613
 20
124.2825771267
 30
0.0
 10
94.3741020817
 20
124.2462249622
 30
0.0
 10
94.5232687775
 20
124.2174384173
 30
0.0
 10
94.6724356382
 20
124.2462253354
 30
0.0
 10
94.73540093
 20
124.2825781466
 30
0.0
  0
SPLINE
  5
5F1
100
AcDbEntity
  8
0
100
AcDbSpline
 62
7
  6
CONTINUOUS
 70
0
 71
3
 72
9
 73
5
 74
0
 42
0.0000001
 43
0.0000001
 44
0.0000000001
 40
0.0
 40
0.0
 40
0.0
 40
0.0
 40
0.2310220216
 40
1.0
 40
1.0
 40
1.0
 40
1.0
 10
92.7554966435
 20
125.017409805
 30
0.0
 10
92.7618438614
 20
125.01374532
 30
0.0
 10
92.7902823161
 20
124.9995709888
 30
0.0
 10
92.8214108105
 20
124.9912072987
 30
0.0
 10
92.8455190451
 20
124.9874741349
 30
0.0
  0
SPLINE
  5
5F2
100
AcDbEntity
  8
0
100
AcDbSpline
 62
7
  6
CONTINUOUS
 70
0
 71
3
 72
9
 73
5
 74
0
 42
0.0000001
 43
0.0000001
 44
0.0000000001
 40
0.0
 40
0.0
 40
0.0
 40
0.0
 40
0.2630944952
 40
1.0
 40
1.0
 40
1.0
 40
1.0
 10
92.8455190451
 20
124.9874741349
 30
0.0
 10
92.8625890363
 20
124.9848308442
 30
0.0
 10
92.9279370536
 20
124.9801065905
 30
0.0
 10
92.9964397393
 20
124.9932198743
 30
0.0
 10
93.038339356
 20
125.0174104849
 30
0.0
  0
SPLINE
  5
5F3
100
AcDbEntity
  8
0
100
AcDbSpline
 62
7
  6
CONTINUOUS
 70
0
 71
3
 72
13
 73
9
 74
0
 42
0.0000001
 43
0.0000001
 44
0.0000000001
 40
0.0
 40
0.0
 40
0.0
 40
0.0
 40
0.1142259181
 40
0.2375599982
 40
0.5000010158
 40
0.7624414734
 40
0.8857749255
 40
1.0
 40
1.0
 40
1.0
 40
1.0
 10
56.6457630736
 20
147.838838021
 30
0.0
 10
56.6457630736
 20
148.1149230097
 30
0.0
 10
56.5951114282
 20
148.6896790944
 30
0.0
 10
56.3205517645
 20
149.869556816
 30
0.0
 10
55.6824507457
 20
151.3166906411
 30
0.0
 10
54.748241755
 20
152.5928640795
 30
0.0
 10
53.8637157986
 20
153.4205696495
 30
0.0
 10
53.3912884349
 20
153.7518074908
 30
0.0
 10
53.1521922346
 20
153.8898466235
 30
0.0
  0
SPLINE
  5
5F4
100
AcDbEntity
  8
0
100
AcDbSpline
 62
7
  6
CONTINUOUS
 70
0
 71
3
 72
11
 73
7
 74
0
 42
0.0000001
 43
0.0000001
 44
0.0000000001
 40
0.0
 40
0.0
 40
0.0
 40
0.0
 40
0.2180512434
 40
0.4501803413
 40
0.7091405572
 40
1.0
 40
1.0
 40
1.0
 40
1.0
 10
40.6668388185
 20
163.8077140639
 30
0.0
 10
40.8318867578
 20
163.9177467484
 30
0.0
 10
41.2177875351
 20
164.0831119777
 30
0.0
 10
41.8719789769
 20
164.1217795534
 30
0.0
 10
42.5729153966
 20
163.9637976847
 30
0.0
 10
43.0285865056
 20
163.7488891364
 30
0.0
 10
43.2577361017
 20
163.6165925483
 30
0.0
  0
SPLINE
  5
5F5
100
AcDbEntity
  8
0
100
AcDbSpline
 62
7
  6
CONTINUOUS
 70
0
 71
3
 72
9
 73
5
 74
0
 42
0.0000001
 43
0.0000001
 44
0.0000000001
 40
0.0
 40
0.0
 40
0.0
 40
0.0
 40
0.2492910629
 40
1.0
 40
1.0
 40
1.0
 40
1.0
 10
82.1596856268
 20
213.7137480925
 30
0.0
 10
82.1023663283
 20
213.8133066497
 30
0.0
 10
81.8735491463
 20
214.213315907
 30
0.0
 10
81.649791509
 20
214.6161927258
 30
0.0
 10
81.4824715635
 20
214.9189849999
 30
0.0
  0
SPLINE
  5
5F6
100
AcDbEntity
  8
0
100
AcDbSpline
 62
7
  6
CONTINUOUS
 70
0
 71
3
 72
11
 73
7
 74
0
 42
0.0000001
 43
0.0000001
 44
0.0000000001
 40
0.0
 40
0.0
 40
0.0
 40
0.0
 40
0.2508026741
 40
0.5010781532
 40
0.7505059518
 40
1.0
 40
1.0
 40
1.0
 40
1.0
 10
82.1602370021
 20
213.7134823551
 30
0.0
 10
82.161397265
 20
213.8695322235
 30
0.0
 10
82.1689338404
 20
214.1812394029
 30
0.0
 10
82.1745624091
 20
214.6481881366
 30
0.0
 10
82.1772272103
 20
215.1143463645
 30
0.0
 10
82.1798876643
 20
215.424773696
 30
0.0
 10
82.1810418732
 20
215.580009335
 30
0.0
  0
SPLINE
  5
5F7
100
AcDbEntity
  8
0
100
AcDbSpline
 62
7
  6
CONTINUOUS
 70
0
 71
3
 72
9
 73
5
 74
0
 42
0.0000001
 43
0.0000001
 44
0.0000000001
 40
0.0
 40
0.0
 40
0.0
 40
0.0
 40
0.5248374641
 40
1.0
 40
1.0
 40
1.0
 40
1.0
 10
109.9381831831
 20
124.3571111532
 30
0.0
 10
110.0486773222
 20
124.1279915878
 30
0.0
 10
110.2196911766
 20
123.6711105146
 30
0.0
 10
110.2917380459
 20
123.1860586794
 30
0.0
 10
110.2917380457
 20
122.9557632186
 30
0.0
  0
SPLINE
  5
5F8
100
AcDbEntity
  8
0
100
AcDbSpline
 62
7
  6
CONTINUOUS
 70
0
 71
3
 72
9
 73
5
 74
0
 42
0.0000001
 43
0.0000001
 44
0.0000000001
 40
0.0
 40
0.0
 40
0.0
 40
0.0
 40
0.4750816629
 40
1.0
 40
1.0
 40
1.0
 40
1.0
 10
108.5946747053
 20
125.8951468306
 30
0.0
 10
108.8776574998
 20
125.731770334
 30
0.0
 10
109.402052638
 20
125.2650901272
 30
0.0
 10
109.7813558896
 20
124.682306694
 30
0.0
 10
109.9381831831
 20
124.3571111532
 30
0.0
  0
SPLINE
  5
5F9
100
AcDbEntity
  8
0
100
AcDbSpline
 62
7
  6
CONTINUOUS
 70
0
 71
3
 72
11
 73
7
 74
0
 42
0.0000001
 43
0.0000001
 44
0.0000000001
 40
0.0
 40
0.0
 40
0.0
 40
0.0
 40
0.2907054983
 40
0.5498483482
 40
0.7819708137
 40
1.0
 40
1.0
 40
1.0
 40
1.0
 10
110.2917380457
 20
97.4808878042
 30
0.0
 10
110.2917380456
 20
97.3539466085
 30
0.0
 10
110.2715954293
 20
97.1129478992
 30
0.0
 10
110.1692078937
 20
96.7836212281
 30
0.0
 10
109.9961351519
 20
96.5207936922
 30
0.0
 10
109.8346309371
 20
96.4003148825
 30
0.0
 10
109.7493141545
 20
96.3580630827
 30
0.0
  0
SPLINE
  5
5FA
100
AcDbEntity
  8
0
100
AcDbSpline
 62
7
  6
CONTINUOUS
 70
0
 71
3
 72
11
 73
7
 74
0
 42
0.0000001
 43
0.0000001
 44
0.0000000001
 40
0.0
 40
0.0
 40
0.0
 40
0.0
 40
0.2177469725
 40
0.4506010295
 40
0.710210278
 40
1.0
 40
1.0
 40
1.0
 40
1.0
 10
140.8366654498
 20
80.1244328097
 30
0.0
 10
140.8801477992
 20
80.1005927466
 30
0.0
 10
140.9618069955
 20
80.0345703552
 30
0.0
 10
141.0490095222
 20
79.8955760489
 30
0.0
 10
141.1005183429
 20
79.7233122089
 30
0.0
 10
141.1107952431
 20
79.5977749625
 30
0.0
 10
141.1107952431
 20
79.5317792519
 30
0.0
  0
SPLINE
  5
5FB
100
AcDbEntity
  8
0
100
AcDbSpline
 62
7
  6
CONTINUOUS
 70
0
 71
3
 72
11
 73
7
 74
0
 42
0.0000001
 43
0.0000001
 44
0.0000000001
 40
0.0
 40
0.0
 40
0.0
 40
0.0
 40
0.2908604614
 40
0.549820977
 40
0.7819496861
 40
1.0
 40
1.0
 40
1.0
 40
1.0
 10
60.1223030465
 20
119.9952002421
 30
0.0
 10
60.1223030465
 20
119.7305948545
 30
0.0
 10
60.080587485
 20
119.2285032862
 30
0.0
 10
59.8669355462
 20
118.5424632908
 30
0.0
 10
59.5063468723
 20
117.9952351435
 30
0.0
 10
59.1701777304
 20
117.7437122415
 30
0.0
 10
58.9923583767
 20
117.6557919542
 30
0.0
  0
SPLINE
  5
5FC
100
AcDbEntity
  8
0
100
AcDbSpline
 62
7
  6
CONTINUOUS
 70
0
 71
3
 72
13
 73
9
 74
0
 42
0.0000001
 43
0.0000001
 44
0.0000000001
 40
0.0
 40
0.0
 40
0.0
 40
0.0
 40
0.1142250362
 40
0.2375584228
 40
0.4999988469
 40
0.762439898
 40
0.8857740437
 40
1.0
 40
1.0
 40
1.0
 40
1.0
 10
56.5867544207
 20
155.9212543256
 30
0.0
 10
56.8287234541
 20
155.7815565994
 30
0.0
 10
57.3068272156
 20
155.4463389133
 30
0.0
 10
58.201981143
 20
154.6086880817
 30
0.0
 10
59.1474153875
 20
153.3171807617
 30
0.0
 10
59.7931839122
 20
151.8526584886
 30
0.0
 10
60.0710426758
 20
150.658603354
 30
0.0
 10
60.1223030465
 20
150.0769409109
 30
0.0
 10
60.1223030465
 20
149.7975384673
 30
0.0
  0
SPLINE
  5
5FD
100
AcDbEntity
  8
0
100
AcDbSpline
 62
7
  6
CONTINUOUS
 70
0
 71
3
 72
9
 73
5
 74
0
 42
0.0000001
 43
0.0000001
 44
0.0000000001
 40
0.0
 40
0.0
 40
0.0
 40
0.0
 40
0.2563181166
 40
1.0
 40
1.0
 40
1.0
 40
1.0
 10
103.5035041144
 20
125.9988695066
 30
0.0
 10
103.4859963233
 20
126.0089774058
 30
0.0
 10
103.4171182361
 20
126.0474053517
 30
0.0
 10
103.3459256947
 20
126.0817309724
 30
0.0
 10
103.2918540093
 20
126.1044615628
 30
0.0
  0
SPLINE
  5
5FE
100
AcDbEntity
  8
0
100
AcDbSpline
 62
7
  6
CONTINUOUS
 70
0
 71
3
 72
11
 73
7
 74
0
 42
0.0000001
 43
0.0000001
 44
0.0000000001
 40
0.0
 40
0.0
 40
0.0
 40
0.0
 40
0.2826961686
 40
0.5387424151
 40
0.774335626
 40
1.0
 40
1.0
 40
1.0
 40
1.0
 10
103.2918540093
 20
126.1044615628
 30
0.0
 10
103.206695271
 20
126.1402604914
 30
0.0
 10
103.0383683081
 20
126.1957508743
 30
0.0
 10
102.7846632113
 20
126.2235910278
 30
0.0
 10
102.5498415979
 20
126.1897910024
 30
0.0
 10
102.4109224905
 20
126.124779156
 30
0.0
 10
102.3495402562
 20
126.0839141984
 30
0.0
  0
SPLINE
  5
5FF
100
AcDbEntity
  8
0
100
AcDbSpline
 62
7
  6
CONTINUOUS
 70
0
 71
3
 72
11
 73
7
 74
0
 42
0.0000001
 43
0.0000001
 44
0.0000000001
 40
0.0
 40
0.0
 40
0.0
 40
0.0
 40
0.2372539654
 40
0.5000012591
 40
0.7627478695
 40
1.0
 40
1.0
 40
1.0
 40
1.0
 10
107.8360038165
 20
121.6791609824
 30
0.0
 10
107.8360038168
 20
121.9373342222
 30
0.0
 10
107.7392065354
 20
122.4817889296
 30
0.0
 10
107.4015722823
 20
123.2467293068
 30
0.0
 10
106.9079295706
 20
123.9215953603
 30
0.0
 10
106.484816162
 20
124.2776471325
 30
0.0
 10
106.2612320425
 20
124.4067305639
 30
0.0
  0
SPLINE
  5
600
100
AcDbEntity
  8
0
100
AcDbSpline
 62
7
  6
CONTINUOUS
 70
0
 71
3
 72
11
 73
7
 74
0
 42
0.0000001
 43
0.0000001
 44
0.0000000001
 40
0.0
 40
0.0
 40
0.0
 40
0.0
 40
0.2179271225
 40
0.450388706
 40
0.7095070961
 40
1.0
 40
1.0
 40
1.0
 40
1.0
 10
55.5607286247
 20
115.9041620315
 30
0.0
 10
55.7321887512
 20
115.9935632812
 30
0.0
 10
56.0551868406
 20
116.2449884918
 30
0.0
 10
56.4007331207
 20
116.7825636881
 30
0.0
 10
56.605643829
 20
117.4525852321
 30
0.0
 10
56.6457630736
 20
117.9420443265
 30
0.0
 10
56.6457630736
 20
118.1998002792
 30
0.0
  0
SPLINE
  5
601
100
AcDbEntity
  8
0
100
AcDbSpline
 62
7
  6
CONTINUOUS
 70
0
 71
3
 72
9
 73
5
 74
0
 42
0.0000001
 43
0.0000001
 44
0.0000000001
 40
0.0
 40
0.0
 40
0.0
 40
0.0
 40
0.5379553246
 40
1.0
 40
1.0
 40
1.0
 40
1.0
 10
57.8898173836
 20
118.8346527546
 30
0.0
 10
57.8898173836
 20
118.5067946063
 30
0.0
 10
57.8267295216
 20
117.8935728589
 30
0.0
 10
57.576325467
 20
117.3206481718
 30
0.0
 10
57.4101502476
 20
117.0933133901
 30
0.0
  0
SPLINE
  5
602
100
AcDbEntity
  8
0
100
AcDbSpline
 62
7
  6
CONTINUOUS
 70
0
 71
3
 72
9
 73
5
 74
0
 42
0.0000001
 43
0.0000001
 44
0.0000000001
 40
0.0
 40
0.0
 40
0.0
 40
0.0
 40
0.2549108053
 40
1.0
 40
1.0
 40
1.0
 40
1.0
 10
102.3622544373
 20
124.8393601667
 30
0.0
 10
102.3622544373
 20
124.8509535529
 30
0.0
 10
102.3627831039
 20
124.8964314177
 30
0.0
 10
102.3654541436
 20
124.9418903871
 30
0.0
 10
102.3687665271
 20
124.9756148897
 30
0.0
  0
SPLINE
  5
603
100
AcDbEntity
  8
0
100
AcDbSpline
 62
7
  6
CONTINUOUS
 70
0
 71
3
 72
9
 73
5
 74
0
 42
0.0000001
 43
0.0000001
 44
0.0000000001
 40
0.0
 40
0.0
 40
0.0
 40
0.0
 40
0.5359023401
 40
1.0
 40
1.0
 40
1.0
 40
1.0
 10
102.3687665271
 20
124.9756148897
 30
0.0
 10
102.3785969436
 20
125.0757017017
 30
0.0
 10
102.4179534827
 20
125.2619818743
 30
0.0
 10
102.5192808421
 20
125.4265859202
 30
0.0
 10
102.5805766078
 20
125.4884575058
 30
0.0
  0
SPLINE
  5
604
100
AcDbEntity
  8
0
100
AcDbSpline
 62
7
  6
CONTINUOUS
 70
0
 71
3
 72
8
 73
4
 74
0
 42
0.0000001
 43
0.0000001
 44
0.0000000001
 40
0.0
 40
0.0
 40
0.0
 40
0.0
 40
1.0
 40
1.0
 40
1.0
 40
1.0
 10
102.5805766078
 20
125.4884575058
 30
0.0
 10
102.6176442491
 20
125.5258733649
 30
0.0
 10
102.6604306149
 20
125.5584175194
 30
0.0
 10
102.706592003
 20
125.5837765965
 30
0.0
  0
SPLINE
  5
605
100
AcDbEntity
  8
0
100
AcDbSpline
 62
7
  6
CONTINUOUS
 70
0
 71
3
 72
11
 73
7
 74
0
 42
0.0000001
 43
0.0000001
 44
0.0000000001
 40
0.0
 40
0.0
 40
0.0
 40
0.0
 40
0.2372523758
 40
0.4999990758
 40
0.7627462798
 40
1.0
 40
1.0
 40
1.0
 40
1.0
 10
103.5035041144
 20
97.3877933004
 30
0.0
 10
103.3414707504
 20
97.4813411903
 30
0.0
 10
103.0348369141
 20
97.7393749837
 30
0.0
 10
102.6770901076
 20
98.2284560457
 30
0.0
 10
102.4324040848
 20
98.7828143282
 30
0.0
 10
102.3622544373
 20
99.1773847376
 30
0.0
 10
102.3622544373
 20
99.3644847523
 30
0.0
  0
SPLINE
  5
606
100
AcDbEntity
  8
0
100
AcDbSpline
 62
7
  6
CONTINUOUS
 70
0
 71
3
 72
13
 73
9
 74
0
 42
0.0000001
 43
0.0000001
 44
0.0000000001
 40
0.0
 40
0.0
 40
0.0
 40
0.0
 40
0.1150596631
 40
0.2385534618
 40
0.4999989552
 40
0.7614450164
 40
0.8849394817
 40
1.0
 40
1.0
 40
1.0
 40
1.0
 10
54.4654131967
 20
154.5671574488
 30
0.0
 10
54.6969214821
 20
154.4250935428
 30
0.0
 10
55.152789805
 20
154.0903258408
 30
0.0
 10
56.006016535
 20
153.2711306037
 30
0.0
 10
56.9105524381
 20
152.0257324335
 30
0.0
 10
57.5368379144
 20
150.619683838
 30
0.0
 10
57.8196767448
 20
149.4711672092
 30
0.0
 10
57.8816647444
 20
148.9089867843
 30
0.0
 10
57.8889441434
 20
148.6374608248
 30
0.0
  0
SPLINE
  5
607
100
AcDbEntity
  8
0
100
AcDbSpline
 62
7
  6
CONTINUOUS
 70
0
 71
3
 72
11
 73
7
 74
0
 42
0.0000001
 43
0.0000001
 44
0.0000000001
 40
0.0
 40
0.0
 40
0.0
 40
0.0
 40
0.2371939557
 40
0.5000010223
 40
0.7628075308
 40
1.0
 40
1.0
 40
1.0
 40
1.0
 10
57.8889441434
 20
148.6374608248
 30
0.0
 10
57.8889441434
 20
149.1986334028
 30
0.0
 10
57.6797866799
 20
150.3825852336
 30
0.0
 10
56.9451174346
 20
152.045688566
 30
0.0
 10
55.8721579331
 20
153.5134748851
 30
0.0
 10
54.9514026079
 20
154.286577679
 30
0.0
 10
54.4654131967
 20
154.5671574488
 30
0.0
  0
SPLINE
  5
608
100
AcDbEntity
  8
0
100
AcDbSpline
 62
7
  6
CONTINUOUS
 70
0
 71
3
 72
9
 73
5
 74
0
 42
0.0000001
 43
0.0000001
 44
0.0000000001
 40
0.0
 40
0.0
 40
0.0
 40
0.0
 40
0.4499591041
 40
1.0
 40
1.0
 40
1.0
 40
1.0
 10
92.6968989525
 20
125.0990586314
 30
0.0
 10
92.6968989446
 20
125.0834596891
 30
0.0
 10
92.7106870895
 20
125.0487763356
 30
0.0
 10
92.7389827236
 20
125.0269439054
 30
0.0
 10
92.7554966435
 20
125.017409805
 30
0.0
  0
SPLINE
  5
609
100
AcDbEntity
  8
0
100
AcDbSpline
 62
7
  6
CONTINUOUS
 70
0
 71
3
 72
11
 73
7
 74
0
 42
0.0000001
 43
0.0000001
 44
0.0000000001
 40
0.0
 40
0.0
 40
0.0
 40
0.0
 40
0.2177469725
 40
0.4506010295
 40
0.710210278
 40
1.0
 40
1.0
 40
1.0
 40
1.0
 10
140.8366654498
 20
147.0776310144
 30
0.0
 10
140.8801477992
 20
147.0537909513
 30
0.0
 10
140.9618069955
 20
146.9877685598
 30
0.0
 10
141.0490095222
 20
146.8487742535
 30
0.0
 10
141.1005183429
 20
146.6765104135
 30
0.0
 10
141.1107952431
 20
146.5509731671
 30
0.0
 10
141.1107952431
 20
146.4849774565
 30
0.0
  0
SPLINE
  5
60A
100
AcDbEntity
  8
0
100
AcDbSpline
 62
7
  6
CONTINUOUS
 70
0
 71
3
 72
11
 73
7
 74
0
 42
0.0000001
 43
0.0000001
 44
0.0000000001
 40
0.0
 40
0.0
 40
0.0
 40
0.0
 40
0.2908594346
 40
0.5498195844
 40
0.7819487134
 40
1.0
 40
1.0
 40
1.0
 40
1.0
 10
39.9343480668
 20
161.4967269563
 30
0.0
 10
39.7164871443
 20
161.6225061731
 30
0.0
 10
39.2832639909
 20
161.8268276615
 30
0.0
 10
38.6168580427
 20
161.9770267531
 30
0.0
 10
37.9948942344
 20
161.940264135
 30
0.0
 10
37.6280041271
 20
161.7830453249
 30
0.0
 10
37.4710869833
 20
161.6784331657
 30
0.0
  0
SPLINE
  5
60B
100
AcDbEntity
  8
0
100
AcDbSpline
 62
7
  6
CONTINUOUS
 70
0
 71
3
 72
11
 73
7
 74
0
 42
0.0000001
 43
0.0000001
 44
0.0000000001
 40
0.0
 40
0.0
 40
0.0
 40
0.0
 40
0.237239768
 40
0.4999988393
 40
0.7627585384
 40
1.0
 40
1.0
 40
1.0
 40
1.0
 10
39.9343480668
 20
124.5355833635
 30
0.0
 10
39.5313875796
 20
124.7682274462
 30
0.0
 10
38.7688396816
 20
125.410007888
 30
0.0
 10
37.8788426507
 20
126.6262157841
 30
0.0
 10
37.2705665054
 20
128.0050800072
 30
0.0
 10
37.0960350493
 20
128.986359046
 30
0.0
 10
37.0960350493
 20
129.4516584274
 30
0.0
  0
SPLINE
  5
60C
100
AcDbEntity
  8
0
100
AcDbSpline
 62
7
  6
CONTINUOUS
 70
0
 71
3
 72
11
 73
7
 74
0
 42
0.0000001
 43
0.0000001
 44
0.0000000001
 40
0.0
 40
0.0
 40
0.0
 40
0.0
 40
0.2879590515
 40
0.5463170211
 40
0.7800201297
 40
1.0
 40
1.0
 40
1.0
 40
1.0
 10
37.0981776019
 20
159.3795331523
 30
0.0
 10
37.1048166505
 20
159.5723080827
 30
0.0
 10
37.1466814368
 20
159.9383086553
 30
0.0
 10
37.3137901873
 20
160.4383015587
 30
0.0
 10
37.5801387398
 20
160.8416228157
 30
0.0
 10
37.8231444544
 20
161.0346352382
 30
0.0
 10
37.9523108046
 20
161.1055512345
 30
0.0
  0
SPLINE
  5
60D
100
AcDbEntity
  8
0
100
AcDbSpline
 62
7
  6
CONTINUOUS
 70
0
 71
3
 72
9
 73
5
 74
0
 42
0.0000001
 43
0.0000001
 44
0.0000000001
 40
0.0
 40
0.0
 40
0.0
 40
0.0
 40
0.2310220216
 40
1.0
 40
1.0
 40
1.0
 40
1.0
 10
70.2035075764
 20
89.7659411609
 30
0.0
 10
70.2098547943
 20
89.7622766758
 30
0.0
 10
70.238293249
 20
89.7481023446
 30
0.0
 10
70.2694217434
 20
89.7397386546
 30
0.0
 10
70.293529978
 20
89.7360054908
 30
0.0
  0
SPLINE
  5
60E
100
AcDbEntity
  8
0
100
AcDbSpline
 62
7
  6
CONTINUOUS
 70
0
 71
3
 72
9
 73
5
 74
0
 42
0.0000001
 43
0.0000001
 44
0.0000000001
 40
0.0
 40
0.0
 40
0.0
 40
0.0
 40
0.2630944952
 40
1.0
 40
1.0
 40
1.0
 40
1.0
 10
70.293529978
 20
89.7360054908
 30
0.0
 10
70.3105999692
 20
89.7333622
 30
0.0
 10
70.3759479865
 20
89.7286379463
 30
0.0
 10
70.4444506722
 20
89.7417512302
 30
0.0
 10
70.4863502889
 20
89.7659418407
 30
0.0
  0
SPLINE
  5
60F
100
AcDbEntity
  8
0
100
AcDbSpline
 62
7
  6
CONTINUOUS
 70
0
 71
3
 72
9
 73
5
 74
0
 42
0.0000001
 43
0.0000001
 44
0.0000000001
 40
0.0
 40
0.0
 40
0.0
 40
0.0
 40
0.499998676
 40
1.0
 40
1.0
 40
1.0
 40
1.0
 10
78.4766901831
 20
85.1528213147
 30
0.0
 10
78.5396554035
 20
85.1164691501
 30
0.0
 10
78.6888220993
 20
85.0876826052
 30
0.0
 10
78.83798896
 20
85.1164695233
 30
0.0
 10
78.9009542518
 20
85.1528223345
 30
0.0
  0
SPLINE
  5
610
100
AcDbEntity
  8
0
100
AcDbSpline
 62
7
  6
CONTINUOUS
 70
0
 71
3
 72
9
 73
5
 74
0
 42
0.0000001
 43
0.0000001
 44
0.0000000001
 40
0.0
 40
0.0
 40
0.0
 40
0.0
 40
0.4499591041
 40
1.0
 40
1.0
 40
1.0
 40
1.0
 10
85.8793455681
 20
129.2222912696
 30
0.0
 10
85.8793455562
 20
129.1988928563
 30
0.0
 10
85.9000277735
 20
129.146867826
 30
0.0
 10
85.9424712246
 20
129.1141191807
 30
0.0
 10
85.9672421045
 20
129.0998180301
 30
0.0
  0
SPLINE
  5
611
100
AcDbEntity
  8
0
100
AcDbSpline
 62
7
  6
CONTINUOUS
 70
0
 71
3
 72
11
 73
7
 74
0
 42
0.0000001
 43
0.0000001
 44
0.0000000001
 40
0.0
 40
0.0
 40
0.0
 40
0.0
 40
0.2361852563
 40
0.4978542987
 40
0.7606877358
 40
1.0
 40
1.0
 40
1.0
 40
1.0
 10
53.8150526098
 20
145.9661018427
 30
0.0
 10
53.8150526098
 20
146.0805206794
 30
0.0
 10
53.8582943339
 20
146.3218844467
 30
0.0
 10
54.0096536674
 20
146.6609319913
 30
0.0
 10
54.2316566076
 20
146.9604479897
 30
0.0
 10
54.4215373435
 20
147.1185694326
 30
0.0
 10
54.5219390081
 20
147.1765360501
 30
0.0
  0
ENDSEC
  0
SECTION
  2
OBJECTS
  0
DICTIONARY
  5
C
100
AcDbDictionary
280
0
281
1
  3
ACAD_GROUP
350
D
  3
ACAD_MLINESTYLE
350
17
  3
ACAD_LAYOUT
350
1A
  3
ACAD_PLOTSETTINGS
350
19
  3
ACAD_PLOTSTYLENAME
350
E
  0
DICTIONARY
  5
D
102
{ACAD_REACTORS
330
C
102
}
100
AcDbDictionary
280
0
281
1
  0
ACDBDICTIONARYWDFLT
  5
E
102
{ACAD_REACTORS
330
C
102
}
100
AcDbDictionary
281
1
  3
Normal
350
F
100
AcDbDictionaryWithDefault
340
F
  0
DICTIONARY
  5
17
102
{ACAD_REACTORS
330
C
102
}
100
AcDbDictionary
280
0
281
1
  3
Standard
350
18
  0
DICTIONARY
  5
19
102
{ACAD_REACTORS
330
C
102
}
100
AcDbDictionary
281
1
  0
DICTIONARY
  5
1A
102
{ACAD_REACTORS
330
C
102
}
100
AcDbDictionary
281
1
  3
Model
350
612
  3
Layout1
350
613
  0
ACDBPLACEHOLDER
  5
F
102
{ACAD_REACTORS
330
E
102
}
  0
MLINESTYLE
  5
18
102
{ACAD_REACTORS
330
17
102
}
100
AcDbMlineStyle
  2
STANDARD
 70
0
  3

 62
256
 51
90.0
 52
90.0
 71
2
 49
0.5
 62
256
  6
BYLAYER
 49
-0.5
 62
256
  6
BYLAYER
  0
LAYOUT
  5
612
102
{ACAD_REACTORS
330
1A
102
}
100
AcDbPlotSettings
  1

  2
none_device
  4

  6

 40
0.0
 41
0.0
 42
0.0
 43
0.0
 44
210.0
 45
297.0
 46
0.0
 47
0.0
 48
0.0
 49
0.0
140
0.0
141
0.0
142
1.0
143
1.0
 70
1024
 72
1
 73
0
 74
0
  7

 75
0
147
1.0
148
0.0
149
0.0
100
AcDbLayout
  1
Model
 70
0
 71
0
 10
0.0
 20
0.0
 11
210.0
 21
297.0
 12
0.0
 22
0.0
 32
0.0
 14
0.0
 24
0.0
 34
0.0
 15
0.0
 25
0.0
 35
0.0
146
0.0
 13
0.0
 23
0.0
 33
0.0
 16
1.0
 26
0.0
 36
0.0
 17
0.0
 27
1.0
 37
0.0
 76
0
330
210
345
0
346
0
  0
LAYOUT
  5
613
102
{ACAD_REACTORS
330
1A
102
}
100
AcDbPlotSettings
  1

  2
none_device
  4

  6

 40
0.0
 41
0.0
 42
0.0
 43
0.0
 44
210.0
 45
297.0
 46
0.0
 47
0.0
 48
0.0
 49
0.0
140
0.0
141
0.0
142
1.0
143
1.0
 70
0
 72
1
 73
0
 74
0
  7

 75
0
147
1.0
148
0.0
149
0.0
100
AcDbLayout
  1
Layout1
 70
0
 71
1
 10
0.0
 20
0.0
 11
210.0
 21
297.0
 12
0.0
 22
0.0
 32
0.0
 14
0.0
 24
0.0
 34
0.0
 15
0.0
 25
0.0
 35
0.0
146
0.0
 13
0.0
 23
0.0
 33
0.0
 16
1.0
 26
0.0
 36
0.0
 17
0.0
 27
1.0
 37
0.0
 76
0
330
211
345
0
346
0
  0
ENDSEC
  0
EOF
