999
DXF file: C:\Users\sesa63760\Dev\_Creo\CAD\MCADID0005567_3D-CAD\drw0001_7.dxf
999
Pro/ENGINEER 2019471 by Parametric Technology Corporation
  0
SECTION
  2
HEADER
  9
$ACADVER
  1
AC1024
  9
$DWGCODEPAGE
  3
ANSI_1252
  9
$EXTMAX
 10
38.2776253904
 20
54.1354987664
 30
0.0
  9
$EXTMIN
 10
0.0
 20
0.0
 30
0.0
  9
$LIMMIN
 10
0.0
 20
0.0
  9
$LIMMAX
 10
38.2776253904
 20
54.1354987664
  9
$VIEWCTR
 10
19.1388126952
 20
27.0677493832
  9
$VIEWSIZE
 40
54.1354987664
  9
$CLAYER
  8
0
  9
$LTSCALE
 40
3.5288325122
  9
$CELTYPE
  6
BYLAYER
  9
$DIMSCALE
 40
1.0
  9
$DIMASZ
 40
0.4556860166
  9
$DIMEXO
 40
1.0
  9
$DIMDLI
 40
2.438102463
  9
$DIMEXE
 40
1.0
  9
$DIMCEN
 40
0.5774453202
  9
$DIMLFAC
 40
1.0
  9
$DIMBLK
  1
_FILLED
  9
$DIMALT
 70
0
  9
$DIMALTF
 40
0.0393700787
  9
$DIMTXT
 40
0.6379604232
  9
$DIMTOL
 70
1
  9
$DIMLIM
 70
0
  9
$DIMTFAC
 40
1.0
  9
$DIMTP
 40
0.01
  9
$DIMTM
 40
0.01
  9
$DIMGAP
 40
0.625
  9
$DIMDSEP
 70
46
  9
$AUNITS
 70
0
  9
$PDMODE
 70
3
  9
$PDSIZE
 40
0.3125
  9
$HANDSEED
  5
3B0
  9
$TILEMODE
 70
1
  9
$MEASUREMENT
 70
1
  9
$INSUNITS
 70
4
  0
ENDSEC
  0
SECTION
  2
CLASSES
  0
CLASS
  1
ACDBDICTIONARYWDFLT
  2
AcDbDictionaryWithDefault
  3
AutoCAD 2000
 90
0
 91
1
280
0
281
0
  0
CLASS
  1
ACDBPLACEHOLDER
  2
AcDbPlaceHolder
  3
AutoCAD 2000
 90
0
 91
1
280
0
281
0
  0
CLASS
  1
LAYOUT
  2
AcDbLayout
  3
AutoCAD 2000
 90
0
 91
0
280
0
281
0
  0
ENDSEC
  0
SECTION
  2
TABLES
  0
TABLE
  2
VPORT
  5
8
100
AcDbSymbolTable
 70
2
  0
VPORT
  5
1F4
100
AcDbSymbolTableRecord
100
AcDbViewportTableRecord
  2
*ACTIVE
 70
0
 10
0.0
 20
0.0
 11
1.0
 21
1.0
 12
19.1388126952
 22
27.0677493832
 13
0.0
 23
0.0
 14
1.0
 24
1.0
 15
0.0
 25
0.0
 16
0.0
 26
0.0
 36
1.0
 17
0.0
 27
0.0
 37
0.0
 40
54.1354987664
 41
0.7070707071
 42
50.0
 43
0.0
 44
0.0
 50
0.0
 51
0.0
 71
0
 72
100
 73
1
 74
1
 75
0
 76
0
 77
0
 78
0
  0
ENDTAB
  0
TABLE
  2
LTYPE
  5
5
100
AcDbSymbolTable
 70
6
  0
LTYPE
  5
14
100
AcDbSymbolTableRecord
100
AcDbLinetypeTableRecord
  2
BYBLOCK
 70
0
  3

 72
65
 73
0
 40
0.0
  0
LTYPE
  5
15
100
AcDbSymbolTableRecord
100
AcDbLinetypeTableRecord
  2
BYLAYER
 70
0
  3

 72
65
 73
0
 40
0.0
  0
LTYPE
  5
16
100
AcDbSymbolTableRecord
100
AcDbLinetypeTableRecord
  2
CONTINUOUS
 70
64
  3
Solid line
 72
65
 73
0
 40
0.0
  0
LTYPE
  5
1F5
100
AcDbSymbolTableRecord
100
AcDbLinetypeTableRecord
  2
CENTER
 70
64
  3
____ _ ____ _ ____ _ ____ _ ____ _ ____ _ ____
 72
65
 73
4
 40
0.6
 49
0.375
 74
0
 49
-0.075
 74
0
 49
0.075
 74
0
 49
-0.075
 74
0
  0
LTYPE
  5
1F6
100
AcDbSymbolTableRecord
100
AcDbLinetypeTableRecord
  2
HIDDEN
 70
64
  3
- - - - - - - - - - - - - - - - - - - -
 72
65
 73
2
 40
0.2
 49
0.1
 74
0
 49
-0.1
 74
0
  0
LTYPE
  5
1F7
100
AcDbSymbolTableRecord
100
AcDbLinetypeTableRecord
  2
PHANTOM
 70
64
  3
_____ _ _ _____ _ _ _____ _ _ _____
 72
65
 73
6
 40
0.8
 49
0.45
 74
0
 49
-0.05
 74
0
 49
0.1
 74
0
 49
-0.05
 74
0
 49
0.1
 74
0
 49
-0.05
 74
0
  0
LTYPE
  5
1F8
100
AcDbSymbolTableRecord
100
AcDbLinetypeTableRecord
  2
DOT
 70
64
  3
. . . . . . . . . . . . . . . . . . . .
 72
65
 73
2
 40
0.2
 49
0.1
 74
0
 49
-0.1
 74
0
  0
LTYPE
  5
1F9
100
AcDbSymbolTableRecord
100
AcDbLinetypeTableRecord
  2
DASHED
 70
64
  3
- - - - - - - - - - - - - - - - - - - -
 72
65
 73
2
 40
0.2
 49
0.1
 74
0
 49
-0.1
 74
0
  0
ENDTAB
  0
TABLE
  2
LAYER
  5
2
100
AcDbSymbolTable
 70
36
  0
LAYER
  5
10
100
AcDbSymbolTableRecord
100
AcDbLayerTableRecord
  2
0
 70
0
 62
7
  6
CONTINUOUS
370
-3
390
F
  0
LAYER
  5
1FA
100
AcDbSymbolTableRecord
100
AcDbLayerTableRecord
  2
DEFAULT_1
 70
0
 62
7
  6
CENTER
370
-3
390
F
  0
LAYER
  5
1FB
100
AcDbSymbolTableRecord
100
AcDbLayerTableRecord
  2
DEFAULT_2
 70
0
 62
7
  6
HIDDEN
370
-3
390
F
  0
LAYER
  5
1FC
100
AcDbSymbolTableRecord
100
AcDbLayerTableRecord
  2
DEFAULT_3
 70
0
 62
7
  6
PHANTOM
370
-3
390
F
  0
LAYER
  5
1FD
100
AcDbSymbolTableRecord
100
AcDbLayerTableRecord
  2
00_COMPONENTS
 70
0
 62
7
  6
CONTINUOUS
370
-3
390
F
  0
LAYER
  5
1FE
100
AcDbSymbolTableRecord
100
AcDbLayerTableRecord
  2
01_1_DEFAULT_DATUMS
 70
0
 62
7
  6
CONTINUOUS
370
-3
390
F
  0
LAYER
  5
1FF
100
AcDbSymbolTableRecord
100
AcDbLayerTableRecord
  2
01_PLANES
 70
0
 62
7
  6
CONTINUOUS
370
-3
390
F
  0
LAYER
  5
200
100
AcDbSymbolTableRecord
100
AcDbLayerTableRecord
  2
02_COORD_SYS
 70
0
 62
7
  6
CONTINUOUS
370
-3
390
F
  0
LAYER
  5
201
100
AcDbSymbolTableRecord
100
AcDbLayerTableRecord
  2
03_AXES
 70
0
 62
7
  6
CONTINUOUS
370
-3
390
F
  0
LAYER
  5
202
100
AcDbSymbolTableRecord
100
AcDbLayerTableRecord
  2
04_POINTS
 70
0
 62
7
  6
CONTINUOUS
370
-3
390
F
  0
LAYER
  5
203
100
AcDbSymbolTableRecord
100
AcDbLayerTableRecord
  2
05_CURVES
 70
0
 62
7
  6
CONTINUOUS
370
-3
390
F
  0
LAYER
  5
204
100
AcDbSymbolTableRecord
100
AcDbLayerTableRecord
  2
06_SURFS
 70
0
 62
7
  6
CONTINUOUS
370
-3
390
F
  0
LAYER
  5
205
100
AcDbSymbolTableRecord
100
AcDbLayerTableRecord
  2
07_COSMETICS
 70
0
 62
7
  6
CONTINUOUS
370
-3
390
F
  0
LAYER
  5
206
100
AcDbSymbolTableRecord
100
AcDbLayerTableRecord
  2
10_NOTES
 70
0
 62
7
  6
CONTINUOUS
370
-3
390
F
  0
LAYER
  5
207
100
AcDbSymbolTableRecord
100
AcDbLayerTableRecord
  2
11_NOTES_PUB
 70
0
 62
7
  6
CONTINUOUS
370
-3
390
F
  0
LAYER
  5
208
100
AcDbSymbolTableRecord
100
AcDbLayerTableRecord
  2
13_REF_GTOL
 70
0
 62
7
  6
CONTINUOUS
370
-3
390
F
  0
LAYER
  5
209
100
AcDbSymbolTableRecord
100
AcDbLayerTableRecord
  2
16_MISC
 70
0
 62
7
  6
CONTINUOUS
370
-3
390
F
  0
LAYER
  5
20A
100
AcDbSymbolTableRecord
100
AcDbLayerTableRecord
  2
17_NO_PRINT
 70
0
 62
7
  6
CONTINUOUS
370
-3
390
F
  0
LAYER
  5
20B
100
AcDbSymbolTableRecord
100
AcDbLayerTableRecord
  2
18_DATUM_CAMS_JOINTS
 70
0
 62
7
  6
CONTINUOUS
370
-3
390
F
  0
LAYER
  5
20C
100
AcDbSymbolTableRecord
100
AcDbLayerTableRecord
  2
19_DATUM_FUNCTIONAL
 70
0
 62
7
  6
CONTINUOUS
370
-3
390
F
  0
LAYER
  5
20D
100
AcDbSymbolTableRecord
100
AcDbLayerTableRecord
  2
20_DATUM_KINEMATIC_SCHEME
 70
0
 62
7
  6
CONTINUOUS
370
-3
390
F
  0
ENDTAB
  0
TABLE
  2
STYLE
  5
3
100
AcDbSymbolTable
 70
1
  0
STYLE
  5
11
100
AcDbSymbolTableRecord
100
AcDbTextStyleTableRecord
  2
STANDARD
 70
0
 40
0.0
 41
1.0
 50
0.0
 71
0
 42
0.2
  3
ARIAL.TTF
  4

  0
STYLE
  5
20E
100
AcDbSymbolTableRecord
100
AcDbTextStyleTableRecord
  2
TEXTSTYLE_1
 70
0
 40
0.0
 41
0.8
 50
0.0
 71
0
 42
0.2
  3
gdt
  4

  0
ENDTAB
  0
TABLE
  2
VIEW
  5
6
100
AcDbSymbolTable
 70
0
  0
ENDTAB
  0
TABLE
  2
UCS
  5
7
100
AcDbSymbolTable
 70
0
  0
ENDTAB
  0
TABLE
  2
APPID
  5
9
100
AcDbSymbolTable
 70
1
  0
APPID
  5
20F
100
AcDbSymbolTableRecord
100
AcDbRegAppTableRecord
  2
ACAD
 70
0
  0
ENDTAB
  0
TABLE
  2
BLOCK_RECORD
  5
1
100
AcDbSymbolTable
 70
0
  0
BLOCK_RECORD
  5
210
100
AcDbSymbolTableRecord
100
AcDbBlockTableRecord
  2
*Model_Space
  0
BLOCK_RECORD
  5
211
100
AcDbSymbolTableRecord
100
AcDbBlockTableRecord
  2
*Paper_Space
  0
BLOCK_RECORD
  5
212
100
AcDbSymbolTableRecord
100
AcDbBlockTableRecord
  2
_FILLED
  0
ENDTAB
  0
TABLE
  2
DIMSTYLE
  5
A
100
AcDbSymbolTable
 70
1
100
AcDbDimStyleTable
 71
0
  0
DIMSTYLE
105
213
100
AcDbSymbolTableRecord
100
AcDbDimStyleTableRecord
  2
STANDARD
 70
0
  3

  4

 40
1.0
 41
0.4556860166
 42
1.0
 43
0.38
 44
1.0
 45
0.0
 46
0.0
 47
0.01
 48
0.01
140
0.6379604232
141
0.09
142
0.0
143
25.4
144
1.0
145
0.0
146
1.0
147
0.625
 71
1
 72
0
 73
0
 74
0
 75
0
 76
0
 77
1
 78
8
 79
2
170
0
171
1
172
0
173
0
174
0
175
0
176
0
177
0
178
0
270
2
179
2
271
2
272
2
273
2
274
2
275
0
280
0
281
0
282
0
283
1
284
8
285
0
286
0
287
3
288
0
340
11
278
46
341
212
342
212
343
212
344
212
  0
ENDTAB
  0
ENDSEC
  0
SECTION
  2
BLOCKS
  0
BLOCK
  5
20
100
AcDbEntity
  8
0
100
AcDbBlockBegin
  2
*Model_Space
 70
0
 10
0.0
 20
0.0
 30
0.0
  3
*Model_Space
  1

  0
ENDBLK
  5
21
100
AcDbEntity
  8
0
100
AcDbBlockEnd
  0
BLOCK
  5
1C
100
AcDbEntity
  8
0
100
AcDbBlockBegin
  2
*Paper_Space
 70
0
 10
0.0
 20
0.0
 30
0.0
  3
*Paper_Space
  1

  0
ENDBLK
  5
1D
100
AcDbEntity
  8
0
100
AcDbBlockEnd
  0
BLOCK
  5
214
100
AcDbEntity
  8
0
100
AcDbBlockBegin
  2
_FILLED
 70
64
 10
0.0
 20
0.0
  3
_FILLED
  1

  0
SOLID
  5
215
100
AcDbEntity
  8
0
  6
BYBLOCK
 62
0
100
AcDbTrace
 10
0.0
 20
0.0
 11
-1.0
 21
0.25
 12
-1.0
 22
-0.25
 13
-1.0
 23
-0.25
  0
ENDBLK
  5
216
100
AcDbEntity
  8
0
  6
BYBLOCK
 62
0
100
AcDbBlockEnd
  0
ENDSEC
  0
SECTION
  2
ENTITIES
  0
LINE
  5
217
100
AcDbEntity
  8
0
100
AcDbLine
 62
7
  6
BYLAYER
 10
22.4594837543
 20
4.1158190706
 11
20.4555308638
 21
4.0249031872
  0
LINE
  5
218
100
AcDbEntity
  8
0
100
AcDbLine
 62
7
  6
BYLAYER
 10
18.0050740156
 20
4.0236843233
 11
19.2057811224
 21
4.0088098842
  0
LINE
  5
219
100
AcDbEntity
  8
0
100
AcDbLine
 62
7
  6
BYLAYER
 10
15.9506642861
 20
4.1159116226
 11
17.9550740156
 21
4.0249274584
  0
LINE
  5
21A
100
AcDbEntity
  8
0
100
AcDbLine
 62
7
  6
BYLAYER
 10
15.073847777
 20
5.821917863
 11
17.9550717575
 21
5.821917863
  0
LINE
  5
21B
100
AcDbEntity
  8
0
100
AcDbLine
 62
7
  6
BYLAYER
 10
18.0050718472
 20
5.821917863
 11
20.4050761785
 21
5.821917863
  0
LINE
  5
21C
100
AcDbEntity
  8
0
100
AcDbLine
 62
7
  6
BYLAYER
 10
20.4550762711
 20
5.821917863
 11
23.3361581244
 21
5.821917863
  0
LINE
  5
21D
100
AcDbEntity
  8
0
100
AcDbLine
 62
7
  6
BYLAYER
 10
15.2401674157
 20
5.940087308
 11
17.9550730769
 21
5.940087308
  0
LINE
  5
21E
100
AcDbEntity
  8
0
100
AcDbLine
 62
7
  6
BYLAYER
 10
18.0050740119
 20
5.940087308
 11
20.4050748469
 21
5.940087308
  0
LINE
  5
21F
100
AcDbEntity
  8
0
100
AcDbLine
 62
7
  6
BYLAYER
 10
20.4550740195
 20
5.940087308
 11
23.1696882469
 21
5.940087308
  0
LINE
  5
220
100
AcDbEntity
  8
0
100
AcDbLine
 62
7
  6
BYLAYER
 10
22.9638619584
 20
6.3363610111
 11
20.4550740155
 21
6.3363610111
  0
LINE
  5
221
100
AcDbEntity
  8
0
100
AcDbLine
 62
7
  6
BYLAYER
 10
20.4049990269
 20
6.3363610111
 11
18.0050740156
 21
6.3363610111
  0
LINE
  5
222
100
AcDbEntity
  8
0
100
AcDbLine
 62
7
  6
BYLAYER
 10
17.9550740156
 20
6.3363610111
 11
15.4458318526
 21
6.3363610111
  0
LINE
  5
223
100
AcDbEntity
  8
0
100
AcDbLine
 62
7
  6
BYLAYER
 10
20.4550740155
 20
6.4027341638
 11
20.4050740127
 21
6.4027341638
  0
LINE
  5
224
100
AcDbEntity
  8
0
100
AcDbLine
 62
7
  6
BYLAYER
 10
18.0050740156
 20
6.4027341638
 11
17.9550740156
 21
6.4027341638
  0
LINE
  5
225
100
AcDbEntity
  8
0
100
AcDbLine
 62
7
  6
BYLAYER
 10
9.3272214568
 20
46.2856074804
 11
11.6978947362
 21
50.3917341638
  0
LINE
  5
226
100
AcDbEntity
  8
0
100
AcDbLine
 62
7
  6
BYLAYER
 10
5.806265559
 20
40.657207587
 11
5.2820171594
 21
39.2927341768
  0
LINE
  5
227
100
AcDbEntity
  8
0
100
AcDbLine
 62
7
  6
BYLAYER
 10
4.4971417669
 20
39.2927341768
 11
4.4550739262
 21
37.7927341638
  0
LINE
  5
228
100
AcDbEntity
  8
0
100
AcDbLine
 62
7
  6
BYLAYER
 10
15.8792891829
 20
4.2318950833
 11
15.9506642541
 21
4.1159631567
  0
LINE
  5
229
100
AcDbEntity
  8
0
100
AcDbLine
 62
7
  6
BYLAYER
 10
15.9491741793
 20
4.1183988366
 11
15.9506642867
 21
4.1159468942
  0
LINE
  5
22A
100
AcDbEntity
  8
0
100
AcDbLine
 62
7
  6
BYLAYER
 10
6.5553301201
 20
37.1877341638
 11
6.5550740915
 21
37.2277341638
  0
LINE
  5
22B
100
AcDbEntity
  8
0
100
AcDbLine
 62
7
  6
BYLAYER
 10
4.9550740118
 20
20.4066583417
 11
4.9550740118
 21
29.0927341638
  0
LINE
  5
22C
100
AcDbEntity
  8
0
100
AcDbLine
 62
7
  6
BYLAYER
 10
5.806265559
 20
43.7827341638
 11
5.806265559
 21
39.2927341768
  0
LINE
  5
22D
100
AcDbEntity
  8
0
100
AcDbLine
 62
7
  6
BYLAYER
 10
5.9543286088
 20
43.7827341638
 11
5.9543286088
 21
39.2927341768
  0
LINE
  5
22E
100
AcDbEntity
  8
0
100
AcDbLine
 62
7
  6
BYLAYER
 10
6.5550740841
 20
37.2277341638
 11
6.5550740841
 21
37.7927341638
  0
LINE
  5
22F
100
AcDbEntity
  8
0
100
AcDbLine
 62
7
  6
BYLAYER
 10
6.6050740156
 20
31.5427341638
 11
6.6050740156
 21
30.2927341638
  0
LINE
  5
230
100
AcDbEntity
  8
0
100
AcDbLine
 62
7
  6
BYLAYER
 10
6.5551153663
 20
37.2229947136
 11
6.5550740915
 21
37.2277341638
  0
LINE
  5
231
100
AcDbEntity
  8
0
100
AcDbLine
 62
7
  6
BYLAYER
 10
6.7307811224
 20
19.7625186455
 11
6.7307811224
 21
19.9927342264
  0
LINE
  5
232
100
AcDbEntity
  8
0
100
AcDbLine
 62
7
  6
BYLAYER
 10
7.0675361559
 20
43.7827341638
 11
7.0675361559
 21
39.2927341768
  0
LINE
  5
233
100
AcDbEntity
  8
0
100
AcDbLine
 62
7
  6
BYLAYER
 10
8.2438925099
 20
36.7927341163
 11
8.2438925099
 21
34.8917341638
  0
LINE
  5
234
100
AcDbEntity
  8
0
100
AcDbLine
 62
7
  6
BYLAYER
 10
8.3300740156
 20
34.2417341638
 11
8.3300740156
 21
31.5427341638
  0
LINE
  5
235
100
AcDbEntity
  8
0
100
AcDbLine
 62
7
  6
BYLAYER
 10
13.2487958813
 20
36.7927341163
 11
13.2684281094
 21
36.8159638393
  0
LINE
  5
236
100
AcDbEntity
  8
0
100
AcDbLine
 62
7
  6
BYLAYER
 10
8.8519343952
 20
34.8917341638
 11
8.8519343952
 21
34.4917341638
  0
LINE
  5
237
100
AcDbEntity
  8
0
100
AcDbLine
 62
7
  6
BYLAYER
 10
9.056265559
 20
40.660538079
 11
9.056265559
 21
43.7827341638
  0
LINE
  5
238
100
AcDbEntity
  8
0
100
AcDbLine
 62
7
  6
BYLAYER
 10
9.2050740156
 20
44.0117347378
 11
9.2050740156
 21
43.7927342159
  0
LINE
  5
239
100
AcDbEntity
  8
0
100
AcDbLine
 62
7
  6
BYLAYER
 10
9.3182140994
 20
46.0117341343
 11
9.3182140994
 21
45.5917346615
  0
LINE
  5
23A
100
AcDbEntity
  8
0
100
AcDbLine
 62
7
  6
BYLAYER
 10
31.6800737786
 20
19.762733872
 11
28.3196770894
 21
19.262418615
  0
LINE
  5
23B
100
AcDbEntity
  8
0
100
AcDbLine
 62
7
  6
BYLAYER
 10
6.7300742525
 20
19.762733872
 11
10.0904709417
 21
19.262418615
  0
LINE
  5
23C
100
AcDbEntity
  8
0
100
AcDbLine
 62
7
  6
BYLAYER
 10
6.3450738821
 20
19.9927342264
 11
4.9550740156
 21
20.4066583406
  0
LINE
  5
23D
100
AcDbEntity
  8
0
100
AcDbLine
 62
7
  6
BYLAYER
 10
15.0277085523
 20
5.632877168
 11
15.0070106939
 21
5.7024980371
  0
LINE
  5
23E
100
AcDbEntity
  8
0
100
AcDbLine
 62
7
  6
BYLAYER
 10
10.7050740193
 20
45.5917346615
 11
10.7050740193
 21
44.0117347378
  0
LINE
  5
23F
100
AcDbEntity
  8
0
100
AcDbLine
 62
7
  6
BYLAYER
 10
10.9291109724
 20
32.3273846398
 11
10.9290758885
 21
31.5427341638
  0
LINE
  5
240
100
AcDbEntity
  8
0
100
AcDbLine
 62
7
  6
BYLAYER
 10
11.2050738801
 20
49.191734134
 11
11.2050738801
 21
49.5381433779
  0
LINE
  5
241
100
AcDbEntity
  8
0
100
AcDbLine
 62
7
  6
BYLAYER
 10
18.150401627
 20
37.1801232905
 11
18.1579748215
 21
37.1877341638
  0
LINE
  5
242
100
AcDbEntity
  8
0
100
AcDbLine
 62
7
  6
BYLAYER
 10
19.1250740156
 20
37.1877341638
 11
18.7300740156
 21
36.7927341638
  0
LINE
  5
243
100
AcDbEntity
  8
0
100
AcDbLine
 62
7
  6
BYLAYER
 10
18.6050739871
 20
19.1027341905
 11
19.8050740441
 21
19.1027341905
  0
LINE
  5
244
100
AcDbEntity
  8
0
100
AcDbLine
 62
7
  6
BYLAYER
 10
19.8363240092
 20
19.1527341638
 11
18.5738240219
 21
19.1527341638
  0
LINE
  5
245
100
AcDbEntity
  8
0
100
AcDbLine
 62
7
  6
BYLAYER
 10
14.9931422129
 20
19.2588098843
 11
14.993233701
 21
19.2588098843
  0
LINE
  5
246
100
AcDbEntity
  8
0
100
AcDbLine
 62
7
  6
BYLAYER
 10
15.0070843338
 20
19.2588098859
 11
23.4029436806
 21
19.2588098865
  0
LINE
  5
247
100
AcDbEntity
  8
0
100
AcDbLine
 62
7
  6
BYLAYER
 10
28.3196770894
 20
19.262418615
 11
23.3570496372
 21
19.2627347214
  0
LINE
  5
248
100
AcDbEntity
  8
0
100
AcDbLine
 62
7
  6
BYLAYER
 10
15.0531731276
 20
19.2627347214
 11
10.0904709417
 21
19.262418615
  0
LINE
  5
249
100
AcDbEntity
  8
0
100
AcDbLine
 62
7
  6
BYLAYER
 10
31.6800737786
 20
19.762733872
 11
23.356749334
 21
19.762733872
  0
LINE
  5
24A
100
AcDbEntity
  8
0
100
AcDbLine
 62
7
  6
BYLAYER
 10
15.0531731276
 20
19.762733872
 11
6.7307811224
 21
19.762733872
  0
LINE
  5
24B
100
AcDbEntity
  8
0
100
AcDbLine
 62
7
  6
BYLAYER
 10
15.0075757673
 20
19.9888098842
 11
23.4025843317
 21
19.9888098842
  0
LINE
  5
24C
100
AcDbEntity
  8
0
100
AcDbLine
 62
7
  6
BYLAYER
 10
32.0650645889
 20
19.9927342264
 11
23.4025413643
 21
19.9927342264
  0
LINE
  5
24D
100
AcDbEntity
  8
0
100
AcDbLine
 62
7
  6
BYLAYER
 10
15.0075967738
 20
19.9927342264
 11
6.3450829872
 21
19.9927342264
  0
LINE
  5
24E
100
AcDbEntity
  8
0
100
AcDbLine
 62
7
  6
BYLAYER
 10
13.4054666418
 20
49.191734134
 11
13.3845207278
 21
50.3917341638
  0
LINE
  5
24F
100
AcDbEntity
  8
0
100
AcDbLine
 62
7
  6
BYLAYER
 10
18.4637513287
 20
36.9056178648
 11
17.2050740156
 21
34.8917341638
  0
LINE
  5
250
100
AcDbEntity
  8
0
100
AcDbLine
 62
7
  6
BYLAYER
 10
21.9510634456
 20
20.4023271762
 11
16.4600909246
 21
20.4023271762
  0
LINE
  5
251
100
AcDbEntity
  8
0
100
AcDbLine
 62
7
  6
BYLAYER
 10
33.4550740193
 20
20.4066583406
 11
4.9550740118
 21
20.4066583406
  0
LINE
  5
252
100
AcDbEntity
  8
0
100
AcDbLine
 62
7
  6
BYLAYER
 10
14.993070331
 20
5.6964284787
 11
14.993233701
 21
5.6902468704
  0
LINE
  5
253
100
AcDbEntity
  8
0
100
AcDbLine
 62
7
  6
BYLAYER
 10
14.3617515328
 20
31.5427341638
 11
14.3617031124
 21
32.3273846398
  0
LINE
  5
254
100
AcDbEntity
  8
0
100
AcDbLine
 62
7
  6
BYLAYER
 10
14.6007282423
 20
34.8917341638
 11
14.6007282423
 21
36.7927341163
  0
LINE
  5
255
100
AcDbEntity
  8
0
100
AcDbLine
 62
7
  6
BYLAYER
 10
14.993233701
 20
5.6902468704
 11
14.993233701
 21
19.2588098839
  0
LINE
  5
256
100
AcDbEntity
  8
0
100
AcDbLine
 62
7
  6
BYLAYER
 10
15.0070106939
 20
5.702509894
 11
15.0070106939
 21
19.258809884
  0
LINE
  5
257
100
AcDbEntity
  8
0
100
AcDbLine
 62
7
  6
BYLAYER
 10
15.1050742283
 20
48.8917346436
 11
15.1050742283
 21
49.191734134
  0
LINE
  5
258
100
AcDbEntity
  8
0
100
AcDbLine
 62
7
  6
BYLAYER
 10
15.0531731276
 20
19.2588098901
 11
15.0532064526
 21
19.762733872
  0
LINE
  5
259
100
AcDbEntity
  8
0
100
AcDbLine
 62
7
  6
BYLAYER
 10
16.3345339967
 20
34.7917341638
 11
16.3345339967
 21
34.8917341638
  0
LINE
  5
25A
100
AcDbEntity
  8
0
100
AcDbLine
 62
7
  6
BYLAYER
 10
16.4590850108
 20
19.2375318664
 11
16.4590850108
 21
19.2588098841
  0
LINE
  5
25B
100
AcDbEntity
  8
0
100
AcDbLine
 62
7
  6
BYLAYER
 10
16.7050740715
 20
43.7827341638
 11
16.7050740715
 21
40.6605375
  0
LINE
  5
25C
100
AcDbEntity
  8
0
100
AcDbLine
 62
7
  6
BYLAYER
 10
16.9550740156
 20
31.5427341638
 11
16.9550740156
 21
32.7927341638
  0
LINE
  5
25D
100
AcDbEntity
  8
0
100
AcDbLine
 62
7
  6
BYLAYER
 10
19.8050740441
 20
19.1027341905
 11
20.4050739562
 21
17.5027353563
  0
LINE
  5
25E
100
AcDbEntity
  8
0
100
AcDbLine
 62
7
  6
BYLAYER
 10
20.4550739876
 20
17.5027350458
 11
19.8363240092
 21
19.1527341638
  0
LINE
  5
25F
100
AcDbEntity
  8
0
100
AcDbLine
 62
7
  6
BYLAYER
 10
17.8050740156
 20
32.2927341638
 11
17.8050740156
 21
31.5427341638
  0
LINE
  5
260
100
AcDbEntity
  8
0
100
AcDbLine
 62
7
  6
BYLAYER
 10
17.9550740156
 20
4.0249236745
 11
17.9550740156
 21
17.5027350458
  0
LINE
  5
261
100
AcDbEntity
  8
0
100
AcDbLine
 62
7
  6
BYLAYER
 10
18.0050740156
 20
4.0249861841
 11
18.0050740156
 21
17.5027350458
  0
LINE
  5
262
100
AcDbEntity
  8
0
100
AcDbLine
 62
7
  6
BYLAYER
 10
18.0918664684
 20
43.7827341638
 11
18.0918664684
 21
39.2927341768
  0
LINE
  5
263
100
AcDbEntity
  8
0
100
AcDbLine
 62
7
  6
BYLAYER
 10
20.3182815627
 20
43.7827341638
 11
20.3182815627
 21
39.2927341768
  0
LINE
  5
264
100
AcDbEntity
  8
0
100
AcDbLine
 62
7
  6
BYLAYER
 10
20.4050740156
 20
4.0236542463
 11
20.4050739562
 21
17.5027353563
  0
LINE
  5
265
100
AcDbEntity
  8
0
100
AcDbLine
 62
7
  6
BYLAYER
 10
20.4550740155
 20
4.0249496682
 11
20.4550740155
 21
17.5027350458
  0
LINE
  5
266
100
AcDbEntity
  8
0
100
AcDbLine
 62
7
  6
BYLAYER
 10
20.6050740156
 20
31.5427341638
 11
20.6050740156
 21
32.2927341638
  0
LINE
  5
267
100
AcDbEntity
  8
0
100
AcDbLine
 62
7
  6
BYLAYER
 10
4.9550760673
 20
29.0927341638
 11
4.993810873
 21
29.0927341638
  0
LINE
  5
268
100
AcDbEntity
  8
0
100
AcDbLine
 62
7
  6
BYLAYER
 10
33.4163371581
 20
29.0927341638
 11
33.4550719639
 21
29.0927341638
  0
LINE
  5
269
100
AcDbEntity
  8
0
100
AcDbLine
 62
7
  6
BYLAYER
 10
21.4550740156
 20
32.7927341638
 11
21.4550740156
 21
31.5427341638
  0
LINE
  5
26A
100
AcDbEntity
  8
0
100
AcDbLine
 62
7
  6
BYLAYER
 10
21.7050740156
 20
43.7827341638
 11
21.7050740156
 21
40.660538079
  0
LINE
  5
26B
100
AcDbEntity
  8
0
100
AcDbLine
 62
7
  6
BYLAYER
 10
21.9510630268
 20
19.2271153397
 11
21.9510630268
 21
19.258809885
  0
LINE
  5
26C
100
AcDbEntity
  8
0
100
AcDbLine
 62
7
  6
BYLAYER
 10
22.0756140345
 20
34.8917341638
 11
22.0756140345
 21
34.7917341638
  0
LINE
  5
26D
100
AcDbEntity
  8
0
100
AcDbLine
 62
7
  6
BYLAYER
 10
18.5738240219
 20
19.1527341638
 11
17.9550740435
 21
17.5027350458
  0
LINE
  5
26E
100
AcDbEntity
  8
0
100
AcDbLine
 62
7
  6
BYLAYER
 10
18.0050739586
 20
17.5027350458
 11
18.6050739871
 21
19.1027341905
  0
LINE
  5
26F
100
AcDbEntity
  8
0
100
AcDbLine
 62
7
  6
BYLAYER
 10
5.0019590342
 20
30.2927339589
 11
33.4081890011
 21
30.2927339589
  0
LINE
  5
270
100
AcDbEntity
  8
0
100
AcDbLine
 62
7
  6
BYLAYER
 10
23.3050740357
 20
49.191734134
 11
23.3050740357
 21
48.8917346436
  0
LINE
  5
271
100
AcDbEntity
  8
0
100
AcDbLine
 62
7
  6
BYLAYER
 10
23.356749334
 20
19.9927342264
 11
23.3570496372
 21
19.2588098797
  0
LINE
  5
272
100
AcDbEntity
  8
0
100
AcDbLine
 62
7
  6
BYLAYER
 10
23.4031373386
 20
5.7023871852
 11
23.4031373386
 21
19.2588098842
  0
LINE
  5
273
100
AcDbEntity
  8
0
100
AcDbLine
 62
7
  6
BYLAYER
 10
23.8094197889
 20
36.79273414
 11
23.8094197889
 21
34.8917341638
  0
LINE
  5
274
100
AcDbEntity
  8
0
100
AcDbLine
 62
7
  6
BYLAYER
 10
24.0484449188
 20
32.3273846398
 11
24.0483964983
 21
31.5427341638
  0
LINE
  5
275
100
AcDbEntity
  8
0
100
AcDbLine
 62
7
  6
BYLAYER
 10
6.6050740156
 20
31.5427341638
 11
31.8050740156
 21
31.5427341638
  0
LINE
  5
276
100
AcDbEntity
  8
0
100
AcDbLine
 62
7
  6
BYLAYER
 10
20.6050740156
 20
32.2927341638
 11
17.8050740156
 21
32.2927341638
  0
LINE
  5
277
100
AcDbEntity
  8
0
100
AcDbLine
 62
7
  6
BYLAYER
 10
10.9291460565
 20
32.3273846398
 11
14.3616546914
 21
32.3273846398
  0
LINE
  5
278
100
AcDbEntity
  8
0
100
AcDbLine
 62
7
  6
BYLAYER
 10
24.0484933397
 20
32.3273846398
 11
27.4810019746
 21
32.3273846398
  0
LINE
  5
279
100
AcDbEntity
  8
0
100
AcDbLine
 62
7
  6
BYLAYER
 10
27.4404768688
 20
32.5264368539
 11
24.1041389037
 21
32.5264368539
  0
LINE
  5
27A
100
AcDbEntity
  8
0
100
AcDbLine
 62
7
  6
BYLAYER
 10
14.3060091259
 20
32.5264368539
 11
10.9696711622
 21
32.5264368539
  0
LINE
  5
27B
100
AcDbEntity
  8
0
100
AcDbLine
 62
7
  6
BYLAYER
 10
21.4550740156
 20
32.7927341638
 11
16.9550740156
 21
32.7927341638
  0
LINE
  5
27C
100
AcDbEntity
  8
0
100
AcDbLine
 62
7
  6
BYLAYER
 10
25.0256277654
 20
49.191734134
 11
25.0256277654
 21
50.3917341638
  0
LINE
  5
27D
100
AcDbEntity
  8
0
100
AcDbLine
 62
7
  6
BYLAYER
 10
26.0322531981
 20
34.1517341633
 11
25.7669260911
 21
34.1517341633
  0
LINE
  5
27E
100
AcDbEntity
  8
0
100
AcDbLine
 62
7
  6
BYLAYER
 10
12.6432207355
 20
34.1517341633
 11
12.3778936573
 21
34.1517341633
  0
LINE
  5
27F
100
AcDbEntity
  8
0
100
AcDbLine
 62
7
  6
BYLAYER
 10
8.3300740156
 20
34.2417341638
 11
30.0800740156
 21
34.2417341638
  0
LINE
  5
280
100
AcDbEntity
  8
0
100
AcDbLine
 62
7
  6
BYLAYER
 10
8.5800740156
 20
34.4917341638
 11
29.8300740156
 21
34.4917341638
  0
LINE
  5
281
100
AcDbEntity
  8
0
100
AcDbLine
 62
7
  6
BYLAYER
 10
19.6800740393
 20
36.79273414
 11
19.2850740156
 21
37.1877341638
  0
LINE
  5
282
100
AcDbEntity
  8
0
100
AcDbLine
 62
7
  6
BYLAYER
 10
21.2050740156
 20
34.8917341638
 11
19.9463967025
 21
36.9056178648
  0
LINE
  5
283
100
AcDbEntity
  8
0
100
AcDbLine
 62
7
  6
BYLAYER
 10
27.2050741511
 20
49.5381443522
 11
27.2050741511
 21
49.191734134
  0
LINE
  5
284
100
AcDbEntity
  8
0
100
AcDbLine
 62
7
  6
BYLAYER
 10
27.4810721426
 20
31.5427341638
 11
27.4810370588
 21
32.3273846398
  0
LINE
  5
285
100
AcDbEntity
  8
0
100
AcDbLine
 62
7
  6
BYLAYER
 10
27.7050744775
 20
44.0117347378
 11
27.7050744775
 21
45.5917346615
  0
LINE
  5
286
100
AcDbEntity
  8
0
100
AcDbLine
 62
7
  6
BYLAYER
 10
16.3345339967
 20
34.7917341638
 11
22.0756140345
 21
34.7917341638
  0
LINE
  5
287
100
AcDbEntity
  8
0
100
AcDbLine
 62
7
  6
BYLAYER
 10
8.2438925099
 20
34.8917341638
 11
16.3345339967
 21
34.8917341638
  0
LINE
  5
288
100
AcDbEntity
  8
0
100
AcDbLine
 62
7
  6
BYLAYER
 10
17.2050740156
 20
34.8917341638
 11
21.2050740156
 21
34.8917341638
  0
LINE
  5
289
100
AcDbEntity
  8
0
100
AcDbLine
 62
7
  6
BYLAYER
 10
22.0756140345
 20
34.8917341638
 11
30.1662555212
 21
34.8917341638
  0
LINE
  5
28A
100
AcDbEntity
  8
0
100
AcDbLine
 62
7
  6
BYLAYER
 10
20.2521732096
 20
37.1877341638
 11
20.2597503811
 21
37.1801230215
  0
LINE
  5
28B
100
AcDbEntity
  8
0
100
AcDbLine
 62
7
  6
BYLAYER
 10
29.0919339802
 20
45.5917346615
 11
29.0919339802
 21
46.0117341343
  0
LINE
  5
28C
100
AcDbEntity
  8
0
100
AcDbLine
 62
7
  6
BYLAYER
 10
29.2050740156
 20
43.7927342159
 11
29.2050740156
 21
44.0117347378
  0
LINE
  5
28D
100
AcDbEntity
  8
0
100
AcDbLine
 62
7
  6
BYLAYER
 10
29.3538824718
 20
43.7827341638
 11
29.3538824718
 21
40.6605380802
  0
LINE
  5
28E
100
AcDbEntity
  8
0
100
AcDbLine
 62
7
  6
BYLAYER
 10
29.558213636
 20
34.4917341638
 11
29.558213636
 21
34.8917341638
  0
LINE
  5
28F
100
AcDbEntity
  8
0
100
AcDbLine
 62
7
  6
BYLAYER
 10
30.0800740156
 20
31.5427341638
 11
30.0800740156
 21
34.2417341638
  0
LINE
  5
290
100
AcDbEntity
  8
0
100
AcDbLine
 62
7
  6
BYLAYER
 10
30.1662555212
 20
34.8917341638
 11
30.1662555212
 21
36.79273414
  0
LINE
  5
291
100
AcDbEntity
  8
0
100
AcDbLine
 62
7
  6
BYLAYER
 10
23.4031373386
 20
5.7023787571
 11
23.3824394787
 21
5.6327552329
  0
LINE
  5
292
100
AcDbEntity
  8
0
100
AcDbLine
 62
7
  6
BYLAYER
 10
32.0650741491
 20
19.9927342264
 11
33.4550740156
 21
20.4066583406
  0
LINE
  5
293
100
AcDbEntity
  8
0
100
AcDbLine
 62
7
  6
BYLAYER
 10
19.8336241461
 20
36.7927341163
 11
19.6800740156
 21
36.7927341163
  0
LINE
  5
294
100
AcDbEntity
  8
0
100
AcDbLine
 62
7
  6
BYLAYER
 10
18.7300740156
 20
36.7927341163
 11
18.5765238851
 21
36.7927341163
  0
LINE
  5
295
100
AcDbEntity
  8
0
100
AcDbLine
 62
7
  6
BYLAYER
 10
6.5706993576
 20
36.7927341638
 11
13.2487958813
 21
36.7927341163
  0
LINE
  5
296
100
AcDbEntity
  8
0
100
AcDbLine
 62
7
  6
BYLAYER
 10
13.2958966816
 20
36.7927341163
 11
14.0878122709
 21
36.7927341638
  0
LINE
  5
297
100
AcDbEntity
  8
0
100
AcDbLine
 62
7
  6
BYLAYER
 10
14.2932194648
 20
36.7927341163
 11
14.965774028
 21
36.7927341163
  0
LINE
  5
298
100
AcDbEntity
  8
0
100
AcDbLine
 62
7
  6
BYLAYER
 10
15.327924427
 20
36.7927341163
 11
15.8759995054
 21
36.7927341638
  0
LINE
  5
299
100
AcDbEntity
  8
0
100
AcDbLine
 62
7
  6
BYLAYER
 10
16.3921368386
 20
36.7927341163
 11
16.811561206
 21
36.7927341638
  0
LINE
  5
29A
100
AcDbEntity
  8
0
100
AcDbLine
 62
7
  6
BYLAYER
 10
17.4777574006
 20
36.7927341163
 11
17.7653389843
 21
36.7927341638
  0
LINE
  5
29B
100
AcDbEntity
  8
0
100
AcDbLine
 62
7
  6
BYLAYER
 10
20.6448090704
 20
36.79273414
 11
20.9323905834
 21
36.7927341163
  0
LINE
  5
29C
100
AcDbEntity
  8
0
100
AcDbLine
 62
7
  6
BYLAYER
 10
21.5985868484
 20
36.79273414
 11
22.0180111462
 21
36.7927341163
  0
LINE
  5
29D
100
AcDbEntity
  8
0
100
AcDbLine
 62
7
  6
BYLAYER
 10
22.5341485485
 20
36.79273414
 11
23.0822236042
 21
36.7927341163
  0
LINE
  5
29E
100
AcDbEntity
  8
0
100
AcDbLine
 62
7
  6
BYLAYER
 10
23.4443739812
 20
36.79273414
 11
24.1169285225
 21
36.7927341163
  0
LINE
  5
29F
100
AcDbEntity
  8
0
100
AcDbLine
 62
7
  6
BYLAYER
 10
24.3223357814
 20
36.79273414
 11
25.1142513495
 21
36.7927341163
  0
LINE
  5
2A0
100
AcDbEntity
  8
0
100
AcDbLine
 62
7
  6
BYLAYER
 10
25.1613521297
 20
36.79273414
 11
31.8461528152
 21
36.7927341163
  0
LINE
  5
2A1
100
AcDbEntity
  8
0
100
AcDbLine
 62
7
  6
BYLAYER
 10
31.8136573332
 20
37.1877341638
 11
31.7997124815
 21
37.1877341638
  0
LINE
  5
2A2
100
AcDbEntity
  8
0
100
AcDbLine
 62
7
  6
BYLAYER
 10
31.6765347541
 20
37.1877341638
 11
31.648751112
 21
37.1877341638
  0
LINE
  5
2A3
100
AcDbEntity
  8
0
100
AcDbLine
 62
7
  6
BYLAYER
 10
31.4444968282
 20
37.1877341638
 11
31.403085781
 21
37.1877341638
  0
LINE
  5
2A4
100
AcDbEntity
  8
0
100
AcDbLine
 62
7
  6
BYLAYER
 10
31.1193095044
 20
37.1877341638
 11
31.0645862815
 21
37.1877341638
  0
LINE
  5
2A5
100
AcDbEntity
  8
0
100
AcDbLine
 62
7
  6
BYLAYER
 10
30.7034476545
 20
37.1877341638
 11
30.6358287326
 21
37.1877341638
  0
LINE
  5
2A6
100
AcDbEntity
  8
0
100
AcDbLine
 62
7
  6
BYLAYER
 10
30.2000762383
 20
37.1877341638
 11
30.1200762383
 21
37.1877341638
  0
LINE
  5
2A7
100
AcDbEntity
  8
0
100
AcDbLine
 62
7
  6
BYLAYER
 10
29.6130262162
 20
37.1877341638
 11
29.5212539864
 21
37.1877341638
  0
LINE
  5
2A8
100
AcDbEntity
  8
0
100
AcDbLine
 62
7
  6
BYLAYER
 10
28.9467653934
 20
37.1877341638
 11
28.8439193758
 21
37.1877341638
  0
LINE
  5
2A9
100
AcDbEntity
  8
0
100
AcDbLine
 62
7
  6
BYLAYER
 10
28.206364417
 20
37.1877341638
 11
28.093227332
 21
37.1877341638
  0
LINE
  5
2AA
100
AcDbEntity
  8
0
100
AcDbLine
 62
7
  6
BYLAYER
 10
27.3974581855
 20
37.1877341638
 11
27.2748910746
 21
37.1877341638
  0
LINE
  5
2AB
100
AcDbEntity
  8
0
100
AcDbLine
 62
7
  6
BYLAYER
 10
26.5262029638
 20
37.1877341638
 11
26.3951386367
 21
37.1877341638
  0
LINE
  5
2AC
100
AcDbEntity
  8
0
100
AcDbLine
 62
7
  6
BYLAYER
 10
25.5992295301
 20
37.1877341638
 11
25.4606654655
 21
37.1877341638
  0
LINE
  5
2AD
100
AcDbEntity
  8
0
100
AcDbLine
 62
7
  6
BYLAYER
 10
24.6235927121
 20
37.1877341638
 11
24.4785834662
 21
37.1877341638
  0
LINE
  5
2AE
100
AcDbEntity
  8
0
100
AcDbLine
 62
7
  6
BYLAYER
 10
23.6067176951
 20
37.1877341638
 11
23.4563668757
 21
37.1877341638
  0
LINE
  5
2AF
100
AcDbEntity
  8
0
100
AcDbLine
 62
7
  6
BYLAYER
 10
22.5563435118
 20
37.1877341638
 11
22.4017953796
 21
37.1877341638
  0
LINE
  5
2B0
100
AcDbEntity
  8
0
100
AcDbLine
 62
7
  6
BYLAYER
 10
21.4804641441
 20
37.1877341638
 11
21.3228949037
 21
37.1877341638
  0
LINE
  5
2B1
100
AcDbEntity
  8
0
100
AcDbLine
 62
7
  6
BYLAYER
 10
20.3872676837
 20
37.1877341638
 11
20.2521732096
 21
37.1877341638
  0
LINE
  5
2B2
100
AcDbEntity
  8
0
100
AcDbLine
 62
7
  6
BYLAYER
 10
18.1579748215
 20
37.1877341638
 11
18.0228803475
 21
37.1877341638
  0
LINE
  5
2B3
100
AcDbEntity
  8
0
100
AcDbLine
 62
7
  6
BYLAYER
 10
17.0872536604
 20
37.1877341638
 11
16.929683887
 21
37.1877341638
  0
LINE
  5
2B4
100
AcDbEntity
  8
0
100
AcDbLine
 62
7
  6
BYLAYER
 10
16.0083534459
 20
37.1877341638
 11
15.8538045193
 21
37.1877341638
  0
LINE
  5
2B5
100
AcDbEntity
  8
0
100
AcDbLine
 62
7
  6
BYLAYER
 10
14.9537822051
 20
37.1877341638
 11
14.8034303361
 21
37.1877341638
  0
LINE
  5
2B6
100
AcDbEntity
  8
0
100
AcDbLine
 62
7
  6
BYLAYER
 10
13.931565862
 20
37.1877341638
 11
13.786555319
 21
37.1877341638
  0
LINE
  5
2B7
100
AcDbEntity
  8
0
100
AcDbLine
 62
7
  6
BYLAYER
 10
12.9494841002
 20
37.1877341638
 11
12.810918501
 21
37.1877341638
  0
LINE
  5
2B8
100
AcDbEntity
  8
0
100
AcDbLine
 62
7
  6
BYLAYER
 10
12.0150111548
 20
37.1877341638
 11
11.8839450674
 21
37.1877341638
  0
LINE
  5
2B9
100
AcDbEntity
  8
0
100
AcDbLine
 62
7
  6
BYLAYER
 10
11.1352589293
 20
37.1877341638
 11
11.0126898457
 21
37.1877341638
  0
LINE
  5
2BA
100
AcDbEntity
  8
0
100
AcDbLine
 62
7
  6
BYLAYER
 10
10.3169228693
 20
37.1877341638
 11
10.2037836142
 21
37.1877341638
  0
LINE
  5
2BB
100
AcDbEntity
  8
0
100
AcDbLine
 62
7
  6
BYLAYER
 10
9.5662310064
 20
37.1877341638
 11
9.4633826378
 21
37.1877341638
  0
LINE
  5
2BC
100
AcDbEntity
  8
0
100
AcDbLine
 62
7
  6
BYLAYER
 10
8.8888965588
 20
37.1877341638
 11
8.797121815
 21
37.1877341638
  0
LINE
  5
2BD
100
AcDbEntity
  8
0
100
AcDbLine
 62
7
  6
BYLAYER
 10
8.2900744507
 20
37.1877341638
 11
8.2100717929
 21
37.1877341638
  0
LINE
  5
2BE
100
AcDbEntity
  8
0
100
AcDbLine
 62
7
  6
BYLAYER
 10
7.77432208
 20
37.1877341638
 11
7.7067003767
 21
37.1877341638
  0
LINE
  5
2BF
100
AcDbEntity
  8
0
100
AcDbLine
 62
7
  6
BYLAYER
 10
7.3455646337
 20
37.1877341638
 11
7.2908385268
 21
37.1877341638
  0
LINE
  5
2C0
100
AcDbEntity
  8
0
100
AcDbLine
 62
7
  6
BYLAYER
 10
7.0070652146
 20
37.1877341638
 11
6.9656512029
 21
37.1877341638
  0
LINE
  5
2C1
100
AcDbEntity
  8
0
100
AcDbLine
 62
7
  6
BYLAYER
 10
6.7614000079
 20
37.1877341638
 11
6.7336132771
 21
37.1877341638
  0
LINE
  5
2C2
100
AcDbEntity
  8
0
100
AcDbLine
 62
7
  6
BYLAYER
 10
6.6104386741
 20
37.1877341638
 11
6.5964906979
 21
37.1877341638
  0
LINE
  5
2C3
100
AcDbEntity
  8
0
100
AcDbLine
 62
7
  6
BYLAYER
 10
33.9549514267
 20
37.7927341638
 11
4.4551966045
 21
37.7927341638
  0
LINE
  5
2C4
100
AcDbEntity
  8
0
100
AcDbLine
 62
7
  6
BYLAYER
 10
25.1416611482
 20
36.8159661285
 11
25.1613521297
 21
36.79273414
  0
LINE
  5
2C5
100
AcDbEntity
  8
0
100
AcDbLine
 62
7
  6
BYLAYER
 10
31.3426118752
 20
43.7827341638
 11
31.3426118752
 21
39.2927341768
  0
LINE
  5
2C6
100
AcDbEntity
  8
0
100
AcDbLine
 62
7
  6
BYLAYER
 10
31.6800737786
 20
19.762733872
 11
31.6800737786
 21
19.9927342264
  0
LINE
  5
2C7
100
AcDbEntity
  8
0
100
AcDbLine
 62
7
  6
BYLAYER
 10
31.8050740156
 20
30.2927341638
 11
31.8050740156
 21
31.5427341638
  0
LINE
  5
2C8
100
AcDbEntity
  8
0
100
AcDbLine
 62
7
  6
BYLAYER
 10
31.855073947
 20
37.2277341638
 11
31.855073947
 21
37.7927341638
  0
LINE
  5
2C9
100
AcDbEntity
  8
0
100
AcDbLine
 62
7
  6
BYLAYER
 10
31.8550762592
 20
37.2277341638
 11
31.8548210475
 21
37.1877341638
  0
LINE
  5
2CA
100
AcDbEntity
  8
0
100
AcDbLine
 62
7
  6
BYLAYER
 10
4.4972642935
 20
39.2927341768
 11
33.9128837377
 21
39.2927341768
  0
LINE
  5
2CB
100
AcDbEntity
  8
0
100
AcDbLine
 62
7
  6
BYLAYER
 10
32.4558194224
 20
43.7827341638
 11
32.4558194224
 21
39.2927341768
  0
LINE
  5
2CC
100
AcDbEntity
  8
0
100
AcDbLine
 62
7
  6
BYLAYER
 10
32.6038824611
 20
39.2927341768
 11
32.6038824611
 21
43.7827341638
  0
LINE
  5
2CD
100
AcDbEntity
  8
0
100
AcDbLine
 62
7
  6
BYLAYER
 10
33.4550740193
 20
20.4066583417
 11
33.4550740193
 21
29.0927341638
  0
LINE
  5
2CE
100
AcDbEntity
  8
0
100
AcDbLine
 62
7
  6
BYLAYER
 10
22.4594837543
 20
4.1158798339
 11
22.5591098505
 21
4.2776792688
  0
LINE
  5
2CF
100
AcDbEntity
  8
0
100
AcDbLine
 62
7
  6
BYLAYER
 10
33.9130062643
 20
39.2927341768
 11
33.955074105
 21
37.7927341638
  0
LINE
  5
2D0
100
AcDbEntity
  8
0
100
AcDbLine
 62
7
  6
BYLAYER
 10
22.462774099
 20
4.1212374426
 11
22.4908540736
 21
4.1667140665
  0
LINE
  5
2D1
100
AcDbEntity
  8
0
100
AcDbLine
 62
7
  6
BYLAYER
 10
10.0518982391
 20
43.5953402076
 11
16.7050740715
 21
43.5953402076
  0
LINE
  5
2D2
100
AcDbEntity
  8
0
100
AcDbLine
 62
7
  6
BYLAYER
 10
21.7050740152
 20
43.5953402076
 11
28.358249792
 21
43.5953402076
  0
LINE
  5
2D3
100
AcDbEntity
  8
0
100
AcDbLine
 62
7
  6
BYLAYER
 10
5.806265559
 20
43.7827341638
 11
10.2350425835
 21
43.7827341638
  0
LINE
  5
2D4
100
AcDbEntity
  8
0
100
AcDbLine
 62
7
  6
BYLAYER
 10
16.7050740715
 20
43.7827341638
 11
21.7050740156
 21
43.7827341638
  0
LINE
  5
2D5
100
AcDbEntity
  8
0
100
AcDbLine
 62
7
  6
BYLAYER
 10
28.1751054476
 20
43.7827341638
 11
32.6038824611
 21
43.7827341638
  0
LINE
  5
2D6
100
AcDbEntity
  8
0
100
AcDbLine
 62
7
  6
BYLAYER
 10
7.2102725539
 20
43.7927342159
 11
31.1998754773
 21
43.7927342159
  0
LINE
  5
2D7
100
AcDbEntity
  8
0
100
AcDbLine
 62
7
  6
BYLAYER
 10
9.2050740156
 20
44.0117347378
 11
10.7050740193
 21
44.0117347378
  0
LINE
  5
2D8
100
AcDbEntity
  8
0
100
AcDbLine
 62
7
  6
BYLAYER
 10
27.7050744775
 20
44.0117347378
 11
29.2050740156
 21
44.0117347378
  0
LINE
  5
2D9
100
AcDbEntity
  8
0
100
AcDbLine
 62
7
  6
BYLAYER
 10
29.0919340025
 20
45.5917346615
 11
27.7050744775
 21
45.5917346615
  0
LINE
  5
2DA
100
AcDbEntity
  8
0
100
AcDbLine
 62
7
  6
BYLAYER
 10
10.7050740193
 20
45.5917346615
 11
9.3182140286
 21
45.5917346615
  0
LINE
  5
2DB
100
AcDbEntity
  8
0
100
AcDbLine
 62
7
  6
BYLAYER
 10
29.0829205926
 20
46.2856194542
 11
26.7122537606
 21
50.3917341638
  0
LINE
  5
2DC
100
AcDbEntity
  8
0
100
AcDbLine
 62
7
  6
BYLAYER
 10
32.6038824611
 20
40.6572076159
 11
33.1281308718
 21
39.2927341768
  0
LINE
  5
2DD
100
AcDbEntity
  8
0
100
AcDbLine
 62
7
  6
BYLAYER
 10
15.1050742283
 20
48.8917346436
 11
23.3050740357
 21
48.8917346436
  0
LINE
  5
2DE
100
AcDbEntity
  8
0
100
AcDbLine
 62
7
  6
BYLAYER
 10
11.2050738801
 20
49.191734134
 11
15.1050742283
 21
49.191734134
  0
LINE
  5
2DF
100
AcDbEntity
  8
0
100
AcDbLine
 62
7
  6
BYLAYER
 10
23.3050740357
 20
49.191734134
 11
27.2050741511
 21
49.191734134
  0
LINE
  5
2E0
100
AcDbEntity
  8
0
100
AcDbLine
 62
7
  6
BYLAYER
 10
11.6978946175
 20
50.3917341638
 11
13.3845207278
 21
50.3917341638
  0
LINE
  5
2E1
100
AcDbEntity
  8
0
100
AcDbLine
 62
7
  6
BYLAYER
 10
25.0256277654
 20
50.3917341638
 11
26.7122537606
 21
50.3917341638
  0
ARC
  5
2E2
100
AcDbEntity
  8
0
100
AcDbCircle
 62
7
  6
BYLAYER
 10
-121.0447004095
 20
-103.0166031205
 40
199.9266833726
100
AcDbArc
 50
44.3711134345
 51
44.5296896146
  0
ARC
  5
2E3
100
AcDbEntity
  8
0
100
AcDbCircle
 62
7
  6
BYLAYER
 10
-103.8439760959
 20
-85.8119599393
 40
175.4073761514
100
AcDbArc
 50
44.3445167789
 51
44.4996569184
  0
ARC
  5
2E4
100
AcDbEntity
  8
0
100
AcDbCircle
 62
7
  6
BYLAYER
 10
-71.0108414555
 20
-53.0394011079
 40
129.9836683666
100
AcDbArc
 50
43.7175039852
 51
43.9588922652
  0
ARC
  5
2E5
100
AcDbEntity
  8
0
100
AcDbCircle
 62
7
  6
BYLAYER
 10
-59.7973312606
 20
-41.8214128907
 40
113.8360956855
100
AcDbArc
 50
43.6768847226
 51
43.8631973992
  0
ARC
  5
2E6
100
AcDbEntity
  8
0
100
AcDbCircle
 62
7
  6
BYLAYER
 10
-45.1759344919
 20
-27.2996880547
 40
94.285104159
100
AcDbArc
 50
42.8258689657
 51
43.1540237562
  0
ARC
  5
2E7
100
AcDbEntity
  8
0
100
AcDbCircle
 62
7
  6
BYLAYER
 10
-36.9961988185
 20
-19.117888303
 40
82.335050509
100
AcDbArc
 50
42.7704052461
 51
42.9534789076
  0
ARC
  5
2E8
100
AcDbEntity
  8
0
100
AcDbCircle
 62
7
  6
BYLAYER
 10
-29.0761878586
 20
-11.3391927604
 40
72.3776835084
100
AcDbArc
 50
41.6831387751
 51
42.1032021811
  0
ARC
  5
2E9
100
AcDbEntity
  8
0
100
AcDbCircle
 62
7
  6
BYLAYER
 10
-22.7435972973
 20
-5.0117121698
 40
62.9508839322
100
AcDbArc
 50
41.6118125318
 51
41.7500560342
  0
ARC
  5
2EA
100
AcDbEntity
  8
0
100
AcDbCircle
 62
7
  6
BYLAYER
 10
-17.9019129251
 20
-0.3499455377
 40
57.4580437561
100
AcDbArc
 50
40.2730767366
 51
40.7913197402
  0
ARC
  5
2EB
100
AcDbEntity
  8
0
100
AcDbCircle
 62
7
  6
BYLAYER
 10
-9.6013681959
 20
7.7225140473
 40
46.6197446841
100
AcDbArc
 50
38.576592178
 51
39.2002781609
  0
ARC
  5
2EC
100
AcDbEntity
  8
0
100
AcDbCircle
 62
7
  6
BYLAYER
 10
-3.1566773354
 20
13.9037298849
 40
38.4148415679
100
AcDbArc
 50
36.5723606572
 51
37.3094803185
  0
ARC
  5
2ED
100
AcDbEntity
  8
0
100
AcDbCircle
 62
7
  6
BYLAYER
 10
1.9908909569
 20
18.765423889
 40
32.0411074184
100
AcDbArc
 50
34.2379231623
 51
35.0967330041
  0
ARC
  5
2EE
100
AcDbEntity
  8
0
100
AcDbCircle
 62
7
  6
BYLAYER
 10
6.1708206994
 20
22.6556272273
 40
27.0171387959
100
AcDbArc
 50
31.5514768136
 51
32.5397603512
  0
ARC
  5
2EF
100
AcDbEntity
  8
0
100
AcDbCircle
 62
7
  6
BYLAYER
 10
9.5878405473
 20
25.8032668248
 40
23.0350636566
100
AcDbArc
 50
28.4945797989
 51
29.618553082
  0
ARC
  5
2F0
100
AcDbEntity
  8
0
100
AcDbCircle
 62
7
  6
BYLAYER
 10
7.0192000524
 20
37.1519398657
 40
0.2878212569
100
AcDbArc
 50
171.8168556777
 51
172.8560320455
  0
ARC
  5
2F1
100
AcDbEntity
  8
0
100
AcDbCircle
 62
7
  6
BYLAYER
 10
8.5800740156
 20
34.2417341638
 40
0.25
100
AcDbArc
 50
90.0
 51
180.0
  0
ARC
  5
2F2
100
AcDbEntity
  8
0
100
AcDbCircle
 62
7
  6
BYLAYER
 10
142.0340057772
 20
-85.5962378218
 40
175.0991750068
100
AcDbArc
 50
135.5002065501
 51
135.6556197492
  0
ARC
  5
2F3
100
AcDbEntity
  8
0
100
AcDbCircle
 62
7
  6
BYLAYER
 10
109.6423520296
 20
-53.2519636224
 40
130.2905621285
100
AcDbArc
 50
136.0413920275
 51
136.2822117125
  0
ARC
  5
2F4
100
AcDbEntity
  8
0
100
AcDbCircle
 62
7
  6
BYLAYER
 10
98.0484746426
 20
-41.6690924102
 40
113.6159051344
100
AcDbArc
 50
136.1366220693
 51
136.3232958084
  0
ARC
  5
2F5
100
AcDbEntity
  8
0
100
AcDbCircle
 62
7
  6
BYLAYER
 10
83.7935297727
 20
-27.4930677092
 40
94.5687049251
100
AcDbArc
 50
136.8464682913
 51
137.1736389999
  0
ARC
  5
2F6
100
AcDbEntity
  8
0
100
AcDbCircle
 62
7
  6
BYLAYER
 10
75.2989956865
 20
-19.0182642432
 40
82.1885951552
100
AcDbArc
 50
137.0463579799
 51
137.229757891
  0
ARC
  5
2F7
100
AcDbEntity
  8
0
100
AcDbCircle
 62
7
  6
BYLAYER
 10
67.6817369552
 20
-11.5144740644
 40
72.6401795833
100
AcDbArc
 50
137.8975568072
 51
138.3161022198
  0
ARC
  5
2F8
100
AcDbEntity
  8
0
100
AcDbCircle
 62
7
  6
BYLAYER
 10
61.0943133361
 20
-4.9587956165
 40
62.8713080935
100
AcDbArc
 50
138.2498565092
 51
138.3882749566
  0
ARC
  5
2F9
100
AcDbEntity
  8
0
100
AcDbCircle
 62
7
  6
BYLAYER
 10
56.4957228268
 20
-0.5069861862
 40
57.6996886581
100
AcDbArc
 50
139.2097654566
 51
139.7258380873
  0
ARC
  5
2FA
100
AcDbEntity
  8
0
100
AcDbCircle
 62
7
  6
BYLAYER
 10
48.1831049588
 20
7.5841165632
 40
46.840187701
100
AcDbArc
 50
140.8011894676
 51
141.4219402184
  0
ARC
  5
2FB
100
AcDbEntity
  8
0
100
AcDbCircle
 62
7
  6
BYLAYER
 10
41.7257347583
 20
13.7842397774
 40
38.6136592063
100
AcDbArc
 50
142.6924173902
 51
143.4257416046
  0
ARC
  5
2FC
100
AcDbEntity
  8
0
100
AcDbCircle
 62
7
  6
BYLAYER
 10
36.5647764525
 20
18.6647842058
 40
32.2180325062
100
AcDbArc
 50
144.9056251052
 51
145.7597187627
  0
ARC
  5
2FD
100
AcDbEntity
  8
0
100
AcDbCircle
 62
7
  6
BYLAYER
 10
32.3707191778
 20
22.5733789508
 40
27.1721446641
100
AcDbArc
 50
147.4630585832
 51
148.4457042915
  0
ARC
  5
2FE
100
AcDbEntity
  8
0
100
AcDbCircle
 62
7
  6
BYLAYER
 10
28.9388621371
 20
25.7385090207
 40
23.1683935477
100
AcDbArc
 50
150.3846811628
 51
151.5021859114
  0
ARC
  5
2FF
100
AcDbEntity
  8
0
100
AcDbCircle
 62
7
  6
BYLAYER
 10
26.1370726669
 20
28.3217377682
 40
19.9995813062
100
AcDbArc
 50
153.6847938533
 51
154.9405329598
  0
ARC
  5
300
100
AcDbEntity
  8
0
100
AcDbCircle
 62
7
  6
BYLAYER
 10
12.3741447608
 20
28.3703516698
 40
19.8874349046
100
AcDbArc
 50
25.0559262412
 51
26.3187468952
  0
ARC
  5
301
100
AcDbEntity
  8
0
100
AcDbCircle
 62
7
  6
BYLAYER
 10
23.8776975894
 20
30.4456622596
 40
17.5201793488
100
AcDbArc
 50
157.3675880723
 51
158.7602018912
  0
ARC
  5
302
100
AcDbEntity
  8
0
100
AcDbCircle
 62
7
  6
BYLAYER
 10
14.6174672229
 20
30.4799010379
 40
17.4285338365
100
AcDbArc
 50
21.2361365644
 51
22.6360735281
  0
ARC
  5
303
100
AcDbEntity
  8
0
100
AcDbCircle
 62
7
  6
BYLAYER
 10
22.1015840017
 20
32.2096763128
 40
15.6249557276
100
AcDbArc
 50
161.421925269
 51
162.9433834066
  0
ARC
  5
304
100
AcDbEntity
  8
0
100
AcDbCircle
 62
7
  6
BYLAYER
 10
16.3770555284
 20
32.2316894064
 40
15.553020026
100
AcDbArc
 50
17.0530979437
 51
18.5815934418
  0
ARC
  5
305
100
AcDbEntity
  8
0
100
AcDbCircle
 62
7
  6
BYLAYER
 10
20.7685909885
 20
33.6991992489
 40
14.2369597378
100
AcDbArc
 50
165.8161747248
 51
167.4501468496
  0
ARC
  5
306
100
AcDbEntity
  8
0
100
AcDbCircle
 62
7
  6
BYLAYER
 10
17.6931591362
 20
33.7114610496
 40
14.1839262225
100
AcDbArc
 50
12.5467983239
 51
14.1868801673
  0
ARC
  5
307
100
AcDbEntity
  8
0
100
AcDbCircle
 62
7
  6
BYLAYER
 10
19.8517847041
 20
34.9912234312
 40
13.3007924947
100
AcDbArc
 50
170.4945545465
 51
172.2157130262
  0
ARC
  5
308
100
AcDbEntity
  8
0
100
AcDbCircle
 62
7
  6
BYLAYER
 10
18.5928279046
 20
34.9964633211
 40
13.2659358068
100
AcDbArc
 50
7.7820256888
 51
9.5077068075
  0
ARC
  5
309
100
AcDbEntity
  8
0
100
AcDbCircle
 62
7
  6
BYLAYER
 10
19.3338618024
 20
36.1577114545
 40
12.7789502477
100
AcDbArc
 50
175.3767685548
 51
177.1516351911
  0
ARC
  5
30A
100
AcDbEntity
  8
0
100
AcDbCircle
 62
7
  6
BYLAYER
 10
19.0934867526
 20
36.1588345507
 40
12.7617151674
100
AcDbArc
 50
2.8471661184
 51
4.6244300645
  0
ARC
  5
30B
100
AcDbEntity
  8
0
100
AcDbCircle
 62
7
  6
BYLAYER
 10
19.2045333347
 20
37.267746021
 40
12.6505406766
100
AcDbArc
 50
357.8481096186
 51
359.6376145171
  0
ARC
  5
30C
100
AcDbEntity
  8
0
100
AcDbCircle
 62
7
  6
BYLAYER
 10
19.2056142753
 20
37.2677460157
 40
12.6505402553
100
AcDbArc
 50
180.362385471
 51
182.1518903215
  0
ARC
  5
30D
100
AcDbEntity
  8
0
100
AcDbCircle
 62
7
  6
BYLAYER
 10
11.3861718878
 20
32.3380168852
 40
0.4571465538
100
AcDbArc
 50
155.6401969085
 51
180.013780289
  0
ARC
  5
30E
100
AcDbEntity
  8
0
100
AcDbCircle
 62
7
  6
BYLAYER
 10
27.0239762978
 20
32.338016911
 40
0.4571463994
100
AcDbArc
 50
359.9862164803
 51
24.3598380326
  0
ARC
  5
30F
100
AcDbEntity
  8
0
100
AcDbCircle
 62
7
  6
BYLAYER
 10
29.8300740156
 20
34.2417341638
 40
0.25
100
AcDbArc
 50
0.0
 51
90.0
  0
ARC
  5
310
100
AcDbEntity
  8
0
100
AcDbCircle
 62
7
  6
BYLAYER
 10
20.1720269106
 20
37.1278273547
 40
0.1000612617
100
AcDbArc
 50
36.7769427893
 51
46.7679762116
  0
ARC
  5
311
100
AcDbEntity
  8
0
100
AcDbCircle
 62
7
  6
BYLAYER
 10
18.2381035516
 20
37.1278427751
 40
0.1000377077
100
AcDbArc
 50
133.4420100404
 51
143.224000104
  0
ARC
  5
312
100
AcDbEntity
  8
0
100
AcDbCircle
 62
7
  6
BYLAYER
 10
19.2050740156
 20
37.1277341638
 40
0.1
100
AcDbArc
 50
36.8698976458
 51
143.1301023542
  0
ARC
  5
313
100
AcDbEntity
  8
0
100
AcDbCircle
 62
7
  6
BYLAYER
 10
18.1025881799
 20
37.1283174351
 40
0.0994167347
100
AcDbArc
 50
36.7355507904
 51
143.2979959322
  0
ARC
  5
314
100
AcDbEntity
  8
0
100
AcDbCircle
 62
7
  6
BYLAYER
 10
20.3075595862
 20
37.1283174518
 40
0.099416718
100
AcDbArc
 50
36.7019992353
 51
143.2644539431
  0
ARC
  5
315
100
AcDbEntity
  8
0
100
AcDbCircle
 62
7
  6
BYLAYER
 10
-122.7316454299
 20
179.2121753453
 40
202.2934810706
100
AcDbArc
 50
315.2492614364
 51
315.4065805897
  0
ARC
  5
316
100
AcDbEntity
  8
0
100
AcDbCircle
 62
7
  6
BYLAYER
 10
136.8420555353
 20
78.7178718676
 40
142.0568603804
100
AcDbArc
 50
210.9625067973
 51
211.6237673958
  0
ARC
  5
317
100
AcDbEntity
  8
0
100
AcDbCircle
 62
7
  6
BYLAYER
 10
-97.3999064126
 20
78.0911525987
 40
140.849545359
100
AcDbArc
 50
328.3950821383
 51
329.0400840028
  0
ARC
  5
318
100
AcDbEntity
  8
0
100
AcDbCircle
 62
7
  6
BYLAYER
 10
111.2194026521
 20
129.3113740848
 40
132.4836181364
100
AcDbArc
 50
224.0558099298
 51
224.293991389
  0
ARC
  5
319
100
AcDbEntity
  8
0
100
AcDbCircle
 62
7
  6
BYLAYER
 10
-72.6494374612
 20
129.1560948397
 40
132.2607887092
100
AcDbArc
 50
315.7058079579
 51
315.9443907137
  0
ARC
  5
31A
100
AcDbEntity
  8
0
100
AcDbCircle
 62
7
  6
BYLAYER
 10
85.3356532834
 20
103.4786197326
 40
96.6855182214
100
AcDbArc
 50
223.285493747
 51
223.6079075781
  0
ARC
  5
31B
100
AcDbEntity
  8
0
100
AcDbCircle
 62
7
  6
BYLAYER
 10
-46.7621168107
 20
103.3238585096
 40
96.4604706328
100
AcDbArc
 50
316.3917163325
 51
316.7148823554
  0
ARC
  5
31C
100
AcDbEntity
  8
0
100
AcDbCircle
 62
7
  6
BYLAYER
 10
69.1737489517
 20
87.4034228374
 40
74.6546336457
100
AcDbArc
 50
222.2711454654
 51
222.6821730621
  0
ARC
  5
31D
100
AcDbEntity
  8
0
100
AcDbCircle
 62
7
  6
BYLAYER
 10
-30.6013473724
 20
87.2548663978
 40
74.4346459072
100
AcDbArc
 50
317.3172195292
 51
317.7294619268
  0
ARC
  5
31E
100
AcDbEntity
  8
0
100
AcDbCircle
 62
7
  6
BYLAYER
 10
57.9244740889
 20
76.2812988667
 40
59.5907431041
100
AcDbArc
 50
220.9981140786
 51
221.5032655574
  0
ARC
  5
31F
100
AcDbEntity
  8
0
100
AcDbCircle
 62
7
  6
BYLAYER
 10
-19.3562249315
 20
76.1426445398
 40
59.3804572841
100
AcDbArc
 50
318.4958400081
 51
319.0027803762
  0
ARC
  5
320
100
AcDbEntity
  8
0
100
AcDbCircle
 62
7
  6
BYLAYER
 10
19.1849218801
 20
54.1623139217
 40
50.1535083753
100
AcDbArc
 50
270.0238297702
 51
271.3940493505
  0
ARC
  5
321
100
AcDbEntity
  8
0
100
AcDbCircle
 62
7
  6
BYLAYER
 10
49.5366579933
 20
68.0618247779
 40
48.5909825464
100
AcDbArc
 50
219.4487117503
 51
220.0545257378
  0
ARC
  5
322
100
AcDbEntity
  8
0
100
AcDbCircle
 62
7
  6
BYLAYER
 10
-10.9748357241
 20
67.9356713894
 40
48.3937044186
100
AcDbArc
 50
319.9442394123
 51
320.5525230752
  0
ARC
  5
323
100
AcDbEntity
  8
0
100
AcDbCircle
 62
7
  6
BYLAYER
 10
42.9930885162
 20
61.7239236416
 40
40.2112673982
100
AcDbArc
 50
217.6026601619
 51
218.3165044287
  0
ARC
  5
324
100
AcDbEntity
  8
0
100
AcDbCircle
 62
7
  6
BYLAYER
 10
-4.4395447149
 20
61.6120534043
 40
40.0293992936
100
AcDbArc
 50
321.6818739592
 51
322.3989614788
  0
ARC
  5
325
100
AcDbEntity
  8
0
100
AcDbCircle
 62
7
  6
BYLAYER
 10
37.7357868843
 20
56.7006343485
 40
33.6533430211
100
AcDbArc
 50
215.4379227513
 51
216.2676381063
  0
ARC
  5
326
100
AcDbEntity
  8
0
100
AcDbCircle
 62
7
  6
BYLAYER
 10
0.8078893897
 20
56.6041436363
 40
33.4886043816
100
AcDbArc
 50
323.7303211131
 51
324.5641180626
  0
ARC
  5
327
100
AcDbEntity
  8
0
100
AcDbCircle
 62
7
  6
BYLAYER
 10
33.4361042149
 20
52.6488357206
 40
28.4397014854
100
AcDbArc
 50
212.9321163299
 51
213.8854309385
  0
ARC
  5
328
100
AcDbEntity
  8
0
100
AcDbCircle
 62
7
  6
BYLAYER
 10
5.0963159563
 20
52.5681852266
 40
28.2932314002
100
AcDbArc
 50
326.1121013682
 51
327.0703513251
  0
ARC
  5
329
100
AcDbEntity
  8
0
100
AcDbCircle
 62
7
  6
BYLAYER
 10
29.8902232455
 20
49.3445108247
 40
24.2660884153
100
AcDbArc
 50
210.064725677
 51
211.14836006
  0
ARC
  5
32A
100
AcDbEntity
  8
0
100
AcDbCircle
 62
7
  6
BYLAYER
 10
8.6297202222
 20
49.2795610547
 40
24.138526479
100
AcDbArc
 50
328.8487765239
 51
329.9381376956
  0
ARC
  5
32B
100
AcDbEntity
  8
0
100
AcDbCircle
 62
7
  6
BYLAYER
 10
26.9669304268
 20
46.6304114759
 40
20.9281915906
100
AcDbArc
 50
206.8203242885
 51
208.0387235904
  0
ARC
  5
32C
100
AcDbEntity
  8
0
100
AcDbCircle
 62
7
  6
BYLAYER
 10
11.539463832
 20
46.5804592382
 40
20.8197608468
100
AcDbArc
 50
331.9581035969
 51
333.1828485731
  0
ARC
  5
32D
100
AcDbEntity
  8
0
100
AcDbCircle
 62
7
  6
BYLAYER
 10
24.5795344417
 20
44.38798536
 40
18.2827479689
100
AcDbArc
 50
203.1928760253
 51
204.5465681612
  0
ARC
  5
32E
100
AcDbEntity
  8
0
100
AcDbCircle
 62
7
  6
BYLAYER
 10
13.9123759923
 20
44.3518049349
 40
18.1933444306
100
AcDbArc
 50
335.4501056759
 51
336.8104501921
  0
ARC
  5
32F
100
AcDbEntity
  8
0
100
AcDbCircle
 62
7
  6
BYLAYER
 10
22.6698841816
 20
42.5214953921
 40
16.2260243694
100
AcDbArc
 50
199.1908881162
 51
200.6745971277
  0
ARC
  5
330
100
AcDbEntity
  8
0
100
AcDbCircle
 62
7
  6
BYLAYER
 10
15.8067449265
 20
42.4973866038
 40
16.1553128056
100
AcDbArc
 50
339.3221556782
 51
340.8123591375
  0
ARC
  5
331
100
AcDbEntity
  8
0
100
AcDbCircle
 62
7
  6
BYLAYER
 10
21.1988722503
 20
40.9486824484
 40
14.6816961922
100
AcDbArc
 50
194.842674586
 51
196.4435199878
  0
ARC
  5
332
100
AcDbEntity
  8
0
100
AcDbCircle
 62
7
  6
BYLAYER
 10
17.2618117177
 20
40.9345315725
 40
14.6292215431
100
AcDbArc
 50
343.5536086477
 51
345.1601967142
  0
ARC
  5
333
100
AcDbEntity
  8
0
100
AcDbCircle
 62
7
  6
BYLAYER
 10
20.140627735
 20
39.595126188
 40
13.5940925334
100
AcDbArc
 50
190.2003669112
 51
191.8966974691
  0
ARC
  5
334
100
AcDbEntity
  8
0
100
AcDbCircle
 62
7
  6
BYLAYER
 10
18.3035833605
 20
39.5884750551
 40
13.5593900074
100
AcDbArc
 50
348.1011317489
 51
349.801803939
  0
ARC
  5
335
100
AcDbEntity
  8
0
100
AcDbCircle
 62
7
  6
BYLAYER
 10
19.478932574
 20
38.3907712592
 40
12.9246087829
100
AcDbArc
 50
185.3408868233
 51
187.1023962266
  0
ARC
  5
336
100
AcDbEntity
  8
0
100
AcDbCircle
 62
7
  6
BYLAYER
 10
18.9484092804
 20
38.388896845
 40
12.9073151363
100
AcDbArc
 50
352.8964237045
 51
354.6602933163
  0
ARC
  5
337
100
AcDbEntity
  8
0
100
AcDbCircle
 62
7
  6
BYLAYER
 10
31.1900920547
 20
43.4886493414
 40
0.3042422165
100
AcDbArc
 50
82.2125394461
 51
88.1572397081
  0
ARC
  5
338
100
AcDbEntity
  8
0
100
AcDbCircle
 62
7
  6
BYLAYER
 10
7.2200559765
 20
43.4886493414
 40
0.3042422165
100
AcDbArc
 50
91.8427602919
 51
97.7874605539
  0
ARC
  5
339
100
AcDbEntity
  8
0
100
AcDbCircle
 62
7
  6
BYLAYER
 10
417.2138828822
 20
-6.0287345354
 40
401.958248998
100
AcDbArc
 50
177.8659681748
 51
178.2372192267
  0
ARC
  5
33A
100
AcDbEntity
  8
0
100
AcDbCircle
 62
7
  6
BYLAYER
 10
159.6968534843
 20
-103.254009357
 40
200.2656936122
100
AcDbArc
 50
135.4704446061
 51
135.6287523384
  0
ARC
  5
33B
100
AcDbEntity
  8
0
100
AcDbCircle
 62
7
  6
BYLAYER
 10
161.2884169955
 20
179.357130079
 40
202.4996612239
100
AcDbArc
 50
224.5934995011
 51
224.7506584664
  0
SPLINE
  5
33C
100
AcDbEntity
  8
0
100
AcDbSpline
 62
7
  6
BYLAYER
 70
0
 71
3
 72
12
 73
8
 74
0
 42
0.0000001
 43
0.0000001
 44
0.0000000001
 40
0.0
 40
0.0
 40
0.0
 40
0.0
 40
0.4084264614
 40
0.71905109
 40
0.9159878646
 40
0.9704749071
 40
1.0
 40
1.0
 40
1.0
 40
1.0
 10
6.6104386741
 20
37.1877341638
 30
0.0
 10
6.6100463876
 20
37.1933309397
 30
0.0
 10
6.6091985832
 20
37.2031951902
 30
0.0
 10
6.6076131418
 20
37.2156162403
 30
0.0
 10
6.6059658046
 20
37.2232992927
 30
0.0
 10
6.6045769865
 20
37.2267941154
 30
0.0
 10
6.6036167432
 20
37.2277341638
 30
0.0
 10
6.6032111604
 20
37.2277341638
 30
0.0
  0
SPLINE
  5
33D
100
AcDbEntity
  8
0
100
AcDbSpline
 62
7
  6
BYLAYER
 70
0
 71
3
 72
13
 73
9
 74
0
 42
0.0000001
 43
0.0000001
 44
0.0000000001
 40
0.0
 40
0.0
 40
0.0
 40
0.0
 40
0.3886826052
 40
0.551012854
 40
0.6890470107
 40
0.8019668713
 40
0.8897581013
 40
1.0
 40
1.0
 40
1.0
 40
1.0
 10
6.7614000079
 20
37.1877341638
 30
0.0
 10
6.7606420377
 20
37.1933526354
 30
0.0
 10
6.7593510512
 20
37.2012934743
 30
0.0
 10
6.7570327195
 20
37.2110845216
 30
0.0
 10
6.7553062765
 20
37.2168478772
 30
0.0
 10
6.7534404075
 20
37.2214851405
 30
0.0
 10
6.7513414254
 20
37.2253515857
 30
0.0
 10
6.7488640157
 20
37.2277341638
 30
0.0
 10
6.7472560148
 20
37.2277341638
 30
0.0
  0
SPLINE
  5
33E
100
AcDbEntity
  8
0
100
AcDbSpline
 62
7
  6
BYLAYER
 70
0
 71
3
 72
13
 73
9
 74
0
 42
0.0000001
 43
0.0000001
 44
0.0000000001
 40
0.0
 40
0.0
 40
0.0
 40
0.0
 40
0.365066494
 40
0.653554792
 40
0.7665626134
 40
0.8594574803
 40
0.9351768272
 40
1.0
 40
1.0
 40
1.0
 40
1.0
 10
7.0070652146
 20
37.1877341638
 30
0.0
 10
7.005942193
 20
37.1933861387
 30
0.0
 10
7.0035093593
 20
37.2034224201
 30
0.0
 10
6.9992549049
 20
37.2148249523
 30
0.0
 10
6.9952785701
 20
37.2215671573
 30
0.0
 10
6.9923972521
 20
37.2249897574
 30
0.0
 10
6.9893666093
 20
37.227180219
 30
0.0
 10
6.9871356006
 20
37.2277341638
 30
0.0
 10
6.9861123864
 20
37.2277341638
 30
0.0
  0
SPLINE
  5
33F
100
AcDbEntity
  8
0
100
AcDbSpline
 62
7
  6
BYLAYER
 70
0
 71
3
 72
12
 73
8
 74
0
 42
0.0000001
 43
0.0000001
 44
0.0000000001
 40
0.0
 40
0.0
 40
0.0
 40
0.0
 40
0.344635188
 40
0.6244998714
 40
0.73889078
 40
0.8375821528
 40
1.0
 40
1.0
 40
1.0
 40
1.0
 10
7.3455646337
 20
37.1877341638
 30
0.0
 10
7.3440784784
 20
37.1934288598
 30
0.0
 10
7.340828604
 20
37.2036119583
 30
0.0
 10
7.3351860576
 20
37.2150079507
 30
0.0
 10
7.3299595254
 20
37.2216643915
 30
0.0
 10
7.3251966524
 20
37.2259583457
 30
0.0
 10
7.3207360856
 20
37.2277341638
 30
0.0
 10
7.317962434
 20
37.2277341638
 30
0.0
  0
SPLINE
  5
340
100
AcDbEntity
  8
0
100
AcDbSpline
 62
7
  6
BYLAYER
 70
0
 71
3
 72
11
 73
7
 74
0
 42
0.0000001
 43
0.0000001
 44
0.0000000001
 40
0.0
 40
0.0
 40
0.0
 40
0.0
 40
0.3263191733
 40
0.5990817764
 40
0.8180697723
 40
1.0
 40
1.0
 40
1.0
 40
1.0
 10
7.77432208
 20
37.1877341638
 30
0.0
 10
7.7724768491
 20
37.1934778572
 30
0.0
 10
7.7684052749
 20
37.2038345893
 30
0.0
 10
7.7603832654
 20
37.2167792319
 30
0.0
 10
7.7510931764
 20
37.2254289869
 30
0.0
 10
7.7436440091
 20
37.2277341638
 30
0.0
 10
7.7402805784
 20
37.2277341638
 30
0.0
  0
SPLINE
  5
341
100
AcDbEntity
  8
0
100
AcDbSpline
 62
7
  6
BYLAYER
 70
0
 71
3
 72
11
 73
7
 74
0
 42
0.0000001
 43
0.0000001
 44
0.0000000001
 40
0.0
 40
0.0
 40
0.0
 40
0.0
 40
0.3106026786
 40
0.5777242353
 40
0.802703641
 40
1.0
 40
1.0
 40
1.0
 40
1.0
 10
8.2900744507
 20
37.1877341638
 30
0.0
 10
8.2878771198
 20
37.1935302291
 30
0.0
 10
8.2829774797
 20
37.2040412034
 30
0.0
 10
8.273390658
 20
37.2170490264
 30
0.0
 10
8.2622828693
 20
37.2255902675
 30
0.0
 10
8.2537901046
 20
37.2277341638
 30
0.0
 10
8.2498527235
 20
37.2277341638
 30
0.0
  0
SPLINE
  5
342
100
AcDbEntity
  8
0
100
AcDbSpline
 62
7
  6
BYLAYER
 70
0
 71
3
 72
11
 73
7
 74
0
 42
0.0000001
 43
0.0000001
 44
0.0000000001
 40
0.0
 40
0.0
 40
0.0
 40
0.0
 40
0.2975825905
 40
0.5604186546
 40
0.7905794967
 40
1.0
 40
1.0
 40
1.0
 40
1.0
 10
8.8888965588
 20
37.1877341638
 30
0.0
 10
8.8863575979
 20
37.1935833963
 30
0.0
 10
8.8806445269
 20
37.2042402486
 30
0.0
 10
8.8695604221
 20
37.2172685719
 30
0.0
 10
8.8567814555
 20
37.2256942911
 30
0.0
 10
8.8472881149
 20
37.2277341638
 30
0.0
 10
8.8428007175
 20
37.2277341638
 30
0.0
  0
SPLINE
  5
343
100
AcDbEntity
  8
0
100
AcDbSpline
 62
7
  6
BYLAYER
 70
0
 71
3
 72
11
 73
7
 74
0
 42
0.0000001
 43
0.0000001
 44
0.0000000001
 40
0.0
 40
0.0
 40
0.0
 40
0.0
 40
0.2869077911
 40
0.546492385
 40
0.7810130706
 40
1.0
 40
1.0
 40
1.0
 40
1.0
 10
9.5662310064
 20
37.1877341638
 30
0.0
 10
9.5633647063
 20
37.1936352535
 30
0.0
 10
9.5568653926
 20
37.2044232527
 30
0.0
 10
9.5443774153
 20
37.2174430123
 30
0.0
 10
9.5300638534
 20
37.2257636396
 30
0.0
 10
9.5196191796
 20
37.2277341638
 30
0.0
 10
9.5146118683
 20
37.2277341638
 30
0.0
  0
SPLINE
  5
344
100
AcDbEntity
  8
0
100
AcDbSpline
 62
7
  6
BYLAYER
 70
0
 71
3
 72
11
 73
7
 74
0
 42
0.0000001
 43
0.0000001
 44
0.0000000001
 40
0.0
 40
0.0
 40
0.0
 40
0.0
 40
0.2782097373
 40
0.5353194276
 40
0.7734503461
 40
1.0
 40
1.0
 40
1.0
 40
1.0
 10
10.3169228693
 20
37.1877341638
 30
0.0
 10
10.3137474283
 20
37.1936842068
 30
0.0
 10
10.3065021039
 20
37.2045858324
 30
0.0
 10
10.2927190131
 20
37.2175801914
 30
0.0
 10
10.2770027889
 20
37.2258113557
 30
0.0
 10
10.2656653064
 20
37.2277341638
 30
0.0
 10
10.2601732873
 20
37.2277341638
 30
0.0
  0
SPLINE
  5
345
100
AcDbEntity
  8
0
100
AcDbSpline
 62
7
  6
BYLAYER
 70
0
 71
3
 72
11
 73
7
 74
0
 42
0.0000001
 43
0.0000001
 44
0.0000000001
 40
0.0
 40
0.0
 40
0.0
 40
0.0
 40
0.2711555522
 40
0.5263727564
 40
0.767461659
 40
1.0
 40
1.0
 40
1.0
 40
1.0
 10
11.1352589293
 20
37.1877341638
 30
0.0
 10
11.131796343
 20
37.1937291339
 30
0.0
 10
11.1238571006
 20
37.2047265804
 30
0.0
 10
11.1088972932
 20
37.2176876084
 30
0.0
 10
11.0919101652
 20
37.2258451143
 30
0.0
 10
11.0797479246
 20
37.2277341638
 30
0.0
 10
11.0738108019
 20
37.2277341638
 30
0.0
  0
SPLINE
  5
346
100
AcDbEntity
  8
0
100
AcDbSpline
 62
7
  6
BYLAYER
 70
0
 71
3
 72
10
 73
6
 74
0
 42
0.0000001
 43
0.0000001
 44
0.0000000001
 40
0.0
 40
0.0
 40
0.0
 40
0.0
 40
0.5175095376
 40
0.7618714874
 40
1.0
 40
1.0
 40
1.0
 40
1.0
 10
12.0150111548
 20
37.1877341638
 30
0.0
 10
12.0077769225
 20
37.1994574106
 30
0.0
 10
11.9931353622
 20
37.2149256701
 30
0.0
 10
11.9685869287
 20
37.2258617406
 30
0.0
 10
11.9556709131
 20
37.2277341638
 30
0.0
 10
11.9493321393
 20
37.2277341638
 30
0.0
  0
SPLINE
  5
347
100
AcDbEntity
  8
0
100
AcDbSpline
 62
7
  6
BYLAYER
 70
0
 71
3
 72
10
 73
6
 74
0
 42
0.0000001
 43
0.0000001
 44
0.0000000001
 40
0.0
 40
0.0
 40
0.0
 40
0.0
 40
0.5118392583
 40
0.7581284106
 40
1.0
 40
1.0
 40
1.0
 40
1.0
 10
12.9494841002
 20
37.1877341638
 30
0.0
 10
12.9417487161
 20
37.1996002439
 30
0.0
 10
12.9260853285
 20
37.2150817295
 30
0.0
 10
12.9003479792
 20
37.2258781748
 30
0.0
 10
12.8867676581
 20
37.2277341638
 30
0.0
 10
12.8800740535
 20
37.2277341638
 30
0.0
  0
SPLINE
  5
348
100
AcDbEntity
  8
0
100
AcDbSpline
 62
7
  6
BYLAYER
 70
0
 71
3
 72
11
 73
7
 74
0
 42
0.0000001
 43
0.0000001
 44
0.0000000001
 40
0.0
 40
0.0
 40
0.0
 40
0.0
 40
0.2573116721
 40
0.5091086495
 40
0.7560589219
 40
1.0
 40
1.0
 40
1.0
 40
1.0
 10
13.931565862
 20
37.1877341638
 30
0.0
 10
13.9274074846
 20
37.1938338596
 30
0.0
 10
13.9177912553
 20
37.2050254868
 30
0.0
 10
13.9000723378
 20
37.2178871047
 30
0.0
 10
13.8800972009
 20
37.2259007627
 30
0.0
 10
13.8659517353
 20
37.2277341638
 30
0.0
 10
13.8589530367
 20
37.2277341638
 30
0.0
  0
SPLINE
  5
349
100
AcDbEntity
  8
0
100
AcDbSpline
 62
7
  6
BYLAYER
 70
0
 71
3
 72
9
 73
5
 74
0
 42
0.0000001
 43
0.0000001
 44
0.0000000001
 40
0.0
 40
0.0
 40
0.0
 40
0.0
 40
0.5058505235
 40
1.0
 40
1.0
 40
1.0
 40
1.0
 10
14.9537822051
 20
37.1877341638
 30
0.0
 10
14.9452463192
 20
37.1998179515
 30
0.0
 10
14.9226467287
 20
37.220255554
 30
0.0
 10
14.892971578
 20
37.2277341638
 30
0.0
 10
14.8785192285
 20
37.2277341638
 30
0.0
  0
SPLINE
  5
34A
100
AcDbEntity
  8
0
100
AcDbSpline
 62
7
  6
BYLAYER
 70
0
 71
3
 72
9
 73
5
 74
0
 42
0.0000001
 43
0.0000001
 44
0.0000000001
 40
0.0
 40
0.0
 40
0.0
 40
0.0
 40
0.5032369437
 40
1.0
 40
1.0
 40
1.0
 40
1.0
 10
16.0083534459
 20
37.1877341638
 30
0.0
 10
15.9995300309
 20
37.1998931232
 30
0.0
 10
15.9761257106
 20
37.2203637647
 30
0.0
 10
15.9458429308
 20
37.2277341638
 30
0.0
 10
15.9310131147
 20
37.2277341638
 30
0.0
  0
SPLINE
  5
34B
100
AcDbEntity
  8
0
100
AcDbSpline
 62
7
  6
BYLAYER
 70
0
 71
3
 72
9
 73
5
 74
0
 42
0.0000001
 43
0.0000001
 44
0.0000000001
 40
0.0
 40
0.0
 40
0.0
 40
0.0
 40
0.5014334658
 40
1.0
 40
1.0
 40
1.0
 40
1.0
 10
17.0872536604
 20
37.1877341638
 30
0.0
 10
17.0782236589
 20
37.1999462853
 30
0.0
 10
17.0542448726
 20
37.2204375372
 30
0.0
 10
17.0235257933
 20
37.2277341638
 30
0.0
 10
17.0084245813
 20
37.2277341638
 30
0.0
  0
SPLINE
  5
34C
100
AcDbEntity
  8
0
100
AcDbSpline
 62
7
  6
BYLAYER
 70
0
 71
3
 72
9
 73
5
 74
0
 42
0.0000001
 43
0.0000001
 44
0.0000000001
 40
0.0
 40
0.0
 40
0.0
 40
0.0
 40
0.2498109106
 40
1.0
 40
1.0
 40
1.0
 40
1.0
 10
17.7653389843
 20
36.7927341638
 30
0.0
 10
17.7973782017
 20
36.8250167388
 30
0.0
 10
17.9256568985
 20
36.9542201447
 30
0.0
 10
18.0540347072
 20
37.0833251476
 30
0.0
 10
18.1503977507
 20
37.1801231226
 30
0.0
  0
LINE
  5
34D
100
AcDbEntity
  8
0
100
AcDbLine
 62
7
  6
BYLAYER
 10
18.5765239088
 20
36.79273414
 11
18.1822714992
 21
37.1877341638
  0
LINE
  5
34E
100
AcDbEntity
  8
0
100
AcDbLine
 62
7
  6
BYLAYER
 10
20.227876532
 20
37.1877341638
 11
19.8336241461
 21
36.7927341638
  0
SPLINE
  5
34F
100
AcDbEntity
  8
0
100
AcDbSpline
 62
7
  6
BYLAYER
 70
0
 71
3
 72
9
 73
5
 74
0
 42
0.0000001
 43
0.0000001
 44
0.0000000001
 40
0.0
 40
0.0
 40
0.0
 40
0.0
 40
0.2501794606
 40
1.0
 40
1.0
 40
1.0
 40
1.0
 10
20.2597503811
 20
37.1801230215
 30
0.0
 10
20.2918863449
 20
37.147842013
 30
0.0
 10
20.4203133435
 20
37.0187860683
 30
0.0
 10
20.5486416997
 20
36.8896319613
 30
0.0
 10
20.6448090704
 20
36.79273414
 30
0.0
  0
SPLINE
  5
350
100
AcDbEntity
  8
0
100
AcDbSpline
 62
7
  6
BYLAYER
 70
0
 71
3
 72
9
 73
5
 74
0
 42
0.0000001
 43
0.0000001
 44
0.0000000001
 40
0.0
 40
0.0
 40
0.0
 40
0.0
 40
0.4985658627
 40
1.0
 40
1.0
 40
1.0
 40
1.0
 10
21.4017238527
 20
37.2277341638
 30
0.0
 10
21.3866226836
 20
37.2277341638
 30
0.0
 10
21.3559036616
 20
37.2204375003
 30
0.0
 10
21.3319249155
 20
37.1999462834
 30
0.0
 10
21.3228949154
 20
37.1877341638
 30
0.0
  0
SPLINE
  5
351
100
AcDbEntity
  8
0
100
AcDbSpline
 62
7
  6
BYLAYER
 70
0
 71
3
 72
9
 73
5
 74
0
 42
0.0000001
 43
0.0000001
 44
0.0000000001
 40
0.0
 40
0.0
 40
0.0
 40
0.0
 40
0.4967620343
 40
1.0
 40
1.0
 40
1.0
 40
1.0
 10
22.4791355168
 20
37.2277341638
 30
0.0
 10
22.4643057647
 20
37.2277341638
 30
0.0
 10
22.434023071
 20
37.2203637088
 30
0.0
 10
22.41061881
 20
37.1998931204
 30
0.0
 10
22.4017953971
 20
37.1877341638
 30
0.0
  0
SPLINE
  5
352
100
AcDbEntity
  8
0
100
AcDbSpline
 62
7
  6
BYLAYER
 70
0
 71
3
 72
9
 73
5
 74
0
 42
0.0000001
 43
0.0000001
 44
0.0000000001
 40
0.0
 40
0.0
 40
0.0
 40
0.0
 40
0.4941480895
 40
1.0
 40
1.0
 40
1.0
 40
1.0
 10
23.531629596
 20
37.2277341638
 30
0.0
 10
23.5171773311
 20
37.2277341638
 30
0.0
 10
23.4875022954
 20
37.2202554782
 30
0.0
 10
23.4649027822
 20
37.1998179478
 30
0.0
 10
23.4563668988
 20
37.1877341638
 30
0.0
  0
SPLINE
  5
353
100
AcDbEntity
  8
0
100
AcDbSpline
 62
7
  6
BYLAYER
 70
0
 71
3
 72
11
 73
7
 74
0
 42
0.0000001
 43
0.0000001
 44
0.0000000001
 40
0.0
 40
0.0
 40
0.0
 40
0.0
 40
0.2439401582
 40
0.4908896239
 40
0.742687278
 40
1.0
 40
1.0
 40
1.0
 40
1.0
 10
24.5511959748
 20
37.2277341638
 30
0.0
 10
24.5441973293
 20
37.2277341638
 30
0.0
 10
24.5300519638
 20
37.2259007667
 30
0.0
 10
24.5100769657
 20
37.217887068
 30
0.0
 10
24.4923581075
 20
37.2050254764
 30
0.0
 10
24.4827418732
 20
37.1938338611
 30
0.0
 10
24.4785834947
 20
37.1877341638
 30
0.0
  0
SPLINE
  5
354
100
AcDbEntity
  8
0
100
AcDbSpline
 62
7
  6
BYLAYER
 70
0
 71
3
 72
10
 73
6
 74
0
 42
0.0000001
 43
0.0000001
 44
0.0000000001
 40
0.0
 40
0.0
 40
0.0
 40
0.0
 40
0.2418704374
 40
0.4881585944
 40
1.0
 40
1.0
 40
1.0
 40
1.0
 10
25.5300751374
 20
37.2277341638
 30
0.0
 10
25.5233815957
 20
37.2277341638
 30
0.0
 10
25.5098013921
 20
37.2258781794
 30
0.0
 10
25.4840642235
 20
37.2150816473
 30
0.0
 10
25.4684008799
 20
37.1996002387
 30
0.0
 10
25.4606654992
 20
37.1877341638
 30
0.0
  0
SPLINE
  5
355
100
AcDbEntity
  8
0
100
AcDbSpline
 62
7
  6
BYLAYER
 70
0
 71
3
 72
10
 73
6
 74
0
 42
0.0000001
 43
0.0000001
 44
0.0000000001
 40
0.0
 40
0.0
 40
0.0
 40
0.0
 40
0.238127113
 40
0.4824878784
 40
1.0
 40
1.0
 40
1.0
 40
1.0
 10
26.4608172223
 20
37.2277341638
 30
0.0
 10
26.4544785205
 20
37.2277341638
 30
0.0
 10
26.4415626388
 20
37.2258617452
 30
0.0
 10
26.4170144182
 20
37.2149255713
 30
0.0
 10
26.402372904
 20
37.1994574047
 30
0.0
 10
26.3951386754
 20
37.1877341638
 30
0.0
  0
SPLINE
  5
356
100
AcDbEntity
  8
0
100
AcDbSpline
 62
7
  6
BYLAYER
 70
0
 71
3
 72
11
 73
7
 74
0
 42
0.0000001
 43
0.0000001
 44
0.0000000001
 40
0.0
 40
0.0
 40
0.0
 40
0.0
 40
0.2325366783
 40
0.4736242133
 40
0.7288425996
 40
1.0
 40
1.0
 40
1.0
 40
1.0
 10
27.3363387203
 20
37.2277341638
 30
0.0
 10
27.3304016782
 20
37.2277341638
 30
0.0
 10
27.3182395868
 20
37.2258451184
 30
0.0
 10
27.3012526811
 20
37.2176875445
 30
0.0
 10
27.2862929584
 20
37.2047265658
 30
0.0
 10
27.2783537056
 20
37.1937291362
 30
0.0
 10
27.2748911179
 20
37.1877341638
 30
0.0
  0
SPLINE
  5
357
100
AcDbEntity
  8
0
100
AcDbSpline
 62
7
  6
BYLAYER
 70
0
 71
3
 72
11
 73
7
 74
0
 42
0.0000001
 43
0.0000001
 44
0.0000000001
 40
0.0
 40
0.0
 40
0.0
 40
0.0
 40
0.2265476739
 40
0.4646770199
 40
0.7217880941
 40
1.0
 40
1.0
 40
1.0
 40
1.0
 10
28.149976384
 20
37.2277341638
 30
0.0
 10
28.1444844535
 20
37.2277341638
 30
0.0
 10
28.1331471333
 20
37.2258113586
 30
0.0
 10
28.1174311606
 20
37.2175801168
 30
0.0
 10
28.1036481591
 20
37.2045858174
 30
0.0
 10
28.096402822
 20
37.1936842092
 30
0.0
 10
28.0932273797
 20
37.1877341638
 30
0.0
  0
SPLINE
  5
358
100
AcDbEntity
  8
0
100
AcDbSpline
 62
7
  6
BYLAYER
 70
0
 71
3
 72
11
 73
7
 74
0
 42
0.0000001
 43
0.0000001
 44
0.0000000001
 40
0.0
 40
0.0
 40
0.0
 40
0.0
 40
0.2189845787
 40
0.4535034816
 40
0.7130896841
 40
1.0
 40
1.0
 40
1.0
 40
1.0
 10
28.8955379398
 20
37.2277341638
 30
0.0
 10
28.8905307241
 20
37.2277341638
 30
0.0
 10
28.8800862238
 20
37.22576364
 30
0.0
 10
28.8657729442
 20
37.2174429263
 30
0.0
 10
28.8532850576
 20
37.204423238
 30
0.0
 10
28.8467857287
 20
37.193635256
 30
0.0
 10
28.8439194274
 20
37.1877341638
 30
0.0
  0
SPLINE
  5
359
100
AcDbEntity
  8
0
100
AcDbSpline
 62
7
  6
BYLAYER
 70
0
 71
3
 72
11
 73
7
 74
0
 42
0.0000001
 43
0.0000001
 44
0.0000000001
 40
0.0
 40
0.0
 40
0.0
 40
0.0
 40
0.2094177128
 40
0.4395765641
 40
0.7024144881
 40
1.0
 40
1.0
 40
1.0
 40
1.0
 10
29.5673492137
 20
37.2277341638
 30
0.0
 10
29.5628619183
 20
37.2277341638
 30
0.0
 10
29.5533687603
 20
37.2256942869
 30
0.0
 10
29.5405901094
 20
37.2172684737
 30
0.0
 10
29.5295060919
 20
37.2042402352
 30
0.0
 10
29.5237930036
 20
37.1935833988
 30
0.0
 10
29.5212540416
 20
37.1877341638
 30
0.0
  0
SPLINE
  5
35A
100
AcDbEntity
  8
0
100
AcDbSpline
 62
7
  6
BYLAYER
 70
0
 71
3
 72
11
 73
7
 74
0
 42
0.0000001
 43
0.0000001
 44
0.0000000001
 40
0.0
 40
0.0
 40
0.0
 40
0.0
 40
0.1972930423
 40
0.4222702687
 40
0.6893939645
 40
1.0
 40
1.0
 40
1.0
 40
1.0
 10
30.1602973165
 20
37.2277341638
 30
0.0
 10
30.1563600425
 20
37.2277341638
 30
0.0
 10
30.147867468
 20
37.2255902549
 30
0.0
 10
30.136760032
 20
37.2170489161
 30
0.0
 10
30.1271732872
 20
37.2040411926
 30
0.0
 10
30.1222736285
 20
37.1935302316
 30
0.0
 10
30.1200762966
 20
37.1877341638
 30
0.0
  0
SPLINE
  5
35B
100
AcDbEntity
  8
0
100
AcDbSpline
 62
7
  6
BYLAYER
 70
0
 71
3
 72
11
 73
7
 74
0
 42
0.0000001
 43
0.0000001
 44
0.0000000001
 40
0.0
 40
0.0
 40
0.0
 40
0.0
 40
0.1819262829
 40
0.4009119665
 40
0.6736770101
 40
1.0
 40
1.0
 40
1.0
 40
1.0
 10
30.669869555
 20
37.2277341638
 30
0.0
 10
30.6665062353
 20
37.2277341638
 30
0.0
 10
30.6590572653
 20
37.2254289599
 30
0.0
 10
30.6497675705
 20
37.2167791113
 30
0.0
 10
30.6417456178
 20
37.2038345826
 30
0.0
 10
30.6376740254
 20
37.1934778595
 30
0.0
 10
30.6358287937
 20
37.1877341638
 30
0.0
  0
SPLINE
  5
35C
100
AcDbEntity
  8
0
100
AcDbSpline
 62
7
  6
BYLAYER
 70
0
 71
3
 72
12
 73
8
 74
0
 42
0.0000001
 43
0.0000001
 44
0.0000000001
 40
0.0
 40
0.0
 40
0.0
 40
0.0
 40
0.1624131996
 40
0.261102391
 40
0.3754930609
 40
0.6553605177
 40
1.0
 40
1.0
 40
1.0
 40
1.0
 10
31.0921877769
 20
37.2277341638
 30
0.0
 10
31.0894142382
 20
37.2277341638
 30
0.0
 10
31.0849538368
 20
37.2259583388
 30
0.0
 10
31.08019127
 20
37.2216643462
 30
0.0
 10
31.0749649085
 20
37.2150079044
 30
0.0
 10
31.0693224025
 20
37.2036119447
 30
0.0
 10
31.0660725006
 20
37.1934288617
 30
0.0
 10
31.0645863448
 20
37.1877341638
 30
0.0
  0
SPLINE
  5
35D
100
AcDbEntity
  8
0
100
AcDbSpline
 62
7
  6
BYLAYER
 70
0
 71
3
 72
12
 73
8
 74
0
 42
0.0000001
 43
0.0000001
 44
0.0000000001
 40
0.0
 40
0.0
 40
0.0
 40
0.0
 40
0.02952288
 40
0.0840075094
 40
0.2809435691
 40
0.591570352
 40
1.0
 40
1.0
 40
1.0
 40
1.0
 10
31.8069391816
 20
37.2277341638
 30
0.0
 10
31.8065336323
 20
37.2277341638
 30
0.0
 10
31.8055734862
 20
37.2267940885
 30
0.0
 10
31.8041851644
 20
37.2232991923
 30
0.0
 10
31.8025380151
 20
37.2156162155
 30
0.0
 10
31.8009526079
 20
37.2031951799
 30
0.0
 10
31.800104768
 20
37.1933309403
 30
0.0
 10
31.7997124815
 20
37.1877341638
 30
0.0
  0
SPLINE
  5
35E
100
AcDbEntity
  8
0
100
AcDbSpline
 62
7
  6
BYLAYER
 70
0
 71
3
 72
13
 73
9
 74
0
 42
0.0000001
 43
0.0000001
 44
0.0000000001
 40
0.0
 40
0.0
 40
0.0
 40
0.0
 40
0.0648215395
 40
0.1405374043
 40
0.2334301145
 40
0.3464377941
 40
0.6349290142
 40
1.0
 40
1.0
 40
1.0
 40
1.0
 10
31.4240378853
 20
37.2277341638
 30
0.0
 10
31.4230147092
 20
37.2277341638
 30
0.0
 10
31.4207837978
 20
37.2271802405
 30
0.0
 10
31.4177533818
 20
37.2249897214
 30
0.0
 10
31.4148723141
 20
37.2215671123
 30
0.0
 10
31.4108961568
 20
37.2148249076
 30
0.0
 10
31.4066417295
 20
37.2034224109
 30
0.0
 10
31.404208868
 20
37.1933861403
 30
0.0
 10
31.4030858461
 20
37.1877341638
 30
0.0
  0
SPLINE
  5
35F
100
AcDbEntity
  8
0
100
AcDbSpline
 62
7
  6
BYLAYER
 70
0
 71
3
 72
13
 73
9
 74
0
 42
0.0000001
 43
0.0000001
 44
0.0000000001
 40
0.0
 40
0.0
 40
0.0
 40
0.0
 40
0.1102360364
 40
0.1980254907
 40
0.3109454427
 40
0.4489807849
 40
0.6113128441
 40
1.0
 40
1.0
 40
1.0
 40
1.0
 10
31.6628943008
 20
37.2277341638
 30
0.0
 10
31.6612864039
 20
37.2277341638
 30
0.0
 10
31.6588092049
 20
37.2253515152
 30
0.0
 10
31.656710557
 20
37.2214851013
 30
0.0
 10
31.6548448046
 20
37.2168478583
 30
0.0
 10
31.6531184206
 20
37.2110845138
 30
0.0
 10
31.6508000928
 20
37.2012934715
 30
0.0
 10
31.6495090824
 20
37.1933526365
 30
0.0
 10
31.648751112
 20
37.1877341638
 30
0.0
  0
SPLINE
  5
360
100
AcDbEntity
  8
0
100
AcDbSpline
 62
7
  6
BYLAYER
 70
0
 71
3
 72
9
 73
5
 74
0
 42
0.0000001
 43
0.0000001
 44
0.0000000001
 40
0.0
 40
0.0
 40
0.0
 40
0.0
 40
0.4969229054
 40
1.0
 40
1.0
 40
1.0
 40
1.0
 10
15.9310125143
 20
37.2277341638
 30
0.0
 10
15.9161959679
 20
37.2277341638
 30
0.0
 10
15.8859433353
 20
37.2203748497
 30
0.0
 10
15.8625948288
 20
37.1998886466
 30
0.0
 10
15.8538045019
 20
37.1877341638
 30
0.0
  0
SPLINE
  5
361
100
AcDbEntity
  8
0
100
AcDbSpline
 62
7
  6
BYLAYER
 70
0
 71
3
 72
9
 73
5
 74
0
 42
0.0000001
 43
0.0000001
 44
0.0000000001
 40
0.0
 40
0.0
 40
0.0
 40
0.0
 40
0.5010000931
 40
1.0
 40
1.0
 40
1.0
 40
1.0
 10
16.7050740715
 20
40.6607182386
 30
0.0
 10
16.7050740715
 20
40.4313915188
 30
0.0
 10
16.7209974781
 20
39.973500271
 30
0.0
 10
16.7734286791
 20
39.5180487843
 30
0.0
 10
16.8109118099
 20
39.2927341768
 30
0.0
  0
SPLINE
  5
362
100
AcDbEntity
  8
0
100
AcDbSpline
 62
7
  6
BYLAYER
 70
0
 71
3
 72
11
 73
7
 74
0
 42
0.0000001
 43
0.0000001
 44
0.0000000001
 40
0.0
 40
0.0
 40
0.0
 40
0.0
 40
0.2572091967
 40
0.508869283
 40
0.7558169702
 40
1.0
 40
1.0
 40
1.0
 40
1.0
 10
24.6235914151
 20
37.1877341638
 30
0.0
 10
24.6194596924
 20
37.1938306096
 30
0.0
 10
24.6099020994
 20
37.2050252895
 30
0.0
 10
24.5922450975
 20
37.2178901362
 30
0.0
 10
24.5723113934
 20
37.2259037485
 30
0.0
 10
24.5581866489
 20
37.2277341638
 30
0.0
 10
24.5511949945
 20
37.2277341638
 30
0.0
  0
SPLINE
  5
363
100
AcDbEntity
  8
0
100
AcDbSpline
 62
7
  6
BYLAYER
 70
0
 71
3
 72
11
 73
7
 74
0
 42
0.0000001
 43
0.0000001
 44
0.0000000001
 40
0.0
 40
0.0
 40
0.0
 40
0.0
 40
0.2096999313
 40
0.4396854962
 40
0.7023060218
 40
1.0
 40
1.0
 40
1.0
 40
1.0
 10
8.8427988174
 20
37.2277341638
 30
0.0
 10
8.8383248084
 20
37.2277341638
 30
0.0
 10
8.8288673709
 20
37.2257014305
 30
0.0
 10
8.8161685696
 20
37.2172689118
 30
0.0
 10
8.8052126497
 20
37.2042317167
 30
0.0
 10
8.7996124641
 20
37.19357681
 30
0.0
 10
8.7971217598
 20
37.1877341638
 30
0.0
  0
SPLINE
  5
364
100
AcDbEntity
  8
0
100
AcDbSpline
 62
7
  6
BYLAYER
 70
0
 71
3
 72
11
 73
7
 74
0
 42
0.0000001
 43
0.0000001
 44
0.0000000001
 40
0.0
 40
0.0
 40
0.0
 40
0.0
 40
0.2608038012
 40
0.5132911729
 40
0.7587005624
 40
1.0
 40
1.0
 40
1.0
 40
1.0
 10
25.5992279956
 20
37.1877341638
 30
0.0
 10
25.5953022713
 20
37.1938003592
 30
0.0
 10
25.5862396251
 20
37.2049441839
 30
0.0
 10
25.5693806852
 20
37.2178401771
 30
0.0
 10
25.5503083686
 20
37.2258911359
 30
0.0
 10
25.5367592545
 20
37.2277341638
 30
0.0
 10
25.5300739776
 20
37.2277341638
 30
0.0
  0
SPLINE
  5
365
100
AcDbEntity
  8
0
100
AcDbSpline
 62
7
  6
BYLAYER
 70
0
 71
3
 72
9
 73
5
 74
0
 42
0.0000001
 43
0.0000001
 44
0.0000000001
 40
0.0
 40
0.0
 40
0.0
 40
0.0
 40
0.249990348
 40
1.0
 40
1.0
 40
1.0
 40
1.0
 10
10.0518287471
 20
43.5951355999
 30
0.0
 10
9.9687330151
 20
43.3506411955
 30
0.0
 10
9.6365082599
 20
42.3725677063
 30
0.0
 10
9.3047886425
 20
41.3943226509
 30
0.0
 10
9.056265559
 20
40.660538079
 30
0.0
  0
SPLINE
  5
366
100
AcDbEntity
  8
0
100
AcDbSpline
 62
7
  6
BYLAYER
 70
0
 71
3
 72
10
 73
6
 74
0
 42
0.0000001
 43
0.0000001
 44
0.0000000001
 40
0.0
 40
0.0
 40
0.0
 40
0.0
 40
0.238450565
 40
0.482795646
 40
1.0
 40
1.0
 40
1.0
 40
1.0
 10
11.9493308089
 20
37.2277341638
 30
0.0
 10
11.9430015059
 20
37.2277341638
 30
0.0
 10
11.9301134503
 20
37.2258657454
 30
0.0
 10
11.9056418972
 20
37.2149327177
 30
0.0
 10
11.8911082401
 20
37.1994455758
 30
0.0
 10
11.8839450287
 20
37.1877341638
 30
0.0
  0
SPLINE
  5
367
100
AcDbEntity
  8
0
100
AcDbSpline
 62
7
  6
BYLAYER
 70
0
 71
3
 72
9
 73
5
 74
0
 42
0.0000001
 43
0.0000001
 44
0.0000000001
 40
0.0
 40
0.0
 40
0.0
 40
0.0
 40
0.4986755807
 40
1.0
 40
1.0
 40
1.0
 40
1.0
 10
17.0084241785
 20
37.2277341638
 30
0.0
 10
16.993331879
 20
37.2277341638
 30
0.0
 10
16.9626332539
 20
37.2204450429
 30
0.0
 10
16.9386916051
 20
37.1999433622
 30
0.0
 10
16.9296838753
 20
37.1877341638
 30
0.0
  0
SPLINE
  5
368
100
AcDbEntity
  8
0
100
AcDbSpline
 62
7
  6
BYLAYER
 70
0
 71
3
 72
10
 73
6
 74
0
 42
0.0000001
 43
0.0000001
 44
0.0000000001
 40
0.0
 40
0.0
 40
0.0
 40
0.0
 40
0.5172069556
 40
0.7615508398
 40
1.0
 40
1.0
 40
1.0
 40
1.0
 10
26.5262012034
 20
37.1877341638
 30
0.0
 10
26.5190379954
 20
37.1994455702
 30
0.0
 10
26.5045043841
 20
37.214932619
 30
0.0
 10
26.4800330442
 20
37.2258657501
 30
0.0
 10
26.4671451226
 20
37.2277341638
 30
0.0
 10
26.4608158919
 20
37.2277341638
 30
0.0
  0
LINE
  5
369
100
AcDbEntity
  8
0
100
AcDbLine
 62
7
  6
BYLAYER
 10
18.0228803475
 20
37.1877341638
 11
17.6301389219
 21
36.7927341638
  0
SPLINE
  5
36A
100
AcDbEntity
  8
0
100
AcDbSpline
 62
7
  6
BYLAYER
 70
0
 71
3
 72
9
 73
5
 74
0
 42
0.0000001
 43
0.0000001
 44
0.0000000001
 40
0.0
 40
0.0
 40
0.0
 40
0.0
 40
0.4353747443
 40
1.0
 40
1.0
 40
1.0
 40
1.0
 10
7.3179602542
 20
37.2277341638
 30
0.0
 10
7.3152546469
 20
37.2277341638
 30
0.0
 10
7.3090658631
 20
37.2252955889
 30
0.0
 10
7.3049864756
 20
37.2204289216
 30
0.0
 10
7.302988838
 20
37.2175442547
 30
0.0
  0
SPLINE
  5
36B
100
AcDbEntity
  8
0
100
AcDbSpline
 62
7
  6
BYLAYER
 70
0
 71
3
 72
9
 73
5
 74
0
 42
0.0000001
 43
0.0000001
 44
0.0000000001
 40
0.0
 40
0.0
 40
0.0
 40
0.0
 40
0.4464531785
 40
1.0
 40
1.0
 40
1.0
 40
1.0
 10
7.302988838
 20
37.2175442547
 30
0.0
 10
7.3002514752
 20
37.2135913957
 30
0.0
 10
7.29546601
 20
37.2038284146
 30
0.0
 10
7.292295537
 20
37.1935148625
 30
0.0
 10
7.2908384635
 20
37.1877341638
 30
0.0
  0
SPLINE
  5
36C
100
AcDbEntity
  8
0
100
AcDbSpline
 62
7
  6
BYLAYER
 70
0
 71
3
 72
11
 73
7
 74
0
 42
0.0000001
 43
0.0000001
 44
0.0000000001
 40
0.0
 40
0.0
 40
0.0
 40
0.0
 40
0.2710782152
 40
0.5260911448
 40
0.7671308207
 40
1.0
 40
1.0
 40
1.0
 40
1.0
 10
27.3974562127
 20
37.1877341638
 30
0.0
 10
27.3940331706
 20
37.1937238986
 30
0.0
 10
27.3861836217
 20
37.2047236349
 30
0.0
 10
27.3713200361
 20
37.2176911262
 30
0.0
 10
27.3543953388
 20
37.2258501974
 30
0.0
 10
27.3422636726
 20
37.2277341638
 30
0.0
 10
27.3363372293
 20
37.2277341638
 30
0.0
  0
SPLINE
  5
36D
100
AcDbEntity
  8
0
100
AcDbSpline
 62
7
  6
BYLAYER
 70
0
 71
3
 72
12
 73
8
 74
0
 42
0.0000001
 43
0.0000001
 44
0.0000000001
 40
0.0
 40
0.0
 40
0.0
 40
0.0
 40
0.1132272461
 40
0.2008487928
 40
0.3130285751
 40
0.6110901184
 40
1.0
 40
1.0
 40
1.0
 40
1.0
 10
6.7472537303
 20
37.2277341638
 30
0.0
 10
6.7458043666
 20
37.2277341638
 30
0.0
 10
6.7435331429
 20
37.2257364943
 30
0.0
 10
6.7415910212
 20
37.2223453149
 30
0.0
 10
6.7390867936
 20
37.2164195693
 30
0.0
 10
6.7365171571
 20
37.2065123256
 30
0.0
 10
6.735019055
 20
37.1978350824
 30
0.0
 10
6.7343093491
 20
37.1929076952
 30
0.0
  0
SPLINE
  5
36E
100
AcDbEntity
  8
0
100
AcDbSpline
 62
7
  6
BYLAYER
 70
0
 71
3
 72
9
 73
5
 74
0
 42
0.0000001
 43
0.0000001
 44
0.0000000001
 40
0.0
 40
0.0
 40
0.0
 40
0.0
 40
0.5019068306
 40
1.0
 40
1.0
 40
1.0
 40
1.0
 10
8.5240411818
 20
39.2927341768
 30
0.0
 10
8.6241160434
 20
39.5170681108
 30
0.0
 10
8.8114573297
 20
39.9694663293
 30
0.0
 10
8.9780649587
 20
40.4298248573
 30
0.0
 10
9.056265559
 20
40.6607184756
 30
0.0
  0
SPLINE
  5
36F
100
AcDbEntity
  8
0
100
AcDbSpline
 62
7
  6
BYLAYER
 70
0
 71
3
 72
11
 73
7
 74
0
 42
0.0000001
 43
0.0000001
 44
0.0000000001
 40
0.0
 40
0.0
 40
0.0
 40
0.0
 40
0.2193096663
 40
0.4537091625
 40
0.7130696771
 40
1.0
 40
1.0
 40
1.0
 40
1.0
 10
9.5146100913
 20
37.2277341638
 30
0.0
 10
9.5096153513
 20
37.2277341638
 30
0.0
 10
9.4992054161
 20
37.2257701907
 30
0.0
 10
9.4849661034
 20
37.2174451123
 30
0.0
 10
9.4725959028
 20
37.2044167944
 30
0.0
 10
9.4662030003
 20
37.1936289691
 30
0.0
 10
9.4633825862
 20
37.1877341638
 30
0.0
  0
SPLINE
  5
370
100
AcDbEntity
  8
0
100
AcDbSpline
 62
7
  6
BYLAYER
 70
0
 71
3
 72
12
 73
8
 74
0
 42
0.0000001
 43
0.0000001
 44
0.0000000001
 40
0.0
 40
0.0
 40
0.0
 40
0.0
 40
0.2615768525
 40
0.5158328618
 40
0.6398102558
 40
0.7617830577
 40
1.0
 40
1.0
 40
1.0
 40
1.0
 10
10.0518287471
 20
43.5951355999
 30
0.0
 10
10.0593007598
 20
43.6176934712
 30
0.0
 10
10.0791449542
 20
43.6606328203
 30
0.0
 10
10.1147306587
 20
43.707246805
 30
0.0
 10
10.1484342184
 20
43.7379034198
 30
0.0
 10
10.1846062077
 20
43.7630856194
 30
0.0
 10
10.2149395943
 20
43.7765261238
 30
0.0
 10
10.2356710725
 20
43.7827341638
 30
0.0
  0
SPLINE
  5
371
100
AcDbEntity
  8
0
100
AcDbSpline
 62
7
  6
BYLAYER
 70
0
 71
3
 72
11
 73
7
 74
0
 42
0.0000001
 43
0.0000001
 44
0.0000000001
 40
0.0
 40
0.0
 40
0.0
 40
0.0
 40
0.2781722849
 40
0.5350641383
 40
0.7731143954
 40
1.0
 40
1.0
 40
1.0
 40
1.0
 10
28.2063622468
 20
37.1877341638
 30
0.0
 10
28.2032297774
 20
37.1936783941
 30
0.0
 10
28.1960830384
 20
37.2045812771
 30
0.0
 10
28.1824071036
 20
37.2175832345
 30
0.0
 10
28.1667594881
 20
37.2258171876
 30
0.0
 10
28.155455038
 20
37.2277341638
 30
0.0
 10
28.1499747439
 20
37.2277341638
 30
0.0
  0
SPLINE
  5
372
100
AcDbEntity
  8
0
100
AcDbSpline
 62
7
  6
BYLAYER
 70
0
 71
3
 72
11
 73
7
 74
0
 42
0.0000001
 43
0.0000001
 44
0.0000000001
 40
0.0
 40
0.0
 40
0.0
 40
0.0
 40
0.241300583
 40
0.4867109688
 40
0.7391975062
 40
1.0
 40
1.0
 40
1.0
 40
1.0
 10
12.8800728938
 20
37.2277341638
 30
0.0
 10
12.8733875539
 20
37.2277341638
 30
0.0
 10
12.8598383217
 20
37.2258911314
 30
0.0
 10
12.8407658385
 20
37.2178402219
 30
0.0
 10
12.8239068294
 20
37.2049441956
 30
0.0
 10
12.8148441903
 20
37.1938003572
 30
0.0
 10
12.8109184673
 20
37.1877341638
 30
0.0
  0
SPLINE
  5
373
100
AcDbEntity
  8
0
100
AcDbSpline
 62
7
  6
BYLAYER
 70
0
 71
3
 72
12
 73
8
 74
0
 42
0.0000001
 43
0.0000001
 44
0.0000000001
 40
0.0
 40
0.0
 40
0.0
 40
0.0
 40
0.2382169273
 40
0.360189719
 40
0.4841671107
 40
0.7384231315
 40
1.0
 40
1.0
 40
1.0
 40
1.0
 10
28.1744769566
 20
43.7827341638
 30
0.0
 10
28.1952084336
 20
43.7765261241
 30
0.0
 10
28.22554182
 20
43.7630856242
 30
0.0
 10
28.2617138062
 20
43.737903424
 30
0.0
 10
28.2954173687
 20
43.7072468125
 30
0.0
 10
28.3310030816
 20
43.6606328296
 30
0.0
 10
28.3508472702
 20
43.6176934745
 30
0.0
 10
28.3583192835
 20
43.5951356016
 30
0.0
  0
SPLINE
  5
374
100
AcDbEntity
  8
0
100
AcDbSpline
 62
7
  6
BYLAYER
 70
0
 71
3
 72
11
 73
7
 74
0
 42
0.0000001
 43
0.0000001
 44
0.0000000001
 40
0.0
 40
0.0
 40
0.0
 40
0.0
 40
0.2869328664
 40
0.5462949954
 40
0.7806926947
 40
1.0
 40
1.0
 40
1.0
 40
1.0
 10
28.9467630423
 20
37.1877341638
 30
0.0
 10
28.9439426269
 20
37.1936289718
 30
0.0
 10
28.9375497088
 20
37.2044167801
 30
0.0
 10
28.9251795985
 20
37.2174450264
 30
0.0
 10
28.910940569
 20
37.2257701913
 30
0.0
 10
28.9005308071
 20
37.2277341638
 30
0.0
 10
28.8955361629
 20
37.2277341638
 30
0.0
  0
LINE
  5
375
100
AcDbEntity
  8
0
100
AcDbLine
 62
7
  6
BYLAYER
 10
20.7800091328
 20
36.79273414
 11
20.3872676837
 21
37.1877341638
  0
SPLINE
  5
376
100
AcDbEntity
  8
0
100
AcDbSpline
 62
7
  6
BYLAYER
 70
0
 71
3
 72
11
 73
7
 74
0
 42
0.0000001
 43
0.0000001
 44
0.0000000001
 40
0.0
 40
0.0
 40
0.0
 40
0.0
 40
0.2441839534
 40
0.491132458
 40
0.7427918657
 40
1.0
 40
1.0
 40
1.0
 40
1.0
 10
13.8589520564
 20
37.2277341638
 30
0.0
 10
13.8519603487
 20
37.2277341638
 30
0.0
 10
13.8378355038
 20
37.2259037444
 30
0.0
 10
13.8179016606
 20
37.2178901726
 30
0.0
 10
13.8002445995
 20
37.2050252995
 30
0.0
 10
13.790687012
 20
37.1938306078
 30
0.0
 10
13.7865552905
 20
37.1877341638
 30
0.0
  0
SPLINE
  5
377
100
AcDbEntity
  8
0
100
AcDbSpline
 62
7
  6
BYLAYER
 70
0
 71
3
 72
11
 73
7
 74
0
 42
0.0000001
 43
0.0000001
 44
0.0000000001
 40
0.0
 40
0.0
 40
0.0
 40
0.0
 40
0.2268875925
 40
0.4649394354
 40
0.7218299002
 40
1.0
 40
1.0
 40
1.0
 40
1.0
 10
10.260171647
 20
37.2277341638
 30
0.0
 10
10.2546912643
 20
37.2277341638
 30
0.0
 10
10.2433866518
 20
37.2258171844
 30
0.0
 10
10.2277387842
 20
37.2175833089
 30
0.0
 10
10.2140627603
 20
37.2045812917
 30
0.0
 10
10.2069160346
 20
37.1936783914
 30
0.0
 10
10.2037835666
 20
37.1877341638
 30
0.0
  0
SPLINE
  5
378
100
AcDbEntity
  8
0
100
AcDbSpline
 62
7
  6
BYLAYER
 70
0
 71
3
 72
11
 73
7
 74
0
 42
0.0000001
 43
0.0000001
 44
0.0000000001
 40
0.0
 40
0.0
 40
0.0
 40
0.0
 40
0.2976969202
 40
0.5603193129
 40
0.7903028727
 40
1.0
 40
1.0
 40
1.0
 40
1.0
 10
29.6130237022
 20
37.1877341638
 30
0.0
 10
29.6105329967
 20
37.1935768128
 30
0.0
 10
29.6049327933
 20
37.2042317039
 30
0.0
 10
29.5939769601
 20
37.2172688136
 30
0.0
 10
29.5812784756
 20
37.2257014264
 30
0.0
 10
29.5718212206
 20
37.2277341638
 30
0.0
 10
29.5673473136
 20
37.2277341638
 30
0.0
  0
SPLINE
  5
379
100
AcDbEntity
  8
0
100
AcDbSpline
 62
7
  6
BYLAYER
 70
0
 71
3
 72
11
 73
7
 74
0
 42
0.0000001
 43
0.0000001
 44
0.0000000001
 40
0.0
 40
0.0
 40
0.0
 40
0.0
 40
0.3486120534
 40
0.4820223816
 40
0.6353906361
 40
1.0
 40
1.0
 40
1.0
 40
1.0
 10
6.9861101457
 20
37.2277341638
 30
0.0
 10
6.98198363
 20
37.2277341638
 30
0.0
 10
6.977291736
 20
37.2223359904
 30
0.0
 10
6.9738872035
 20
37.2158683349
 30
0.0
 10
6.9708505661
 20
37.2087073005
 30
0.0
 10
6.9691180168
 20
37.2028316609
 30
0.0
 10
6.9680531425
 20
37.1986492184
 30
0.0
  0
LINE
  5
37A
100
AcDbEntity
  8
0
100
AcDbLine
 62
7
  6
BYLAYER
 10
6.9680531425
 20
37.1986492184
 11
6.9656511379
 21
37.1877341638
  0
SPLINE
  5
37B
100
AcDbEntity
  8
0
100
AcDbSpline
 62
7
  6
BYLAYER
 70
0
 71
3
 72
9
 73
5
 74
0
 42
0.0000001
 43
0.0000001
 44
0.0000000001
 40
0.0
 40
0.0
 40
0.0
 40
0.0
 40
0.5013251032
 40
1.0
 40
1.0
 40
1.0
 40
1.0
 10
21.4804636112
 20
37.1877341638
 30
0.0
 10
21.4714558826
 20
37.1999433606
 30
0.0
 10
21.4475142738
 20
37.2204450063
 30
0.0
 10
21.4168157061
 20
37.2277341638
 30
0.0
 10
21.4017234499
 20
37.2277341638
 30
0.0
  0
SPLINE
  5
37C
100
AcDbEntity
  8
0
100
AcDbSpline
 62
7
  6
BYLAYER
 70
0
 71
3
 72
11
 73
7
 74
0
 42
0.0000001
 43
0.0000001
 44
0.0000000001
 40
0.0
 40
0.0
 40
0.0
 40
0.0
 40
0.182002043
 40
0.4006793986
 40
0.6733076811
 40
1.0
 40
1.0
 40
1.0
 40
1.0
 10
7.740278476
 20
37.2277341638
 30
0.0
 10
7.7369296169
 20
37.2277341638
 30
0.0
 10
7.7295161638
 20
37.2254357474
 30
0.0
 10
7.720320286
 20
37.2167733091
 30
0.0
 10
7.7124446858
 20
37.203822829
 30
0.0
 10
7.7084941635
 20
37.1934714421
 30
0.0
 10
7.7067003156
 20
37.1877341638
 30
0.0
  0
SPLINE
  5
37D
100
AcDbEntity
  8
0
100
AcDbSpline
 62
7
  6
BYLAYER
 70
0
 71
3
 72
11
 73
7
 74
0
 42
0.0000001
 43
0.0000001
 44
0.0000000001
 40
0.0
 40
0.0
 40
0.0
 40
0.0
 40
0.3108352444
 40
0.5777711859
 40
0.8025080407
 40
1.0
 40
1.0
 40
1.0
 40
1.0
 10
30.2000735804
 20
37.1877341638
 30
0.0
 10
30.1979263289
 20
37.1935235788
 30
0.0
 10
30.1931444621
 20
37.2040307355
 30
0.0
 10
30.1836956972
 20
37.217046584
 30
0.0
 10
30.17267485
 20
37.225597618
 30
0.0
 10
30.164218515
 20
37.2277341638
 30
0.0
 10
30.1602953077
 20
37.2277341638
 30
0.0
  0
SPLINE
  5
37E
100
AcDbEntity
  8
0
100
AcDbSpline
 62
7
  6
BYLAYER
 70
0
 71
3
 72
9
 73
5
 74
0
 42
0.0000001
 43
0.0000001
 44
0.0000000001
 40
0.0
 40
0.0
 40
0.0
 40
0.0
 40
0.4980931731
 40
1.0
 40
1.0
 40
1.0
 40
1.0
 10
29.3538824718
 20
40.6607184768
 30
0.0
 10
29.4320830727
 20
40.4298248566
 30
0.0
 10
29.5986907006
 20
39.9694663277
 30
0.0
 10
29.7860319884
 20
39.5170681094
 30
0.0
 10
29.8861068493
 20
39.2927341768
 30
0.0
  0
SPLINE
  5
37F
100
AcDbEntity
  8
0
100
AcDbSpline
 62
7
  6
BYLAYER
 70
0
 71
3
 72
9
 73
5
 74
0
 42
0.0000001
 43
0.0000001
 44
0.0000000001
 40
0.0
 40
0.0
 40
0.0
 40
0.0
 40
0.5030781295
 40
1.0
 40
1.0
 40
1.0
 40
1.0
 10
22.5563427175
 20
37.1877341638
 30
0.0
 10
22.5475523924
 20
37.1998886441
 30
0.0
 10
22.5242039449
 20
37.220374794
 30
0.0
 10
22.4939513985
 20
37.2277341638
 30
0.0
 10
22.4791349165
 20
37.2277341638
 30
0.0
  0
SPLINE
  5
380
100
AcDbEntity
  8
0
100
AcDbSpline
 62
7
  6
BYLAYER
 70
0
 71
3
 72
11
 73
7
 74
0
 42
0.0000001
 43
0.0000001
 44
0.0000000001
 40
0.0
 40
0.0
 40
0.0
 40
0.0
 40
0.3266961581
 40
0.5993268907
 40
0.8180019249
 40
1.0
 40
1.0
 40
1.0
 40
1.0
 10
30.703444873
 20
37.1877341638
 30
0.0
 10
30.7016510243
 20
37.1934714446
 30
0.0
 10
30.6977004835
 20
37.2038228231
 30
0.0
 10
30.6898249387
 20
37.2167731886
 30
0.0
 10
30.6806294572
 20
37.2254357203
 30
0.0
 10
30.673216201
 20
37.2277341638
 30
0.0
 10
30.6698674528
 20
37.2277341638
 30
0.0
  0
SPLINE
  5
381
100
AcDbEntity
  8
0
100
AcDbSpline
 62
7
  6
BYLAYER
 70
0
 71
3
 72
9
 73
5
 74
0
 42
0.0000001
 43
0.0000001
 44
0.0000000001
 40
0.0
 40
0.0
 40
0.0
 40
0.0
 40
0.4943552404
 40
1.0
 40
1.0
 40
1.0
 40
1.0
 10
14.8785184352
 20
37.2277341638
 30
0.0
 10
14.8640835933
 20
37.2277341638
 30
0.0
 10
14.834447649
 20
37.2202699799
 30
0.0
 10
14.811922684
 20
37.1998118187
 30
0.0
 10
14.803430313
 20
37.1877341638
 30
0.0
  0
SPLINE
  5
382
100
AcDbEntity
  8
0
100
AcDbSpline
 62
7
  6
BYLAYER
 70
0
 71
3
 72
13
 73
9
 74
0
 42
0.0000001
 43
0.0000001
 44
0.0000000001
 40
0.0
 40
0.0
 40
0.0
 40
0.0
 40
0.344502984
 40
0.6237799688
 40
0.7378132323
 40
0.836090629
 40
0.9217243489
 40
1.0
 40
1.0
 40
1.0
 40
1.0
 10
31.1193066204
 20
37.1877341638
 30
0.0
 10
31.1178726899
 20
37.1934230466
 30
0.0
 10
31.1147491394
 20
37.2035986821
 30
0.0
 10
31.1092283751
 20
37.2150043116
 30
0.0
 10
31.1040995619
 20
37.2216614267
 30
0.0
 10
31.1003061089
 20
37.2250861712
 30
0.0
 10
31.0963265336
 20
37.2272274303
 30
0.0
 10
31.0935186159
 20
37.2277341638
 30
0.0
 10
31.0921855972
 20
37.2277341638
 30
0.0
  0
SPLINE
  5
383
100
AcDbEntity
  8
0
100
AcDbSpline
 62
7
  6
BYLAYER
 70
0
 71
3
 72
11
 73
7
 74
0
 42
0.0000001
 43
0.0000001
 44
0.0000000001
 40
0.0
 40
0.0
 40
0.0
 40
0.0
 40
0.1974952938
 40
0.4222343409
 40
0.6891681347
 40
1.0
 40
1.0
 40
1.0
 40
1.0
 10
8.2498507146
 20
37.2277341638
 30
0.0
 10
8.2459274001
 20
37.2277341638
 30
0.0
 10
8.2374708752
 20
37.2255976305
 30
0.0
 10
8.2264496737
 20
37.2170466943
 30
0.0
 10
8.2170008328
 20
37.2040307456
 30
0.0
 10
8.2122189851
 20
37.1935235762
 30
0.0
 10
8.2100717345
 20
37.1877341638
 30
0.0
  0
SPLINE
  5
384
100
AcDbEntity
  8
0
100
AcDbSpline
 62
7
  6
BYLAYER
 70
0
 71
3
 72
9
 73
5
 74
0
 42
0.0000001
 43
0.0000001
 44
0.0000000001
 40
0.0
 40
0.0
 40
0.0
 40
0.0
 40
0.2500092456
 40
1.0
 40
1.0
 40
1.0
 40
1.0
 10
29.3538824718
 20
40.6605380802
 30
0.0
 10
29.2710394466
 20
40.9051388349
 30
0.0
 10
28.9395461112
 20
41.8834604485
 30
0.0
 10
28.6076130305
 20
42.861633113
 30
0.0
 10
28.3583192835
 20
43.5951356016
 30
0.0
  0
SPLINE
  5
385
100
AcDbEntity
  8
0
100
AcDbSpline
 62
7
  6
BYLAYER
 70
0
 71
3
 72
9
 73
5
 74
0
 42
0.0000001
 43
0.0000001
 44
0.0000000001
 40
0.0
 40
0.0
 40
0.0
 40
0.0
 40
0.5056461603
 40
1.0
 40
1.0
 40
1.0
 40
1.0
 10
23.6067166454
 20
37.1877341638
 30
0.0
 10
23.5982242767
 20
37.1998118153
 30
0.0
 10
23.5756993887
 20
37.2202699042
 30
0.0
 10
23.5460635596
 20
37.2277341638
 30
0.0
 10
23.5316288027
 20
37.2277341638
 30
0.0
  0
SPLINE
  5
386
100
AcDbEntity
  8
0
100
AcDbSpline
 62
7
  6
BYLAYER
 70
0
 71
3
 72
10
 73
6
 74
0
 42
0.0000001
 43
0.0000001
 44
0.0000000001
 40
0.0
 40
0.0
 40
0.0
 40
0.0
 40
0.6069094413
 40
0.8328310167
 40
1.0
 40
1.0
 40
1.0
 40
1.0
 10
31.8136542759
 20
37.1877341638
 30
0.0
 10
31.8132191188
 20
37.1949099886
 30
0.0
 10
31.8124973678
 20
37.2047577618
 30
0.0
 10
31.8109344111
 20
37.2164999543
 30
0.0
 10
31.8100563319
 20
37.2210811492
 30
0.0
 10
31.8095471042
 20
37.2229947136
 30
0.0
  0
SPLINE
  5
387
100
AcDbEntity
  8
0
100
AcDbSpline
 62
7
  6
BYLAYER
 70
0
 71
3
 72
12
 73
8
 74
0
 42
0.0000001
 43
0.0000001
 44
0.0000000001
 40
0.0
 40
0.0
 40
0.0
 40
0.0
 40
0.0293081368
 40
0.0835253622
 40
0.2802777191
 40
0.5910668825
 40
1.0
 40
1.0
 40
1.0
 40
1.0
 10
6.6032088495
 20
37.2277341638
 30
0.0
 10
6.6028071234
 20
37.2277341638
 30
0.0
 10
6.6018581753
 20
37.2267920266
 30
0.0
 10
6.6005378134
 20
37.2232889231
 30
0.0
 10
6.5989803007
 20
37.2156116361
 30
0.0
 10
6.5975573262
 20
37.2031895212
 30
0.0
 10
6.596829921
 20
37.1933291249
 30
0.0
 10
6.5964906308
 20
37.1877341638
 30
0.0
  0
SPLINE
  5
388
100
AcDbEntity
  8
0
100
AcDbSpline
 62
7
  6
BYLAYER
 70
0
 71
3
 72
9
 73
5
 74
0
 42
0.0000001
 43
0.0000001
 44
0.0000000001
 40
0.0
 40
0.0
 40
0.0
 40
0.0
 40
0.4989999104
 40
1.0
 40
1.0
 40
1.0
 40
1.0
 10
21.5992362466
 20
39.2927341768
 30
0.0
 10
21.636719389
 20
39.5180488243
 30
0.0
 10
21.6891506048
 20
39.9735003899
 30
0.0
 10
21.7050740156
 20
40.4313917175
 30
0.0
 10
21.7050740156
 20
40.6607184756
 30
0.0
  0
SPLINE
  5
389
100
AcDbEntity
  8
0
100
AcDbSpline
 62
7
  6
BYLAYER
 70
0
 71
3
 72
10
 73
6
 74
0
 42
0.0000001
 43
0.0000001
 44
0.0000000001
 40
0.0
 40
0.0
 40
0.0
 40
0.0
 40
0.599433481
 40
0.8265752325
 40
1.0
 40
1.0
 40
1.0
 40
1.0
 10
31.6765317316
 20
37.1877341638
 30
0.0
 10
31.6756260304
 20
37.1949471462
 30
0.0
 10
31.6740959718
 20
37.2048872056
 30
0.0
 10
31.670914955
 20
37.216595619
 30
0.0
 10
31.669129615
 20
37.2211421436
 30
0.0
 10
31.6681338925
 20
37.2229947136
 30
0.0
  0
SPLINE
  5
38A
100
AcDbEntity
  8
0
100
AcDbSpline
 62
7
  6
BYLAYER
 70
0
 71
3
 72
9
 73
5
 74
0
 42
0.0000001
 43
0.0000001
 44
0.0000000001
 40
0.0
 40
0.0
 40
0.0
 40
0.0
 40
0.336543528
 40
1.0
 40
1.0
 40
1.0
 40
1.0
 10
31.6681338925
 20
37.2229947136
 30
0.0
 10
31.6677510161
 20
37.2237070659
 30
0.0
 10
31.6665731231
 20
37.2257077462
 30
0.0
 10
31.6644863286
 20
37.2277341638
 30
0.0
 10
31.6628920164
 20
37.2277341638
 30
0.0
  0
SPLINE
  5
38B
100
AcDbEntity
  8
0
100
AcDbSpline
 62
7
  6
BYLAYER
 70
0
 71
3
 72
11
 73
7
 74
0
 42
0.0000001
 43
0.0000001
 44
0.0000000001
 40
0.0
 40
0.0
 40
0.0
 40
0.0
 40
0.3506883278
 40
0.6366737026
 40
0.8509471037
 40
1.0
 40
1.0
 40
1.0
 40
1.0
 10
31.4444938637
 20
37.1877341638
 30
0.0
 10
31.4435221001
 20
37.1928613075
 30
0.0
 10
31.4414375819
 20
37.2021125445
 30
0.0
 10
31.4372951017
 20
37.2141372881
 30
0.0
 10
31.4327267805
 20
37.2226628487
 30
0.0
 10
31.4285303364
 20
37.2265318039
 30
0.0
 10
31.4264472375
 20
37.2272934794
 30
0.0
  0
SPLINE
  5
38C
100
AcDbEntity
  8
0
100
AcDbSpline
 62
7
  6
BYLAYER
 70
0
 71
3
 72
8
 73
4
 74
0
 42
0.0000001
 43
0.0000001
 44
0.0000000001
 40
0.0
 40
0.0
 40
0.0
 40
0.0
 40
1.0
 40
1.0
 40
1.0
 40
1.0
 10
31.4264472375
 20
37.2272934794
 30
0.0
 10
31.4256797578
 20
37.2275741048
 30
0.0
 10
31.4248528203
 20
37.2277341638
 30
0.0
 10
31.4240356448
 20
37.2277341638
 30
0.0
  0
SPLINE
  5
38D
100
AcDbEntity
  8
0
100
AcDbSpline
 62
7
  6
BYLAYER
 70
0
 71
3
 72
11
 73
7
 74
0
 42
0.0000001
 43
0.0000001
 44
0.0000000001
 40
0.0
 40
0.0
 40
0.0
 40
0.0
 40
0.2328708483
 40
0.4739119046
 40
0.7289236485
 40
1.0
 40
1.0
 40
1.0
 40
1.0
 10
11.0738093109
 20
37.2277341638
 30
0.0
 10
11.0678827868
 20
37.2277341638
 30
0.0
 10
11.0557509713
 20
37.2258501931
 30
0.0
 10
11.0388260512
 20
37.2176911899
 30
0.0
 10
11.0239623809
 20
37.204723649
 30
0.0
 10
11.016112843
 20
37.1937238961
 30
0.0
 10
11.0126898023
 20
37.1877341638
 30
0.0
  0
LINE
  5
38E
100
AcDbEntity
  8
0
100
AcDbLine
 62
7
  6
BYLAYER
 10
20.4085777658
 20
4.0254685237
 11
20.4170106905
 21
4.0254198405
  0
SPLINE
  5
38F
100
AcDbEntity
  8
0
100
AcDbSpline
 62
7
  6
BYLAYER
 70
0
 71
3
 72
18
 73
14
 74
0
 42
0.0000001
 43
0.0000001
 44
0.0000000001
 40
0.0
 40
0.0
 40
0.0
 40
0.0
 40
0.2332678539
 40
0.4358598366
 40
0.6076452336
 40
0.7484935205
 40
0.8582745805
 40
0.9014745425
 40
0.936859511
 40
0.9644139935
 40
0.9841235559
 40
0.9959776362
 40
1.0
 40
1.0
 40
1.0
 40
1.0
 10
20.4170106905
 20
4.0254198405
 30
0.0
 10
20.4199708194
 20
4.0254018032
 30
0.0
 10
20.4255018428
 20
4.0253661111
 30
0.0
 10
20.4332124998
 20
4.0253084047
 30
0.0
 10
20.4397510276
 20
4.0252511448
 30
0.0
 10
20.4451097195
 20
4.0251926493
 30
0.0
 10
20.4488414795
 20
4.0251443174
 30
0.0
 10
20.4512263221
 20
4.025098733
 30
0.0
 10
20.4525837815
 20
4.0250768522
 30
0.0
 10
20.4536041728
 20
4.0250301722
 30
0.0
 10
20.4544174763
 20
4.0250437274
 30
0.0
 10
20.4547564337
 20
4.0249459334
 30
0.0
 10
20.4550740161
 20
4.0250007123
 30
0.0
 10
20.4550740161
 20
4.0249496682
 30
0.0
  0
LINE
  5
390
100
AcDbEntity
  8
0
100
AcDbLine
 62
7
  6
BYLAYER
 10
17.9550740156
 20
4.0249856456
 11
17.9694069461
 21
4.0252745032
  0
SPLINE
  5
391
100
AcDbEntity
  8
0
100
AcDbSpline
 62
7
  6
BYLAYER
 70
0
 71
3
 72
15
 73
11
 74
0
 42
0.0000001
 43
0.0000001
 44
0.0000000001
 40
0.0
 40
0.0
 40
0.0
 40
0.0
 40
0.1250117117
 40
0.250032747
 40
0.3437502856
 40
0.4374859441
 40
0.6250097773
 40
0.7187232948
 40
0.8124718768
 40
1.0
 40
1.0
 40
1.0
 40
1.0
 10
29.0919363829
 20
46.0117341343
 30
0.0
 10
29.0915682098
 20
46.0231508382
 30
0.0
 10
29.0903143705
 20
46.0459661262
 30
0.0
 10
29.0883112909
 20
46.0773106526
 30
0.0
 10
29.0872269403
 20
46.1058478389
 30
0.0
 10
29.0872315751
 20
46.1401143323
 30
0.0
 10
29.0879832473
 20
46.174374983
 30
0.0
 10
29.0870917686
 20
46.2086353005
 30
0.0
 10
29.0851771236
 20
46.2428458807
 30
0.0
 10
29.0834930233
 20
46.2684972508
 30
0.0
 10
29.0829188055
 20
46.2856225495
 30
0.0
  0
SPLINE
  5
392
100
AcDbEntity
  8
0
100
AcDbSpline
 62
7
  6
BYLAYER
 70
0
 71
3
 72
15
 73
11
 74
0
 42
0.0000001
 43
0.0000001
 44
0.0000000001
 40
0.0
 40
0.0
 40
0.0
 40
0.0
 40
0.125012945
 40
0.2500344954
 40
0.343753621
 40
0.4374878504
 40
0.6250133949
 40
0.7187262596
 40
0.8124734808
 40
1.0
 40
1.0
 40
1.0
 40
1.0
 10
9.3272218318
 20
46.2856081299
 30
0.0
 10
9.3268390573
 20
46.2741924036
 30
0.0
 10
9.3255828574
 20
46.2513786645
 30
0.0
 10
9.3235994196
 20
46.2200343144
 30
0.0
 10
9.3224872145
 20
46.1915000244
 30
0.0
 10
9.3224537164
 20
46.1572348385
 30
0.0
 10
9.323217232
 20
46.1229769698
 30
0.0
 10
9.3223838737
 20
46.0887168897
 30
0.0
 10
9.3204639971
 20
46.0545085002
 30
0.0
 10
9.3187663476
 20
46.0288590936
 30
0.0
 10
9.3182140962
 20
46.0117341343
 30
0.0
  0
SPLINE
  5
393
100
AcDbEntity
  8
0
100
AcDbSpline
 62
7
  6
BYLAYER
 70
0
 71
3
 72
15
 73
11
 74
0
 42
0.0000001
 43
0.0000001
 44
0.0000000001
 40
0.0
 40
0.0
 40
0.0
 40
0.0
 40
0.1250129402
 40
0.2500347812
 40
0.343754148
 40
0.4374879603
 40
0.6250135042
 40
0.718726377
 40
0.8124734912
 40
1.0
 40
1.0
 40
1.0
 40
1.0
 10
29.0829187298
 20
46.2856226807
 30
0.0
 10
29.0833015244
 20
46.2742063386
 30
0.0
 10
29.0845571548
 20
46.2513913007
 30
0.0
 10
29.0865412755
 20
46.2200452793
 30
0.0
 10
29.0876614007
 20
46.1915097839
 30
0.0
 10
29.0877028748
 20
46.1572427065
 30
0.0
 10
29.0869375447
 20
46.1229830907
 30
0.0
 10
29.0877669601
 20
46.0887210696
 30
0.0
 10
29.0896858347
 20
46.0545107595
 30
0.0
 10
29.0913841124
 20
46.0288600171
 30
0.0
 10
29.091936394
 20
46.0117341343
 30
0.0
  0
SPLINE
  5
394
100
AcDbEntity
  8
0
100
AcDbSpline
 62
7
  6
BYLAYER
 70
0
 71
3
 72
11
 73
7
 74
0
 42
0.0000001
 43
0.0000001
 44
0.0000000001
 40
0.0
 40
0.0
 40
0.0
 40
0.0
 40
0.2908219408
 40
0.5478502797
 40
0.780014187
 40
1.0
 40
1.0
 40
1.0
 40
1.0
 10
23.3361581244
 20
5.821917863
 30
0.0
 10
23.3465829124
 20
5.813044771
 30
0.0
 10
23.3652051395
 20
5.7950375085
 30
0.0
 10
23.3868933227
 20
5.765117914
 30
0.0
 10
23.4001610348
 20
5.7341345139
 30
0.0
 10
23.4031393653
 20
5.7127452049
 30
0.0
 10
23.4031380021
 20
5.7023899325
 30
0.0
  0
SPLINE
  5
395
100
AcDbEntity
  8
0
100
AcDbSpline
 62
7
  6
BYLAYER
 70
0
 71
3
 72
9
 73
5
 74
0
 42
0.0000001
 43
0.0000001
 44
0.0000000001
 40
0.0
 40
0.0
 40
0.0
 40
0.0
 40
0.5605971421
 40
1.0
 40
1.0
 40
1.0
 40
1.0
 10
23.1696882469
 20
5.940087308
 30
0.0
 10
23.2017823435
 20
5.9194438735
 30
0.0
 10
23.2582218927
 20
5.8813404891
 30
0.0
 10
23.312791031
 20
5.8405887326
 30
0.0
 10
23.3361581244
 20
5.821917863
 30
0.0
  0
SPLINE
  5
396
100
AcDbEntity
  8
0
100
AcDbSpline
 62
7
  6
BYLAYER
 70
0
 71
3
 72
12
 73
8
 74
0
 42
0.0000001
 43
0.0000001
 44
0.0000000001
 40
0.0
 40
0.0
 40
0.0
 40
0.0
 40
0.1508032957
 40
0.2958397427
 40
0.5621641619
 40
0.7968886378
 40
1.0
 40
1.0
 40
1.0
 40
1.0
 10
22.9638060823
 20
6.3363624691
 30
0.0
 10
22.9649022753
 20
6.3134282123
 30
0.0
 10
22.9707366895
 20
6.2685301924
 30
0.0
 10
22.9944682779
 20
6.1860450206
 30
0.0
 10
23.0385368457
 20
6.0972295238
 30
0.0
 10
23.1014532979
 20
6.010074241
 30
0.0
 10
23.1470791126
 20
5.9611860207
 30
0.0
 10
23.1696882469
 20
5.940087308
 30
0.0
  0
SPLINE
  5
397
100
AcDbEntity
  8
0
100
AcDbSpline
 62
7
  6
BYLAYER
 70
0
 71
3
 72
36
 73
32
 74
0
 42
0.0000001
 43
0.0000001
 44
0.0000000001
 40
0.0
 40
0.0
 40
0.0
 40
0.0
 40
0.0038358027
 40
0.0076985486
 40
0.0115763019
 40
0.0154633174
 40
0.0193528374
 40
0.0232447341
 40
0.0310343774
 40
0.046626371
 40
0.0622300157
 40
0.0778397103
 40
0.0934534081
 40
0.1090701068
 40
0.124688733
 40
0.1559304683
 40
0.1871770303
 40
0.2184267729
 40
0.249679117
 40
0.2809334055
 40
0.3121893022
 40
0.3434466483
 40
0.3747052441
 40
0.4372252023
 40
0.4997481335
 40
0.5622737618
 40
0.6248017525
 40
0.6873316866
 40
0.7498630894
 40
0.8749292759
 40
1.0
 40
1.0
 40
1.0
 40
1.0
 10
16.4590850108
 20
19.2375318664
 30
0.0
 10
16.4458045908
 20
19.2371283313
 30
0.0
 10
16.4199265546
 20
19.2249178145
 30
0.0
 10
16.3925253317
 20
19.1954767813
 30
0.0
 10
16.370835542
 20
19.1613220651
 30
0.0
 10
16.3528279746
 20
19.1251730001
 30
0.0
 10
16.3368003781
 20
19.088053303
 30
0.0
 10
16.3172014397
 20
19.0377926522
 30
0.0
 10
16.287802495
 20
18.9479537147
 30
0.0
 10
16.2532029507
 20
18.8173420098
 30
0.0
 10
16.2186653148
 20
18.658911592
 30
0.0
 10
16.1882934607
 20
18.499566304
 30
0.0
 10
16.161087538
 20
18.3396090221
 30
0.0
 10
16.1363991188
 20
18.1792166707
 30
0.0
 10
16.1057507256
 20
17.9649850473
 30
0.0
 10
16.0713592817
 20
17.6966165125
 30
0.0
 10
16.0345159671
 20
17.3740153983
 30
0.0
 10
16.0008471694
 20
17.0510320397
 30
0.0
 10
15.9699046552
 20
16.7277508197
 30
0.0
 10
15.9410616977
 20
16.4042552464
 30
0.0
 10
15.9140212137
 20
16.0805870024
 30
0.0
 10
15.8885733555
 20
15.7567750109
 30
0.0
 10
15.8564931621
 20
15.3248612257
 30
0.0
 10
15.8193246951
 20
14.784733458
 30
0.0
 10
15.7783659507
 20
14.136318547
 30
0.0
 10
15.7406054936
 20
13.4876820635
 30
0.0
 10
15.705557436
 20
12.8388698137
 30
0.0
 10
15.6728223544
 20
12.1899171322
 30
0.0
 10
15.63175063
 20
11.324492233
 30
0.0
 10
15.5845841468
 20
10.2424870163
 30
0.0
 10
15.550649341
 20
9.3767187021
 30
0.0
 10
15.5344987359
 20
8.9437967479
 30
0.0
  0
LINE
  5
398
100
AcDbEntity
  8
0
100
AcDbLine
 62
7
  6
BYLAYER
 10
27.4810370588
 20
32.3273846398
 11
27.481122684
 21
32.3379069363
  0
LINE
  5
399
100
AcDbEntity
  8
0
100
AcDbLine
 62
7
  6
BYLAYER
 10
24.0483267438
 20
32.3379069363
 11
24.0484449188
 21
32.3273846398
  0
SPLINE
  5
39A
100
AcDbEntity
  8
0
100
AcDbSpline
 62
7
  6
BYLAYER
 70
0
 71
3
 72
9
 73
5
 74
0
 42
0.0000001
 43
0.0000001
 44
0.0000000001
 40
0.0
 40
0.0
 40
0.0
 40
0.0
 40
0.4956275394
 40
1.0
 40
1.0
 40
1.0
 40
1.0
 10
24.1042278771
 20
32.5265740312
 30
0.0
 10
24.0869372451
 20
32.4986685603
 30
0.0
 10
24.0585844122
 20
32.437909864
 30
0.0
 10
24.0483267438
 20
32.371314215
 30
0.0
 10
24.0483267438
 20
32.3379069363
 30
0.0
  0
SPLINE
  5
39B
100
AcDbEntity
  8
0
100
AcDbSpline
 62
7
  6
BYLAYER
 70
0
 71
3
 72
15
 73
11
 74
0
 42
0.0000001
 43
0.0000001
 44
0.0000000001
 40
0.0
 40
0.0
 40
0.0
 40
0.0
 40
0.1125950953
 40
0.2308613478
 40
0.3536309479
 40
0.4795698231
 40
0.6077050015
 40
0.737396877
 40
0.8682553521
 40
1.0
 40
1.0
 40
1.0
 40
1.0
 10
25.7669260911
 20
34.1517341633
 30
0.0
 10
25.6791679485
 20
34.1362161772
 30
0.0
 10
25.5043466182
 20
34.0737722293
 30
0.0
 10
25.2678409782
 20
33.9217673087
 30
0.0
 10
25.0478872058
 20
33.731040141
 30
0.0
 10
24.841685406
 20
33.5151479499
 30
0.0
 10
24.6462307507
 20
33.2824475544
 30
0.0
 10
24.4590629991
 20
33.0381950324
 30
0.0
 10
24.278481245
 20
32.7855517311
 30
0.0
 10
24.1618955134
 20
32.6134534982
 30
0.0
 10
24.1042278771
 20
32.5265740312
 30
0.0
  0
SPLINE
  5
39C
100
AcDbEntity
  8
0
100
AcDbSpline
 62
7
  6
BYLAYER
 70
0
 71
3
 72
15
 73
11
 74
0
 42
0.0000001
 43
0.0000001
 44
0.0000000001
 40
0.0
 40
0.0
 40
0.0
 40
0.0
 40
0.130858896
 40
0.2609187998
 40
0.3898776904
 40
0.5173466665
 40
0.6427312121
 40
0.7652627032
 40
0.8842404485
 40
1.0
 40
1.0
 40
1.0
 40
1.0
 10
27.4404243275
 20
32.5265742472
 30
0.0
 10
27.3982226142
 20
32.6134863699
 30
0.0
 10
27.3116726229
 20
32.7856309602
 30
0.0
 10
27.1735228034
 20
33.0382487521
 30
0.0
 10
27.025761882
 20
33.2824978713
 30
0.0
 10
26.8663294887
 20
33.5152278665
 30
0.0
 10
26.6921272884
 20
33.7312764191
 30
0.0
 10
26.4990182597
 20
33.9224399286
 30
0.0
 10
26.2819541946
 20
34.0752230125
 30
0.0
 10
26.1163524333
 20
34.1364991206
 30
0.0
 10
26.0322531981
 20
34.1517341633
 30
0.0
  0
SPLINE
  5
39D
100
AcDbEntity
  8
0
100
AcDbSpline
 62
7
  6
BYLAYER
 70
0
 71
3
 72
42
 73
38
 74
0
 42
0.0000001
 43
0.0000001
 44
0.0000000001
 40
0.0
 40
0.0
 40
0.0
 40
0.0
 40
0.125062898
 40
0.1875929541
 40
0.2501218885
 40
0.3126495763
 40
0.3751758465
 40
0.4377004842
 40
0.5002232085
 40
0.5627436372
 40
0.6252612325
 40
0.65651878
 40
0.6877753016
 40
0.7190306256
 40
0.7502845256
 40
0.7815366904
 40
0.8127866797
 40
0.8440338249
 40
0.8596560996
 40
0.875277233
 40
0.8908969631
 40
0.9065149083
 40
0.9221304912
 40
0.9377427462
 40
0.9533498507
 40
0.9611508029
 40
0.9689488177
 40
0.9767421992
 40
0.9806366141
 40
0.9845283887
 40
0.9884160193
 40
0.9903579621
 40
0.9922977201
 40
0.9942343151
 40
0.996165973
 40
0.9980892389
 40
1.0
 40
1.0
 40
1.0
 40
1.0
 10
22.9638060823
 20
6.3363624691
 30
0.0
 10
22.9469667753
 20
6.8776286189
 30
0.0
 10
22.9203299322
 20
7.6894801746
 30
0.0
 10
22.8816284591
 20
8.7718282217
 30
0.0
 10
22.8507944861
 20
9.5835023882
 30
0.0
 10
22.817961466
 20
10.3950818744
 30
0.0
 10
22.7828656328
 20
11.2065483245
 30
0.0
 10
22.7451869142
 20
12.0178777895
 30
0.0
 10
22.7045129488
 20
12.8290379374
 30
0.0
 10
22.6602985881
 20
13.639982926
 30
0.0
 10
22.6198891755
 20
14.3155468211
 30
0.0
 10
22.5848851297
 20
14.85580784
 30
0.0
 10
22.557107712
 20
15.2608834027
 30
0.0
 10
22.5275803149
 20
15.6658196805
 30
0.0
 10
22.4960114368
 20
16.0705835326
 30
0.0
 10
22.4620162284
 20
16.4751286693
 30
0.0
 10
22.4250669678
 20
16.8793863756
 30
0.0
 10
22.3911905875
 20
17.2159535192
 30
0.0
 10
22.3616528324
 20
17.4849252225
 30
0.0
 10
22.3380648039
 20
17.6864711498
 30
0.0
 10
22.3127672009
 20
17.8877916921
 30
0.0
 10
22.2853780503
 20
18.0888154785
 30
0.0
 10
22.2553550917
 20
18.2894338544
 30
0.0
 10
22.2218574775
 20
18.4894570042
 30
0.0
 10
22.1899211766
 20
18.6554017747
 30
0.0
 10
22.1606019245
 20
18.7873177243
 30
0.0
 10
22.1360863759
 20
18.8856088283
 30
0.0
 10
22.1127251501
 20
18.9667198123
 30
0.0
 10
22.0912859394
 20
19.0306960671
 30
0.0
 10
22.0733713645
 20
19.0779781729
 30
0.0
 10
22.0563184971
 20
19.1165058331
 30
0.0
 10
22.0407306609
 20
19.1463332732
 30
0.0
 10
22.0277732659
 20
19.1679608041
 30
0.0
 10
22.0131336407
 20
19.1884576736
 30
0.0
 10
21.9961317985
 20
19.2070124256
 30
0.0
 10
21.9758675597
 20
19.222009889
 30
0.0
 10
21.9593318753
 20
19.226830406
 30
0.0
 10
21.9510630268
 20
19.2271131852
 30
0.0
  0
SPLINE
  5
39E
100
AcDbEntity
  8
0
100
AcDbSpline
 62
7
  6
BYLAYER
 70
0
 71
3
 72
9
 73
5
 74
0
 42
0.0000001
 43
0.0000001
 44
0.0000000001
 40
0.0
 40
0.0
 40
0.0
 40
0.0
 40
0.2488008506
 40
1.0
 40
1.0
 40
1.0
 40
1.0
 10
16.4590850108
 20
19.237533604
 30
0.0
 10
16.9145542768
 20
19.2365057198
 30
0.0
 10
18.7452125838
 20
19.2325123594
 30
0.0
 10
20.5758724599
 20
19.2292539121
 30
0.0
 10
21.9510630268
 20
19.2271153397
 30
0.0
  0
SPLINE
  5
39F
100
AcDbEntity
  8
0
100
AcDbSpline
 62
7
  6
BYLAYER
 70
0
 71
3
 72
11
 73
7
 74
0
 42
0.0000001
 43
0.0000001
 44
0.0000000001
 40
0.0
 40
0.0
 40
0.0
 40
0.0
 40
0.2200264981
 40
0.4522183323
 40
0.7092417538
 40
1.0
 40
1.0
 40
1.0
 40
1.0
 10
15.0070100272
 20
5.7025091581
 30
0.0
 10
15.0070086967
 20
5.7128527866
 30
0.0
 10
15.0099805375
 20
5.7342171205
 30
0.0
 10
15.023219129
 20
5.7651675876
 30
0.0
 10
15.0448596231
 20
5.7950592772
 30
0.0
 10
15.0634439701
 20
5.8130523943
 30
0.0
 10
15.073847777
 20
5.821917863
 30
0.0
  0
SPLINE
  5
3A0
100
AcDbEntity
  8
0
100
AcDbSpline
 62
7
  6
BYLAYER
 70
0
 71
3
 72
15
 73
11
 74
0
 42
0.0000001
 43
0.0000001
 44
0.0000000001
 40
0.0
 40
0.0
 40
0.0
 40
0.0
 40
0.190608104
 40
0.36080591
 40
0.5104703784
 40
0.6396666029
 40
0.7488363578
 40
0.841335306
 40
0.9230900668
 40
1.0
 40
1.0
 40
1.0
 40
1.0
 10
15.5345051477
 20
20.3180809784
 30
0.0
 10
15.4930837957
 20
20.3094221309
 30
0.0
 10
15.414813514
 20
20.2923541576
 30
0.0
 10
15.3054228384
 20
20.2622476845
 30
0.0
 10
15.2124188051
 20
20.2257315051
 30
0.0
 10
15.1362346995
 20
20.1850948217
 30
0.0
 10
15.0763337023
 20
20.1420552128
 30
0.0
 10
15.0334366722
 20
20.0950696866
 30
0.0
 10
15.0093249548
 20
20.0437207431
 30
0.0
 10
15.0060729544
 20
20.0077780457
 30
0.0
 10
15.0075815158
 20
19.9907701215
 30
0.0
  0
SPLINE
  5
3A1
100
AcDbEntity
  8
0
100
AcDbSpline
 62
7
  6
BYLAYER
 70
0
 71
3
 72
17
 73
13
 74
0
 42
0.0000001
 43
0.0000001
 44
0.0000000001
 40
0.0
 40
0.0
 40
0.0
 40
0.0
 40
0.0361558755
 40
0.0721750468
 40
0.1495313424
 40
0.241581543
 40
0.3517967256
 40
0.481904301
 40
0.6335227672
 40
0.7175870093
 40
0.806887785
 40
1.0
 40
1.0
 40
1.0
 40
1.0
 10
15.0075815158
 20
19.9907701215
 30
0.0
 10
15.0068378518
 20
19.9986883501
 30
0.0
 10
15.0068049594
 20
20.0146787915
 30
0.0
 10
15.0131981922
 20
20.0471492881
 30
0.0
 10
15.0347243151
 20
20.0879008624
 30
0.0
 10
15.07719954
 20
20.1330060324
 30
0.0
 10
15.1368280463
 20
20.1759395793
 30
0.0
 10
15.2137950704
 20
20.2152534453
 30
0.0
 10
15.288575637
 20
20.245108563
 30
0.0
 10
15.3559691695
 20
20.2689672864
 30
0.0
 10
15.4327756997
 20
20.2934754932
 30
0.0
 10
15.4929856517
 20
20.3091072996
 30
0.0
 10
15.5345051477
 20
20.3180809784
 30
0.0
  0
LINE
  5
3A2
100
AcDbEntity
  8
0
100
AcDbLine
 62
7
  6
BYLAYER
 10
14.3617031124
 20
32.3273846398
 11
14.3618212874
 21
32.3379069363
  0
LINE
  5
3A3
100
AcDbEntity
  8
0
100
AcDbLine
 62
7
  6
BYLAYER
 10
10.9290253472
 20
32.3379069363
 11
10.9291109724
 21
32.3273846398
  0
SPLINE
  5
3A4
100
AcDbEntity
  8
0
100
AcDbSpline
 62
7
  6
BYLAYER
 70
0
 71
3
 72
9
 73
5
 74
0
 42
0.0000001
 43
0.0000001
 44
0.0000000001
 40
0.0
 40
0.0
 40
0.0
 40
0.0
 40
0.5043750706
 40
1.0
 40
1.0
 40
1.0
 40
1.0
 10
14.3618212874
 20
32.3379069363
 30
0.0
 10
14.3618212874
 20
32.3713144306
 30
0.0
 10
14.3515635528
 20
32.4379101786
 30
0.0
 10
14.3232105784
 20
32.4986688874
 30
0.0
 10
14.3059200157
 20
32.5265742472
 30
0.0
  0
SPLINE
  5
3A5
100
AcDbEntity
  8
0
100
AcDbSpline
 62
7
  6
BYLAYER
 70
0
 71
3
 72
15
 73
11
 74
0
 42
0.0000001
 43
0.0000001
 44
0.0000000001
 40
0.0
 40
0.0
 40
0.0
 40
0.0
 40
0.11575806
 40
0.2347351965
 40
0.3572665955
 40
0.48265129
 40
0.6101207854
 40
0.7390803011
 40
0.8691406588
 40
1.0
 40
1.0
 40
1.0
 40
1.0
 10
12.3778936573
 20
34.1517341633
 30
0.0
 10
12.2937955491
 20
34.1364991996
 30
0.0
 10
12.1281938346
 20
34.075226955
 30
0.0
 10
11.9111347441
 20
33.9224393441
 30
0.0
 10
11.7180227266
 20
33.7312801752
 30
0.0
 10
11.5438198809
 20
33.5152313468
 30
0.0
 10
11.3843868665
 20
33.2825007659
 30
0.0
 10
11.2366262874
 20
33.0382501276
 30
0.0
 10
11.0984754482
 20
32.7856317111
 30
0.0
 10
11.0119254487
 20
32.6134864274
 30
0.0
 10
10.9697236024
 20
32.5265740312
 30
0.0
  0
SPLINE
  5
3A6
100
AcDbEntity
  8
0
100
AcDbSpline
 62
7
  6
BYLAYER
 70
0
 71
3
 72
15
 73
11
 74
0
 42
0.0000001
 43
0.0000001
 44
0.0000000001
 40
0.0
 40
0.0
 40
0.0
 40
0.0
 40
0.1317442044
 40
0.2626022304
 40
0.3922935217
 40
0.520428201
 40
0.6463668851
 40
0.7691365253
 40
0.8874034019
 40
1.0
 40
1.0
 40
1.0
 40
1.0
 10
14.3059200157
 20
32.5265742472
 30
0.0
 10
14.2482525598
 20
32.6134534448
 30
0.0
 10
14.1316669674
 20
32.7855509758
 30
0.0
 10
13.9510862619
 20
33.0381937028
 30
0.0
 10
13.7639183243
 20
33.2824446371
 30
0.0
 10
13.5684643078
 20
33.5151444093
 30
0.0
 10
13.3622632251
 20
33.7310363639
 30
0.0
 10
13.1423121761
 20
33.9217679625
 30
0.0
 10
12.9058017208
 20
34.0737682985
 30
0.0
 10
12.7309800932
 20
34.1362160864
 30
0.0
 10
12.6432207355
 20
34.1517341633
 30
0.0
  0
SPLINE
  5
3A7
100
AcDbEntity
  8
0
100
AcDbSpline
 62
7
  6
BYLAYER
 70
0
 71
3
 72
11
 73
7
 74
0
 42
0.0000001
 43
0.0000001
 44
0.0000000001
 40
0.0
 40
0.0
 40
0.0
 40
0.0
 40
0.2764706012
 40
0.5388415241
 40
0.7815728576
 40
1.0
 40
1.0
 40
1.0
 40
1.0
 10
16.4600909246
 20
20.4023271762
 30
0.0
 10
16.3743231658
 20
20.4023879139
 30
0.0
 10
16.2071387104
 20
20.3991134607
 30
0.0
 10
15.9650558389
 20
20.3842010669
 30
0.0
 10
15.7418527762
 20
20.3596686331
 30
0.0
 10
15.6006646245
 20
20.3358294024
 30
0.0
 10
15.5343352152
 20
20.3219728118
 30
0.0
  0
SPLINE
  5
3A8
100
AcDbEntity
  8
0
100
AcDbSpline
 62
7
  6
BYLAYER
 70
0
 71
3
 72
22
 73
18
 74
0
 42
0.0000001
 43
0.0000001
 44
0.0000000001
 40
0.0
 40
0.0
 40
0.0
 40
0.0
 40
0.1933161761
 40
0.2856051942
 40
0.373890423
 40
0.4575934835
 40
0.5361916574
 40
0.609239576
 40
0.6763301953
 40
0.7371415042
 40
0.7915436613
 40
0.8395263828
 40
0.8812382343
 40
0.9170156396
 40
0.9475290509
 40
0.9743462655
 40
1.0
 40
1.0
 40
1.0
 40
1.0
 10
21.9510630076
 20
20.4001145375
 30
0.0
 10
22.0534413722
 20
20.4000710886
 30
0.0
 10
22.2047239532
 20
20.3949742528
 30
0.0
 10
22.4022347371
 20
20.3808583253
 30
0.0
 10
22.5415783053
 20
20.3675608167
 30
0.0
 10
22.6732748649
 20
20.3510072653
 30
0.0
 10
22.7963093757
 20
20.3308683771
 30
0.0
 10
22.9097793122
 20
20.3073658874
 30
0.0
 10
23.0129059
 20
20.280910114
 30
0.0
 10
23.1050194929
 20
20.2517975219
 30
0.0
 10
23.1855564952
 20
20.2202083851
 30
0.0
 10
23.2540218335
 20
20.1862299363
 30
0.0
 10
23.3100530121
 20
20.1501895233
 30
0.0
 10
23.3534943691
 20
20.1126179916
 30
0.0
 10
23.3843612321
 20
20.0736419899
 30
0.0
 10
23.4019149336
 20
20.0326355916
 30
0.0
 10
23.4038362568
 20
20.0042971975
 30
0.0
 10
23.4025725968
 20
19.9907701238
 30
0.0
  0
SPLINE
  5
3A9
100
AcDbEntity
  8
0
100
AcDbSpline
 62
7
  6
BYLAYER
 70
0
 71
3
 72
23
 73
19
 74
0
 42
0.0000001
 43
0.0000001
 44
0.0000000001
 40
0.0
 40
0.0
 40
0.0
 40
0.0
 40
0.0273553593
 40
0.0559592927
 40
0.0875032907
 40
0.1234153994
 40
0.164834464
 40
0.2124375157
 40
0.2664706226
 40
0.3268983322
 40
0.393583529
 40
0.4662329525
 40
0.5444614427
 40
0.6278029499
 40
0.7156830617
 40
0.8075178546
 40
0.9025853708
 40
1.0
 40
1.0
 40
1.0
 40
1.0
 10
23.4025725968
 20
19.9907701238
 30
0.0
 10
23.4038521631
 20
20.0052731141
 30
0.0
 10
23.4019040775
 20
20.0355395284
 30
0.0
 10
23.3849885435
 20
20.0795793247
 30
0.0
 10
23.3545362458
 20
20.1212641629
 30
0.0
 10
23.3109458258
 20
20.1599296876
 30
0.0
 10
23.2548248938
 20
20.1959383793
 30
0.0
 10
23.1863998621
 20
20.2296032708
 30
0.0
 10
23.1059459619
 20
20.2609314557
 30
0.0
 10
23.0138312185
 20
20.2896100906
 30
0.0
 10
22.9106086709
 20
20.3152852477
 30
0.0
 10
22.7970154123
 20
20.3379275649
 30
0.0
 10
22.673884427
 20
20.3575498564
 30
0.0
 10
22.5421217452
 20
20.374022384
 30
0.0
 10
22.4026706279
 20
20.3867811832
 30
0.0
 10
22.2566353469
 20
20.3951249561
 30
0.0
 10
22.1053572904
 20
20.3993473106
 30
0.0
 10
22.0029099392
 20
20.4001013409
 30
0.0
 10
21.9510630076
 20
20.4001145375
 30
0.0
  0
SPLINE
  5
3AA
100
AcDbEntity
  8
0
100
AcDbSpline
 62
7
  6
BYLAYER
 70
0
 71
3
 72
11
 73
7
 74
0
 42
0.0000001
 43
0.0000001
 44
0.0000000001
 40
0.0
 40
0.0
 40
0.0
 40
0.0
 40
0.2029519952
 40
0.4375965609
 40
0.7040134814
 40
1.0
 40
1.0
 40
1.0
 40
1.0
 10
15.2401674157
 20
5.940087308
 30
0.0
 10
15.2627148919
 20
5.9611451564
 30
0.0
 10
15.3082402863
 20
6.0099238789
 30
0.0
 10
15.3709947865
 20
6.0970109168
 30
0.0
 10
15.4254694751
 20
6.2060349303
 30
0.0
 10
15.4437128266
 20
6.2911511175
 30
0.0
 10
15.4458590789
 20
6.3360940853
 30
0.0
  0
SPLINE
  5
3AB
100
AcDbEntity
  8
0
100
AcDbSpline
 62
7
  6
BYLAYER
 70
0
 71
3
 72
9
 73
5
 74
0
 42
0.0000001
 43
0.0000001
 44
0.0000000001
 40
0.0
 40
0.0
 40
0.0
 40
0.0
 40
0.4393764674
 40
1.0
 40
1.0
 40
1.0
 40
1.0
 10
15.073847777
 20
5.821917863
 30
0.0
 10
15.0971889578
 20
5.8405895839
 30
0.0
 10
15.151707086
 20
5.8813418045
 30
0.0
 10
15.208098469
 20
5.9194437036
 30
0.0
 10
15.2401674157
 20
5.940087308
 30
0.0
  0
ELLIPSE
  5
3AC
100
AcDbEntity
  8
0
100
AcDbEllipse
 62
7
  6
BYLAYER
 10
19.2050740156
 20
17.0927341638
 30
0.0
 11
-0.0
 21
162.8571428998
 31
0.0
 40
0.0875
 41
-1.4970452765
 42
-1.4896546856
  0
ELLIPSE
  5
3AD
100
AcDbEntity
  8
0
100
AcDbEllipse
 62
7
  6
BYLAYER
 10
19.2050740156
 20
17.0927341638
 30
0.0
 11
-0.0
 21
162.8571428998
 31
0.0
 40
0.0875
 41
1.4896546856
 42
1.4970452765
  0
ENDSEC
  0
SECTION
  2
OBJECTS
  0
DICTIONARY
  5
C
100
AcDbDictionary
280
0
281
1
  3
ACAD_GROUP
350
D
  3
ACAD_MLINESTYLE
350
17
  3
ACAD_LAYOUT
350
1A
  3
ACAD_PLOTSETTINGS
350
19
  3
ACAD_PLOTSTYLENAME
350
E
  0
DICTIONARY
  5
D
102
{ACAD_REACTORS
330
C
102
}
100
AcDbDictionary
280
0
281
1
  0
ACDBDICTIONARYWDFLT
  5
E
102
{ACAD_REACTORS
330
C
102
}
100
AcDbDictionary
281
1
  3
Normal
350
F
100
AcDbDictionaryWithDefault
340
F
  0
DICTIONARY
  5
17
102
{ACAD_REACTORS
330
C
102
}
100
AcDbDictionary
280
0
281
1
  3
Standard
350
18
  0
DICTIONARY
  5
19
102
{ACAD_REACTORS
330
C
102
}
100
AcDbDictionary
281
1
  0
DICTIONARY
  5
1A
102
{ACAD_REACTORS
330
C
102
}
100
AcDbDictionary
281
1
  3
Model
350
3AE
  3
Layout1
350
3AF
  0
ACDBPLACEHOLDER
  5
F
102
{ACAD_REACTORS
330
E
102
}
  0
MLINESTYLE
  5
18
102
{ACAD_REACTORS
330
17
102
}
100
AcDbMlineStyle
  2
STANDARD
 70
0
  3

 62
256
 51
90.0
 52
90.0
 71
2
 49
0.5
 62
256
  6
BYLAYER
 49
-0.5
 62
256
  6
BYLAYER
  0
LAYOUT
  5
3AE
102
{ACAD_REACTORS
330
1A
102
}
100
AcDbPlotSettings
  1

  2
none_device
  4

  6

 40
0.0
 41
0.0
 42
0.0
 43
0.0
 44
210.0
 45
297.0
 46
0.0
 47
0.0
 48
0.0
 49
0.0
140
0.0
141
0.0
142
1.0
143
1.0
 70
1024
 72
1
 73
0
 74
0
  7

 75
0
147
1.0
148
0.0
149
0.0
100
AcDbLayout
  1
Model
 70
0
 71
0
 10
0.0
 20
0.0
 11
210.0
 21
297.0
 12
0.0
 22
0.0
 32
0.0
 14
0.0
 24
0.0
 34
0.0
 15
0.0
 25
0.0
 35
0.0
146
0.0
 13
0.0
 23
0.0
 33
0.0
 16
1.0
 26
0.0
 36
0.0
 17
0.0
 27
1.0
 37
0.0
 76
0
330
210
345
0
346
0
  0
LAYOUT
  5
3AF
102
{ACAD_REACTORS
330
1A
102
}
100
AcDbPlotSettings
  1

  2
none_device
  4

  6

 40
0.0
 41
0.0
 42
0.0
 43
0.0
 44
210.0
 45
297.0
 46
0.0
 47
0.0
 48
0.0
 49
0.0
140
0.0
141
0.0
142
1.0
143
1.0
 70
0
 72
1
 73
0
 74
0
  7

 75
0
147
1.0
148
0.0
149
0.0
100
AcDbLayout
  1
Layout1
 70
0
 71
1
 10
0.0
 20
0.0
 11
210.0
 21
297.0
 12
0.0
 22
0.0
 32
0.0
 14
0.0
 24
0.0
 34
0.0
 15
0.0
 25
0.0
 35
0.0
146
0.0
 13
0.0
 23
0.0
 33
0.0
 16
1.0
 26
0.0
 36
0.0
 17
0.0
 27
1.0
 37
0.0
 76
0
330
211
345
0
346
0
  0
ENDSEC
  0
EOF
