999
DXF file: C:\Users\sesa63760\Dev\_Creo\CAD\MCADID0005356_3D-CAD\drw0001_2.dxf
999
Pro/ENGINEER 2019471 by Parametric Technology Corporation
  0
SECTION
  2
HEADER
  9
$ACADVER
  1
AC1024
  9
$DWGCODEPAGE
  3
ANSI_1252
  9
$EXTMAX
 10
77.4346956685
 20
109.514783874
 30
0.0
  9
$EXTMIN
 10
0.0
 20
0.0
 30
0.0
  9
$LIMMIN
 10
0.0
 20
0.0
  9
$LIMMAX
 10
77.4346956685
 20
109.514783874
  9
$VIEWCTR
 10
38.7173478342
 20
54.757391937
  9
$VIEWSIZE
 40
109.514783874
  9
$CLAYER
  8
0
  9
$LTSCALE
 40
7.1387414673
  9
$CELTYPE
  6
BYLAYER
  9
$DIMSCALE
 40
1.0
  9
$DIMASZ
 40
0.9218416151
  9
$DIMEXO
 40
1.0
  9
$DIMDLI
 40
4.9322213774
  9
$DIMEXE
 40
1.0
  9
$DIMCEN
 40
1.1681576947
  9
$DIMLFAC
 40
1.0
  9
$DIMBLK
  1
_FILLED
  9
$DIMALT
 70
0
  9
$DIMALTF
 40
0.0393700787
  9
$DIMTXT
 40
1.2905782611
  9
$DIMTOL
 70
1
  9
$DIMLIM
 70
0
  9
$DIMTFAC
 40
1.0
  9
$DIMTP
 40
0.01
  9
$DIMTM
 40
0.01
  9
$DIMGAP
 40
0.625
  9
$DIMDSEP
 70
46
  9
$AUNITS
 70
0
  9
$PDMODE
 70
3
  9
$PDSIZE
 40
0.3125
  9
$HANDSEED
  5
2C9
  9
$TILEMODE
 70
1
  9
$MEASUREMENT
 70
1
  9
$INSUNITS
 70
4
  0
ENDSEC
  0
SECTION
  2
CLASSES
  0
CLASS
  1
ACDBDICTIONARYWDFLT
  2
AcDbDictionaryWithDefault
  3
AutoCAD 2000
 90
0
 91
1
280
0
281
0
  0
CLASS
  1
ACDBPLACEHOLDER
  2
AcDbPlaceHolder
  3
AutoCAD 2000
 90
0
 91
1
280
0
281
0
  0
CLASS
  1
LAYOUT
  2
AcDbLayout
  3
AutoCAD 2000
 90
0
 91
0
280
0
281
0
  0
ENDSEC
  0
SECTION
  2
TABLES
  0
TABLE
  2
VPORT
  5
8
100
AcDbSymbolTable
 70
2
  0
VPORT
  5
1F4
100
AcDbSymbolTableRecord
100
AcDbViewportTableRecord
  2
*ACTIVE
 70
0
 10
0.0
 20
0.0
 11
1.0
 21
1.0
 12
38.7173478342
 22
54.757391937
 13
0.0
 23
0.0
 14
1.0
 24
1.0
 15
0.0
 25
0.0
 16
0.0
 26
0.0
 36
1.0
 17
0.0
 27
0.0
 37
0.0
 40
109.514783874
 41
0.7070707071
 42
50.0
 43
0.0
 44
0.0
 50
0.0
 51
0.0
 71
0
 72
100
 73
1
 74
1
 75
0
 76
0
 77
0
 78
0
  0
ENDTAB
  0
TABLE
  2
LTYPE
  5
5
100
AcDbSymbolTable
 70
6
  0
LTYPE
  5
14
100
AcDbSymbolTableRecord
100
AcDbLinetypeTableRecord
  2
BYBLOCK
 70
0
  3

 72
65
 73
0
 40
0.0
  0
LTYPE
  5
15
100
AcDbSymbolTableRecord
100
AcDbLinetypeTableRecord
  2
BYLAYER
 70
0
  3

 72
65
 73
0
 40
0.0
  0
LTYPE
  5
16
100
AcDbSymbolTableRecord
100
AcDbLinetypeTableRecord
  2
CONTINUOUS
 70
64
  3
Solid line
 72
65
 73
0
 40
0.0
  0
LTYPE
  5
1F5
100
AcDbSymbolTableRecord
100
AcDbLinetypeTableRecord
  2
CENTER
 70
64
  3
____ _ ____ _ ____ _ ____ _ ____ _ ____ _ ____
 72
65
 73
4
 40
0.6
 49
0.375
 74
0
 49
-0.075
 74
0
 49
0.075
 74
0
 49
-0.075
 74
0
  0
LTYPE
  5
1F6
100
AcDbSymbolTableRecord
100
AcDbLinetypeTableRecord
  2
HIDDEN
 70
64
  3
- - - - - - - - - - - - - - - - - - - -
 72
65
 73
2
 40
0.2
 49
0.1
 74
0
 49
-0.1
 74
0
  0
LTYPE
  5
1F7
100
AcDbSymbolTableRecord
100
AcDbLinetypeTableRecord
  2
PHANTOM
 70
64
  3
_____ _ _ _____ _ _ _____ _ _ _____
 72
65
 73
6
 40
0.8
 49
0.45
 74
0
 49
-0.05
 74
0
 49
0.1
 74
0
 49
-0.05
 74
0
 49
0.1
 74
0
 49
-0.05
 74
0
  0
LTYPE
  5
1F8
100
AcDbSymbolTableRecord
100
AcDbLinetypeTableRecord
  2
DOT
 70
64
  3
. . . . . . . . . . . . . . . . . . . .
 72
65
 73
2
 40
0.2
 49
0.1
 74
0
 49
-0.1
 74
0
  0
LTYPE
  5
1F9
100
AcDbSymbolTableRecord
100
AcDbLinetypeTableRecord
  2
DASHED
 70
64
  3
- - - - - - - - - - - - - - - - - - - -
 72
65
 73
2
 40
0.2
 49
0.1
 74
0
 49
-0.1
 74
0
  0
ENDTAB
  0
TABLE
  2
LAYER
  5
2
100
AcDbSymbolTable
 70
36
  0
LAYER
  5
10
100
AcDbSymbolTableRecord
100
AcDbLayerTableRecord
  2
0
 70
0
 62
7
  6
CONTINUOUS
370
-3
390
F
  0
LAYER
  5
1FA
100
AcDbSymbolTableRecord
100
AcDbLayerTableRecord
  2
DEFAULT_1
 70
0
 62
7
  6
CENTER
370
-3
390
F
  0
LAYER
  5
1FB
100
AcDbSymbolTableRecord
100
AcDbLayerTableRecord
  2
DEFAULT_2
 70
0
 62
7
  6
HIDDEN
370
-3
390
F
  0
LAYER
  5
1FC
100
AcDbSymbolTableRecord
100
AcDbLayerTableRecord
  2
DEFAULT_3
 70
0
 62
7
  6
PHANTOM
370
-3
390
F
  0
LAYER
  5
1FD
100
AcDbSymbolTableRecord
100
AcDbLayerTableRecord
  2
00_COMPONENTS
 70
0
 62
7
  6
CONTINUOUS
370
-3
390
F
  0
LAYER
  5
1FE
100
AcDbSymbolTableRecord
100
AcDbLayerTableRecord
  2
01_1_DEFAULT_DATUMS
 70
0
 62
7
  6
CONTINUOUS
370
-3
390
F
  0
LAYER
  5
1FF
100
AcDbSymbolTableRecord
100
AcDbLayerTableRecord
  2
01_PLANES
 70
0
 62
7
  6
CONTINUOUS
370
-3
390
F
  0
LAYER
  5
200
100
AcDbSymbolTableRecord
100
AcDbLayerTableRecord
  2
02_COORD_SYS
 70
0
 62
7
  6
CONTINUOUS
370
-3
390
F
  0
LAYER
  5
201
100
AcDbSymbolTableRecord
100
AcDbLayerTableRecord
  2
03_AXES
 70
0
 62
7
  6
CONTINUOUS
370
-3
390
F
  0
LAYER
  5
202
100
AcDbSymbolTableRecord
100
AcDbLayerTableRecord
  2
04_POINTS
 70
0
 62
7
  6
CONTINUOUS
370
-3
390
F
  0
LAYER
  5
203
100
AcDbSymbolTableRecord
100
AcDbLayerTableRecord
  2
05_CURVES
 70
0
 62
7
  6
CONTINUOUS
370
-3
390
F
  0
LAYER
  5
204
100
AcDbSymbolTableRecord
100
AcDbLayerTableRecord
  2
06_SURFS
 70
0
 62
7
  6
CONTINUOUS
370
-3
390
F
  0
LAYER
  5
205
100
AcDbSymbolTableRecord
100
AcDbLayerTableRecord
  2
07_COSMETICS
 70
0
 62
7
  6
CONTINUOUS
370
-3
390
F
  0
LAYER
  5
206
100
AcDbSymbolTableRecord
100
AcDbLayerTableRecord
  2
10_NOTES
 70
0
 62
7
  6
CONTINUOUS
370
-3
390
F
  0
LAYER
  5
207
100
AcDbSymbolTableRecord
100
AcDbLayerTableRecord
  2
11_NOTES_PUB
 70
0
 62
7
  6
CONTINUOUS
370
-3
390
F
  0
LAYER
  5
208
100
AcDbSymbolTableRecord
100
AcDbLayerTableRecord
  2
13_REF_GTOL
 70
0
 62
7
  6
CONTINUOUS
370
-3
390
F
  0
LAYER
  5
209
100
AcDbSymbolTableRecord
100
AcDbLayerTableRecord
  2
16_MISC
 70
0
 62
7
  6
CONTINUOUS
370
-3
390
F
  0
LAYER
  5
20A
100
AcDbSymbolTableRecord
100
AcDbLayerTableRecord
  2
17_NO_PRINT
 70
0
 62
7
  6
CONTINUOUS
370
-3
390
F
  0
LAYER
  5
20B
100
AcDbSymbolTableRecord
100
AcDbLayerTableRecord
  2
18_DATUM_CAMS_JOINTS
 70
0
 62
7
  6
CONTINUOUS
370
-3
390
F
  0
LAYER
  5
20C
100
AcDbSymbolTableRecord
100
AcDbLayerTableRecord
  2
19_DATUM_FUNCTIONAL
 70
0
 62
7
  6
CONTINUOUS
370
-3
390
F
  0
LAYER
  5
20D
100
AcDbSymbolTableRecord
100
AcDbLayerTableRecord
  2
20_DATUM_KINEMATIC_SCHEME
 70
0
 62
7
  6
CONTINUOUS
370
-3
390
F
  0
LAYER
  5
20E
100
AcDbSymbolTableRecord
100
AcDbLayerTableRecord
  2
_1
 70
0
 62
7
  6
CONTINUOUS
370
-3
390
F
  0
ENDTAB
  0
TABLE
  2
STYLE
  5
3
100
AcDbSymbolTable
 70
1
  0
STYLE
  5
11
100
AcDbSymbolTableRecord
100
AcDbTextStyleTableRecord
  2
STANDARD
 70
0
 40
0.0
 41
1.0
 50
0.0
 71
0
 42
0.2
  3
ARIAL.TTF
  4

  0
STYLE
  5
20F
100
AcDbSymbolTableRecord
100
AcDbTextStyleTableRecord
  2
TEXTSTYLE_1
 70
0
 40
0.0
 41
0.8
 50
0.0
 71
0
 42
0.2
  3
gdt
  4

  0
ENDTAB
  0
TABLE
  2
VIEW
  5
6
100
AcDbSymbolTable
 70
0
  0
ENDTAB
  0
TABLE
  2
UCS
  5
7
100
AcDbSymbolTable
 70
0
  0
ENDTAB
  0
TABLE
  2
APPID
  5
9
100
AcDbSymbolTable
 70
1
  0
APPID
  5
210
100
AcDbSymbolTableRecord
100
AcDbRegAppTableRecord
  2
ACAD
 70
0
  0
ENDTAB
  0
TABLE
  2
BLOCK_RECORD
  5
1
100
AcDbSymbolTable
 70
0
  0
BLOCK_RECORD
  5
211
100
AcDbSymbolTableRecord
100
AcDbBlockTableRecord
  2
*Model_Space
  0
BLOCK_RECORD
  5
212
100
AcDbSymbolTableRecord
100
AcDbBlockTableRecord
  2
*Paper_Space
  0
BLOCK_RECORD
  5
213
100
AcDbSymbolTableRecord
100
AcDbBlockTableRecord
  2
_FILLED
  0
ENDTAB
  0
TABLE
  2
DIMSTYLE
  5
A
100
AcDbSymbolTable
 70
1
100
AcDbDimStyleTable
 71
0
  0
DIMSTYLE
105
214
100
AcDbSymbolTableRecord
100
AcDbDimStyleTableRecord
  2
STANDARD
 70
0
  3

  4

 40
1.0
 41
0.9218416151
 42
1.0
 43
0.38
 44
1.0
 45
0.0
 46
0.0
 47
0.01
 48
0.01
140
1.2905782611
141
0.09
142
0.0
143
25.4
144
1.0
145
0.0
146
1.0
147
0.625
 71
1
 72
0
 73
0
 74
0
 75
0
 76
0
 77
1
 78
8
 79
2
170
0
171
1
172
0
173
0
174
0
175
0
176
0
177
0
178
0
270
2
179
2
271
2
272
2
273
2
274
2
275
0
280
0
281
0
282
0
283
1
284
8
285
0
286
0
287
3
288
0
340
11
278
46
341
213
342
213
343
213
344
213
  0
ENDTAB
  0
ENDSEC
  0
SECTION
  2
BLOCKS
  0
BLOCK
  5
20
100
AcDbEntity
  8
0
100
AcDbBlockBegin
  2
*Model_Space
 70
0
 10
0.0
 20
0.0
 30
0.0
  3
*Model_Space
  1

  0
ENDBLK
  5
21
100
AcDbEntity
  8
0
100
AcDbBlockEnd
  0
BLOCK
  5
1C
100
AcDbEntity
  8
0
100
AcDbBlockBegin
  2
*Paper_Space
 70
0
 10
0.0
 20
0.0
 30
0.0
  3
*Paper_Space
  1

  0
ENDBLK
  5
1D
100
AcDbEntity
  8
0
100
AcDbBlockEnd
  0
BLOCK
  5
215
100
AcDbEntity
  8
0
100
AcDbBlockBegin
  2
_FILLED
 70
64
 10
0.0
 20
0.0
  3
_FILLED
  1

  0
SOLID
  5
216
100
AcDbEntity
  8
0
  6
BYBLOCK
 62
0
100
AcDbTrace
 10
0.0
 20
0.0
 11
-1.0
 21
0.25
 12
-1.0
 22
-0.25
 13
-1.0
 23
-0.25
  0
ENDBLK
  5
217
100
AcDbEntity
  8
0
  6
BYBLOCK
 62
0
100
AcDbBlockEnd
  0
ENDSEC
  0
SECTION
  2
ENTITIES
  0
LINE
  5
218
100
AcDbEntity
  8
_1
100
AcDbLine
 62
7
  6
BYLAYER
 10
46.9702632082
 20
7.3071950456
 11
31.5367926451
 21
7.3071950456
  0
LINE
  5
219
100
AcDbEntity
  8
_1
100
AcDbLine
 62
7
  6
BYLAYER
 10
16.9500728439
 20
7.3071950456
 11
31.266392523
 21
7.3071950456
  0
LINE
  5
21A
100
AcDbEntity
  8
_1
100
AcDbLine
 62
7
  6
BYLAYER
 10
47.2406633303
 20
7.3071950456
 11
61.5569830094
 21
7.3071950456
  0
LINE
  5
21B
100
AcDbEntity
  8
_1
100
AcDbLine
 62
7
  6
BYLAYER
 10
64.5980806074
 20
17.3071950456
 11
61.7861884005
 21
17.3071950456
  0
LINE
  5
21C
100
AcDbEntity
  8
_1
100
AcDbLine
 62
7
  6
BYLAYER
 10
13.9089752459
 20
17.3071950456
 11
16.7208674528
 21
17.3071950456
  0
LINE
  5
21D
100
AcDbEntity
  8
_1
100
AcDbLine
 62
7
  6
BYLAYER
 10
11.8234119958
 20
26.7992738927
 11
11.9502632285
 21
12.2635623681
  0
LINE
  5
21E
100
AcDbEntity
  8
_1
100
AcDbLine
 62
7
  6
BYLAYER
 10
11.820847177
 20
27.0931730178
 11
11.7535279266
 21
34.8071950456
  0
LINE
  5
21F
100
AcDbEntity
  8
_1
100
AcDbLine
 62
7
  6
BYLAYER
 10
10.5035279266
 20
70.6071950456
 11
10.5035279266
 21
87.9042189192
  0
LINE
  5
220
100
AcDbEntity
  8
_1
100
AcDbLine
 62
7
  6
BYLAYER
 10
11.2717848555
 20
90.5708853157
 11
11.2717848555
 21
75.6071950456
  0
LINE
  5
221
100
AcDbEntity
  8
_1
100
AcDbLine
 62
7
  6
BYLAYER
 10
11.5035279266
 20
67.0071950456
 11
11.5035279266
 21
62.4071950456
  0
LINE
  5
222
100
AcDbEntity
  8
_1
100
AcDbLine
 62
7
  6
BYLAYER
 10
11.7535279266
 20
34.8071950456
 11
11.7535279266
 21
40.3071950456
  0
LINE
  5
223
100
AcDbEntity
  8
_1
100
AcDbLine
 62
7
  6
BYLAYER
 10
11.7535279266
 20
67.0071950456
 11
11.7535279266
 21
69.0071950456
  0
LINE
  5
224
100
AcDbEntity
  8
_1
100
AcDbLine
 62
7
  6
BYLAYER
 10
12.5035279266
 20
69.5071950456
 11
12.5035279266
 21
70.6071950456
  0
LINE
  5
225
100
AcDbEntity
  8
_1
100
AcDbLine
 62
7
  6
BYLAYER
 10
11.7535279266
 20
40.3071950456
 11
11.945519018
 21
62.3071950456
  0
LINE
  5
226
100
AcDbEntity
  8
_1
100
AcDbLine
 62
7
  6
BYLAYER
 10
11.9943894777
 20
62.4071950456
 11
11.9935131357
 21
62.3067762073
  0
LINE
  5
227
100
AcDbEntity
  8
_1
100
AcDbLine
 62
7
  6
BYLAYER
 10
66.6870677637
 20
27.1916146897
 11
62.2535279266
 21
27.1916146897
  0
LINE
  5
228
100
AcDbEntity
  8
_1
100
AcDbLine
 62
7
  6
BYLAYER
 10
16.2535279266
 20
27.1916146897
 11
11.8199880895
 21
27.1916146897
  0
LINE
  5
229
100
AcDbEntity
  8
_1
100
AcDbLine
 62
7
  6
BYLAYER
 10
56.7535279266
 20
28.1421950456
 11
21.7535279266
 21
28.1421950456
  0
LINE
  5
22A
100
AcDbEntity
  8
_1
100
AcDbLine
 62
7
  6
BYLAYER
 10
13.9935167909
 20
62.3071950456
 11
13.9935167909
 21
62.4071950456
  0
LINE
  5
22B
100
AcDbEntity
  8
_1
100
AcDbLine
 62
7
  6
BYLAYER
 10
14.5035279266
 20
62.4071950456
 11
14.5035279266
 21
67.0071950456
  0
LINE
  5
22C
100
AcDbEntity
  8
_1
100
AcDbLine
 62
7
  6
BYLAYER
 10
14.7649389123
 20
70.6071950456
 11
14.7649389123
 21
69.5071950456
  0
LINE
  5
22D
100
AcDbEntity
  8
_1
100
AcDbLine
 62
7
  6
BYLAYER
 10
17.2535279266
 20
67.0071950456
 11
17.2535279266
 21
69.0071950456
  0
LINE
  5
22E
100
AcDbEntity
  8
_1
100
AcDbLine
 62
7
  6
BYLAYER
 10
17.492116941
 20
67.0071950456
 11
17.492116941
 21
70.6071950456
  0
LINE
  5
22F
100
AcDbEntity
  8
_1
100
AcDbLine
 62
7
  6
BYLAYER
 10
19.2535279266
 20
30.6421950456
 11
19.2535279266
 21
38.9721950456
  0
LINE
  5
230
100
AcDbEntity
  8
_1
100
AcDbLine
 62
7
  6
BYLAYER
 10
21.7095128111
 20
12.3508277231
 11
21.7353612726
 21
9.3888874103
  0
LINE
  5
231
100
AcDbEntity
  8
_1
100
AcDbLine
 62
7
  6
BYLAYER
 10
21.746545845
 20
9.3865595021
 11
21.6377425485
 21
21.8541823748
  0
LINE
  5
232
100
AcDbEntity
  8
_1
100
AcDbLine
 62
7
  6
BYLAYER
 10
22.2535279266
 20
56.8071950456
 11
22.2535279266
 21
62.3071950456
  0
LINE
  5
233
100
AcDbEntity
  8
_1
100
AcDbLine
 62
7
  6
BYLAYER
 10
21.7535279266
 20
41.4721950456
 11
56.7535279266
 21
41.4721950456
  0
LINE
  5
234
100
AcDbEntity
  8
_1
100
AcDbLine
 62
7
  6
BYLAYER
 10
31.5149389123
 20
70.6071950456
 11
31.5149389123
 21
67.0071950456
  0
LINE
  5
235
100
AcDbEntity
  8
_1
100
AcDbLine
 62
7
  6
BYLAYER
 10
31.7535279266
 20
67.0071950456
 11
31.7535279266
 21
69.0071950456
  0
LINE
  5
236
100
AcDbEntity
  8
_1
100
AcDbLine
 62
7
  6
BYLAYER
 10
34.242116941
 20
69.5071950456
 11
34.242116941
 21
70.6071950456
  0
LINE
  5
237
100
AcDbEntity
  8
_1
100
AcDbLine
 62
7
  6
BYLAYER
 10
34.5035279266
 20
67.0071950456
 11
34.5035279266
 21
62.4071950456
  0
LINE
  5
238
100
AcDbEntity
  8
_1
100
AcDbLine
 62
7
  6
BYLAYER
 10
36.5035279266
 20
70.6071950456
 11
36.5035279266
 21
69.5071950456
  0
LINE
  5
239
100
AcDbEntity
  8
_1
100
AcDbLine
 62
7
  6
BYLAYER
 10
37.2535279266
 20
67.0071950456
 11
37.2535279266
 21
69.0071950456
  0
LINE
  5
23A
100
AcDbEntity
  8
_1
100
AcDbLine
 62
7
  6
BYLAYER
 10
37.5035279266
 20
62.4071950456
 11
37.5035279266
 21
67.0071950456
  0
LINE
  5
23B
100
AcDbEntity
  8
_1
100
AcDbLine
 62
7
  6
BYLAYER
 10
37.7352709978
 20
75.6071950456
 11
37.7352709978
 21
90.5708853157
  0
LINE
  5
23C
100
AcDbEntity
  8
_1
100
AcDbLine
 62
7
  6
BYLAYER
 10
38.5035279266
 20
87.9042189192
 11
38.5035279266
 21
70.6071950456
  0
LINE
  5
23D
100
AcDbEntity
  8
_1
100
AcDbLine
 62
7
  6
BYLAYER
 10
39.2535279266
 20
63.1071950456
 11
39.2535279266
 21
66.3071950456
  0
LINE
  5
23E
100
AcDbEntity
  8
_1
100
AcDbLine
 62
7
  6
BYLAYER
 10
39.2535279266
 20
68.0071950456
 11
39.2535279266
 21
71.2071950456
  0
LINE
  5
23F
100
AcDbEntity
  8
_1
100
AcDbLine
 62
7
  6
BYLAYER
 10
11.862613774
 20
52.8071950456
 11
18.2535279266
 21
52.8071950456
  0
LINE
  5
240
100
AcDbEntity
  8
_1
100
AcDbLine
 62
7
  6
BYLAYER
 10
60.2535279266
 20
52.8071950456
 11
66.6444420792
 21
52.8071950456
  0
LINE
  5
241
100
AcDbEntity
  8
_1
100
AcDbLine
 62
7
  6
BYLAYER
 10
40.0035279266
 20
70.6071950456
 11
40.0035279266
 21
87.9042189192
  0
LINE
  5
242
100
AcDbEntity
  8
_1
100
AcDbLine
 62
7
  6
BYLAYER
 10
40.8416263944
 20
90.593916058
 11
40.8416263944
 21
75.6071950456
  0
LINE
  5
243
100
AcDbEntity
  8
_1
100
AcDbLine
 62
7
  6
BYLAYER
 10
41.0035279266
 20
67.0071950456
 11
41.0035279266
 21
62.4071950456
  0
LINE
  5
244
100
AcDbEntity
  8
_1
100
AcDbLine
 62
7
  6
BYLAYER
 10
41.2535279266
 20
67.0071950456
 11
41.2535279266
 21
69.0071950456
  0
LINE
  5
245
100
AcDbEntity
  8
_1
100
AcDbLine
 62
7
  6
BYLAYER
 10
42.0035279266
 20
69.5071950456
 11
42.0035279266
 21
70.6071950456
  0
LINE
  5
246
100
AcDbEntity
  8
_1
100
AcDbLine
 62
7
  6
BYLAYER
 10
44.0035279266
 20
62.4071950456
 11
44.0035279266
 21
67.0071950456
  0
LINE
  5
247
100
AcDbEntity
  8
_1
100
AcDbLine
 62
7
  6
BYLAYER
 10
44.2649389123
 20
70.6071950456
 11
44.2649389123
 21
69.5071950456
  0
LINE
  5
248
100
AcDbEntity
  8
_1
100
AcDbLine
 62
7
  6
BYLAYER
 10
46.7535279266
 20
67.0071950456
 11
46.7535279266
 21
69.0071950456
  0
LINE
  5
249
100
AcDbEntity
  8
_1
100
AcDbLine
 62
7
  6
BYLAYER
 10
46.992116941
 20
67.0071950456
 11
46.992116941
 21
70.6071950456
  0
LINE
  5
24A
100
AcDbEntity
  8
_1
100
AcDbLine
 62
7
  6
BYLAYER
 10
11.945519018
 20
62.3071950456
 11
66.5615368352
 21
62.3071950456
  0
LINE
  5
24B
100
AcDbEntity
  8
_1
100
AcDbLine
 62
7
  6
BYLAYER
 10
67.0035279266
 20
62.4071950456
 11
66.3481890621
 21
62.4071950456
  0
LINE
  5
24C
100
AcDbEntity
  8
_1
100
AcDbLine
 62
7
  6
BYLAYER
 10
12.1588667912
 20
62.4071950456
 11
11.5035279266
 21
62.4071950456
  0
LINE
  5
24D
100
AcDbEntity
  8
_1
100
AcDbLine
 62
7
  6
BYLAYER
 10
12.1619412666
 20
62.4071950456
 11
66.3451001705
 21
62.4071950456
  0
LINE
  5
24E
100
AcDbEntity
  8
_1
100
AcDbLine
 62
7
  6
BYLAYER
 10
41.0035279266
 20
62.6071950456
 11
37.5035279266
 21
62.6071950456
  0
LINE
  5
24F
100
AcDbEntity
  8
_1
100
AcDbLine
 62
7
  6
BYLAYER
 10
37.5035279266
 20
63.1071950456
 11
41.0035279266
 21
63.1071950456
  0
LINE
  5
250
100
AcDbEntity
  8
_1
100
AcDbLine
 62
7
  6
BYLAYER
 10
41.0035279266
 20
66.3071950456
 11
37.5035279266
 21
66.3071950456
  0
LINE
  5
251
100
AcDbEntity
  8
_1
100
AcDbLine
 62
7
  6
BYLAYER
 10
11.5035279266
 20
67.0071950456
 11
37.5035279266
 21
67.0071950456
  0
LINE
  5
252
100
AcDbEntity
  8
_1
100
AcDbLine
 62
7
  6
BYLAYER
 10
41.0035279266
 20
67.0071950456
 11
67.0035279266
 21
67.0071950456
  0
LINE
  5
253
100
AcDbEntity
  8
_1
100
AcDbLine
 62
7
  6
BYLAYER
 10
37.2535279266
 20
67.1071950456
 11
41.2535279266
 21
67.1071950456
  0
LINE
  5
254
100
AcDbEntity
  8
_1
100
AcDbLine
 62
7
  6
BYLAYER
 10
37.2535279266
 20
68.0071950456
 11
41.2535279266
 21
68.0071950456
  0
LINE
  5
255
100
AcDbEntity
  8
_1
100
AcDbLine
 62
7
  6
BYLAYER
 10
11.7535279266
 20
69.0071950456
 11
17.2535279266
 21
69.0071950456
  0
LINE
  5
256
100
AcDbEntity
  8
_1
100
AcDbLine
 62
7
  6
BYLAYER
 10
31.7535279266
 20
69.0071950456
 11
37.2535279266
 21
69.0071950456
  0
LINE
  5
257
100
AcDbEntity
  8
_1
100
AcDbLine
 62
7
  6
BYLAYER
 10
41.2535279266
 20
69.0071950456
 11
46.7535279266
 21
69.0071950456
  0
LINE
  5
258
100
AcDbEntity
  8
_1
100
AcDbLine
 62
7
  6
BYLAYER
 10
61.2535279266
 20
69.0071950456
 11
66.7535279266
 21
69.0071950456
  0
LINE
  5
259
100
AcDbEntity
  8
_1
100
AcDbLine
 62
7
  6
BYLAYER
 10
12.2535279266
 20
69.5071950456
 11
16.7535279266
 21
69.5071950456
  0
LINE
  5
25A
100
AcDbEntity
  8
_1
100
AcDbLine
 62
7
  6
BYLAYER
 10
32.2535279266
 20
69.5071950456
 11
36.7535279266
 21
69.5071950456
  0
LINE
  5
25B
100
AcDbEntity
  8
_1
100
AcDbLine
 62
7
  6
BYLAYER
 10
41.7535279266
 20
69.5071950456
 11
46.2535279266
 21
69.5071950456
  0
LINE
  5
25C
100
AcDbEntity
  8
_1
100
AcDbLine
 62
7
  6
BYLAYER
 10
61.7535279266
 20
69.5071950456
 11
66.2535279266
 21
69.5071950456
  0
LINE
  5
25D
100
AcDbEntity
  8
_1
100
AcDbLine
 62
7
  6
BYLAYER
 10
56.2535279266
 20
62.3071950456
 11
56.2535279266
 21
56.8071950456
  0
LINE
  5
25E
100
AcDbEntity
  8
_1
100
AcDbLine
 62
7
  6
BYLAYER
 10
56.8693133048
 20
21.8541823748
 11
56.7605100083
 21
9.3865595021
  0
LINE
  5
25F
100
AcDbEntity
  8
_1
100
AcDbLine
 62
7
  6
BYLAYER
 10
56.7716945807
 20
9.3888874103
 11
56.7975430422
 21
12.3508277231
  0
LINE
  5
260
100
AcDbEntity
  8
_1
100
AcDbLine
 62
7
  6
BYLAYER
 10
10.5035279266
 20
70.6071950456
 11
38.5035279266
 21
70.6071950456
  0
LINE
  5
261
100
AcDbEntity
  8
_1
100
AcDbLine
 62
7
  6
BYLAYER
 10
40.0035279266
 20
70.6071950456
 11
68.0035279266
 21
70.6071950456
  0
LINE
  5
262
100
AcDbEntity
  8
_1
100
AcDbLine
 62
7
  6
BYLAYER
 10
38.5035279266
 20
71.2071950456
 11
40.0035279266
 21
71.2071950456
  0
LINE
  5
263
100
AcDbEntity
  8
_1
100
AcDbLine
 62
7
  6
BYLAYER
 10
59.2535279266
 20
30.6421950456
 11
59.2535279266
 21
38.9721950456
  0
LINE
  5
264
100
AcDbEntity
  8
_1
100
AcDbLine
 62
7
  6
BYLAYER
 10
61.0149389123
 20
70.6071950456
 11
61.0149389123
 21
67.0071950456
  0
LINE
  5
265
100
AcDbEntity
  8
_1
100
AcDbLine
 62
7
  6
BYLAYER
 10
61.2535279266
 20
67.0071950456
 11
61.2535279266
 21
69.0071950456
  0
LINE
  5
266
100
AcDbEntity
  8
_1
100
AcDbLine
 62
7
  6
BYLAYER
 10
38.5035279266
 20
75.1071950456
 11
40.0035279266
 21
75.1071950456
  0
LINE
  5
267
100
AcDbEntity
  8
_1
100
AcDbLine
 62
7
  6
BYLAYER
 10
67.1654294588
 20
75.6071950456
 11
40.8416263944
 21
75.6071950456
  0
LINE
  5
268
100
AcDbEntity
  8
_1
100
AcDbLine
 62
7
  6
BYLAYER
 10
37.7352709978
 20
75.6071950456
 11
11.2717848555
 21
75.6071950456
  0
LINE
  5
269
100
AcDbEntity
  8
_1
100
AcDbLine
 62
7
  6
BYLAYER
 10
63.742116941
 20
69.5071950456
 11
63.742116941
 21
70.6071950456
  0
LINE
  5
26A
100
AcDbEntity
  8
_1
100
AcDbLine
 62
7
  6
BYLAYER
 10
64.0035279266
 20
67.0071950456
 11
64.0035279266
 21
62.4071950456
  0
LINE
  5
26B
100
AcDbEntity
  8
_1
100
AcDbLine
 62
7
  6
BYLAYER
 10
64.5135390624
 20
62.4071950456
 11
64.5135390624
 21
62.3071950456
  0
LINE
  5
26C
100
AcDbEntity
  8
_1
100
AcDbLine
 62
7
  6
BYLAYER
 10
66.5135427175
 20
62.3067762073
 11
66.5126663756
 21
62.4071950456
  0
LINE
  5
26D
100
AcDbEntity
  8
_1
100
AcDbLine
 62
7
  6
BYLAYER
 10
66.7535279266
 20
40.3071950456
 11
66.5615368352
 21
62.3071950456
  0
LINE
  5
26E
100
AcDbEntity
  8
_1
100
AcDbLine
 62
7
  6
BYLAYER
 10
66.0035279266
 20
70.6071950456
 11
66.0035279266
 21
69.5071950456
  0
LINE
  5
26F
100
AcDbEntity
  8
_1
100
AcDbLine
 62
7
  6
BYLAYER
 10
66.7535279266
 20
40.3071950456
 11
66.7535279266
 21
34.8071950456
  0
LINE
  5
270
100
AcDbEntity
  8
_1
100
AcDbLine
 62
7
  6
BYLAYER
 10
66.7535279266
 20
67.0071950456
 11
66.7535279266
 21
69.0071950456
  0
LINE
  5
271
100
AcDbEntity
  8
_1
100
AcDbLine
 62
7
  6
BYLAYER
 10
67.0035279266
 20
62.4071950456
 11
67.0035279266
 21
67.0071950456
  0
LINE
  5
272
100
AcDbEntity
  8
_1
100
AcDbLine
 62
7
  6
BYLAYER
 10
67.1654294588
 20
75.6071950456
 11
67.1654294588
 21
90.593916058
  0
LINE
  5
273
100
AcDbEntity
  8
_1
100
AcDbLine
 62
7
  6
BYLAYER
 10
68.0035279266
 20
87.9042189192
 11
68.0035279266
 21
70.6071950456
  0
LINE
  5
274
100
AcDbEntity
  8
_1
100
AcDbLine
 62
7
  6
BYLAYER
 10
66.7535279266
 20
34.8071950456
 11
66.6862086763
 21
27.0931730178
  0
LINE
  5
275
100
AcDbEntity
  8
_1
100
AcDbLine
 62
7
  6
BYLAYER
 10
66.5567926247
 20
12.2635623681
 11
66.6836438575
 21
26.7992738927
  0
LINE
  5
276
100
AcDbEntity
  8
_1
100
AcDbLine
 62
7
  6
BYLAYER
 10
18.6984208293
 20
101.8071950456
 11
30.308635024
 21
101.8071950456
  0
LINE
  5
277
100
AcDbEntity
  8
_1
100
AcDbLine
 62
7
  6
BYLAYER
 10
48.1984208293
 20
101.8071950456
 11
59.808635024
 21
101.8071950456
  0
ARC
  5
278
100
AcDbEntity
  8
_1
100
AcDbCircle
 62
7
  6
BYLAYER
 10
11.7535279266
 20
29.3071950456
 40
54.9772799243
100
AcDbArc
 50
348.2413564237
 51
357.6919841826
  0
ARC
  5
279
100
AcDbEntity
  8
_1
100
AcDbCircle
 62
7
  6
BYLAYER
 10
16.2535279266
 20
21.8071950456
 40
5.3844196441
100
AcDbArc
 50
0.5
 51
90.0
  0
ARC
  5
27A
100
AcDbEntity
  8
_1
100
AcDbCircle
 62
7
  6
BYLAYER
 10
16.9500728439
 20
12.3071950456
 40
5.0
100
AcDbArc
 50
180.5
 51
270.0
  0
ARC
  5
27B
100
AcDbEntity
  8
_1
100
AcDbCircle
 62
7
  6
BYLAYER
 10
16.7097031958
 20
12.3071950456
 40
5.0
100
AcDbArc
 50
21.1478284097
 51
41.9623636197
  0
ARC
  5
27C
100
AcDbEntity
  8
_1
100
AcDbCircle
 62
7
  6
BYLAYER
 10
16.7097031958
 20
12.3071950456
 40
5.0
100
AcDbArc
 50
0.5
 51
2.641877958
  0
ARC
  5
27D
100
AcDbEntity
  8
_1
100
AcDbCircle
 62
7
  6
BYLAYER
 10
16.7208674528
 20
12.3071950456
 40
5.0
100
AcDbArc
 50
0.5
 51
90.0
  0
CIRCLE
  5
27E
100
AcDbEntity
  8
_1
100
AcDbCircle
 62
7
  6
BYLAYER
 10
16.2535279266
 20
21.8071950456
 40
3.0
  0
CIRCLE
  5
27F
100
AcDbEntity
  8
_1
100
AcDbCircle
 62
7
  6
BYLAYER
 10
16.9796643193
 20
12.5333314382
 40
2.75
  0
ARC
  5
280
100
AcDbEntity
  8
_1
100
AcDbCircle
 62
7
  6
BYLAYER
 10
21.7535279266
 20
30.6421950456
 40
2.5
100
AcDbArc
 50
180.0
 51
270.0
  0
ARC
  5
281
100
AcDbEntity
  8
_1
100
AcDbCircle
 62
7
  6
BYLAYER
 10
21.7535279266
 20
38.9721950456
 40
2.5
100
AcDbArc
 50
90.0
 51
180.0
  0
ARC
  5
282
100
AcDbEntity
  8
_1
100
AcDbCircle
 62
7
  6
BYLAYER
 10
22.7465074412
 20
9.3834864631
 40
1.0
100
AcDbArc
 50
257.2053864358
 51
258.2511692305
  0
ARC
  5
283
100
AcDbEntity
  8
_1
100
AcDbCircle
 62
7
  6
BYLAYER
 10
22.7353231956
 20
9.3976139458
 40
1.0
100
AcDbArc
 50
180.5
 51
216.5310127163
  0
ARC
  5
284
100
AcDbEntity
  8
_1
100
AcDbCircle
 62
7
  6
BYLAYER
 10
22.746507768
 20
9.3952860376
 40
1.0
100
AcDbArc
 50
180.5
 51
258.2486223849
  0
ARC
  5
285
100
AcDbEntity
  8
_1
100
AcDbCircle
 62
7
  6
BYLAYER
 10
13.9089752459
 20
18.3071950456
 40
1.0
100
AcDbArc
 50
191.7586435763
 51
270.0
  0
ARC
  5
286
100
AcDbEntity
  8
_1
100
AcDbCircle
 62
7
  6
BYLAYER
 10
33.7535279266
 20
62.3071950456
 40
55.0562062125
100
AcDbArc
 50
258.2511692305
 51
267.4108118902
  0
ARC
  5
287
100
AcDbEntity
  8
_1
100
AcDbCircle
 62
7
  6
BYLAYER
 10
33.7535279266
 20
62.3071950456
 40
55.0446538304
100
AcDbArc
 50
258.248622385
 51
267.6919841826
  0
CIRCLE
  5
288
100
AcDbEntity
  8
_1
100
AcDbCircle
 62
7
  6
BYLAYER
 10
24.5035279266
 20
87.8071950456
 40
11.5
  0
CIRCLE
  5
289
100
AcDbEntity
  8
_1
100
AcDbCircle
 62
7
  6
BYLAYER
 10
24.5035279266
 20
87.8071950456
 40
9.5
  0
ARC
  5
28A
100
AcDbEntity
  8
_1
100
AcDbCircle
 62
7
  6
BYLAYER
 10
18.2535279266
 20
56.8071950456
 40
4.0
100
AcDbArc
 50
270.0
 51
360.0
  0
CIRCLE
  5
28B
100
AcDbEntity
  8
_1
100
AcDbCircle
 62
7
  6
BYLAYER
 10
18.2535279266
 20
56.8071950456
 40
3.0
  0
CIRCLE
  5
28C
100
AcDbEntity
  8
_1
100
AcDbCircle
 62
7
  6
BYLAYER
 10
30.089391781
 20
88.8821950456
 40
0.5
  0
CIRCLE
  5
28D
100
AcDbEntity
  8
_1
100
AcDbCircle
 62
7
  6
BYLAYER
 10
29.4735445727
 20
85.040168747
 40
0.5
  0
CIRCLE
  5
28E
100
AcDbEntity
  8
_1
100
AcDbCircle
 62
7
  6
BYLAYER
 10
28.0915512119
 20
92.221216897
 40
0.5
  0
CIRCLE
  5
28F
100
AcDbEntity
  8
_1
100
AcDbCircle
 62
7
  6
BYLAYER
 10
26.5321713401
 20
82.4928648055
 40
0.5
  0
CIRCLE
  5
290
100
AcDbEntity
  8
_1
100
AcDbCircle
 62
7
  6
BYLAYER
 10
24.5035279266
 20
92.1071950456
 40
0.5
  0
CIRCLE
  5
291
100
AcDbEntity
  8
_1
100
AcDbCircle
 62
7
  6
BYLAYER
 10
24.5035279266
 20
85.6571950456
 40
0.5
  0
CIRCLE
  5
292
100
AcDbEntity
  8
_1
100
AcDbCircle
 62
7
  6
BYLAYER
 10
22.6415733085
 20
82.4321950456
 40
0.5
  0
CIRCLE
  5
293
100
AcDbEntity
  8
_1
100
AcDbCircle
 62
7
  6
BYLAYER
 10
22.6415733085
 20
88.8821950456
 40
0.5
  0
CIRCLE
  5
294
100
AcDbEntity
  8
_1
100
AcDbCircle
 62
7
  6
BYLAYER
 10
20.7796186904
 20
92.1071950456
 40
0.5
  0
CIRCLE
  5
295
100
AcDbEntity
  8
_1
100
AcDbCircle
 62
7
  6
BYLAYER
 10
18.8868612279
 20
88.7075034344
 40
0.5
  0
ARC
  5
296
100
AcDbEntity
  8
_1
100
AcDbCircle
 62
7
  6
BYLAYER
 10
32.2535279266
 20
69.0071950456
 40
0.5
100
AcDbArc
 50
90.0
 51
180.0
  0
ARC
  5
297
100
AcDbEntity
  8
_1
100
AcDbCircle
 62
7
  6
BYLAYER
 10
36.7535279266
 20
69.0071950456
 40
0.5
100
AcDbArc
 50
0.0
 51
90.0
  0
ARC
  5
298
100
AcDbEntity
  8
_1
100
AcDbCircle
 62
7
  6
BYLAYER
 10
16.7535279266
 20
69.0071950456
 40
0.5
100
AcDbArc
 50
0.0
 51
90.0
  0
ARC
  5
299
100
AcDbEntity
  8
_1
100
AcDbCircle
 62
7
  6
BYLAYER
 10
12.2535279266
 20
69.0071950456
 40
0.5
100
AcDbArc
 50
90.0
 51
180.0
  0
ARC
  5
29A
100
AcDbEntity
  8
_1
100
AcDbCircle
 62
7
  6
BYLAYER
 10
66.7535279266
 20
29.3071950456
 40
54.9772799243
100
AcDbArc
 50
182.3080158174
 51
191.7586435763
  0
ARC
  5
29B
100
AcDbEntity
  8
_1
100
AcDbCircle
 62
7
  6
BYLAYER
 10
62.2535279266
 20
21.8071950456
 40
5.3844196441
100
AcDbArc
 50
90.0
 51
179.5
  0
ARC
  5
29C
100
AcDbEntity
  8
_1
100
AcDbCircle
 62
7
  6
BYLAYER
 10
61.5569830094
 20
12.3071950456
 40
5.0
100
AcDbArc
 50
270.0
 51
359.5
  0
ARC
  5
29D
100
AcDbEntity
  8
_1
100
AcDbCircle
 62
7
  6
BYLAYER
 10
61.7973526575
 20
12.3071950456
 40
5.0
100
AcDbArc
 50
138.0365798368
 51
179.5
  0
ARC
  5
29E
100
AcDbEntity
  8
_1
100
AcDbCircle
 62
7
  6
BYLAYER
 10
61.7861884005
 20
12.3071950456
 40
5.0
100
AcDbArc
 50
90.0
 51
179.5
  0
CIRCLE
  5
29F
100
AcDbEntity
  8
_1
100
AcDbCircle
 62
7
  6
BYLAYER
 10
62.2535279266
 20
21.8071950456
 40
3.0
  0
CIRCLE
  5
2A0
100
AcDbEntity
  8
_1
100
AcDbCircle
 62
7
  6
BYLAYER
 10
61.527391534
 20
12.5333314382
 40
2.75
  0
ARC
  5
2A1
100
AcDbEntity
  8
_1
100
AcDbCircle
 62
7
  6
BYLAYER
 10
56.7535279266
 20
38.9721950456
 40
2.5
100
AcDbArc
 50
0.0
 51
90.0
  0
ARC
  5
2A2
100
AcDbEntity
  8
_1
100
AcDbCircle
 62
7
  6
BYLAYER
 10
56.7535279266
 20
30.6421950456
 40
2.5
100
AcDbArc
 50
270.0
 51
360.0
  0
ARC
  5
2A3
100
AcDbEntity
  8
_1
100
AcDbCircle
 62
7
  6
BYLAYER
 10
55.7605484121
 20
9.3834864631
 40
1.0
100
AcDbArc
 50
281.7488307695
 51
282.7946135642
  0
ARC
  5
2A4
100
AcDbEntity
  8
_1
100
AcDbCircle
 62
7
  6
BYLAYER
 10
55.7717326576
 20
9.3976139458
 40
1.0
100
AcDbArc
 50
323.4554641314
 51
359.5
  0
ARC
  5
2A5
100
AcDbEntity
  8
_1
100
AcDbCircle
 62
7
  6
BYLAYER
 10
55.7605480852
 20
9.3952860376
 40
1.0
100
AcDbArc
 50
281.751377615
 51
359.5
  0
ARC
  5
2A6
100
AcDbEntity
  8
_1
100
AcDbCircle
 62
7
  6
BYLAYER
 10
64.5980806074
 20
18.3071950456
 40
1.0
100
AcDbArc
 50
270.0
 51
348.2413564237
  0
ARC
  5
2A7
100
AcDbEntity
  8
_1
100
AcDbCircle
 62
7
  6
BYLAYER
 10
44.7535279266
 20
62.3071950456
 40
55.0562062125
100
AcDbArc
 50
272.5891881098
 51
281.7488307695
  0
ARC
  5
2A8
100
AcDbEntity
  8
_1
100
AcDbCircle
 62
7
  6
BYLAYER
 10
44.7535279266
 20
62.3071950456
 40
55.0446538304
100
AcDbArc
 50
272.3080158174
 51
281.751377615
  0
CIRCLE
  5
2A9
100
AcDbEntity
  8
_1
100
AcDbCircle
 62
7
  6
BYLAYER
 10
54.0035279266
 20
87.8071950456
 40
11.5
  0
CIRCLE
  5
2AA
100
AcDbEntity
  8
_1
100
AcDbCircle
 62
7
  6
BYLAYER
 10
54.0035279266
 20
87.8071950456
 40
9.25
  0
ARC
  5
2AB
100
AcDbEntity
  8
_1
100
AcDbCircle
 62
7
  6
BYLAYER
 10
60.2535279266
 20
56.8071950456
 40
4.0
100
AcDbArc
 50
180.0
 51
270.0
  0
CIRCLE
  5
2AC
100
AcDbEntity
  8
_1
100
AcDbCircle
 62
7
  6
BYLAYER
 10
60.2535279266
 20
56.8071950456
 40
3.0
  0
CIRCLE
  5
2AD
100
AcDbEntity
  8
_1
100
AcDbCircle
 62
7
  6
BYLAYER
 10
59.8530953997
 20
86.4720694419
 40
1.25
  0
CIRCLE
  5
2AE
100
AcDbEntity
  8
_1
100
AcDbCircle
 62
7
  6
BYLAYER
 10
58.6945168214
 20
91.5481338568
 40
1.25
  0
CIRCLE
  5
2AF
100
AcDbEntity
  8
_1
100
AcDbCircle
 62
7
  6
BYLAYER
 10
56.6068303613
 20
82.4013818382
 40
1.25
  0
CIRCLE
  5
2B0
100
AcDbEntity
  8
_1
100
AcDbCircle
 62
7
  6
BYLAYER
 10
54.0035279266
 20
93.8071950456
 40
1.25
  0
CIRCLE
  5
2B1
100
AcDbEntity
  8
_1
100
AcDbCircle
 62
7
  6
BYLAYER
 10
54.0035279266
 20
87.8071950456
 40
1.25
  0
CIRCLE
  5
2B2
100
AcDbEntity
  8
_1
100
AcDbCircle
 62
7
  6
BYLAYER
 10
49.3125390318
 20
91.5481338568
 40
1.25
  0
CIRCLE
  5
2B3
100
AcDbEntity
  8
_1
100
AcDbCircle
 62
7
  6
BYLAYER
 10
59.8530953997
 20
86.4720694419
 40
0.5
  0
CIRCLE
  5
2B4
100
AcDbEntity
  8
_1
100
AcDbCircle
 62
7
  6
BYLAYER
 10
56.6068303613
 20
82.4013818382
 40
0.5
  0
ARC
  5
2B5
100
AcDbEntity
  8
_1
100
AcDbCircle
 62
7
  6
BYLAYER
 10
61.7535279266
 20
69.0071950456
 40
0.5
100
AcDbArc
 50
90.0
 51
180.0
  0
ARC
  5
2B6
100
AcDbEntity
  8
_1
100
AcDbCircle
 62
7
  6
BYLAYER
 10
66.2535279266
 20
69.0071950456
 40
0.5
100
AcDbArc
 50
0.0
 51
90.0
  0
ARC
  5
2B7
100
AcDbEntity
  8
_1
100
AcDbCircle
 62
7
  6
BYLAYER
 10
46.2535279266
 20
69.0071950456
 40
0.5
100
AcDbArc
 50
0.0
 51
90.0
  0
ARC
  5
2B8
100
AcDbEntity
  8
_1
100
AcDbCircle
 62
7
  6
BYLAYER
 10
41.7535279266
 20
69.0071950456
 40
0.5
100
AcDbArc
 50
90.0
 51
180.0
  0
SPLINE
  5
2B9
100
AcDbEntity
  8
_1
100
AcDbSpline
 62
7
  6
BYLAYER
 70
0
 71
3
 72
16
 73
12
 74
0
 42
0.0000001
 43
0.0000001
 44
0.0000000001
 40
0.0
 40
0.0
 40
0.0
 40
0.0
 40
0.141543687
 40
0.2760240942
 40
0.4046186759
 40
0.5286191054
 40
0.649207544
 40
0.7673863751
 40
0.8258783912
 40
0.8840985926
 40
1.0
 40
1.0
 40
1.0
 40
1.0
 10
18.6984208293
 20
101.8071950456
 30
0.0
 10
17.9813513479
 20
101.4506135722
 30
0.0
 10
16.6424103246
 20
100.6282518697
 30
0.0
 10
14.9120604581
 20
99.1153930175
 30
0.0
 10
13.4973965292
 20
97.4331280433
 30
0.0
 10
12.3764480895
 20
95.636101204
 30
0.0
 10
11.5275501806
 20
93.7612680712
 30
0.0
 10
11.0302892013
 20
92.1497893868
 30
0.0
 10
10.7559313115
 20
90.8487031436
 30
0.0
 10
10.5617762088
 20
89.5464346305
 30
0.0
 10
10.5035279266
 20
88.5599745474
 30
0.0
 10
10.5035279266
 20
87.9042189192
 30
0.0
  0
SPLINE
  5
2BA
100
AcDbEntity
  8
_1
100
AcDbSpline
 62
7
  6
BYLAYER
 70
0
 71
3
 72
19
 73
15
 74
0
 42
0.0000001
 43
0.0000001
 44
0.0000000001
 40
0.0
 40
0.0
 40
0.0
 40
0.0
 40
0.0717507978
 40
0.1416423878
 40
0.2097315377
 40
0.2761885737
 40
0.3411751397
 40
0.4048309834
 40
0.528785768
 40
0.6493334695
 40
0.7674639698
 40
0.8259369457
 40
0.8841378773
 40
1.0
 40
1.0
 40
1.0
 40
1.0
 10
30.308635024
 20
101.8071950456
 30
0.0
 10
30.6722461305
 20
101.6263799538
 30
0.0
 10
31.3740839765
 20
101.2363389098
 30
0.0
 10
32.3586976859
 20
100.5709535861
 30
0.0
 10
33.2610766076
 20
99.844625876
 30
0.0
 10
34.0818075443
 20
99.0672552552
 30
0.0
 10
34.8237328056
 20
98.24801389
 30
0.0
 10
35.704464537
 20
97.1205975454
 30
0.0
 10
36.6306907788
 20
95.635681243
 30
0.0
 10
37.4794514377
 20
93.7611109107
 30
0.0
 10
37.9767895831
 20
92.1496840699
 30
0.0
 10
38.2511219144
 20
90.8486614468
 30
0.0
 10
38.4452801559
 20
89.5464084902
 30
0.0
 10
38.5035279266
 20
88.5599631355
 30
0.0
 10
38.5035279266
 20
87.9042189192
 30
0.0
  0
SPLINE
  5
2BB
100
AcDbEntity
  8
_1
100
AcDbSpline
 62
7
  6
BYLAYER
 70
0
 71
3
 72
16
 73
12
 74
0
 42
0.0000001
 43
0.0000001
 44
0.0000000001
 40
0.0
 40
0.0
 40
0.0
 40
0.0
 40
0.1415439112
 40
0.2760243721
 40
0.4046189347
 40
0.5286193717
 40
0.6492077161
 40
0.7673865234
 40
0.8258785004
 40
0.8840986483
 40
1.0
 40
1.0
 40
1.0
 40
1.0
 10
48.1984208293
 20
101.8071950456
 30
0.0
 10
47.4813502106
 20
101.4506130067
 30
0.0
 10
46.1424079176
 20
100.628250308
 30
0.0
 10
44.4120572646
 20
99.1153900697
 30
0.0
 10
42.9973940066
 20
97.433124244
 30
0.0
 10
41.8764459453
 20
95.6360978767
 30
0.0
 10
41.0275490726
 20
93.7612649282
 30
0.0
 10
40.5302888464
 20
92.1497869831
 30
0.0
 10
40.2559308682
 20
90.8487014256
 30
0.0
 10
40.0617762803
 20
89.5464336793
 30
0.0
 10
40.0035279266
 20
88.5599742334
 30
0.0
 10
40.0035279266
 20
87.9042189192
 30
0.0
  0
SPLINE
  5
2BC
100
AcDbEntity
  8
_1
100
AcDbSpline
 62
7
  6
BYLAYER
 70
0
 71
3
 72
19
 73
15
 74
0
 42
0.0000001
 43
0.0000001
 44
0.0000000001
 40
0.0
 40
0.0
 40
0.0
 40
0.0
 40
0.0717508579
 40
0.1416426311
 40
0.2097318193
 40
0.2761888334
 40
0.3411754281
 40
0.404831281
 40
0.5287859824
 40
0.6493336694
 40
0.7674640992
 40
0.8259370223
 40
0.8841379072
 40
1.0
 40
1.0
 40
1.0
 40
1.0
 10
59.808635024
 20
101.8071950456
 30
0.0
 10
60.1722464346
 20
101.6263798026
 30
0.0
 10
60.8740856803
 20
101.236338406
 30
0.0
 10
61.8587000516
 20
100.5709511723
 30
0.0
 10
62.7610798011
 20
99.8446227966
 30
0.0
 10
63.5818115679
 20
99.0672525907
 30
0.0
 10
64.3237349182
 20
98.2480093579
 30
0.0
 10
65.2044668043
 20
97.120593581
 30
0.0
 10
66.130693824
 20
95.6356782136
 30
0.0
 10
66.9794519464
 20
93.7611077506
 30
0.0
 10
67.476790012
 20
92.149681804
 30
0.0
 10
67.7511223841
 20
90.8486601571
 30
0.0
 10
67.9452800907
 20
89.5464078642
 30
0.0
 10
68.0035279266
 20
88.5599629648
 30
0.0
 10
68.0035279266
 20
87.9042189192
 30
0.0
  0
ELLIPSE
  5
2BD
100
AcDbEntity
  8
_1
100
AcDbEllipse
 62
7
  6
BYLAYER
 10
37.9098748453
 20
75.6071950456
 30
0.0
 11
0.0
 21
5.0
 31
0.0
 40
0.0349207695
 41
-4.7123889804
 42
-3.1415926536
  0
ELLIPSE
  5
2BE
100
AcDbEntity
  8
_1
100
AcDbEllipse
 62
7
  6
BYLAYER
 10
11.097181008
 20
75.6071950456
 30
0.0
 11
-0.0
 21
5.0
 31
0.0
 40
0.0349207695
 41
-3.1415926536
 42
-1.5707963268
  0
ELLIPSE
  5
2BF
100
AcDbEntity
  8
_1
100
AcDbEllipse
 62
7
  6
BYLAYER
 10
24.5035279266
 20
52.8293535257
 30
0.0
 11
13.2075188366
 21
37.7505922521
 31
0.0
 40
0.1230028499
 41
-0.3380770455
 42
-0.0052561986
  0
ELLIPSE
  5
2C0
100
AcDbEntity
  8
_1
100
AcDbEllipse
 62
7
  6
BYLAYER
 10
24.5035279266
 20
85.9794683217
 30
0.0
 11
0.0
 21
14.0534777256
 31
0.0
 40
0.9961946981
 41
-1.23797548
 42
1.23797548
  0
ELLIPSE
  5
2C1
100
AcDbEntity
  8
_1
100
AcDbEllipse
 62
7
  6
BYLAYER
 10
24.5035279266
 20
52.8293535257
 30
0.0
 11
-13.2075188366
 21
37.7505922521
 31
0.0
 40
0.1230028499
 41
0.0052561986
 42
0.3380770455
  0
ELLIPSE
  5
2C2
100
AcDbEntity
  8
_1
100
AcDbEllipse
 62
7
  6
BYLAYER
 10
54.0035279266
 20
52.8293535257
 30
0.0
 11
13.2075188366
 21
37.7505922521
 31
0.0
 40
0.1230028499
 41
-0.3380770455
 42
0.0096906508
  0
ELLIPSE
  5
2C3
100
AcDbEntity
  8
_1
100
AcDbEllipse
 62
7
  6
BYLAYER
 10
54.0035279266
 20
85.8044909946
 30
0.0
 11
0.0
 21
14.0534777256
 31
0.0
 40
0.9961946981
 41
-1.2230286305
 42
1.2230286305
  0
ELLIPSE
  5
2C4
100
AcDbEntity
  8
_1
100
AcDbEllipse
 62
7
  6
BYLAYER
 10
54.0035279266
 20
52.8293535257
 30
0.0
 11
-13.2075188366
 21
37.7505922521
 31
0.0
 40
0.1230028499
 41
-0.0096906508
 42
0.3380770455
  0
ELLIPSE
  5
2C5
100
AcDbEntity
  8
_1
100
AcDbEllipse
 62
7
  6
BYLAYER
 10
67.3400333063
 20
75.6071950456
 30
0.0
 11
0.0
 21
5.0
 31
0.0
 40
0.0349207695
 41
1.5707963268
 42
3.1415926536
  0
ELLIPSE
  5
2C6
100
AcDbEntity
  8
_1
100
AcDbEllipse
 62
7
  6
BYLAYER
 10
40.667022547
 20
75.6071950456
 30
0.0
 11
0.0
 21
5.0
 31
0.0
 40
0.0349207695
 41
-3.1415926536
 42
-1.5707963268
  0
ENDSEC
  0
SECTION
  2
OBJECTS
  0
DICTIONARY
  5
C
100
AcDbDictionary
280
0
281
1
  3
ACAD_GROUP
350
D
  3
ACAD_MLINESTYLE
350
17
  3
ACAD_LAYOUT
350
1A
  3
ACAD_PLOTSETTINGS
350
19
  3
ACAD_PLOTSTYLENAME
350
E
  0
DICTIONARY
  5
D
102
{ACAD_REACTORS
330
C
102
}
100
AcDbDictionary
280
0
281
1
  0
ACDBDICTIONARYWDFLT
  5
E
102
{ACAD_REACTORS
330
C
102
}
100
AcDbDictionary
281
1
  3
Normal
350
F
100
AcDbDictionaryWithDefault
340
F
  0
DICTIONARY
  5
17
102
{ACAD_REACTORS
330
C
102
}
100
AcDbDictionary
280
0
281
1
  3
Standard
350
18
  0
DICTIONARY
  5
19
102
{ACAD_REACTORS
330
C
102
}
100
AcDbDictionary
281
1
  0
DICTIONARY
  5
1A
102
{ACAD_REACTORS
330
C
102
}
100
AcDbDictionary
281
1
  3
Model
350
2C7
  3
Layout1
350
2C8
  0
ACDBPLACEHOLDER
  5
F
102
{ACAD_REACTORS
330
E
102
}
  0
MLINESTYLE
  5
18
102
{ACAD_REACTORS
330
17
102
}
100
AcDbMlineStyle
  2
STANDARD
 70
0
  3

 62
256
 51
90.0
 52
90.0
 71
2
 49
0.5
 62
256
  6
BYLAYER
 49
-0.5
 62
256
  6
BYLAYER
  0
LAYOUT
  5
2C7
102
{ACAD_REACTORS
330
1A
102
}
100
AcDbPlotSettings
  1

  2
none_device
  4

  6

 40
0.0
 41
0.0
 42
0.0
 43
0.0
 44
210.0
 45
297.0
 46
0.0
 47
0.0
 48
0.0
 49
0.0
140
0.0
141
0.0
142
1.0
143
1.0
 70
1024
 72
1
 73
0
 74
0
  7

 75
0
147
1.0
148
0.0
149
0.0
100
AcDbLayout
  1
Model
 70
0
 71
0
 10
0.0
 20
0.0
 11
210.0
 21
297.0
 12
0.0
 22
0.0
 32
0.0
 14
0.0
 24
0.0
 34
0.0
 15
0.0
 25
0.0
 35
0.0
146
0.0
 13
0.0
 23
0.0
 33
0.0
 16
1.0
 26
0.0
 36
0.0
 17
0.0
 27
1.0
 37
0.0
 76
0
330
211
345
0
346
0
  0
LAYOUT
  5
2C8
102
{ACAD_REACTORS
330
1A
102
}
100
AcDbPlotSettings
  1

  2
none_device
  4

  6

 40
0.0
 41
0.0
 42
0.0
 43
0.0
 44
210.0
 45
297.0
 46
0.0
 47
0.0
 48
0.0
 49
0.0
140
0.0
141
0.0
142
1.0
143
1.0
 70
0
 72
1
 73
0
 74
0
  7

 75
0
147
1.0
148
0.0
149
0.0
100
AcDbLayout
  1
Layout1
 70
0
 71
1
 10
0.0
 20
0.0
 11
210.0
 21
297.0
 12
0.0
 22
0.0
 32
0.0
 14
0.0
 24
0.0
 34
0.0
 15
0.0
 25
0.0
 35
0.0
146
0.0
 13
0.0
 23
0.0
 33
0.0
 16
1.0
 26
0.0
 36
0.0
 17
0.0
 27
1.0
 37
0.0
 76
0
330
212
345
0
346
0
  0
ENDSEC
  0
EOF
