999
DXF file: C:\Users\sesa63760\Dev\_Creo\CAD\MCADID0002176_3D-CAD\drw0001_5.dxf
999
Pro/ENGINEER 2019471 by Parametric Technology Corporation
  0
SECTION
  2
HEADER
  9
$ACADVER
  1
AC1024
  9
$DWGCODEPAGE
  3
ANSI_1252
  9
$EXTMAX
 10
52.2098536384
 20
73.8396501458
 30
0.0
  9
$EXTMIN
 10
0.0
 20
0.0
 30
0.0
  9
$LIMMIN
 10
0.0
 20
0.0
  9
$LIMMAX
 10
52.2098536384
 20
73.8396501458
  9
$VIEWCTR
 10
26.1049268192
 20
36.9198250729
  9
$VIEWSIZE
 40
73.8396501458
  9
$CLAYER
  8
0
  9
$LTSCALE
 40
4.8132512688
  9
$CELTYPE
  6
BYLAYER
  9
$DIMSCALE
 40
1.0
  9
$DIMASZ
 40
0.6215458766
  9
$DIMEXO
 40
1.0
  9
$DIMDLI
 40
3.3255190584
  9
$DIMEXE
 40
1.0
  9
$DIMCEN
 40
0.7876229349
  9
$DIMLFAC
 40
1.0
  9
$DIMBLK
  1
_FILLED
  9
$DIMALT
 70
0
  9
$DIMALTF
 40
0.0393700787
  9
$DIMTXT
 40
0.8701642273
  9
$DIMTOL
 70
1
  9
$DIMLIM
 70
0
  9
$DIMTFAC
 40
1.0
  9
$DIMTP
 40
0.01
  9
$DIMTM
 40
0.01
  9
$DIMGAP
 40
0.625
  9
$DIMDSEP
 70
46
  9
$AUNITS
 70
0
  9
$PDMODE
 70
3
  9
$PDSIZE
 40
0.3125
  9
$HANDSEED
  5
445
  9
$TILEMODE
 70
1
  9
$MEASUREMENT
 70
1
  9
$INSUNITS
 70
4
  0
ENDSEC
  0
SECTION
  2
CLASSES
  0
CLASS
  1
ACDBDICTIONARYWDFLT
  2
AcDbDictionaryWithDefault
  3
AutoCAD 2000
 90
0
 91
1
280
0
281
0
  0
CLASS
  1
ACDBPLACEHOLDER
  2
AcDbPlaceHolder
  3
AutoCAD 2000
 90
0
 91
1
280
0
281
0
  0
CLASS
  1
LAYOUT
  2
AcDbLayout
  3
AutoCAD 2000
 90
0
 91
0
280
0
281
0
  0
ENDSEC
  0
SECTION
  2
TABLES
  0
TABLE
  2
VPORT
  5
8
100
AcDbSymbolTable
 70
2
  0
VPORT
  5
1F4
100
AcDbSymbolTableRecord
100
AcDbViewportTableRecord
  2
*ACTIVE
 70
0
 10
0.0
 20
0.0
 11
1.0
 21
1.0
 12
26.1049268192
 22
36.9198250729
 13
0.0
 23
0.0
 14
1.0
 24
1.0
 15
0.0
 25
0.0
 16
0.0
 26
0.0
 36
1.0
 17
0.0
 27
0.0
 37
0.0
 40
73.8396501458
 41
0.7070707071
 42
50.0
 43
0.0
 44
0.0
 50
0.0
 51
0.0
 71
0
 72
100
 73
1
 74
1
 75
0
 76
0
 77
0
 78
0
  0
ENDTAB
  0
TABLE
  2
LTYPE
  5
5
100
AcDbSymbolTable
 70
6
  0
LTYPE
  5
14
100
AcDbSymbolTableRecord
100
AcDbLinetypeTableRecord
  2
BYBLOCK
 70
0
  3

 72
65
 73
0
 40
0.0
  0
LTYPE
  5
15
100
AcDbSymbolTableRecord
100
AcDbLinetypeTableRecord
  2
BYLAYER
 70
0
  3

 72
65
 73
0
 40
0.0
  0
LTYPE
  5
16
100
AcDbSymbolTableRecord
100
AcDbLinetypeTableRecord
  2
CONTINUOUS
 70
64
  3
Solid line
 72
65
 73
0
 40
0.0
  0
LTYPE
  5
1F5
100
AcDbSymbolTableRecord
100
AcDbLinetypeTableRecord
  2
CENTER
 70
64
  3
____ _ ____ _ ____ _ ____ _ ____ _ ____ _ ____
 72
65
 73
4
 40
0.6
 49
0.375
 74
0
 49
-0.075
 74
0
 49
0.075
 74
0
 49
-0.075
 74
0
  0
LTYPE
  5
1F6
100
AcDbSymbolTableRecord
100
AcDbLinetypeTableRecord
  2
HIDDEN
 70
64
  3
- - - - - - - - - - - - - - - - - - - -
 72
65
 73
2
 40
0.2
 49
0.1
 74
0
 49
-0.1
 74
0
  0
LTYPE
  5
1F7
100
AcDbSymbolTableRecord
100
AcDbLinetypeTableRecord
  2
PHANTOM
 70
64
  3
_____ _ _ _____ _ _ _____ _ _ _____
 72
65
 73
6
 40
0.8
 49
0.45
 74
0
 49
-0.05
 74
0
 49
0.1
 74
0
 49
-0.05
 74
0
 49
0.1
 74
0
 49
-0.05
 74
0
  0
LTYPE
  5
1F8
100
AcDbSymbolTableRecord
100
AcDbLinetypeTableRecord
  2
DOT
 70
64
  3
. . . . . . . . . . . . . . . . . . . .
 72
65
 73
2
 40
0.2
 49
0.1
 74
0
 49
-0.1
 74
0
  0
LTYPE
  5
1F9
100
AcDbSymbolTableRecord
100
AcDbLinetypeTableRecord
  2
DASHED
 70
64
  3
- - - - - - - - - - - - - - - - - - - -
 72
65
 73
2
 40
0.2
 49
0.1
 74
0
 49
-0.1
 74
0
  0
ENDTAB
  0
TABLE
  2
LAYER
  5
2
100
AcDbSymbolTable
 70
36
  0
LAYER
  5
10
100
AcDbSymbolTableRecord
100
AcDbLayerTableRecord
  2
0
 70
0
 62
7
  6
CONTINUOUS
370
-3
390
F
  0
LAYER
  5
1FA
100
AcDbSymbolTableRecord
100
AcDbLayerTableRecord
  2
DEFAULT_1
 70
0
 62
7
  6
CENTER
370
-3
390
F
  0
LAYER
  5
1FB
100
AcDbSymbolTableRecord
100
AcDbLayerTableRecord
  2
DEFAULT_2
 70
0
 62
8
  6
HIDDEN
370
-3
390
F
  0
LAYER
  5
1FC
100
AcDbSymbolTableRecord
100
AcDbLayerTableRecord
  2
DEFAULT_3
 70
0
 62
7
  6
PHANTOM
370
-3
390
F
  0
LAYER
  5
1FD
100
AcDbSymbolTableRecord
100
AcDbLayerTableRecord
  2
00_COMPONENTS
 70
0
 62
7
  6
CONTINUOUS
370
-3
390
F
  0
LAYER
  5
1FE
100
AcDbSymbolTableRecord
100
AcDbLayerTableRecord
  2
01_1_DEFAULT_DATUMS
 70
0
 62
7
  6
CONTINUOUS
370
-3
390
F
  0
LAYER
  5
1FF
100
AcDbSymbolTableRecord
100
AcDbLayerTableRecord
  2
01_PLANES
 70
0
 62
7
  6
CONTINUOUS
370
-3
390
F
  0
LAYER
  5
200
100
AcDbSymbolTableRecord
100
AcDbLayerTableRecord
  2
02_COORD_SYS
 70
0
 62
7
  6
CONTINUOUS
370
-3
390
F
  0
LAYER
  5
201
100
AcDbSymbolTableRecord
100
AcDbLayerTableRecord
  2
03_AXES
 70
0
 62
7
  6
CONTINUOUS
370
-3
390
F
  0
LAYER
  5
202
100
AcDbSymbolTableRecord
100
AcDbLayerTableRecord
  2
04_POINTS
 70
0
 62
7
  6
CONTINUOUS
370
-3
390
F
  0
LAYER
  5
203
100
AcDbSymbolTableRecord
100
AcDbLayerTableRecord
  2
05_CURVES
 70
0
 62
7
  6
CONTINUOUS
370
-3
390
F
  0
LAYER
  5
204
100
AcDbSymbolTableRecord
100
AcDbLayerTableRecord
  2
06_SURFS
 70
0
 62
7
  6
CONTINUOUS
370
-3
390
F
  0
LAYER
  5
205
100
AcDbSymbolTableRecord
100
AcDbLayerTableRecord
  2
07_COSMETICS
 70
0
 62
7
  6
CONTINUOUS
370
-3
390
F
  0
LAYER
  5
206
100
AcDbSymbolTableRecord
100
AcDbLayerTableRecord
  2
10_NOTES
 70
0
 62
7
  6
CONTINUOUS
370
-3
390
F
  0
LAYER
  5
207
100
AcDbSymbolTableRecord
100
AcDbLayerTableRecord
  2
11_NOTES_PUB
 70
0
 62
7
  6
CONTINUOUS
370
-3
390
F
  0
LAYER
  5
208
100
AcDbSymbolTableRecord
100
AcDbLayerTableRecord
  2
13_REF_GTOL
 70
0
 62
7
  6
CONTINUOUS
370
-3
390
F
  0
LAYER
  5
209
100
AcDbSymbolTableRecord
100
AcDbLayerTableRecord
  2
16_MISC
 70
0
 62
7
  6
CONTINUOUS
370
-3
390
F
  0
LAYER
  5
20A
100
AcDbSymbolTableRecord
100
AcDbLayerTableRecord
  2
17_NO_PRINT
 70
0
 62
7
  6
CONTINUOUS
370
-3
390
F
  0
LAYER
  5
20B
100
AcDbSymbolTableRecord
100
AcDbLayerTableRecord
  2
18_DATUM_CAMS_JOINTS
 70
0
 62
7
  6
CONTINUOUS
370
-3
390
F
  0
LAYER
  5
20C
100
AcDbSymbolTableRecord
100
AcDbLayerTableRecord
  2
19_DATUM_FUNCTIONAL
 70
0
 62
7
  6
CONTINUOUS
370
-3
390
F
  0
LAYER
  5
20D
100
AcDbSymbolTableRecord
100
AcDbLayerTableRecord
  2
20_DATUM_KINEMATIC_SCHEME
 70
0
 62
7
  6
CONTINUOUS
370
-3
390
F
  0
ENDTAB
  0
TABLE
  2
STYLE
  5
3
100
AcDbSymbolTable
 70
1
  0
STYLE
  5
11
100
AcDbSymbolTableRecord
100
AcDbTextStyleTableRecord
  2
STANDARD
 70
0
 40
0.0
 41
0.8
 50
0.0
 71
0
 42
0.2
  3
txt
  4

  0
STYLE
  5
20E
100
AcDbSymbolTableRecord
100
AcDbTextStyleTableRecord
  2
TEXTSTYLE_1
 70
0
 40
0.0
 41
0.8
 50
0.0
 71
0
 42
0.2
  3
gdt
  4

  0
ENDTAB
  0
TABLE
  2
VIEW
  5
6
100
AcDbSymbolTable
 70
0
  0
ENDTAB
  0
TABLE
  2
UCS
  5
7
100
AcDbSymbolTable
 70
0
  0
ENDTAB
  0
TABLE
  2
APPID
  5
9
100
AcDbSymbolTable
 70
1
  0
APPID
  5
20F
100
AcDbSymbolTableRecord
100
AcDbRegAppTableRecord
  2
ACAD
 70
0
  0
ENDTAB
  0
TABLE
  2
BLOCK_RECORD
  5
1
100
AcDbSymbolTable
 70
0
  0
BLOCK_RECORD
  5
210
100
AcDbSymbolTableRecord
100
AcDbBlockTableRecord
  2
*Model_Space
  0
BLOCK_RECORD
  5
211
100
AcDbSymbolTableRecord
100
AcDbBlockTableRecord
  2
*Paper_Space
  0
BLOCK_RECORD
  5
212
100
AcDbSymbolTableRecord
100
AcDbBlockTableRecord
  2
_FILLED
  0
ENDTAB
  0
TABLE
  2
DIMSTYLE
  5
A
100
AcDbSymbolTable
 70
1
100
AcDbDimStyleTable
 71
0
  0
DIMSTYLE
105
213
100
AcDbSymbolTableRecord
100
AcDbDimStyleTableRecord
  2
STANDARD
 70
0
  3

  4

 40
1.0
 41
0.6215458766
 42
1.0
 43
0.38
 44
1.0
 45
0.0
 46
0.0
 47
0.01
 48
0.01
140
0.8701642273
141
0.09
142
0.0
143
25.4
144
1.0
145
0.0
146
1.0
147
0.625
 71
1
 72
0
 73
0
 74
0
 75
0
 76
0
 77
1
 78
8
 79
2
170
0
171
1
172
0
173
0
174
0
175
0
176
0
177
0
178
0
270
2
179
2
271
2
272
2
273
2
274
2
275
0
280
0
281
0
282
0
283
1
284
8
285
0
286
0
287
3
288
0
340
11
278
46
341
212
342
212
343
212
344
212
  0
ENDTAB
  0
ENDSEC
  0
SECTION
  2
BLOCKS
  0
BLOCK
  5
20
100
AcDbEntity
  8
0
100
AcDbBlockBegin
  2
*Model_Space
 70
0
 10
0.0
 20
0.0
 30
0.0
  3
*Model_Space
  1

  0
ENDBLK
  5
21
100
AcDbEntity
  8
0
100
AcDbBlockEnd
  0
BLOCK
  5
1C
100
AcDbEntity
  8
0
100
AcDbBlockBegin
  2
*Paper_Space
 70
0
 10
0.0
 20
0.0
 30
0.0
  3
*Paper_Space
  1

  0
ENDBLK
  5
1D
100
AcDbEntity
  8
0
100
AcDbBlockEnd
  0
BLOCK
  5
214
100
AcDbEntity
  8
0
100
AcDbBlockBegin
  2
_FILLED
 70
64
 10
0.0
 20
0.0
  3
_FILLED
  1

  0
SOLID
  5
215
100
AcDbEntity
  8
0
  6
BYBLOCK
 62
0
100
AcDbTrace
 10
0.0
 20
0.0
 11
-1.0
 21
0.25
 12
-1.0
 22
-0.25
 13
-1.0
 23
-0.25
  0
ENDBLK
  5
216
100
AcDbEntity
  8
0
  6
BYBLOCK
 62
0
100
AcDbBlockEnd
  0
ENDSEC
  0
SECTION
  2
ENTITIES
  0
LINE
  5
217
100
AcDbEntity
  8
0
100
AcDbLine
 62
7
  6
CONTINUOUS
 10
29.9279588892
 20
6.0102040816
 11
23.7279588892
 21
6.0102040816
  0
LINE
  5
218
100
AcDbEntity
  8
0
100
AcDbLine
 62
7
  6
CONTINUOUS
 10
31.5279588892
 20
12.4102040816
 11
31.8279588892
 21
12.4102040816
  0
LINE
  5
219
100
AcDbEntity
  8
0
100
AcDbLine
 62
7
  6
CONTINUOUS
 10
37.07778537
 20
20.0102040816
 11
16.5781324084
 21
20.0102040816
  0
LINE
  5
21A
100
AcDbEntity
  8
0
100
AcDbLine
 62
7
  6
CONTINUOUS
 10
12.3279588892
 20
53.6102040816
 11
12.3279588892
 21
58.0102040816
  0
LINE
  5
21B
100
AcDbEntity
  8
0
100
AcDbLine
 62
7
  6
CONTINUOUS
 10
13.9218334238
 20
58.0102040816
 11
13.9673769751
 21
59.2253479845
  0
LINE
  5
21C
100
AcDbEntity
  8
0
100
AcDbLine
 62
7
  6
CONTINUOUS
 10
13.5950659144
 20
58.0102040816
 11
13.641761537
 21
59.2253479847
  0
LINE
  5
21D
100
AcDbEntity
  8
0
100
AcDbLine
 62
7
  6
CONTINUOUS
 10
13.3045688448
 20
58.0102040816
 11
13.3522885493
 21
59.225347985
  0
LINE
  5
21E
100
AcDbEntity
  8
0
100
AcDbLine
 62
7
  6
CONTINUOUS
 10
13.0511384473
 20
58.0102040816
 11
13.0997514373
 21
59.2253479842
  0
LINE
  5
21F
100
AcDbEntity
  8
0
100
AcDbLine
 62
7
  6
CONTINUOUS
 10
12.835469357
 20
58.0102040816
 11
12.8848423877
 21
59.2253479844
  0
LINE
  5
220
100
AcDbEntity
  8
0
100
AcDbLine
 62
7
  6
CONTINUOUS
 10
12.658152708
 20
58.0102040816
 11
12.7081504513
 21
59.2253479854
  0
LINE
  5
221
100
AcDbEntity
  8
0
100
AcDbLine
 62
7
  6
CONTINUOUS
 10
14.38040522
 20
60.6101030968
 11
14.3232423743
 21
59.2253479842
  0
LINE
  5
222
100
AcDbEntity
  8
0
100
AcDbLine
 62
7
  6
CONTINUOUS
 10
12.5196745127
 20
58.0102040816
 11
12.5701599282
 21
59.2253479844
  0
LINE
  5
223
100
AcDbEntity
  8
0
100
AcDbLine
 62
7
  6
CONTINUOUS
 10
12.4204143304
 20
58.0102040816
 11
12.4712490412
 21
59.2253479854
  0
LINE
  5
224
100
AcDbEntity
  8
0
100
AcDbLine
 62
7
  6
CONTINUOUS
 10
12.340528026
 20
58.0102040816
 11
12.3916427485
 21
59.2253479842
  0
LINE
  5
225
100
AcDbEntity
  8
0
100
AcDbLine
 62
7
  6
CONTINUOUS
 10
12.3606442262
 20
58.0102040816
 11
12.4116888978
 21
59.2253479846
  0
LINE
  5
226
100
AcDbEntity
  8
0
100
AcDbLine
 62
7
  6
CONTINUOUS
 10
14.2680912809
 20
58.0102040816
 11
14.3232423743
 21
59.2253479848
  0
LINE
  5
227
100
AcDbEntity
  8
0
100
AcDbLine
 62
7
  6
CONTINUOUS
 10
14.3282423743
 20
59.2253479847
 11
14.2730912809
 21
58.0102040816
  0
LINE
  5
228
100
AcDbEntity
  8
0
100
AcDbLine
 62
7
  6
CONTINUOUS
 10
13.9060951041
 20
58.0102040816
 11
13.9628370701
 21
59.2253479848
  0
LINE
  5
229
100
AcDbEntity
  8
0
100
AcDbLine
 62
7
  6
CONTINUOUS
 10
13.9673769751
 20
59.2253479845
 11
13.9106350091
 21
58.0102040816
  0
LINE
  5
22A
100
AcDbEntity
  8
0
100
AcDbLine
 62
7
  6
CONTINUOUS
 10
13.5795168577
 20
58.0102040816
 11
13.6376941706
 21
59.2253479848
  0
LINE
  5
22B
100
AcDbEntity
  8
0
100
AcDbLine
 62
7
  6
CONTINUOUS
 10
13.641761537
 20
59.2253479847
 11
13.5835842241
 21
58.0102040816
  0
LINE
  5
22C
100
AcDbEntity
  8
0
100
AcDbLine
 62
7
  6
CONTINUOUS
 10
13.28925167
 20
58.0102040816
 11
13.3487048698
 21
59.2253479848
  0
LINE
  5
22D
100
AcDbEntity
  8
0
100
AcDbLine
 62
7
  6
CONTINUOUS
 10
13.3522885493
 20
59.225347985
 11
13.2928353495
 21
58.0102040816
  0
LINE
  5
22E
100
AcDbEntity
  8
0
100
AcDbLine
 62
7
  6
CONTINUOUS
 10
14.6593641437
 20
65.9111303674
 11
14.7633635038
 21
68.0102040816
  0
LINE
  5
22F
100
AcDbEntity
  8
0
100
AcDbLine
 62
7
  6
CONTINUOUS
 10
14.3282423743
 20
59.2253479843
 11
14.3967738238
 21
60.6092723727
  0
LINE
  5
230
100
AcDbEntity
  8
0
100
AcDbLine
 62
7
  6
CONTINUOUS
 10
13.0360951378
 20
58.0102040816
 11
13.0966612673
 21
59.2253479848
  0
LINE
  5
231
100
AcDbEntity
  8
0
100
AcDbLine
 62
7
  6
CONTINUOUS
 10
13.0997514373
 20
59.2253479842
 11
13.0391853078
 21
58.0102040816
  0
LINE
  5
232
100
AcDbEntity
  8
0
100
AcDbLine
 62
7
  6
CONTINUOUS
 10
12.8207411455
 20
58.0102040816
 11
12.8822541972
 21
59.2253479848
  0
LINE
  5
233
100
AcDbEntity
  8
0
100
AcDbLine
 62
7
  6
CONTINUOUS
 10
12.8848423877
 20
59.2253479844
 11
12.8233293359
 21
58.0102040816
  0
LINE
  5
234
100
AcDbEntity
  8
0
100
AcDbLine
 62
7
  6
CONTINUOUS
 10
12.6437799633
 20
58.0102040816
 11
12.7060713343
 21
59.2253479848
  0
LINE
  5
235
100
AcDbEntity
  8
0
100
AcDbLine
 62
7
  6
CONTINUOUS
 10
12.7081504513
 20
59.2253479854
 11
12.6458590802
 21
58.0102040816
  0
LINE
  5
236
100
AcDbEntity
  8
0
100
AcDbLine
 62
7
  6
CONTINUOUS
 10
12.5056966297
 20
58.0102040816
 11
12.5685955836
 21
59.2253479848
  0
LINE
  5
237
100
AcDbEntity
  8
0
100
AcDbLine
 62
7
  6
CONTINUOUS
 10
12.5701599282
 20
59.2253479844
 11
12.5072609743
 21
58.0102040816
  0
LINE
  5
238
100
AcDbEntity
  8
0
100
AcDbLine
 62
7
  6
CONTINUOUS
 10
12.4068696214
 20
58.0102040816
 11
12.4702037565
 21
59.2253479848
  0
LINE
  5
239
100
AcDbEntity
  8
0
100
AcDbLine
 62
7
  6
CONTINUOUS
 10
12.4712490412
 20
59.2253479854
 11
12.407914906
 21
58.0102040816
  0
LINE
  5
23A
100
AcDbEntity
  8
0
100
AcDbLine
 62
7
  6
CONTINUOUS
 10
12.391695359
 20
59.2263683736
 11
12.3279588892
 21
58.0102040816
  0
LINE
  5
23B
100
AcDbEntity
  8
0
100
AcDbLine
 62
7
  6
CONTINUOUS
 10
12.3475698164
 20
58.0102040816
 11
12.4111655383
 21
59.2253479848
  0
LINE
  5
23C
100
AcDbEntity
  8
0
100
AcDbLine
 62
7
  6
CONTINUOUS
 10
13.4779588892
 20
47.1102040816
 11
13.4779588892
 21
53.1102040816
  0
LINE
  5
23D
100
AcDbEntity
  8
0
100
AcDbLine
 62
7
  6
CONTINUOUS
 10
13.4905281002
 20
53.1102040816
 11
13.4905281002
 21
47.1102040816
  0
LINE
  5
23E
100
AcDbEntity
  8
0
100
AcDbLine
 62
7
  6
CONTINUOUS
 10
13.4959938555
 20
53.1102040816
 11
13.4959938555
 21
47.1102040816
  0
LINE
  5
23F
100
AcDbEntity
  8
0
100
AcDbLine
 62
7
  6
CONTINUOUS
 10
13.5090682654
 20
53.1102040816
 11
13.5090682654
 21
47.1102040816
  0
LINE
  5
240
100
AcDbEntity
  8
0
100
AcDbLine
 62
7
  6
CONTINUOUS
 10
13.5505698749
 20
53.1102040816
 11
13.5505698749
 21
47.1102040816
  0
LINE
  5
241
100
AcDbEntity
  8
0
100
AcDbLine
 62
7
  6
CONTINUOUS
 10
13.5516151595
 20
47.1102040816
 11
13.5516151595
 21
53.1102040816
  0
LINE
  5
242
100
AcDbEntity
  8
0
100
AcDbLine
 62
7
  6
CONTINUOUS
 10
13.5641145839
 20
53.1102040816
 11
13.5641145839
 21
47.1102040816
  0
LINE
  5
243
100
AcDbEntity
  8
0
100
AcDbLine
 62
7
  6
CONTINUOUS
 10
13.6415382947
 20
53.1102040816
 11
13.6415382947
 21
47.1102040816
  0
LINE
  5
244
100
AcDbEntity
  8
0
100
AcDbLine
 62
7
  6
CONTINUOUS
 10
13.6431026394
 20
47.1102040816
 11
13.6431026394
 21
53.1102040816
  0
LINE
  5
245
100
AcDbEntity
  8
0
100
AcDbLine
 62
7
  6
CONTINUOUS
 10
13.6555161778
 20
53.1102040816
 11
13.6555161778
 21
47.1102040816
  0
LINE
  5
246
100
AcDbEntity
  8
0
100
AcDbLine
 62
7
  6
CONTINUOUS
 10
13.7686497768
 20
53.1102040816
 11
13.7686497768
 21
47.1102040816
  0
LINE
  5
247
100
AcDbEntity
  8
0
100
AcDbLine
 62
7
  6
CONTINUOUS
 10
13.7707288937
 20
47.1102040816
 11
13.7707288937
 21
53.1102040816
  0
LINE
  5
248
100
AcDbEntity
  8
0
100
AcDbLine
 62
7
  6
CONTINUOUS
 10
13.7830225215
 20
53.1102040816
 11
13.7830225215
 21
47.1102040816
  0
LINE
  5
249
100
AcDbEntity
  8
0
100
AcDbLine
 62
7
  6
CONTINUOUS
 10
13.9315559174
 20
53.1102040816
 11
13.9315559174
 21
47.1102040816
  0
LINE
  5
24A
100
AcDbEntity
  8
0
100
AcDbLine
 62
7
  6
CONTINUOUS
 10
13.9341441079
 20
47.1102040816
 11
13.9341441079
 21
53.1102040816
  0
LINE
  5
24B
100
AcDbEntity
  8
0
100
AcDbLine
 62
7
  6
CONTINUOUS
 10
13.946284129
 20
53.1102040816
 11
13.946284129
 21
47.1102040816
  0
LINE
  5
24C
100
AcDbEntity
  8
0
100
AcDbLine
 62
7
  6
CONTINUOUS
 10
14.1298102022
 20
53.1102040816
 11
14.1298102022
 21
47.1102040816
  0
LINE
  5
24D
100
AcDbEntity
  8
0
100
AcDbLine
 62
7
  6
CONTINUOUS
 10
14.1329003721
 20
47.1102040816
 11
14.1329003721
 21
53.1102040816
  0
LINE
  5
24E
100
AcDbEntity
  8
0
100
AcDbLine
 62
7
  6
CONTINUOUS
 10
14.1448535117
 20
53.1102040816
 11
14.1448535117
 21
47.1102040816
  0
LINE
  5
24F
100
AcDbEntity
  8
0
100
AcDbLine
 62
7
  6
CONTINUOUS
 10
14.3279588892
 20
46.1102040816
 11
14.3279588892
 21
47.1102040816
  0
LINE
  5
250
100
AcDbEntity
  8
0
100
AcDbLine
 62
7
  6
CONTINUOUS
 10
14.3628692298
 20
53.1102040816
 11
14.3628692298
 21
47.1102040816
  0
LINE
  5
251
100
AcDbEntity
  8
0
100
AcDbLine
 62
7
  6
CONTINUOUS
 10
14.3664529093
 20
47.1102040816
 11
14.3664529093
 21
53.1102040816
  0
LINE
  5
252
100
AcDbEntity
  8
0
100
AcDbLine
 62
7
  6
CONTINUOUS
 10
14.3781864046
 20
53.1102040816
 11
14.3781864046
 21
47.1102040816
  0
LINE
  5
253
100
AcDbEntity
  8
0
100
AcDbLine
 62
7
  6
CONTINUOUS
 10
14.6300942018
 20
53.1102040816
 11
14.6300942018
 21
47.1102040816
  0
LINE
  5
254
100
AcDbEntity
  8
0
100
AcDbLine
 62
7
  6
CONTINUOUS
 10
14.6341615683
 20
47.1102040816
 11
14.6341615683
 21
53.1102040816
  0
LINE
  5
255
100
AcDbEntity
  8
0
100
AcDbLine
 62
7
  6
CONTINUOUS
 10
14.6456432585
 20
53.1102040816
 11
14.6456432585
 21
47.1102040816
  0
LINE
  5
256
100
AcDbEntity
  8
0
100
AcDbLine
 62
7
  6
CONTINUOUS
 10
14.930752673
 20
53.1102040816
 11
14.930752673
 21
47.1102040816
  0
LINE
  5
257
100
AcDbEntity
  8
0
100
AcDbLine
 62
7
  6
CONTINUOUS
 10
14.935292578
 20
47.1102040816
 11
14.935292578
 21
53.1102040816
  0
LINE
  5
258
100
AcDbEntity
  8
0
100
AcDbLine
 62
7
  6
CONTINUOUS
 10
14.9464909928
 20
53.1102040816
 11
14.9464909928
 21
47.1102040816
  0
LINE
  5
259
100
AcDbEntity
  8
0
100
AcDbLine
 62
7
  6
CONTINUOUS
 10
15.2640205595
 20
53.1102040816
 11
15.2640205595
 21
47.1102040816
  0
LINE
  5
25A
100
AcDbEntity
  8
0
100
AcDbLine
 62
7
  6
CONTINUOUS
 10
15.2690205595
 20
47.1102040816
 11
15.2690205595
 21
53.1102040816
  0
LINE
  5
25B
100
AcDbEntity
  8
0
100
AcDbLine
 62
7
  6
CONTINUOUS
 10
15.2799050047
 20
53.1102040816
 11
15.2799050047
 21
47.1102040816
  0
LINE
  5
25C
100
AcDbEntity
  8
0
100
AcDbLine
 62
7
  6
CONTINUOUS
 10
15.6289843972
 20
53.1102040816
 11
15.6289843972
 21
47.1102040816
  0
LINE
  5
25D
100
AcDbEntity
  8
0
100
AcDbLine
 62
7
  6
CONTINUOUS
 10
15.6344307876
 20
47.1102040816
 11
15.6344307876
 21
53.1102040816
  0
LINE
  5
25E
100
AcDbEntity
  8
0
100
AcDbLine
 62
7
  6
CONTINUOUS
 10
15.6449714297
 20
53.1102040816
 11
15.6449714297
 21
47.1102040816
  0
LINE
  5
25F
100
AcDbEntity
  8
0
100
AcDbLine
 62
7
  6
CONTINUOUS
 10
16.0650452618
 20
58.0102040816
 11
16.1030309033
 21
59.225347985
  0
LINE
  5
260
100
AcDbEntity
  8
0
100
AcDbLine
 62
7
  6
CONTINUOUS
 10
15.5722571039
 20
58.0102040816
 11
15.6119807041
 21
59.2253479851
  0
LINE
  5
261
100
AcDbEntity
  8
0
100
AcDbLine
 62
7
  6
CONTINUOUS
 10
15.1103200423
 20
58.0102040816
 11
15.1516727215
 21
59.2253479848
  0
LINE
  5
262
100
AcDbEntity
  8
0
100
AcDbLine
 62
7
  6
CONTINUOUS
 10
14.6805002142
 20
58.0102040816
 11
14.7233686276
 21
59.2253479845
  0
LINE
  5
263
100
AcDbEntity
  8
0
100
AcDbLine
 62
7
  6
CONTINUOUS
 10
14.2839757261
 20
58.0102040816
 11
14.3282423743
 21
59.2253479847
  0
LINE
  5
264
100
AcDbEntity
  8
0
100
AcDbLine
 62
7
  6
CONTINUOUS
 10
16.0490139074
 20
58.0102040816
 11
16.0963395973
 21
59.2253479848
  0
LINE
  5
265
100
AcDbEntity
  8
0
100
AcDbLine
 62
7
  6
CONTINUOUS
 10
16.1030309033
 20
59.225347985
 11
16.0557052134
 21
58.0102040816
  0
LINE
  5
266
100
AcDbEntity
  8
0
100
AcDbLine
 62
7
  6
CONTINUOUS
 10
15.5561965161
 20
58.0102040816
 11
15.6056875002
 21
59.2253479848
  0
LINE
  5
267
100
AcDbEntity
  8
0
100
AcDbLine
 62
7
  6
CONTINUOUS
 10
15.6119807041
 20
59.2253479851
 11
15.56248972
 21
58.0102040816
  0
LINE
  5
268
100
AcDbEntity
  8
0
100
AcDbLine
 62
7
  6
CONTINUOUS
 10
15.0942742419
 20
58.0102040816
 11
15.145794869
 21
59.2253479848
  0
LINE
  5
269
100
AcDbEntity
  8
0
100
AcDbLine
 62
7
  6
CONTINUOUS
 10
15.1516727215
 20
59.2253479848
 11
15.1001520944
 21
58.0102040816
  0
LINE
  5
26A
100
AcDbEntity
  8
0
100
AcDbLine
 62
7
  6
CONTINUOUS
 10
14.6645131818
 20
58.0102040816
 11
14.7179222373
 21
59.2253479848
  0
LINE
  5
26B
100
AcDbEntity
  8
0
100
AcDbLine
 62
7
  6
CONTINUOUS
 10
14.7233686276
 20
59.2253479845
 11
14.6699595721
 21
58.0102040816
  0
LINE
  5
26C
100
AcDbEntity
  8
0
100
AcDbLine
 62
7
  6
CONTINUOUS
 10
21.8279588892
 20
12.4102040816
 11
23.7279588892
 21
6.0102040816
  0
LINE
  5
26D
100
AcDbEntity
  8
0
100
AcDbLine
 62
7
  6
CONTINUOUS
 10
16.0246438455
 20
53.1102040816
 11
16.0246438455
 21
47.1102040816
  0
LINE
  5
26E
100
AcDbEntity
  8
0
100
AcDbLine
 62
7
  6
CONTINUOUS
 10
16.030521698
 20
47.1102040816
 11
16.030521698
 21
53.1102040816
  0
LINE
  5
26F
100
AcDbEntity
  8
0
100
AcDbLine
 62
7
  6
CONTINUOUS
 10
16.0406896459
 20
53.1102040816
 11
16.0406896459
 21
47.1102040816
  0
LINE
  5
270
100
AcDbEntity
  8
0
100
AcDbLine
 62
7
  6
CONTINUOUS
 10
16.4499144294
 20
53.1102040816
 11
16.4499144294
 21
47.1102040816
  0
LINE
  5
271
100
AcDbEntity
  8
0
100
AcDbLine
 62
7
  6
CONTINUOUS
 10
16.4562076334
 20
47.1102040816
 11
16.4562076334
 21
53.1102040816
  0
LINE
  5
272
100
AcDbEntity
  8
0
100
AcDbLine
 62
7
  6
CONTINUOUS
 10
16.4659750173
 20
53.1102040816
 11
16.4659750173
 21
47.1102040816
  0
LINE
  5
273
100
AcDbEntity
  8
0
100
AcDbLine
 62
7
  6
CONTINUOUS
 10
16.5279588892
 20
53.6102040816
 11
16.5279588892
 21
53.1102040816
  0
LINE
  5
274
100
AcDbEntity
  8
0
100
AcDbLine
 62
7
  6
CONTINUOUS
 10
16.5279588892
 20
46.1102040816
 11
16.5279588892
 21
40.3102040816
  0
LINE
  5
275
100
AcDbEntity
  8
0
100
AcDbLine
 62
7
  6
CONTINUOUS
 10
16.5779588892
 20
40.2602040816
 11
16.5779588892
 21
20.0102040816
  0
LINE
  5
276
100
AcDbEntity
  8
0
100
AcDbLine
 62
7
  6
CONTINUOUS
 10
16.9036305119
 20
53.1102040816
 11
16.9036305119
 21
47.1102040816
  0
LINE
  5
277
100
AcDbEntity
  8
0
100
AcDbLine
 62
7
  6
CONTINUOUS
 10
16.9103218179
 20
47.1102040816
 11
16.9103218179
 21
53.1102040816
  0
LINE
  5
278
100
AcDbEntity
  8
0
100
AcDbLine
 62
7
  6
CONTINUOUS
 10
16.9196618662
 20
53.1102040816
 11
16.9196618662
 21
47.1102040816
  0
LINE
  5
279
100
AcDbEntity
  8
0
100
AcDbLine
 62
7
  6
CONTINUOUS
 10
17.3845484885
 20
53.1102040816
 11
17.3845484885
 21
47.1102040816
  0
LINE
  5
27A
100
AcDbEntity
  8
0
100
AcDbLine
 62
7
  6
CONTINUOUS
 10
17.3916195563
 20
47.1102040816
 11
17.3916195563
 21
53.1102040816
  0
LINE
  5
27B
100
AcDbEntity
  8
0
100
AcDbLine
 62
7
  6
CONTINUOUS
 10
17.4005066686
 20
53.1102040816
 11
17.4005066686
 21
47.1102040816
  0
LINE
  5
27C
100
AcDbEntity
  8
0
100
AcDbLine
 62
7
  6
CONTINUOUS
 10
17.8913501967
 20
53.1102040816
 11
17.8913501967
 21
47.1102040816
  0
LINE
  5
27D
100
AcDbEntity
  8
0
100
AcDbLine
 62
7
  6
CONTINUOUS
 10
17.8987816449
 20
47.1102040816
 11
17.8987816449
 21
53.1102040816
  0
LINE
  5
27E
100
AcDbEntity
  8
0
100
AcDbLine
 62
7
  6
CONTINUOUS
 10
17.9071914622
 20
53.1102040816
 11
17.9071914622
 21
47.1102040816
  0
LINE
  5
27F
100
AcDbEntity
  8
0
100
AcDbLine
 62
7
  6
CONTINUOUS
 10
18.2830198832
 20
58.0102040816
 11
18.5310174923
 21
68.0102040816
  0
LINE
  5
280
100
AcDbEntity
  8
0
100
AcDbLine
 62
7
  6
CONTINUOUS
 10
18.3165057692
 20
58.0102040816
 11
18.3465502493
 21
59.2253479849
  0
LINE
  5
281
100
AcDbEntity
  8
0
100
AcDbLine
 62
7
  6
CONTINUOUS
 10
17.7146089628
 20
58.0102040816
 11
17.7467765
 21
59.2253479851
  0
LINE
  5
282
100
AcDbEntity
  8
0
100
AcDbLine
 62
7
  6
CONTINUOUS
 10
17.1376912152
 20
58.0102040816
 11
17.1718936405
 21
59.2253479843
  0
LINE
  5
283
100
AcDbEntity
  8
0
100
AcDbLine
 62
7
  6
CONTINUOUS
 10
16.5873338177
 20
58.0102040816
 11
16.6234773847
 21
59.2253479848
  0
LINE
  5
284
100
AcDbEntity
  8
0
100
AcDbLine
 62
7
  6
CONTINUOUS
 10
18.3010281527
 20
58.0102040816
 11
18.3384600793
 21
59.2253479848
  0
LINE
  5
285
100
AcDbEntity
  8
0
100
AcDbLine
 62
7
  6
CONTINUOUS
 10
18.3465502493
 20
59.2253479849
 11
18.3091183226
 21
58.0102040816
  0
LINE
  5
286
100
AcDbEntity
  8
0
100
AcDbLine
 62
7
  6
CONTINUOUS
 10
17.6989280317
 20
58.0102040816
 11
17.7390050404
 21
59.2253479848
  0
LINE
  5
287
100
AcDbEntity
  8
0
100
AcDbLine
 62
7
  6
CONTINUOUS
 10
17.7467765
 20
59.2253479851
 11
17.7066994913
 21
58.0102040816
  0
LINE
  5
288
100
AcDbEntity
  8
0
100
AcDbLine
 62
7
  6
CONTINUOUS
 10
17.1218499497
 20
58.0102040816
 11
17.1644621923
 21
59.2253479848
  0
LINE
  5
289
100
AcDbEntity
  8
0
100
AcDbLine
 62
7
  6
CONTINUOUS
 10
17.1718936405
 20
59.2253479843
 11
17.1292813979
 21
58.0102040816
  0
LINE
  5
28A
100
AcDbEntity
  8
0
100
AcDbLine
 62
7
  6
CONTINUOUS
 10
16.5713756376
 20
58.0102040816
 11
16.6164063169
 21
59.2253479848
  0
LINE
  5
28B
100
AcDbEntity
  8
0
100
AcDbLine
 62
7
  6
CONTINUOUS
 10
16.6234773847
 20
59.2253479848
 11
16.5784467055
 21
58.0102040816
  0
LINE
  5
28C
100
AcDbEntity
  8
0
100
AcDbLine
 62
7
  6
CONTINUOUS
 10
18.4226465281
 20
53.1102040816
 11
18.4226465281
 21
47.1102040816
  0
LINE
  5
28D
100
AcDbEntity
  8
0
100
AcDbLine
 62
7
  6
CONTINUOUS
 10
18.4304179877
 20
47.1102040816
 11
18.4304179877
 21
53.1102040816
  0
LINE
  5
28E
100
AcDbEntity
  8
0
100
AcDbLine
 62
7
  6
CONTINUOUS
 10
18.4383274593
 20
53.1102040816
 11
18.4383274593
 21
47.1102040816
  0
LINE
  5
28F
100
AcDbEntity
  8
0
100
AcDbLine
 62
7
  6
CONTINUOUS
 10
18.9610157816
 20
53.1102040816
 11
18.9610157816
 21
47.1102040816
  0
LINE
  5
290
100
AcDbEntity
  8
0
100
AcDbLine
 62
7
  6
CONTINUOUS
 10
18.9769812365
 20
53.1102040816
 11
18.9769812365
 21
47.1102040816
  0
LINE
  5
291
100
AcDbEntity
  8
0
100
AcDbLine
 62
7
  6
CONTINUOUS
 10
18.9850714064
 20
47.1102040816
 11
18.9850714064
 21
53.1102040816
  0
LINE
  5
292
100
AcDbEntity
  8
0
100
AcDbLine
 62
7
  6
CONTINUOUS
 10
18.9924588529
 20
53.1102040816
 11
18.9924588529
 21
47.1102040816
  0
LINE
  5
293
100
AcDbEntity
  8
0
100
AcDbLine
 62
7
  6
CONTINUOUS
 10
19.5083663044
 20
53.1102040816
 11
19.5083663044
 21
47.1102040816
  0
LINE
  5
294
100
AcDbEntity
  8
0
100
AcDbLine
 62
7
  6
CONTINUOUS
 10
19.5528349289
 20
53.1102040816
 11
19.5528349289
 21
47.1102040816
  0
LINE
  5
295
100
AcDbEntity
  8
0
100
AcDbLine
 62
7
  6
CONTINUOUS
 10
19.5612216345
 20
47.1102040816
 11
19.5612216345
 21
53.1102040816
  0
LINE
  5
296
100
AcDbEntity
  8
0
100
AcDbLine
 62
7
  6
CONTINUOUS
 10
19.5680668075
 20
53.1102040816
 11
19.5680668075
 21
47.1102040816
  0
LINE
  5
297
100
AcDbEntity
  8
0
100
AcDbLine
 62
7
  6
CONTINUOUS
 10
20.0757793217
 20
53.1102040816
 11
20.0757793217
 21
47.1102040816
  0
LINE
  5
298
100
AcDbEntity
  8
0
100
AcDbLine
 62
7
  6
CONTINUOUS
 10
20.1486292303
 20
53.1102040816
 11
20.1486292303
 21
47.1102040816
  0
LINE
  5
299
100
AcDbEntity
  8
0
100
AcDbLine
 62
7
  6
CONTINUOUS
 10
20.1572894844
 20
47.1102040816
 11
20.1572894844
 21
53.1102040816
  0
LINE
  5
29A
100
AcDbEntity
  8
0
100
AcDbLine
 62
7
  6
CONTINUOUS
 10
20.1635736217
 20
53.1102040816
 11
20.1635736217
 21
47.1102040816
  0
LINE
  5
29B
100
AcDbEntity
  8
0
100
AcDbLine
 62
7
  6
CONTINUOUS
 10
20.2552579443
 20
58.0102040816
 11
20.2784635427
 21
59.2253479845
  0
LINE
  5
29C
100
AcDbEntity
  8
0
100
AcDbLine
 62
7
  6
CONTINUOUS
 10
20.1302735427
 20
58.0102040816
 11
20.3246587748
 21
68.0102040816
  0
LINE
  5
29D
100
AcDbEntity
  8
0
100
AcDbLine
 62
7
  6
CONTINUOUS
 10
19.5885735846
 20
58.0102040816
 11
19.6141309459
 21
59.2253479848
  0
LINE
  5
29E
100
AcDbEntity
  8
0
100
AcDbLine
 62
7
  6
CONTINUOUS
 10
19.4938569677
 20
58.0102040816
 11
19.7067127576
 21
68.0102040816
  0
LINE
  5
29F
100
AcDbEntity
  8
0
100
AcDbLine
 62
7
  6
CONTINUOUS
 10
18.9417318768
 20
58.0102040816
 11
18.96957095
 21
59.2253479845
  0
LINE
  5
2A0
100
AcDbEntity
  8
0
100
AcDbLine
 62
7
  6
CONTINUOUS
 10
18.8775426563
 20
58.0102040816
 11
19.1082855809
 21
68.0102040816
  0
LINE
  5
2A1
100
AcDbEntity
  8
0
100
AcDbLine
 62
7
  6
CONTINUOUS
 10
20.2406420017
 20
58.0102040816
 11
20.2695534775
 21
59.2253479848
  0
LINE
  5
2A2
100
AcDbEntity
  8
0
100
AcDbLine
 62
7
  6
CONTINUOUS
 10
20.2784635427
 20
59.2253479845
 11
20.249552067
 21
58.0102040816
  0
LINE
  5
2A3
100
AcDbEntity
  8
0
100
AcDbLine
 62
7
  6
CONTINUOUS
 10
19.5736291932
 20
58.0102040816
 11
19.6054706918
 21
59.2253479848
  0
LINE
  5
2A4
100
AcDbEntity
  8
0
100
AcDbLine
 62
7
  6
CONTINUOUS
 10
19.6141309459
 20
59.2253479848
 11
19.5822894472
 21
58.0102040816
  0
LINE
  5
2A5
100
AcDbEntity
  8
0
100
AcDbLine
 62
7
  6
CONTINUOUS
 10
18.9264999981
 20
58.0102040816
 11
18.9611842443
 21
59.2253479848
  0
LINE
  5
2A6
100
AcDbEntity
  8
0
100
AcDbLine
 62
7
  6
CONTINUOUS
 10
18.96957095
 20
59.2253479845
 11
18.9348867038
 21
58.0102040816
  0
LINE
  5
2A7
100
AcDbEntity
  8
0
100
AcDbLine
 62
7
  6
CONTINUOUS
 10
20.6616995939
 20
53.1102040816
 11
20.6616995939
 21
47.1102040816
  0
LINE
  5
2A8
100
AcDbEntity
  8
0
100
AcDbLine
 62
7
  6
CONTINUOUS
 10
20.7627311101
 20
53.1102040816
 11
20.7627311101
 21
47.1102040816
  0
LINE
  5
2A9
100
AcDbEntity
  8
0
100
AcDbLine
 62
7
  6
CONTINUOUS
 10
20.7716411754
 20
47.1102040816
 11
20.7716411754
 21
53.1102040816
  0
LINE
  5
2AA
100
AcDbEntity
  8
0
100
AcDbLine
 62
7
  6
CONTINUOUS
 10
20.7773470527
 20
53.1102040816
 11
20.7773470527
 21
47.1102040816
  0
LINE
  5
2AB
100
AcDbEntity
  8
0
100
AcDbLine
 62
7
  6
CONTINUOUS
 10
21.2645211541
 20
53.1102040816
 11
21.2645211541
 21
47.1102040816
  0
LINE
  5
2AC
100
AcDbEntity
  8
0
100
AcDbLine
 62
7
  6
CONTINUOUS
 10
21.3934573577
 20
53.1102040816
 11
21.3934573577
 21
47.1102040816
  0
LINE
  5
2AD
100
AcDbEntity
  8
0
100
AcDbLine
 62
7
  6
CONTINUOUS
 10
21.4025928122
 20
47.1102040816
 11
21.4025928122
 21
53.1102040816
  0
LINE
  5
2AE
100
AcDbEntity
  8
0
100
AcDbLine
 62
7
  6
CONTINUOUS
 10
21.4077047901
 20
53.1102040816
 11
21.4077047901
 21
47.1102040816
  0
LINE
  5
2AF
100
AcDbEntity
  8
0
100
AcDbLine
 62
7
  6
CONTINUOUS
 10
21.8279588892
 20
12.4102040816
 11
21.8279588892
 21
20.0102040816
  0
LINE
  5
2B0
100
AcDbEntity
  8
0
100
AcDbLine
 62
7
  6
CONTINUOUS
 10
21.8825917105
 20
53.1102040816
 11
21.8825917105
 21
47.1102040816
  0
LINE
  5
2B1
100
AcDbEntity
  8
0
100
AcDbLine
 62
7
  6
CONTINUOUS
 10
22.0390791962
 20
53.1102040816
 11
22.0390791962
 21
47.1102040816
  0
LINE
  5
2B2
100
AcDbEntity
  8
0
100
AcDbLine
 62
7
  6
CONTINUOUS
 10
22.0484150004
 20
47.1102040816
 11
22.0484150004
 21
53.1102040816
  0
LINE
  5
2B3
100
AcDbEntity
  8
0
100
AcDbLine
 62
7
  6
CONTINUOUS
 10
22.0529190673
 20
53.1102040816
 11
22.0529190673
 21
47.1102040816
  0
LINE
  5
2B4
100
AcDbEntity
  8
0
100
AcDbLine
 62
7
  6
CONTINUOUS
 10
22.5142171746
 20
53.1102040816
 11
22.5142171746
 21
47.1102040816
  0
LINE
  5
2B5
100
AcDbEntity
  8
0
100
AcDbLine
 62
7
  6
CONTINUOUS
 10
22.3558518302
 20
58.0102040816
 11
22.3716471481
 21
59.2253479851
  0
LINE
  5
2B6
100
AcDbEntity
  8
0
100
AcDbLine
 62
7
  6
CONTINUOUS
 10
22.1424464437
 20
58.0102040816
 11
22.2784328894
 21
68.0102040816
  0
LINE
  5
2B7
100
AcDbEntity
  8
0
100
AcDbLine
 62
7
  6
CONTINUOUS
 10
21.6407958987
 20
58.0102040816
 11
21.659113777
 21
59.225347985
  0
LINE
  5
2B8
100
AcDbEntity
  8
0
100
AcDbLine
 62
7
  6
CONTINUOUS
 10
21.4563856713
 20
58.0102040816
 11
21.6122834857
 21
68.0102040816
  0
LINE
  5
2B9
100
AcDbEntity
  8
0
100
AcDbLine
 62
7
  6
CONTINUOUS
 10
22.3424574546
 20
58.0102040816
 11
22.362136583
 21
59.2253479848
  0
LINE
  5
2BA
100
AcDbEntity
  8
0
100
AcDbLine
 62
7
  6
CONTINUOUS
 10
22.3716471481
 20
59.2253479851
 11
22.3519680197
 21
58.0102040816
  0
LINE
  5
2BB
100
AcDbEntity
  8
0
100
AcDbLine
 62
7
  6
CONTINUOUS
 10
20.9399576204
 20
58.0102040816
 11
20.960747851
 21
59.2253479847
  0
LINE
  5
2BC
100
AcDbEntity
  8
0
100
AcDbLine
 62
7
  6
CONTINUOUS
 10
20.7850480076
 20
58.0102040816
 11
20.9604298857
 21
68.0102040816
  0
LINE
  5
2BD
100
AcDbEntity
  8
0
100
AcDbLine
 62
7
  6
CONTINUOUS
 10
21.6269560276
 20
58.0102040816
 11
21.6497779727
 21
59.2253479848
  0
LINE
  5
2BE
100
AcDbEntity
  8
0
100
AcDbLine
 62
7
  6
CONTINUOUS
 10
21.659113777
 20
59.225347985
 11
21.6362918318
 21
58.0102040816
  0
LINE
  5
2BF
100
AcDbEntity
  8
0
100
AcDbLine
 62
7
  6
CONTINUOUS
 10
20.9257101879
 20
58.0102040816
 11
20.9516123965
 21
59.2253479848
  0
LINE
  5
2C0
100
AcDbEntity
  8
0
100
AcDbLine
 62
7
  6
CONTINUOUS
 10
20.960747851
 20
59.2253479847
 11
20.9348456425
 21
58.0102040816
  0
LINE
  5
2C1
100
AcDbEntity
  8
0
100
AcDbLine
 62
7
  6
CONTINUOUS
 10
16.5279588892
 20
40.3102040816
 11
16.5779588892
 21
40.2602040816
  0
LINE
  5
2C2
100
AcDbEntity
  8
0
100
AcDbLine
 62
7
  6
CONTINUOUS
 10
22.697827021
 20
53.1102040816
 11
22.697827021
 21
47.1102040816
  0
LINE
  5
2C3
100
AcDbEntity
  8
0
100
AcDbLine
 62
7
  6
CONTINUOUS
 10
22.7073375862
 20
47.1102040816
 11
22.7073375862
 21
53.1102040816
  0
LINE
  5
2C4
100
AcDbEntity
  8
0
100
AcDbLine
 62
7
  6
CONTINUOUS
 10
22.7112213967
 20
53.1102040816
 11
22.7112213967
 21
47.1102040816
  0
LINE
  5
2C5
100
AcDbEntity
  8
0
100
AcDbLine
 62
7
  6
CONTINUOUS
 10
23.1576663049
 20
53.1102040816
 11
23.1576663049
 21
47.1102040816
  0
LINE
  5
2C6
100
AcDbEntity
  8
0
100
AcDbLine
 62
7
  6
CONTINUOUS
 10
23.3678952503
 20
53.1102040816
 11
23.3678952503
 21
47.1102040816
  0
LINE
  5
2C7
100
AcDbEntity
  8
0
100
AcDbLine
 62
7
  6
CONTINUOUS
 10
23.3775545085
 20
47.1102040816
 11
23.3775545085
 21
53.1102040816
  0
LINE
  5
2C8
100
AcDbEntity
  8
0
100
AcDbLine
 62
7
  6
CONTINUOUS
 10
23.8111754521
 20
53.1102040816
 11
23.8111754521
 21
47.1102040816
  0
LINE
  5
2C9
100
AcDbEntity
  8
0
100
AcDbLine
 62
7
  6
CONTINUOUS
 10
24.0474472734
 20
53.1102040816
 11
24.0474472734
 21
47.1102040816
  0
LINE
  5
2CA
100
AcDbEntity
  8
0
100
AcDbLine
 62
7
  6
CONTINUOUS
 10
24.0572287494
 20
47.1102040816
 11
24.0572287494
 21
53.1102040816
  0
LINE
  5
2CB
100
AcDbEntity
  8
0
100
AcDbLine
 62
7
  6
CONTINUOUS
 10
24.4729533929
 20
53.1102040816
 11
24.4729533929
 21
47.1102040816
  0
LINE
  5
2CC
100
AcDbEntity
  8
0
100
AcDbLine
 62
7
  6
CONTINUOUS
 10
24.7346204857
 20
53.1102040816
 11
24.7346204857
 21
47.1102040816
  0
LINE
  5
2CD
100
AcDbEntity
  8
0
100
AcDbLine
 62
7
  6
CONTINUOUS
 10
24.7444973691
 20
47.1102040816
 11
24.7444973691
 21
53.1102040816
  0
LINE
  5
2CE
100
AcDbEntity
  8
0
100
AcDbLine
 62
7
  6
CONTINUOUS
 10
24.566563834
 20
58.0102040816
 11
24.5745599383
 21
59.2253479844
  0
LINE
  5
2CF
100
AcDbEntity
  8
0
100
AcDbLine
 62
7
  6
CONTINUOUS
 10
24.2699922115
 20
58.0102040816
 11
24.3442314331
 21
68.0102040816
  0
LINE
  5
2D0
100
AcDbEntity
  8
0
100
AcDbLine
 62
7
  6
CONTINUOUS
 10
24.5547208393
 20
58.0102040816
 11
24.5646830549
 21
59.2253479848
  0
LINE
  5
2D1
100
AcDbEntity
  8
0
100
AcDbLine
 62
7
  6
CONTINUOUS
 10
24.5745599383
 20
59.2253479844
 11
24.5645977227
 21
58.0102040816
  0
LINE
  5
2D2
100
AcDbEntity
  8
0
100
AcDbLine
 62
7
  6
CONTINUOUS
 10
23.8207433808
 20
58.0102040816
 11
23.8313707292
 21
59.2253479845
  0
LINE
  5
2D3
100
AcDbEntity
  8
0
100
AcDbLine
 62
7
  6
CONTINUOUS
 10
23.5511803347
 20
58.0102040816
 11
23.646281452
 21
68.0102040816
  0
LINE
  5
2D4
100
AcDbEntity
  8
0
100
AcDbLine
 62
7
  6
CONTINUOUS
 10
23.0831654963
 20
58.0102040816
 11
23.09639496
 21
59.2253479844
  0
LINE
  5
2D5
100
AcDbEntity
  8
0
100
AcDbLine
 62
7
  6
CONTINUOUS
 10
23.8083488136
 20
58.0102040816
 11
23.8215892532
 21
59.2253479848
  0
LINE
  5
2D6
100
AcDbEntity
  8
0
100
AcDbLine
 62
7
  6
CONTINUOUS
 10
23.8313707292
 20
59.2253479845
 11
23.8181302896
 21
58.0102040816
  0
LINE
  5
2D7
100
AcDbEntity
  8
0
100
AcDbLine
 62
7
  6
CONTINUOUS
 10
22.8413498801
 20
58.0102040816
 11
22.9570522277
 21
68.0102040816
  0
LINE
  5
2D8
100
AcDbEntity
  8
0
100
AcDbLine
 62
7
  6
CONTINUOUS
 10
23.0702533292
 20
58.0102040816
 11
23.0867357017
 21
59.2253479848
  0
LINE
  5
2D9
100
AcDbEntity
  8
0
100
AcDbLine
 62
7
  6
CONTINUOUS
 10
23.09639496
 20
59.2253479844
 11
23.0799125874
 21
58.0102040816
  0
LINE
  5
2DA
100
AcDbEntity
  8
0
100
AcDbLine
 62
7
  6
CONTINUOUS
 10
25.1411862401
 20
53.1102040816
 11
25.1411862401
 21
47.1102040816
  0
LINE
  5
2DB
100
AcDbEntity
  8
0
100
AcDbLine
 62
7
  6
CONTINUOUS
 10
25.427531393
 20
53.1102040816
 11
25.427531393
 21
47.1102040816
  0
LINE
  5
2DC
100
AcDbEntity
  8
0
100
AcDbLine
 62
7
  6
CONTINUOUS
 10
25.4374766119
 20
47.1102040816
 11
25.4374766119
 21
53.1102040816
  0
LINE
  5
2DD
100
AcDbEntity
  8
0
100
AcDbLine
 62
7
  6
CONTINUOUS
 10
25.8140424139
 20
53.1102040816
 11
25.8140424139
 21
47.1102040816
  0
LINE
  5
2DE
100
AcDbEntity
  8
0
100
AcDbLine
 62
7
  6
CONTINUOUS
 10
26.1242807747
 20
53.1102040816
 11
26.1242807747
 21
47.1102040816
  0
LINE
  5
2DF
100
AcDbEntity
  8
0
100
AcDbLine
 62
7
  6
CONTINUOUS
 10
26.13426707
 20
47.1102040816
 11
26.13426707
 21
53.1102040816
  0
LINE
  5
2E0
100
AcDbEntity
  8
0
100
AcDbLine
 62
7
  6
CONTINUOUS
 10
26.4896776623
 20
53.1102040816
 11
26.4896776623
 21
47.1102040816
  0
LINE
  5
2E1
100
AcDbEntity
  8
0
100
AcDbLine
 62
7
  6
CONTINUOUS
 10
26.8229588892
 20
53.1102040816
 11
26.8229588892
 21
47.1102040816
  0
LINE
  5
2E2
100
AcDbEntity
  8
0
100
AcDbLine
 62
7
  6
CONTINUOUS
 10
26.8229588892
 20
58.0102040816
 11
26.8229588892
 21
59.2253479848
  0
LINE
  5
2E3
100
AcDbEntity
  8
0
100
AcDbLine
 62
7
  6
CONTINUOUS
 10
26.8329588892
 20
59.2253479842
 11
26.8329588892
 21
58.0102040816
  0
LINE
  5
2E4
100
AcDbEntity
  8
0
100
AcDbLine
 62
7
  6
CONTINUOUS
 10
26.8329588892
 20
47.1102040816
 11
26.8329588892
 21
53.1102040816
  0
LINE
  5
2E5
100
AcDbEntity
  8
0
100
AcDbLine
 62
7
  6
CONTINUOUS
 10
26.4605236083
 20
58.0102040816
 11
26.4711875898
 21
68.0102040816
  0
LINE
  5
2E6
100
AcDbEntity
  8
0
100
AcDbLine
 62
7
  6
CONTINUOUS
 10
26.0747384891
 20
58.0102040816
 11
26.077413627
 21
59.2253479846
  0
LINE
  5
2E7
100
AcDbEntity
  8
0
100
AcDbLine
 62
7
  6
CONTINUOUS
 10
26.0640944211
 20
58.0102040816
 11
26.0674273317
 21
59.2253479848
  0
LINE
  5
2E8
100
AcDbEntity
  8
0
100
AcDbLine
 62
7
  6
CONTINUOUS
 10
25.7266601611
 20
58.0102040816
 11
25.7586228763
 21
68.0102040816
  0
LINE
  5
2E9
100
AcDbEntity
  8
0
100
AcDbLine
 62
7
  6
CONTINUOUS
 10
25.3185826138
 20
58.0102040816
 11
25.3239255572
 21
59.2253479844
  0
LINE
  5
2EA
100
AcDbEntity
  8
0
100
AcDbLine
 62
7
  6
CONTINUOUS
 10
24.9958152972
 20
58.0102040816
 11
25.0489891385
 21
68.0102040816
  0
LINE
  5
2EB
100
AcDbEntity
  8
0
100
AcDbLine
 62
7
  6
CONTINUOUS
 10
25.3073236524
 20
58.0102040816
 11
25.3139803383
 21
59.2253479848
  0
LINE
  5
2EC
100
AcDbEntity
  8
0
100
AcDbLine
 62
7
  6
CONTINUOUS
 10
25.3239255572
 20
59.2253479844
 11
25.3172688714
 21
58.0102040816
  0
LINE
  5
2ED
100
AcDbEntity
  8
0
100
AcDbLine
 62
7
  6
CONTINUOUS
 10
29.0913200557
 20
58.0102040816
 11
29.0813578401
 21
59.2253479848
  0
LINE
  5
2EE
100
AcDbEntity
  8
0
100
AcDbLine
 62
7
  6
CONTINUOUS
 10
29.0912347235
 20
59.2253479844
 11
29.1011969391
 21
58.0102040816
  0
LINE
  5
2EF
100
AcDbEntity
  8
0
100
AcDbLine
 62
7
  6
CONTINUOUS
 10
29.0893539444
 20
58.0102040816
 11
29.0813578401
 21
59.225347984
  0
LINE
  5
2F0
100
AcDbEntity
  8
0
100
AcDbLine
 62
7
  6
CONTINUOUS
 10
28.338648907
 20
58.0102040816
 11
28.3319922211
 21
59.2253479848
  0
LINE
  5
2F1
100
AcDbEntity
  8
0
100
AcDbLine
 62
7
  6
CONTINUOUS
 10
28.3419374401
 20
59.2253479854
 11
28.3485941259
 21
58.0102040816
  0
LINE
  5
2F2
100
AcDbEntity
  8
0
100
AcDbLine
 62
7
  6
CONTINUOUS
 10
28.6601024812
 20
58.0102040816
 11
28.6069286399
 21
68.0102040816
  0
LINE
  5
2F3
100
AcDbEntity
  8
0
100
AcDbLine
 62
7
  6
CONTINUOUS
 10
28.3319922211
 20
59.2253479848
 11
28.3373351645
 21
58.0102040816
  0
LINE
  5
2F4
100
AcDbEntity
  8
0
100
AcDbLine
 62
7
  6
CONTINUOUS
 10
27.9292576172
 20
58.0102040816
 11
27.8972949021
 21
68.0102040816
  0
LINE
  5
2F5
100
AcDbEntity
  8
0
100
AcDbLine
 62
7
  6
CONTINUOUS
 10
27.5818370619
 20
58.0102040816
 11
27.5785041514
 21
59.2253479848
  0
LINE
  5
2F6
100
AcDbEntity
  8
0
100
AcDbLine
 62
7
  6
CONTINUOUS
 10
27.5884904467
 20
59.2253479846
 11
27.5918233573
 21
58.0102040816
  0
LINE
  5
2F7
100
AcDbEntity
  8
0
100
AcDbLine
 62
7
  6
CONTINUOUS
 10
27.1953941701
 20
58.0102040816
 11
27.1847301886
 21
68.0102040816
  0
LINE
  5
2F8
100
AcDbEntity
  8
0
100
AcDbLine
 62
7
  6
CONTINUOUS
 10
27.166240116
 20
53.1102040816
 11
27.166240116
 21
47.1102040816
  0
LINE
  5
2F9
100
AcDbEntity
  8
0
100
AcDbLine
 62
7
  6
CONTINUOUS
 10
27.5216507083
 20
53.1102040816
 11
27.5216507083
 21
47.1102040816
  0
LINE
  5
2FA
100
AcDbEntity
  8
0
100
AcDbLine
 62
7
  6
CONTINUOUS
 10
27.5316370037
 20
47.1102040816
 11
27.5316370037
 21
53.1102040816
  0
LINE
  5
2FB
100
AcDbEntity
  8
0
100
AcDbLine
 62
7
  6
CONTINUOUS
 10
27.8418753644
 20
53.1102040816
 11
27.8418753644
 21
47.1102040816
  0
LINE
  5
2FC
100
AcDbEntity
  8
0
100
AcDbLine
 62
7
  6
CONTINUOUS
 10
28.2184411665
 20
53.1102040816
 11
28.2184411665
 21
47.1102040816
  0
LINE
  5
2FD
100
AcDbEntity
  8
0
100
AcDbLine
 62
7
  6
CONTINUOUS
 10
28.2283863854
 20
47.1102040816
 11
28.2283863854
 21
53.1102040816
  0
LINE
  5
2FE
100
AcDbEntity
  8
0
100
AcDbLine
 62
7
  6
CONTINUOUS
 10
28.5147315382
 20
53.1102040816
 11
28.5147315382
 21
47.1102040816
  0
LINE
  5
2FF
100
AcDbEntity
  8
0
100
AcDbLine
 62
7
  6
CONTINUOUS
 10
28.9114204093
 20
53.1102040816
 11
28.9114204093
 21
47.1102040816
  0
LINE
  5
300
100
AcDbEntity
  8
0
100
AcDbLine
 62
7
  6
CONTINUOUS
 10
28.9212972927
 20
47.1102040816
 11
28.9212972927
 21
53.1102040816
  0
LINE
  5
301
100
AcDbEntity
  8
0
100
AcDbLine
 62
7
  6
CONTINUOUS
 10
29.1829643855
 20
53.1102040816
 11
29.1829643855
 21
47.1102040816
  0
LINE
  5
302
100
AcDbEntity
  8
0
100
AcDbLine
 62
7
  6
CONTINUOUS
 10
31.3039497586
 20
58.0102040816
 11
31.2842706302
 21
59.2253479848
  0
LINE
  5
303
100
AcDbEntity
  8
0
100
AcDbLine
 62
7
  6
CONTINUOUS
 10
31.2937811954
 20
59.2253479842
 11
31.3134603238
 21
58.0102040816
  0
LINE
  5
304
100
AcDbEntity
  8
0
100
AcDbLine
 62
7
  6
CONTINUOUS
 10
30.5760051909
 20
58.0102040816
 11
30.5595228184
 21
59.2253479848
  0
LINE
  5
305
100
AcDbEntity
  8
0
100
AcDbLine
 62
7
  6
CONTINUOUS
 10
30.5691820766
 20
59.2253479844
 11
30.5856644492
 21
58.0102040816
  0
LINE
  5
306
100
AcDbEntity
  8
0
100
AcDbLine
 62
7
  6
CONTINUOUS
 10
31.3000659482
 20
58.0102040816
 11
31.2842706302
 21
59.2253479846
  0
LINE
  5
307
100
AcDbEntity
  8
0
100
AcDbLine
 62
7
  6
CONTINUOUS
 10
30.8145678982
 20
58.0102040816
 11
30.6988655507
 21
68.0102040816
  0
LINE
  5
308
100
AcDbEntity
  8
0
100
AcDbLine
 62
7
  6
CONTINUOUS
 10
29.8377874888
 20
58.0102040816
 11
29.8245470492
 21
59.2253479848
  0
LINE
  5
309
100
AcDbEntity
  8
0
100
AcDbLine
 62
7
  6
CONTINUOUS
 10
29.8343285252
 20
59.2253479854
 11
29.8475689648
 21
58.0102040816
  0
LINE
  5
30A
100
AcDbEntity
  8
0
100
AcDbLine
 62
7
  6
CONTINUOUS
 10
30.5727522821
 20
58.0102040816
 11
30.5595228184
 21
59.2253479844
  0
LINE
  5
30B
100
AcDbEntity
  8
0
100
AcDbLine
 62
7
  6
CONTINUOUS
 10
30.1047374437
 20
58.0102040816
 11
30.0096363263
 21
68.0102040816
  0
LINE
  5
30C
100
AcDbEntity
  8
0
100
AcDbLine
 62
7
  6
CONTINUOUS
 10
29.8351743976
 20
58.0102040816
 11
29.8245470492
 21
59.2253479845
  0
LINE
  5
30D
100
AcDbEntity
  8
0
100
AcDbLine
 62
7
  6
CONTINUOUS
 10
29.3859255668
 20
58.0102040816
 11
29.3116863453
 21
68.0102040816
  0
LINE
  5
30E
100
AcDbEntity
  8
0
100
AcDbLine
 62
7
  6
CONTINUOUS
 10
29.5986890289
 20
53.1102040816
 11
29.5986890289
 21
47.1102040816
  0
LINE
  5
30F
100
AcDbEntity
  8
0
100
AcDbLine
 62
7
  6
CONTINUOUS
 10
29.6084705049
 20
47.1102040816
 11
29.6084705049
 21
53.1102040816
  0
LINE
  5
310
100
AcDbEntity
  8
0
100
AcDbLine
 62
7
  6
CONTINUOUS
 10
29.8447423263
 20
53.1102040816
 11
29.8447423263
 21
47.1102040816
  0
LINE
  5
311
100
AcDbEntity
  8
0
100
AcDbLine
 62
7
  6
CONTINUOUS
 10
30.2783632698
 20
53.1102040816
 11
30.2783632698
 21
47.1102040816
  0
LINE
  5
312
100
AcDbEntity
  8
0
100
AcDbLine
 62
7
  6
CONTINUOUS
 10
30.2880225281
 20
47.1102040816
 11
30.2880225281
 21
53.1102040816
  0
LINE
  5
313
100
AcDbEntity
  8
0
100
AcDbLine
 62
7
  6
CONTINUOUS
 10
30.4982514734
 20
53.1102040816
 11
30.4982514734
 21
47.1102040816
  0
LINE
  5
314
100
AcDbEntity
  8
0
100
AcDbLine
 62
7
  6
CONTINUOUS
 10
30.9446963817
 20
53.1102040816
 11
30.9446963817
 21
47.1102040816
  0
LINE
  5
315
100
AcDbEntity
  8
0
100
AcDbLine
 62
7
  6
CONTINUOUS
 10
30.9485801922
 20
53.1102040816
 11
30.9485801922
 21
47.1102040816
  0
LINE
  5
316
100
AcDbEntity
  8
0
100
AcDbLine
 62
7
  6
CONTINUOUS
 10
30.9580907573
 20
47.1102040816
 11
30.9580907573
 21
53.1102040816
  0
LINE
  5
317
100
AcDbEntity
  8
0
100
AcDbLine
 62
7
  6
CONTINUOUS
 10
31.1417006037
 20
53.1102040816
 11
31.1417006037
 21
47.1102040816
  0
LINE
  5
318
100
AcDbEntity
  8
0
100
AcDbLine
 62
7
  6
CONTINUOUS
 10
31.6029987111
 20
53.1102040816
 11
31.6029987111
 21
47.1102040816
  0
LINE
  5
319
100
AcDbEntity
  8
0
100
AcDbLine
 62
7
  6
CONTINUOUS
 10
31.6075027779
 20
53.1102040816
 11
31.6075027779
 21
47.1102040816
  0
LINE
  5
31A
100
AcDbEntity
  8
0
100
AcDbLine
 62
7
  6
CONTINUOUS
 10
31.6168385822
 20
47.1102040816
 11
31.6168385822
 21
53.1102040816
  0
LINE
  5
31B
100
AcDbEntity
  8
0
100
AcDbLine
 62
7
  6
CONTINUOUS
 10
16.5779588892
 20
40.2602040816
 11
37.0779588892
 21
40.2602040816
  0
LINE
  5
31C
100
AcDbEntity
  8
0
100
AcDbLine
 62
7
  6
CONTINUOUS
 10
37.8279588892
 20
41.0102040816
 11
16.5279588892
 21
41.0102040816
  0
LINE
  5
31D
100
AcDbEntity
  8
0
100
AcDbLine
 62
7
  6
CONTINUOUS
 10
33.4063657114
 20
58.0102040816
 11
33.3774542357
 21
59.2253479848
  0
LINE
  5
31E
100
AcDbEntity
  8
0
100
AcDbLine
 62
7
  6
CONTINUOUS
 10
33.3863643009
 20
59.2253479845
 11
33.4152757767
 21
58.0102040816
  0
LINE
  5
31F
100
AcDbEntity
  8
0
100
AcDbLine
 62
7
  6
CONTINUOUS
 10
32.7210721359
 20
58.0102040816
 11
32.6951699273
 21
59.2253479848
  0
LINE
  5
320
100
AcDbEntity
  8
0
100
AcDbLine
 62
7
  6
CONTINUOUS
 10
32.7043053819
 20
59.2253479847
 11
32.7302075904
 21
58.0102040816
  0
LINE
  5
321
100
AcDbEntity
  8
0
100
AcDbLine
 62
7
  6
CONTINUOUS
 10
33.5256442357
 20
58.0102040816
 11
33.3312590035
 21
68.0102040816
  0
LINE
  5
322
100
AcDbEntity
  8
0
100
AcDbLine
 62
7
  6
CONTINUOUS
 10
33.4006598341
 20
58.0102040816
 11
33.3774542357
 21
59.2253479845
  0
LINE
  5
323
100
AcDbEntity
  8
0
100
AcDbLine
 62
7
  6
CONTINUOUS
 10
32.0196259465
 20
58.0102040816
 11
31.9968040014
 21
59.2253479848
  0
LINE
  5
324
100
AcDbEntity
  8
0
100
AcDbLine
 62
7
  6
CONTINUOUS
 10
32.0061398056
 20
59.225347985
 11
32.0289617508
 21
58.0102040816
  0
LINE
  5
325
100
AcDbEntity
  8
0
100
AcDbLine
 62
7
  6
CONTINUOUS
 10
32.8708697707
 20
58.0102040816
 11
32.6954878927
 21
68.0102040816
  0
LINE
  5
326
100
AcDbEntity
  8
0
100
AcDbLine
 62
7
  6
CONTINUOUS
 10
32.715960158
 20
58.0102040816
 11
32.6951699273
 21
59.2253479846
  0
LINE
  5
327
100
AcDbEntity
  8
0
100
AcDbLine
 62
7
  6
CONTINUOUS
 10
32.1995321071
 20
58.0102040816
 11
32.0436342927
 21
68.0102040816
  0
LINE
  5
328
100
AcDbEntity
  8
0
100
AcDbLine
 62
7
  6
CONTINUOUS
 10
32.0151218797
 20
58.0102040816
 11
31.9968040014
 21
59.2253479844
  0
LINE
  5
329
100
AcDbEntity
  8
0
100
AcDbLine
 62
7
  6
CONTINUOUS
 10
31.5134713346
 20
58.0102040816
 11
31.377484889
 21
68.0102040816
  0
LINE
  5
32A
100
AcDbEntity
  8
0
100
AcDbLine
 62
7
  6
CONTINUOUS
 10
31.7733260678
 20
53.1102040816
 11
31.7733260678
 21
47.1102040816
  0
LINE
  5
32B
100
AcDbEntity
  8
0
100
AcDbLine
 62
7
  6
CONTINUOUS
 10
31.8279588892
 20
12.4102040816
 11
31.8279588892
 21
20.0102040816
  0
LINE
  5
32C
100
AcDbEntity
  8
0
100
AcDbLine
 62
7
  6
CONTINUOUS
 10
32.2482129883
 20
53.1102040816
 11
32.2482129883
 21
47.1102040816
  0
LINE
  5
32D
100
AcDbEntity
  8
0
100
AcDbLine
 62
7
  6
CONTINUOUS
 10
32.2533249661
 20
53.1102040816
 11
32.2533249661
 21
47.1102040816
  0
LINE
  5
32E
100
AcDbEntity
  8
0
100
AcDbLine
 62
7
  6
CONTINUOUS
 10
32.2624604207
 20
47.1102040816
 11
32.2624604207
 21
53.1102040816
  0
LINE
  5
32F
100
AcDbEntity
  8
0
100
AcDbLine
 62
7
  6
CONTINUOUS
 10
32.3913966242
 20
53.1102040816
 11
32.3913966242
 21
47.1102040816
  0
LINE
  5
330
100
AcDbEntity
  8
0
100
AcDbLine
 62
7
  6
CONTINUOUS
 10
32.8785707257
 20
53.1102040816
 11
32.8785707257
 21
47.1102040816
  0
LINE
  5
331
100
AcDbEntity
  8
0
100
AcDbLine
 62
7
  6
CONTINUOUS
 10
32.884276603
 20
53.1102040816
 11
32.884276603
 21
47.1102040816
  0
LINE
  5
332
100
AcDbEntity
  8
0
100
AcDbLine
 62
7
  6
CONTINUOUS
 10
32.8931866682
 20
47.1102040816
 11
32.8931866682
 21
53.1102040816
  0
LINE
  5
333
100
AcDbEntity
  8
0
100
AcDbLine
 62
7
  6
CONTINUOUS
 10
32.9942181845
 20
53.1102040816
 11
32.9942181845
 21
47.1102040816
  0
LINE
  5
334
100
AcDbEntity
  8
0
100
AcDbLine
 62
7
  6
CONTINUOUS
 10
33.4923441566
 20
53.1102040816
 11
33.4923441566
 21
47.1102040816
  0
LINE
  5
335
100
AcDbEntity
  8
0
100
AcDbLine
 62
7
  6
CONTINUOUS
 10
33.498628294
 20
53.1102040816
 11
33.498628294
 21
47.1102040816
  0
LINE
  5
336
100
AcDbEntity
  8
0
100
AcDbLine
 62
7
  6
CONTINUOUS
 10
33.507288548
 20
47.1102040816
 11
33.507288548
 21
53.1102040816
  0
LINE
  5
337
100
AcDbEntity
  8
0
100
AcDbLine
 62
7
  6
CONTINUOUS
 10
33.5801384567
 20
53.1102040816
 11
33.5801384567
 21
47.1102040816
  0
LINE
  5
338
100
AcDbEntity
  8
0
100
AcDbLine
 62
7
  6
CONTINUOUS
 10
37.0779588892
 20
40.2602040816
 11
37.8279588892
 21
41.0102040816
  0
LINE
  5
339
100
AcDbEntity
  8
0
100
AcDbLine
 62
7
  6
CONTINUOUS
 10
35.3467994557
 20
58.0102040816
 11
35.3093675291
 21
59.2253479848
  0
LINE
  5
33A
100
AcDbEntity
  8
0
100
AcDbLine
 62
7
  6
CONTINUOUS
 10
35.3174576991
 20
59.2253479848
 11
35.3548896257
 21
58.0102040816
  0
LINE
  5
33B
100
AcDbEntity
  8
0
100
AcDbLine
 62
7
  6
CONTINUOUS
 10
34.7210310745
 20
58.0102040816
 11
34.6863468284
 21
59.2253479848
  0
LINE
  5
33C
100
AcDbEntity
  8
0
100
AcDbLine
 62
7
  6
CONTINUOUS
 10
34.694733534
 20
59.2253479845
 11
34.7294177802
 21
58.0102040816
  0
LINE
  5
33D
100
AcDbEntity
  8
0
100
AcDbLine
 62
7
  6
CONTINUOUS
 10
34.0736283311
 20
58.0102040816
 11
34.0417868325
 21
59.2253479848
  0
LINE
  5
33E
100
AcDbEntity
  8
0
100
AcDbLine
 62
7
  6
CONTINUOUS
 10
34.0504470865
 20
59.2253479847
 11
34.0822885852
 21
58.0102040816
  0
LINE
  5
33F
100
AcDbEntity
  8
0
100
AcDbLine
 62
7
  6
CONTINUOUS
 10
35.3728978952
 20
58.0102040816
 11
35.1249002861
 21
68.0102040816
  0
LINE
  5
340
100
AcDbEntity
  8
0
100
AcDbLine
 62
7
  6
CONTINUOUS
 10
35.3394120092
 20
58.0102040816
 11
35.3093675291
 21
59.2253479844
  0
LINE
  5
341
100
AcDbEntity
  8
0
100
AcDbLine
 62
7
  6
CONTINUOUS
 10
34.778375122
 20
58.0102040816
 11
34.5476321974
 21
68.0102040816
  0
LINE
  5
342
100
AcDbEntity
  8
0
100
AcDbLine
 62
7
  6
CONTINUOUS
 10
34.7141859015
 20
58.0102040816
 11
34.6863468284
 21
59.2253479848
  0
LINE
  5
343
100
AcDbEntity
  8
0
100
AcDbLine
 62
7
  6
CONTINUOUS
 10
34.1620608106
 20
58.0102040816
 11
33.9492050208
 21
68.0102040816
  0
LINE
  5
344
100
AcDbEntity
  8
0
100
AcDbLine
 62
7
  6
CONTINUOUS
 10
34.0673441938
 20
58.0102040816
 11
34.0417868325
 21
59.2253479842
  0
LINE
  5
345
100
AcDbEntity
  8
0
100
AcDbLine
 62
7
  6
CONTINUOUS
 10
34.0878509708
 20
53.1102040816
 11
34.0878509708
 21
47.1102040816
  0
LINE
  5
346
100
AcDbEntity
  8
0
100
AcDbLine
 62
7
  6
CONTINUOUS
 10
34.0946961438
 20
53.1102040816
 11
34.0946961438
 21
47.1102040816
  0
LINE
  5
347
100
AcDbEntity
  8
0
100
AcDbLine
 62
7
  6
CONTINUOUS
 10
34.1030828495
 20
47.1102040816
 11
34.1030828495
 21
53.1102040816
  0
LINE
  5
348
100
AcDbEntity
  8
0
100
AcDbLine
 62
7
  6
CONTINUOUS
 10
34.147551474
 20
53.1102040816
 11
34.147551474
 21
47.1102040816
  0
LINE
  5
349
100
AcDbEntity
  8
0
100
AcDbLine
 62
7
  6
CONTINUOUS
 10
34.6634589254
 20
53.1102040816
 11
34.6634589254
 21
47.1102040816
  0
LINE
  5
34A
100
AcDbEntity
  8
0
100
AcDbLine
 62
7
  6
CONTINUOUS
 10
34.670846372
 20
53.1102040816
 11
34.670846372
 21
47.1102040816
  0
LINE
  5
34B
100
AcDbEntity
  8
0
100
AcDbLine
 62
7
  6
CONTINUOUS
 10
34.6789365419
 20
47.1102040816
 11
34.6789365419
 21
53.1102040816
  0
LINE
  5
34C
100
AcDbEntity
  8
0
100
AcDbLine
 62
7
  6
CONTINUOUS
 10
34.6949019968
 20
53.1102040816
 11
34.6949019968
 21
47.1102040816
  0
LINE
  5
34D
100
AcDbEntity
  8
0
100
AcDbLine
 62
7
  6
CONTINUOUS
 10
35.2175903191
 20
53.1102040816
 11
35.2175903191
 21
47.1102040816
  0
LINE
  5
34E
100
AcDbEntity
  8
0
100
AcDbLine
 62
7
  6
CONTINUOUS
 10
35.2254997906
 20
53.1102040816
 11
35.2254997906
 21
47.1102040816
  0
LINE
  5
34F
100
AcDbEntity
  8
0
100
AcDbLine
 62
7
  6
CONTINUOUS
 10
35.2332712503
 20
47.1102040816
 11
35.2332712503
 21
53.1102040816
  0
LINE
  5
350
100
AcDbEntity
  8
0
100
AcDbLine
 62
7
  6
CONTINUOUS
 10
35.7487263161
 20
53.1102040816
 11
35.7487263161
 21
47.1102040816
  0
LINE
  5
351
100
AcDbEntity
  8
0
100
AcDbLine
 62
7
  6
CONTINUOUS
 10
35.7571361334
 20
53.1102040816
 11
35.7571361334
 21
47.1102040816
  0
LINE
  5
352
100
AcDbEntity
  8
0
100
AcDbLine
 62
7
  6
CONTINUOUS
 10
35.7645675817
 20
47.1102040816
 11
35.7645675817
 21
53.1102040816
  0
LINE
  5
353
100
AcDbEntity
  8
0
100
AcDbLine
 62
7
  6
CONTINUOUS
 10
36.2554111098
 20
53.1102040816
 11
36.2554111098
 21
47.1102040816
  0
LINE
  5
354
100
AcDbEntity
  8
0
100
AcDbLine
 62
7
  6
CONTINUOUS
 10
39.3278502551
 20
46.1102040816
 11
14.3280675233
 21
46.1102040816
  0
LINE
  5
355
100
AcDbEntity
  8
0
100
AcDbLine
 62
7
  6
CONTINUOUS
 10
37.6002125649
 20
58.0102040816
 11
37.552886875
 21
59.2253479848
  0
LINE
  5
356
100
AcDbEntity
  8
0
100
AcDbLine
 62
7
  6
CONTINUOUS
 10
37.5595781811
 20
59.2253479843
 11
37.606903871
 21
58.0102040816
  0
LINE
  5
357
100
AcDbEntity
  8
0
100
AcDbLine
 62
7
  6
CONTINUOUS
 10
37.0774710729
 20
58.0102040816
 11
37.0324403937
 21
59.2253479848
  0
LINE
  5
358
100
AcDbEntity
  8
0
100
AcDbLine
 62
7
  6
CONTINUOUS
 10
37.0395114615
 20
59.2253479848
 11
37.0845421407
 21
58.0102040816
  0
LINE
  5
359
100
AcDbEntity
  8
0
100
AcDbLine
 62
7
  6
CONTINUOUS
 10
36.5266363804
 20
58.0102040816
 11
36.4840241378
 21
59.2253479848
  0
LINE
  5
35A
100
AcDbEntity
  8
0
100
AcDbLine
 62
7
  6
CONTINUOUS
 10
36.4914555861
 20
59.225347985
 11
36.5340678287
 21
58.0102040816
  0
LINE
  5
35B
100
AcDbEntity
  8
0
100
AcDbLine
 62
7
  6
CONTINUOUS
 10
35.9492182871
 20
58.0102040816
 11
35.9091412783
 21
59.2253479848
  0
LINE
  5
35C
100
AcDbEntity
  8
0
100
AcDbLine
 62
7
  6
CONTINUOUS
 10
35.9169127379
 20
59.2253479851
 11
35.9569897467
 21
58.0102040816
  0
LINE
  5
35D
100
AcDbEntity
  8
0
100
AcDbLine
 62
7
  6
CONTINUOUS
 10
37.5908725166
 20
58.0102040816
 11
37.552886875
 21
59.2253479845
  0
LINE
  5
35E
100
AcDbEntity
  8
0
100
AcDbLine
 62
7
  6
CONTINUOUS
 10
37.0685839606
 20
58.0102040816
 11
37.0324403937
 21
59.2253479844
  0
LINE
  5
35F
100
AcDbEntity
  8
0
100
AcDbLine
 62
7
  6
CONTINUOUS
 10
36.5182265631
 20
58.0102040816
 11
36.4840241379
 21
59.2253479841
  0
LINE
  5
360
100
AcDbEntity
  8
0
100
AcDbLine
 62
7
  6
CONTINUOUS
 10
35.9413088155
 20
58.0102040816
 11
35.9091412783
 21
59.2253479845
  0
LINE
  5
361
100
AcDbEntity
  8
0
100
AcDbLine
 62
7
  6
CONTINUOUS
 10
36.264298222
 20
53.1102040816
 11
36.264298222
 21
47.1102040816
  0
LINE
  5
362
100
AcDbEntity
  8
0
100
AcDbLine
 62
7
  6
CONTINUOUS
 10
36.2713692898
 20
47.1102040816
 11
36.2713692898
 21
53.1102040816
  0
LINE
  5
363
100
AcDbEntity
  8
0
100
AcDbLine
 62
7
  6
CONTINUOUS
 10
36.7362559121
 20
53.1102040816
 11
36.7362559121
 21
47.1102040816
  0
LINE
  5
364
100
AcDbEntity
  8
0
100
AcDbLine
 62
7
  6
CONTINUOUS
 10
36.7455959604
 20
53.1102040816
 11
36.7455959604
 21
47.1102040816
  0
LINE
  5
365
100
AcDbEntity
  8
0
100
AcDbLine
 62
7
  6
CONTINUOUS
 10
36.7522872665
 20
47.1102040816
 11
36.7522872665
 21
53.1102040816
  0
LINE
  5
366
100
AcDbEntity
  8
0
100
AcDbLine
 62
7
  6
CONTINUOUS
 10
37.0779588892
 20
40.2602040816
 11
37.0779588892
 21
20.0102040816
  0
LINE
  5
367
100
AcDbEntity
  8
0
100
AcDbLine
 62
7
  6
CONTINUOUS
 10
37.1899427611
 20
53.1102040816
 11
37.1899427611
 21
47.1102040816
  0
LINE
  5
368
100
AcDbEntity
  8
0
100
AcDbLine
 62
7
  6
CONTINUOUS
 10
37.199710145
 20
53.1102040816
 11
37.199710145
 21
47.1102040816
  0
LINE
  5
369
100
AcDbEntity
  8
0
100
AcDbLine
 62
7
  6
CONTINUOUS
 10
37.2060033489
 20
47.1102040816
 11
37.2060033489
 21
53.1102040816
  0
LINE
  5
36A
100
AcDbEntity
  8
0
100
AcDbLine
 62
7
  6
CONTINUOUS
 10
37.6152281325
 20
53.1102040816
 11
37.6152281325
 21
47.1102040816
  0
LINE
  5
36B
100
AcDbEntity
  8
0
100
AcDbLine
 62
7
  6
CONTINUOUS
 10
37.6253960803
 20
53.1102040816
 11
37.6253960803
 21
47.1102040816
  0
LINE
  5
36C
100
AcDbEntity
  8
0
100
AcDbLine
 62
7
  6
CONTINUOUS
 10
37.6312739328
 20
47.1102040816
 11
37.6312739328
 21
53.1102040816
  0
LINE
  5
36D
100
AcDbEntity
  8
0
100
AcDbLine
 62
7
  6
CONTINUOUS
 10
37.8279588892
 20
53.6102040816
 11
37.8279588892
 21
53.1102040816
  0
LINE
  5
36E
100
AcDbEntity
  8
0
100
AcDbLine
 62
7
  6
CONTINUOUS
 10
37.8279588892
 20
46.1102040816
 11
37.8279588892
 21
41.0102040816
  0
LINE
  5
36F
100
AcDbEntity
  8
0
100
AcDbLine
 62
7
  6
CONTINUOUS
 10
38.0109463487
 20
53.1102040816
 11
38.0109463487
 21
47.1102040816
  0
LINE
  5
370
100
AcDbEntity
  8
0
100
AcDbLine
 62
7
  6
CONTINUOUS
 10
38.0214869908
 20
53.1102040816
 11
38.0214869908
 21
47.1102040816
  0
LINE
  5
371
100
AcDbEntity
  8
0
100
AcDbLine
 62
7
  6
CONTINUOUS
 10
38.0269333812
 20
47.1102040816
 11
38.0269333812
 21
53.1102040816
  0
LINE
  5
372
100
AcDbEntity
  8
0
100
AcDbLine
 62
7
  6
CONTINUOUS
 10
38.3760127736
 20
53.1102040816
 11
38.3760127736
 21
47.1102040816
  0
LINE
  5
373
100
AcDbEntity
  8
0
100
AcDbLine
 62
7
  6
CONTINUOUS
 10
38.3868972188
 20
53.1102040816
 11
38.3868972188
 21
47.1102040816
  0
LINE
  5
374
100
AcDbEntity
  8
0
100
AcDbLine
 62
7
  6
CONTINUOUS
 10
38.3918972188
 20
47.1102040816
 11
38.3918972188
 21
53.1102040816
  0
LINE
  5
375
100
AcDbEntity
  8
0
100
AcDbLine
 62
7
  6
CONTINUOUS
 10
29.9279588892
 20
6.0102040816
 11
31.5279588892
 21
12.4102040816
  0
LINE
  5
376
100
AcDbEntity
  8
0
100
AcDbLine
 62
7
  6
CONTINUOUS
 10
13.4779598255
 20
47.1102040816
 11
40.1594005633
 21
47.1102040816
  0
LINE
  5
377
100
AcDbEntity
  8
0
100
AcDbLine
 62
7
  6
CONTINUOUS
 10
40.1653896781
 20
47.1102040816
 11
40.1779579529
 21
47.1102040816
  0
LINE
  5
378
100
AcDbEntity
  8
0
100
AcDbLine
 62
7
  6
CONTINUOUS
 10
39.2591531944
 20
60.6092728037
 11
39.3276754041
 21
59.2253479844
  0
LINE
  5
379
100
AcDbEntity
  8
0
100
AcDbLine
 62
7
  6
CONTINUOUS
 10
39.7452827693
 20
58.0102040816
 11
39.6885408033
 21
59.2253479848
  0
LINE
  5
37A
100
AcDbEntity
  8
0
100
AcDbLine
 62
7
  6
CONTINUOUS
 10
39.6930807083
 20
59.2253479845
 11
39.7498226743
 21
58.0102040816
  0
LINE
  5
37B
100
AcDbEntity
  8
0
100
AcDbLine
 62
7
  6
CONTINUOUS
 10
39.3828264975
 20
58.0102040816
 11
39.3276754041
 21
59.2253479848
  0
LINE
  5
37C
100
AcDbEntity
  8
0
100
AcDbLine
 62
7
  6
CONTINUOUS
 10
39.3326754041
 20
59.2253479848
 11
39.3878264975
 21
58.0102040816
  0
LINE
  5
37D
100
AcDbEntity
  8
0
100
AcDbLine
 62
7
  6
CONTINUOUS
 10
38.9859582062
 20
58.0102040816
 11
38.9325491507
 21
59.2253479848
  0
LINE
  5
37E
100
AcDbEntity
  8
0
100
AcDbLine
 62
7
  6
CONTINUOUS
 10
38.9379955411
 20
59.2253479845
 11
38.9914045966
 21
58.0102040816
  0
LINE
  5
37F
100
AcDbEntity
  8
0
100
AcDbLine
 62
7
  6
CONTINUOUS
 10
38.5557656839
 20
58.0102040816
 11
38.5042450569
 21
59.2253479848
  0
LINE
  5
380
100
AcDbEntity
  8
0
100
AcDbLine
 62
7
  6
CONTINUOUS
 10
38.5101229094
 20
59.2253479849
 11
38.5616435365
 21
58.0102040816
  0
LINE
  5
381
100
AcDbEntity
  8
0
100
AcDbLine
 62
7
  6
CONTINUOUS
 10
39.3326754041
 20
59.2253479845
 11
39.2755159722
 21
60.6101035278
  0
LINE
  5
382
100
AcDbEntity
  8
0
100
AcDbLine
 62
7
  6
CONTINUOUS
 10
38.0934280584
 20
58.0102040816
 11
38.0439370743
 21
59.2253479848
  0
LINE
  5
383
100
AcDbEntity
  8
0
100
AcDbLine
 62
7
  6
CONTINUOUS
 10
38.0502302782
 20
59.2253479851
 11
38.0997212623
 21
58.0102040816
  0
LINE
  5
384
100
AcDbEntity
  8
0
100
AcDbLine
 62
7
  6
CONTINUOUS
 10
39.7340843545
 20
58.0102040816
 11
39.6885408033
 21
59.2253479844
  0
LINE
  5
385
100
AcDbEntity
  8
0
100
AcDbLine
 62
7
  6
CONTINUOUS
 10
39.3719420523
 20
58.0102040816
 11
39.3276754041
 21
59.2253479844
  0
LINE
  5
386
100
AcDbEntity
  8
0
100
AcDbLine
 62
7
  6
CONTINUOUS
 10
38.9754175641
 20
58.0102040816
 11
38.9325491508
 21
59.2253479842
  0
LINE
  5
387
100
AcDbEntity
  8
0
100
AcDbLine
 62
7
  6
CONTINUOUS
 10
38.5455977361
 20
58.0102040816
 11
38.5042450569
 21
59.2253479842
  0
LINE
  5
388
100
AcDbEntity
  8
0
100
AcDbLine
 62
7
  6
CONTINUOUS
 10
38.0836606745
 20
58.0102040816
 11
38.0439370743
 21
59.2253479844
  0
LINE
  5
389
100
AcDbEntity
  8
0
100
AcDbLine
 62
7
  6
CONTINUOUS
 10
38.7094267856
 20
53.1102040816
 11
38.7094267856
 21
47.1102040816
  0
LINE
  5
38A
100
AcDbEntity
  8
0
100
AcDbLine
 62
7
  6
CONTINUOUS
 10
38.7206252003
 20
53.1102040816
 11
38.7206252003
 21
47.1102040816
  0
LINE
  5
38B
100
AcDbEntity
  8
0
100
AcDbLine
 62
7
  6
CONTINUOUS
 10
38.7251651053
 20
47.1102040816
 11
38.7251651053
 21
53.1102040816
  0
LINE
  5
38C
100
AcDbEntity
  8
0
100
AcDbLine
 62
7
  6
CONTINUOUS
 10
39.0102745198
 20
53.1102040816
 11
39.0102745198
 21
47.1102040816
  0
LINE
  5
38D
100
AcDbEntity
  8
0
100
AcDbLine
 62
7
  6
CONTINUOUS
 10
39.0217562101
 20
53.1102040816
 11
39.0217562101
 21
47.1102040816
  0
LINE
  5
38E
100
AcDbEntity
  8
0
100
AcDbLine
 62
7
  6
CONTINUOUS
 10
39.0258235765
 20
47.1102040816
 11
39.0258235765
 21
53.1102040816
  0
LINE
  5
38F
100
AcDbEntity
  8
0
100
AcDbLine
 62
7
  6
CONTINUOUS
 10
39.2777313738
 20
53.1102040816
 11
39.2777313738
 21
47.1102040816
  0
LINE
  5
390
100
AcDbEntity
  8
0
100
AcDbLine
 62
7
  6
CONTINUOUS
 10
39.289464869
 20
53.1102040816
 11
39.289464869
 21
47.1102040816
  0
LINE
  5
391
100
AcDbEntity
  8
0
100
AcDbLine
 62
7
  6
CONTINUOUS
 10
39.2930485485
 20
47.1102040816
 11
39.2930485485
 21
53.1102040816
  0
LINE
  5
392
100
AcDbEntity
  8
0
100
AcDbLine
 62
7
  6
CONTINUOUS
 10
39.3279588892
 20
46.1102040816
 11
39.3279588892
 21
47.1102040816
  0
LINE
  5
393
100
AcDbEntity
  8
0
100
AcDbLine
 62
7
  6
CONTINUOUS
 10
39.5110642667
 20
53.1102040816
 11
39.5110642667
 21
47.1102040816
  0
LINE
  5
394
100
AcDbEntity
  8
0
100
AcDbLine
 62
7
  6
CONTINUOUS
 10
39.5230174063
 20
53.1102040816
 11
39.5230174063
 21
47.1102040816
  0
LINE
  5
395
100
AcDbEntity
  8
0
100
AcDbLine
 62
7
  6
CONTINUOUS
 10
39.5261075762
 20
47.1102040816
 11
39.5261075762
 21
53.1102040816
  0
LINE
  5
396
100
AcDbEntity
  8
0
100
AcDbLine
 62
7
  6
CONTINUOUS
 10
39.7096336494
 20
53.1102040816
 11
39.7096336494
 21
47.1102040816
  0
LINE
  5
397
100
AcDbEntity
  8
0
100
AcDbLine
 62
7
  6
CONTINUOUS
 10
39.7217736705
 20
53.1102040816
 11
39.7217736705
 21
47.1102040816
  0
LINE
  5
398
100
AcDbEntity
  8
0
100
AcDbLine
 62
7
  6
CONTINUOUS
 10
39.7243618609
 20
47.1102040816
 11
39.7243618609
 21
53.1102040816
  0
LINE
  5
399
100
AcDbEntity
  8
0
100
AcDbLine
 62
7
  6
CONTINUOUS
 10
39.8728952569
 20
53.1102040816
 11
39.8728952569
 21
47.1102040816
  0
LINE
  5
39A
100
AcDbEntity
  8
0
100
AcDbLine
 62
7
  6
CONTINUOUS
 10
39.8851888847
 20
53.1102040816
 11
39.8851888847
 21
47.1102040816
  0
LINE
  5
39B
100
AcDbEntity
  8
0
100
AcDbLine
 62
7
  6
CONTINUOUS
 10
39.8872680016
 20
47.1102040816
 11
39.8872680016
 21
53.1102040816
  0
LINE
  5
39C
100
AcDbEntity
  8
0
100
AcDbLine
 62
7
  6
CONTINUOUS
 10
40.0004016006
 20
53.1102040816
 11
40.0004016006
 21
47.1102040816
  0
LINE
  5
39D
100
AcDbEntity
  8
0
100
AcDbLine
 62
7
  6
CONTINUOUS
 10
40.012815139
 20
53.1102040816
 11
40.012815139
 21
47.1102040816
  0
LINE
  5
39E
100
AcDbEntity
  8
0
100
AcDbLine
 62
7
  6
CONTINUOUS
 10
40.0143794837
 20
47.1102040816
 11
40.0143794837
 21
53.1102040816
  0
LINE
  5
39F
100
AcDbEntity
  8
0
100
AcDbLine
 62
7
  6
CONTINUOUS
 10
40.0918031944
 20
53.1102040816
 11
40.0918031944
 21
47.1102040816
  0
LINE
  5
3A0
100
AcDbEntity
  8
0
100
AcDbLine
 62
7
  6
CONTINUOUS
 10
40.1043026188
 20
53.1102040816
 11
40.1043026188
 21
47.1102040816
  0
LINE
  5
3A1
100
AcDbEntity
  8
0
100
AcDbLine
 62
7
  6
CONTINUOUS
 10
40.1053479035
 20
47.1102040816
 11
40.1053479035
 21
53.1102040816
  0
LINE
  5
3A2
100
AcDbEntity
  8
0
100
AcDbLine
 62
7
  6
CONTINUOUS
 10
40.146849513
 20
53.1102040816
 11
40.146849513
 21
47.1102040816
  0
LINE
  5
3A3
100
AcDbEntity
  8
0
100
AcDbLine
 62
7
  6
CONTINUOUS
 10
40.1594005633
 20
53.1102040816
 11
40.1594005633
 21
47.1102040816
  0
LINE
  5
3A4
100
AcDbEntity
  8
0
100
AcDbLine
 62
7
  6
CONTINUOUS
 10
40.1653896781
 20
53.1102040816
 11
40.1653896781
 21
47.1102040816
  0
LINE
  5
3A5
100
AcDbEntity
  8
0
100
AcDbLine
 62
7
  6
CONTINUOUS
 10
40.1779579529
 20
53.1102040816
 11
40.1779579529
 21
47.1102040816
  0
LINE
  5
3A6
100
AcDbEntity
  8
0
100
AcDbLine
 62
7
  6
CONTINUOUS
 10
41.2640607106
 20
59.2294539603
 11
41.3279588892
 21
58.0102040816
  0
LINE
  5
3A7
100
AcDbEntity
  8
0
100
AcDbLine
 62
7
  6
CONTINUOUS
 10
41.3078246025
 20
58.0102040816
 11
41.2442288805
 21
59.2253479848
  0
LINE
  5
3A8
100
AcDbEntity
  8
0
100
AcDbLine
 62
7
  6
CONTINUOUS
 10
41.2480028724
 20
58.0102040816
 11
41.1846687372
 21
59.2253479848
  0
LINE
  5
3A9
100
AcDbEntity
  8
0
100
AcDbLine
 62
7
  6
CONTINUOUS
 10
41.1857140219
 20
59.2253479844
 11
41.249048157
 21
58.0102040816
  0
LINE
  5
3AA
100
AcDbEntity
  8
0
100
AcDbLine
 62
7
  6
CONTINUOUS
 10
41.148656804
 20
58.0102040816
 11
41.0857578501
 21
59.2253479848
  0
LINE
  5
3AB
100
AcDbEntity
  8
0
100
AcDbLine
 62
7
  6
CONTINUOUS
 10
41.0873221948
 20
59.2253479844
 11
41.1502211487
 21
58.0102040816
  0
LINE
  5
3AC
100
AcDbEntity
  8
0
100
AcDbLine
 62
7
  6
CONTINUOUS
 10
41.0100586981
 20
58.0102040816
 11
40.9477673271
 21
59.2253479848
  0
LINE
  5
3AD
100
AcDbEntity
  8
0
100
AcDbLine
 62
7
  6
CONTINUOUS
 10
40.9498464441
 20
59.2253479845
 11
41.012137815
 21
58.0102040816
  0
LINE
  5
3AE
100
AcDbEntity
  8
0
100
AcDbLine
 62
7
  6
CONTINUOUS
 10
40.8325884425
 20
58.0102040816
 11
40.7710753907
 21
59.2253479848
  0
LINE
  5
3AF
100
AcDbEntity
  8
0
100
AcDbLine
 62
7
  6
CONTINUOUS
 10
40.7736635812
 20
59.2253479844
 11
40.8351766329
 21
58.0102040816
  0
LINE
  5
3B0
100
AcDbEntity
  8
0
100
AcDbLine
 62
7
  6
CONTINUOUS
 10
40.6167324706
 20
58.0102040816
 11
40.5561663411
 21
59.2253479848
  0
LINE
  5
3B1
100
AcDbEntity
  8
0
100
AcDbLine
 62
7
  6
CONTINUOUS
 10
40.559256511
 20
59.2253479851
 11
40.6198226406
 21
58.0102040816
  0
LINE
  5
3B2
100
AcDbEntity
  8
0
100
AcDbLine
 62
7
  6
CONTINUOUS
 10
40.3630824288
 20
58.0102040816
 11
40.3036292291
 21
59.2253479848
  0
LINE
  5
3B3
100
AcDbEntity
  8
0
100
AcDbLine
 62
7
  6
CONTINUOUS
 10
40.3072129086
 20
59.225347985
 11
40.3666661083
 21
58.0102040816
  0
LINE
  5
3B4
100
AcDbEntity
  8
0
100
AcDbLine
 62
7
  6
CONTINUOUS
 10
40.0723335542
 20
58.0102040816
 11
40.0141562414
 21
59.2253479848
  0
LINE
  5
3B5
100
AcDbEntity
  8
0
100
AcDbLine
 62
7
  6
CONTINUOUS
 10
40.0182236078
 20
59.2253479847
 11
40.0764009207
 21
58.0102040816
  0
LINE
  5
3B6
100
AcDbEntity
  8
0
100
AcDbLine
 62
7
  6
CONTINUOUS
 10
41.2642750298
 20
59.2253479848
 11
41.3153897524
 21
58.0102040816
  0
LINE
  5
3B7
100
AcDbEntity
  8
0
100
AcDbLine
 62
7
  6
CONTINUOUS
 10
41.2442288805
 20
59.2253479848
 11
41.2952735521
 21
58.0102040816
  0
LINE
  5
3B8
100
AcDbEntity
  8
0
100
AcDbLine
 62
7
  6
CONTINUOUS
 10
41.235503448
 20
58.0102040816
 11
41.1846687372
 21
59.2253479846
  0
LINE
  5
3B9
100
AcDbEntity
  8
0
100
AcDbLine
 62
7
  6
CONTINUOUS
 10
41.1362432656
 20
58.0102040816
 11
41.0857578502
 21
59.2253479843
  0
LINE
  5
3BA
100
AcDbEntity
  8
0
100
AcDbLine
 62
7
  6
CONTINUOUS
 10
40.9977650704
 20
58.0102040816
 11
40.9477673272
 21
59.2253479843
  0
LINE
  5
3BB
100
AcDbEntity
  8
0
100
AcDbLine
 62
7
  6
CONTINUOUS
 10
40.8204484213
 20
58.0102040816
 11
40.7710753907
 21
59.2253479841
  0
LINE
  5
3BC
100
AcDbEntity
  8
0
100
AcDbLine
 62
7
  6
CONTINUOUS
 10
40.6047793311
 20
58.0102040816
 11
40.5561663411
 21
59.2253479841
  0
LINE
  5
3BD
100
AcDbEntity
  8
0
100
AcDbLine
 62
7
  6
CONTINUOUS
 10
40.3513489336
 20
58.0102040816
 11
40.3036292291
 21
59.2253479846
  0
LINE
  5
3BE
100
AcDbEntity
  8
0
100
AcDbLine
 62
7
  6
CONTINUOUS
 10
40.060851864
 20
58.0102040816
 11
40.0141562414
 21
59.2253479846
  0
LINE
  5
3BF
100
AcDbEntity
  8
0
100
AcDbLine
 62
7
  6
CONTINUOUS
 10
41.3279588892
 20
53.6102040816
 11
41.3279588892
 21
58.0102040816
  0
LINE
  5
3C0
100
AcDbEntity
  8
0
100
AcDbLine
 62
7
  6
CONTINUOUS
 10
13.4905281002
 20
53.1102040816
 11
13.4779598255
 21
53.1102040816
  0
LINE
  5
3C1
100
AcDbEntity
  8
0
100
AcDbLine
 62
7
  6
CONTINUOUS
 10
13.496517215
 20
53.1102040816
 11
40.1779579529
 21
53.1102040816
  0
LINE
  5
3C2
100
AcDbEntity
  8
0
100
AcDbLine
 62
7
  6
CONTINUOUS
 10
41.3278391183
 20
53.6102040816
 11
12.32807866
 21
53.6102040816
  0
LINE
  5
3C3
100
AcDbEntity
  8
0
100
AcDbLine
 62
7
  6
CONTINUOUS
 10
41.3277722257
 20
55.0102040816
 11
12.3281455527
 21
55.0102040816
  0
LINE
  5
3C4
100
AcDbEntity
  8
0
100
AcDbLine
 62
7
  6
CONTINUOUS
 10
12.3281455527
 20
58.0102040816
 11
41.3275849339
 21
58.0102040816
  0
LINE
  5
3C5
100
AcDbEntity
  8
0
100
AcDbLine
 62
7
  6
CONTINUOUS
 10
12.8522512568
 20
68.0102040816
 11
40.780460146
 21
68.0102040816
  0
LINE
  5
3C6
100
AcDbEntity
  8
0
100
AcDbLine
 62
7
  6
CONTINUOUS
 10
40.7860548291
 20
68.0102040816
 11
40.8036665215
 21
68.0102040816
  0
LINE
  5
3C7
100
AcDbEntity
  8
0
100
AcDbLine
 62
7
  6
CONTINUOUS
 10
12.8673513245
 20
68.0102040816
 11
12.4111655383
 21
59.2253479845
  0
LINE
  5
3C8
100
AcDbEntity
  8
0
100
AcDbLine
 62
7
  6
CONTINUOUS
 10
12.9207164471
 20
68.0102040816
 11
12.4702037565
 21
59.2253479841
  0
LINE
  5
3C9
100
AcDbEntity
  8
0
100
AcDbLine
 62
7
  6
CONTINUOUS
 10
13.0122003545
 20
68.0102040816
 11
12.5685955836
 21
59.2253479841
  0
LINE
  5
3CA
100
AcDbEntity
  8
0
100
AcDbLine
 62
7
  6
CONTINUOUS
 10
13.1415522957
 20
68.0102040816
 11
12.7060713343
 21
59.2253479845
  0
LINE
  5
3CB
100
AcDbEntity
  8
0
100
AcDbLine
 62
7
  6
CONTINUOUS
 10
13.3084177261
 20
68.0102040816
 11
12.8822541972
 21
59.2253479844
  0
LINE
  5
3CC
100
AcDbEntity
  8
0
100
AcDbLine
 62
7
  6
CONTINUOUS
 10
13.5123392791
 20
68.0102040816
 11
13.0966612673
 21
59.2253479845
  0
LINE
  5
3CD
100
AcDbEntity
  8
0
100
AcDbLine
 62
7
  6
CONTINUOUS
 10
13.7527580199
 20
68.0102040816
 11
13.3487048698
 21
59.2253479847
  0
LINE
  5
3CE
100
AcDbEntity
  8
0
100
AcDbLine
 62
7
  6
CONTINUOUS
 10
14.0290149775
 20
68.0102040816
 11
13.6376941706
 21
59.2253479846
  0
LINE
  5
3CF
100
AcDbEntity
  8
0
100
AcDbLine
 62
7
  6
CONTINUOUS
 10
14.3403529506
 20
68.0102040816
 11
14.1899555884
 21
64.5107635037
  0
LINE
  5
3D0
100
AcDbEntity
  8
0
100
AcDbLine
 62
7
  6
CONTINUOUS
 10
14.1899555884
 20
64.5107635037
 11
13.9628370701
 21
59.2253479844
  0
LINE
  5
3D1
100
AcDbEntity
  8
0
100
AcDbLine
 62
7
  6
CONTINUOUS
 10
14.6859185836
 20
68.0102040816
 11
14.3804018061
 21
60.6101035278
  0
LINE
  5
3D2
100
AcDbEntity
  8
0
100
AcDbLine
 62
7
  6
CONTINUOUS
 10
15.0647647051
 20
68.0102040816
 11
14.7179222373
 21
59.2253479848
  0
LINE
  5
3D3
100
AcDbEntity
  8
0
100
AcDbLine
 62
7
  6
CONTINUOUS
 10
15.4758529243
 20
68.0102040816
 11
15.145794869
 21
59.2253479844
  0
LINE
  5
3D4
100
AcDbEntity
  8
0
100
AcDbLine
 62
7
  6
CONTINUOUS
 10
15.9180564768
 20
68.0102040816
 11
15.6056875002
 21
59.2253479845
  0
LINE
  5
3D5
100
AcDbEntity
  8
0
100
AcDbLine
 62
7
  6
CONTINUOUS
 10
16.3901633134
 20
68.0102040816
 11
16.0963395972
 21
59.225347984
  0
LINE
  5
3D6
100
AcDbEntity
  8
0
100
AcDbLine
 62
7
  6
CONTINUOUS
 10
16.8908794223
 20
68.0102040816
 11
16.6164063169
 21
59.2253479845
  0
LINE
  5
3D7
100
AcDbEntity
  8
0
100
AcDbLine
 62
7
  6
CONTINUOUS
 10
17.4188323752
 20
68.0102040816
 11
17.1644621923
 21
59.2253479845
  0
LINE
  5
3D8
100
AcDbEntity
  8
0
100
AcDbLine
 62
7
  6
CONTINUOUS
 10
17.9725750899
 20
68.0102040816
 11
17.7390050404
 21
59.2253479844
  0
LINE
  5
3D9
100
AcDbEntity
  8
0
100
AcDbLine
 62
7
  6
CONTINUOUS
 10
35.916912738
 20
59.2253479845
 11
35.6833426885
 21
68.0102040816
  0
LINE
  5
3DA
100
AcDbEntity
  8
0
100
AcDbLine
 62
7
  6
CONTINUOUS
 10
36.4914555861
 20
59.2253479844
 11
36.2370854032
 21
68.0102040816
  0
LINE
  5
3DB
100
AcDbEntity
  8
0
100
AcDbLine
 62
7
  6
CONTINUOUS
 10
37.0395114615
 20
59.2253479849
 11
36.7650383561
 21
68.0102040816
  0
LINE
  5
3DC
100
AcDbEntity
  8
0
100
AcDbLine
 62
7
  6
CONTINUOUS
 10
37.5595781811
 20
59.2253479845
 11
37.2657544649
 21
68.0102040816
  0
LINE
  5
3DD
100
AcDbEntity
  8
0
100
AcDbLine
 62
7
  6
CONTINUOUS
 10
38.0502302782
 20
59.225347984
 11
37.7378613016
 21
68.0102040816
  0
LINE
  5
3DE
100
AcDbEntity
  8
0
100
AcDbLine
 62
7
  6
CONTINUOUS
 10
38.5101229094
 20
59.2253479843
 11
38.1800648541
 21
68.0102040816
  0
LINE
  5
3DF
100
AcDbEntity
  8
0
100
AcDbLine
 62
7
  6
CONTINUOUS
 10
38.9379955411
 20
59.2253479844
 11
38.5911530732
 21
68.0102040816
  0
LINE
  5
3E0
100
AcDbEntity
  8
0
100
AcDbLine
 62
7
  6
CONTINUOUS
 10
39.2755159722
 20
60.6101035278
 11
38.9699991947
 21
68.0102040816
  0
LINE
  5
3E1
100
AcDbEntity
  8
0
100
AcDbLine
 62
7
  6
CONTINUOUS
 10
39.6930807083
 20
59.2253479841
 11
39.4659621899
 21
64.5107635037
  0
LINE
  5
3E2
100
AcDbEntity
  8
0
100
AcDbLine
 62
7
  6
CONTINUOUS
 10
39.4659621899
 20
64.5107635037
 11
39.3155648278
 21
68.0102040816
  0
LINE
  5
3E3
100
AcDbEntity
  8
0
100
AcDbLine
 62
7
  6
CONTINUOUS
 10
40.0182236078
 20
59.2253479846
 11
39.6269028009
 21
68.0102040816
  0
LINE
  5
3E4
100
AcDbEntity
  8
0
100
AcDbLine
 62
7
  6
CONTINUOUS
 10
40.3072129086
 20
59.2253479842
 11
39.9031597584
 21
68.0102040816
  0
LINE
  5
3E5
100
AcDbEntity
  8
0
100
AcDbLine
 62
7
  6
CONTINUOUS
 10
40.559256511
 20
59.2253479845
 11
40.1435784992
 21
68.0102040816
  0
LINE
  5
3E6
100
AcDbEntity
  8
0
100
AcDbLine
 62
7
  6
CONTINUOUS
 10
40.7736635812
 20
59.2253479844
 11
40.3475000522
 21
68.0102040816
  0
LINE
  5
3E7
100
AcDbEntity
  8
0
100
AcDbLine
 62
7
  6
CONTINUOUS
 10
40.9498464441
 20
59.2253479841
 11
40.5143654826
 21
68.0102040816
  0
LINE
  5
3E8
100
AcDbEntity
  8
0
100
AcDbLine
 62
7
  6
CONTINUOUS
 10
41.0873221948
 20
59.2253479841
 11
40.6437174239
 21
68.0102040816
  0
LINE
  5
3E9
100
AcDbEntity
  8
0
100
AcDbLine
 62
7
  6
CONTINUOUS
 10
41.1857140219
 20
59.2253479843
 11
40.7352013313
 21
68.0102040816
  0
LINE
  5
3EA
100
AcDbEntity
  8
0
100
AcDbLine
 62
7
  6
CONTINUOUS
 10
41.2447522401
 20
59.2253479845
 11
40.7885664539
 21
68.0102040816
  0
LINE
  5
3EB
100
AcDbEntity
  8
0
100
AcDbLine
 62
7
  6
CONTINUOUS
 10
33.1037934523
 20
68.0102040816
 11
33.3774542357
 21
59.2253479845
  0
LINE
  5
3EC
100
AcDbEntity
  8
0
100
AcDbLine
 62
7
  6
CONTINUOUS
 10
12.4116888978
 20
59.2253479842
 11
12.8754576324
 21
68.0102040816
  0
LINE
  5
3ED
100
AcDbEntity
  8
0
100
AcDbLine
 62
7
  6
CONTINUOUS
 10
16.6234773847
 20
59.2253479848
 11
17.0004030787
 21
68.0102040816
  0
LINE
  5
3EE
100
AcDbEntity
  8
0
100
AcDbLine
 62
7
  6
CONTINUOUS
 10
34.0504470865
 20
59.2253479843
 11
33.8828819736
 21
68.0102040816
  0
LINE
  5
3EF
100
AcDbEntity
  8
0
100
AcDbLine
 62
7
  6
CONTINUOUS
 10
33.7487434371
 20
68.0102040816
 11
34.0417868325
 21
59.2253479842
  0
LINE
  5
3F0
100
AcDbEntity
  8
0
100
AcDbLine
 62
7
  6
CONTINUOUS
 10
13.641761537
 20
59.2253479845
 11
14.0920143511
 21
68.0102040816
  0
LINE
  5
3F1
100
AcDbEntity
  8
0
100
AcDbLine
 62
7
  6
CONTINUOUS
 10
34.6947335341
 20
59.2253479842
 11
34.5046255829
 21
68.0102040816
  0
LINE
  5
3F2
100
AcDbEntity
  8
0
100
AcDbLine
 62
7
  6
CONTINUOUS
 10
34.3747240326
 20
68.0102040816
 11
34.6863468284
 21
59.2253479848
  0
LINE
  5
3F3
100
AcDbEntity
  8
0
100
AcDbLine
 62
7
  6
CONTINUOUS
 10
23.8313707292
 20
59.2253479842
 11
23.9979984478
 21
68.0102040816
  0
LINE
  5
3F4
100
AcDbEntity
  8
0
100
AcDbLine
 62
7
  6
CONTINUOUS
 10
35.3174576991
 20
59.2253479841
 11
35.1053279824
 21
68.0102040816
  0
LINE
  5
3F5
100
AcDbEntity
  8
0
100
AcDbLine
 62
7
  6
CONTINUOUS
 10
23.8464933221
 20
68.0102040816
 11
23.8215892532
 21
59.2253479843
  0
LINE
  5
3F6
100
AcDbEntity
  8
0
100
AcDbLine
 62
7
  6
CONTINUOUS
 10
34.9800194693
 20
68.0102040816
 11
35.3093675291
 21
59.2253479844
  0
LINE
  5
3F7
100
AcDbEntity
  8
0
100
AcDbLine
 62
7
  6
CONTINUOUS
 10
17.1718936405
 20
59.2253479845
 11
17.5339379585
 21
68.0102040816
  0
LINE
  5
3F8
100
AcDbEntity
  8
0
100
AcDbLine
 62
7
  6
CONTINUOUS
 10
26.750513969
 20
68.0102040816
 11
26.8229588892
 21
59.2253479839
  0
LINE
  5
3F9
100
AcDbEntity
  8
0
100
AcDbLine
 62
7
  6
CONTINUOUS
 10
35.5629706747
 20
68.0102040816
 11
35.9091412783
 21
59.2253479845
  0
LINE
  5
3FA
100
AcDbEntity
  8
0
100
AcDbLine
 62
7
  6
CONTINUOUS
 10
26.8329588892
 20
59.2253479843
 11
26.9054038093
 21
68.0102040816
  0
LINE
  5
3FB
100
AcDbEntity
  8
0
100
AcDbLine
 62
7
  6
CONTINUOUS
 10
36.1219798198
 20
68.0102040816
 11
36.4840241379
 21
59.2253479841
  0
LINE
  5
3FC
100
AcDbEntity
  8
0
100
AcDbLine
 62
7
  6
CONTINUOUS
 10
17.7467765
 20
59.225347984
 11
18.0929471037
 21
68.0102040816
  0
LINE
  5
3FD
100
AcDbEntity
  8
0
100
AcDbLine
 62
7
  6
CONTINUOUS
 10
36.6555146997
 20
68.0102040816
 11
37.0324403937
 21
59.2253479844
  0
LINE
  5
3FE
100
AcDbEntity
  8
0
100
AcDbLine
 62
7
  6
CONTINUOUS
 10
13.9673769751
 20
59.2253479845
 11
14.2339447874
 21
64.5086411996
  0
LINE
  5
3FF
100
AcDbEntity
  8
0
100
AcDbLine
 62
7
  6
CONTINUOUS
 10
14.2339447874
 20
64.5086411996
 11
14.4106714666
 21
68.0102040816
  0
LINE
  5
400
100
AcDbEntity
  8
0
100
AcDbLine
 62
7
  6
CONTINUOUS
 10
24.5745599383
 20
59.2253479841
 11
24.7181679868
 21
68.0102040816
  0
LINE
  5
401
100
AcDbEntity
  8
0
100
AcDbLine
 62
7
  6
CONTINUOUS
 10
24.5651850975
 20
68.0102040816
 11
24.5646830549
 21
59.2253479843
  0
LINE
  5
402
100
AcDbEntity
  8
0
100
AcDbLine
 62
7
  6
CONTINUOUS
 10
37.1621129322
 20
68.0102040816
 11
37.552886875
 21
59.2253479845
  0
LINE
  5
403
100
AcDbEntity
  8
0
100
AcDbLine
 62
7
  6
CONTINUOUS
 10
37.6403859667
 20
68.0102040816
 11
38.0439370743
 21
59.2253479844
  0
LINE
  5
404
100
AcDbEntity
  8
0
100
AcDbLine
 62
7
  6
CONTINUOUS
 10
27.5884904467
 20
59.2253479843
 11
27.6367296969
 21
68.0102040816
  0
LINE
  5
405
100
AcDbEntity
  8
0
100
AcDbLine
 62
7
  6
CONTINUOUS
 10
27.4820521277
 20
68.0102040816
 11
27.5785041514
 21
59.2253479846
  0
LINE
  5
406
100
AcDbEntity
  8
0
100
AcDbLine
 62
7
  6
CONTINUOUS
 10
38.0890228902
 20
68.0102040816
 11
38.5042450569
 21
59.2253479842
  0
LINE
  5
407
100
AcDbEntity
  8
0
100
AcDbLine
 62
7
  6
CONTINUOUS
 10
18.3465502492
 20
59.2253479843
 11
18.6758983091
 21
68.0102040816
  0
LINE
  5
408
100
AcDbEntity
  8
0
100
AcDbLine
 62
7
  6
CONTINUOUS
 10
38.5067940201
 20
68.0102040816
 11
38.9325491508
 21
59.2253479842
  0
LINE
  5
409
100
AcDbEntity
  8
0
100
AcDbLine
 62
7
  6
CONTINUOUS
 10
18.550589796
 20
68.0102040816
 11
18.3384600793
 21
59.2253479842
  0
LINE
  5
40A
100
AcDbEntity
  8
0
100
AcDbLine
 62
7
  6
CONTINUOUS
 10
25.3239255572
 20
59.2253479844
 11
25.4441203161
 21
68.0102040816
  0
LINE
  5
40B
100
AcDbEntity
  8
0
100
AcDbLine
 62
7
  6
CONTINUOUS
 10
38.8925542746
 20
68.0102040816
 11
39.2591531944
 21
60.6092728037
  0
LINE
  5
40C
100
AcDbEntity
  8
0
100
AcDbLine
 62
7
  6
CONTINUOUS
 10
12.4712490412
 20
59.2253479846
 11
12.936906844
 21
68.0102040816
  0
LINE
  5
40D
100
AcDbEntity
  8
0
100
AcDbLine
 62
7
  6
CONTINUOUS
 10
25.2900789785
 20
68.0102040816
 11
25.3139803383
 21
59.2253479846
  0
LINE
  5
40E
100
AcDbEntity
  8
0
100
AcDbLine
 62
7
  6
CONTINUOUS
 10
12.8848423876
 20
59.225347984
 11
13.3485061667
 21
68.0102040816
  0
LINE
  5
40F
100
AcDbEntity
  8
0
100
AcDbLine
 62
7
  6
CONTINUOUS
 10
39.2452463118
 20
68.0102040816
 11
39.421972991
 21
64.5086411996
  0
LINE
  5
410
100
AcDbEntity
  8
0
100
AcDbLine
 62
7
  6
CONTINUOUS
 10
39.421972991
 20
64.5086411996
 11
39.6885408033
 21
59.2253479844
  0
LINE
  5
411
100
AcDbEntity
  8
0
100
AcDbLine
 62
7
  6
CONTINUOUS
 10
28.3419374401
 20
59.2253479846
 11
28.3658387998
 21
68.0102040816
  0
LINE
  5
412
100
AcDbEntity
  8
0
100
AcDbLine
 62
7
  6
CONTINUOUS
 10
28.2117974623
 20
68.0102040816
 11
28.3319922211
 21
59.225347984
  0
LINE
  5
413
100
AcDbEntity
  8
0
100
AcDbLine
 62
7
  6
CONTINUOUS
 10
14.3967645839
 20
60.6092728037
 11
14.6593641437
 21
65.9111303674
  0
LINE
  5
414
100
AcDbEntity
  8
0
100
AcDbLine
 62
7
  6
CONTINUOUS
 10
39.5639034272
 20
68.0102040816
 11
40.0141562414
 21
59.2253479846
  0
LINE
  5
415
100
AcDbEntity
  8
0
100
AcDbLine
 62
7
  6
CONTINUOUS
 10
18.96957095
 20
59.2253479843
 11
19.2811937458
 21
68.0102040816
  0
LINE
  5
416
100
AcDbEntity
  8
0
100
AcDbLine
 62
7
  6
CONTINUOUS
 10
19.1512921955
 20
68.0102040816
 11
18.9611842443
 21
59.2253479842
  0
LINE
  5
417
100
AcDbEntity
  8
0
100
AcDbLine
 62
7
  6
CONTINUOUS
 10
39.847652204
 20
68.0102040816
 11
40.3036292291
 21
59.2253479846
  0
LINE
  5
418
100
AcDbEntity
  8
0
100
AcDbLine
 62
7
  6
CONTINUOUS
 10
40.0957149063
 20
68.0102040816
 11
40.5561663411
 21
59.2253479841
  0
LINE
  5
419
100
AcDbEntity
  8
0
100
AcDbLine
 62
7
  6
CONTINUOUS
 10
19.6141309459
 20
59.2253479845
 11
19.9071743412
 21
68.0102040816
  0
LINE
  5
41A
100
AcDbEntity
  8
0
100
AcDbLine
 62
7
  6
CONTINUOUS
 10
29.0912347235
 20
59.2253479839
 11
29.0907326809
 21
68.0102040816
  0
LINE
  5
41B
100
AcDbEntity
  8
0
100
AcDbLine
 62
7
  6
CONTINUOUS
 10
28.9377497915
 20
68.0102040816
 11
29.0813578401
 21
59.225347984
  0
LINE
  5
41C
100
AcDbEntity
  8
0
100
AcDbLine
 62
7
  6
CONTINUOUS
 10
26.077413627
 20
59.2253479842
 11
26.1738656506
 21
68.0102040816
  0
LINE
  5
41D
100
AcDbEntity
  8
0
100
AcDbLine
 62
7
  6
CONTINUOUS
 10
40.3074116117
 20
68.0102040816
 11
40.7710753907
 21
59.2253479841
  0
LINE
  5
41E
100
AcDbEntity
  8
0
100
AcDbLine
 62
7
  6
CONTINUOUS
 10
19.7730358048
 20
68.0102040816
 11
19.6054706918
 21
59.2253479844
  0
LINE
  5
41F
100
AcDbEntity
  8
0
100
AcDbLine
 62
7
  6
CONTINUOUS
 10
40.482162074
 20
68.0102040816
 11
40.9477673272
 21
59.2253479843
  0
LINE
  5
420
100
AcDbEntity
  8
0
100
AcDbLine
 62
7
  6
CONTINUOUS
 10
14.7233686276
 20
59.2253479842
 11
15.1491237583
 21
68.0102040816
  0
LINE
  5
421
100
AcDbEntity
  8
0
100
AcDbLine
 62
7
  6
CONTINUOUS
 10
20.2784635427
 20
59.2253479841
 11
20.5521243261
 21
68.0102040816
  0
LINE
  5
422
100
AcDbEntity
  8
0
100
AcDbLine
 62
7
  6
CONTINUOUS
 10
20.4141164678
 20
68.0102040816
 11
20.2695534775
 21
59.2253479844
  0
SPLINE
  5
423
100
AcDbEntity
  8
0
100
AcDbSpline
 62
7
  6
CONTINUOUS
 70
0
 71
3
 72
11
 73
7
 74
0
 42
0.0000001
 43
0.0000001
 44
0.0000000001
 40
0.0
 40
0.0
 40
0.0
 40
0.0
 40
0.2500000001
 40
0.5000000002
 40
0.7499999999
 40
1.0
 40
1.0
 40
1.0
 40
1.0
 10
12.5701599282
 20
59.2253479839
 30
0.0
 10
12.60899837
 20
59.9574202524
 30
0.0
 10
12.6864855237
 20
61.421574855
 30
0.0
 10
12.8033077828
 20
63.6177753636
 30
0.0
 10
12.9200900237
 20
65.8139779991
 30
0.0
 10
12.9975565028
 20
67.2781336985
 30
0.0
 10
13.0364304638
 20
68.0102040816
 30
0.0
  0
SPLINE
  5
424
100
AcDbEntity
  8
0
100
AcDbSpline
 62
7
  6
CONTINUOUS
 70
0
 71
3
 72
11
 73
7
 74
0
 42
0.0000001
 43
0.0000001
 44
0.0000000001
 40
0.0
 40
0.0
 40
0.0
 40
0.0
 40
0.2500000001
 40
0.4999999998
 40
0.7499999999
 40
1.0
 40
1.0
 40
1.0
 40
1.0
 10
40.6194873146
 20
68.0102040816
 30
0.0
 10
40.6583612755
 20
67.2781336986
 30
0.0
 10
40.7358277546
 20
65.8139779991
 30
0.0
 10
40.8526099956
 20
63.6177753638
 30
0.0
 10
40.9694322546
 20
61.4215748553
 30
0.0
 10
41.0469194083
 20
59.9574202527
 30
0.0
 10
41.0857578502
 20
59.2253479843
 30
0.0
  0
LINE
  5
425
100
AcDbEntity
  8
0
100
AcDbLine
 62
7
  6
CONTINUOUS
 10
29.8343285252
 20
59.2253479846
 11
29.8094244562
 21
68.0102040816
  0
LINE
  5
426
100
AcDbEntity
  8
0
100
AcDbLine
 62
7
  6
CONTINUOUS
 10
29.6579193306
 20
68.0102040816
 11
29.8245470492
 21
59.2253479845
  0
LINE
  5
427
100
AcDbEntity
  8
0
100
AcDbLine
 62
7
  6
CONTINUOUS
 10
40.7190109343
 20
68.0102040816
 11
41.1846687372
 21
59.2253479846
  0
LINE
  5
428
100
AcDbEntity
  8
0
100
AcDbLine
 62
7
  6
CONTINUOUS
 10
13.0997514373
 20
59.225347984
 11
13.560202872
 21
68.0102040816
  0
LINE
  5
429
100
AcDbEntity
  8
0
100
AcDbLine
 62
7
  6
CONTINUOUS
 10
20.960747851
 20
59.2253479845
 11
21.2142759372
 21
68.0102040816
  0
LINE
  5
42A
100
AcDbEntity
  8
0
100
AcDbLine
 62
7
  6
CONTINUOUS
 10
40.780460146
 20
68.0102040816
 11
41.2442288805
 21
59.2253479845
  0
LINE
  5
42B
100
AcDbEntity
  8
0
100
AcDbLine
 62
7
  6
CONTINUOUS
 10
21.0727770272
 20
68.0102040816
 11
20.9516123965
 21
59.2253479847
  0
LINE
  5
42C
100
AcDbEntity
  8
0
100
AcDbLine
 62
7
  6
CONTINUOUS
 10
15.1516727215
 20
59.2253479843
 11
15.5668948881
 21
68.0102040816
  0
LINE
  5
42D
100
AcDbEntity
  8
0
100
AcDbLine
 62
7
  6
CONTINUOUS
 10
12.3916427485
 20
59.2253479842
 11
12.8522512568
 21
68.0102040816
  0
LINE
  5
42E
100
AcDbEntity
  8
0
100
AcDbLine
 62
7
  6
CONTINUOUS
 10
40.8036665215
 20
68.0102040816
 11
41.2642750299
 21
59.2253479839
  0
LINE
  5
42F
100
AcDbEntity
  8
0
100
AcDbLine
 62
7
  6
CONTINUOUS
 10
30.5691820766
 20
59.225347984
 11
30.5199442417
 21
68.0102040816
  0
LINE
  5
430
100
AcDbEntity
  8
0
100
AcDbLine
 62
7
  6
CONTINUOUS
 10
30.3703321447
 20
68.0102040816
 11
30.5595228184
 21
59.2253479844
  0
LINE
  5
431
100
AcDbEntity
  8
0
100
AcDbLine
 62
7
  6
CONTINUOUS
 10
21.659113777
 20
59.2253479842
 11
21.8918142631
 21
68.0102040816
  0
LINE
  5
432
100
AcDbEntity
  8
0
100
AcDbLine
 62
7
  6
CONTINUOUS
 10
21.74721214
 20
68.0102040816
 11
21.6497779727
 21
59.2253479846
  0
LINE
  5
433
100
AcDbEntity
  8
0
100
AcDbLine
 62
7
  6
CONTINUOUS
 10
31.2937811954
 20
59.2253479839
 11
31.220344552
 21
68.0102040816
  0
LINE
  5
434
100
AcDbEntity
  8
0
100
AcDbLine
 62
7
  6
CONTINUOUS
 10
31.07303556
 20
68.0102040816
 11
31.2842706302
 21
59.2253479846
  0
LINE
  5
435
100
AcDbEntity
  8
0
100
AcDbLine
 62
7
  6
CONTINUOUS
 10
15.6119807041
 20
59.2253479845
 11
16.0155318116
 21
68.0102040816
  0
LINE
  5
436
100
AcDbEntity
  8
0
100
AcDbLine
 62
7
  6
CONTINUOUS
 10
22.3716471481
 20
59.2253479844
 11
22.5828822183
 21
68.0102040816
  0
LINE
  5
437
100
AcDbEntity
  8
0
100
AcDbLine
 62
7
  6
CONTINUOUS
 10
22.4355732264
 20
68.0102040816
 11
22.362136583
 21
59.2253479841
  0
LINE
  5
438
100
AcDbEntity
  8
0
100
AcDbLine
 62
7
  6
CONTINUOUS
 10
13.3522885493
 20
59.2253479846
 11
13.8082655744
 21
68.0102040816
  0
LINE
  5
439
100
AcDbEntity
  8
0
100
AcDbLine
 62
7
  6
CONTINUOUS
 10
32.0061398056
 20
59.2253479846
 11
31.9087056384
 21
68.0102040816
  0
LINE
  5
43A
100
AcDbEntity
  8
0
100
AcDbLine
 62
7
  6
CONTINUOUS
 10
31.7641035153
 20
68.0102040816
 11
31.9968040014
 21
59.2253479844
  0
LINE
  5
43B
100
AcDbEntity
  8
0
100
AcDbLine
 62
7
  6
CONTINUOUS
 10
16.1030309033
 20
59.2253479843
 11
16.4938048462
 21
68.0102040816
  0
LINE
  5
43C
100
AcDbEntity
  8
0
100
AcDbLine
 62
7
  6
CONTINUOUS
 10
23.09639496
 20
59.2253479844
 11
23.2855856336
 21
68.0102040816
  0
LINE
  5
43D
100
AcDbEntity
  8
0
100
AcDbLine
 62
7
  6
CONTINUOUS
 10
23.1359735367
 20
68.0102040816
 11
23.0867357017
 21
59.2253479841
  0
LINE
  5
43E
100
AcDbEntity
  8
0
100
AcDbLine
 62
7
  6
CONTINUOUS
 10
32.7043053819
 20
59.2253479845
 11
32.5831407512
 21
68.0102040816
  0
LINE
  5
43F
100
AcDbEntity
  8
0
100
AcDbLine
 62
7
  6
CONTINUOUS
 10
32.4416418412
 20
68.0102040816
 11
32.6951699273
 21
59.2253479846
  0
LINE
  5
440
100
AcDbEntity
  8
0
100
AcDbLine
 62
7
  6
CONTINUOUS
 10
26.0191880815
 20
68.0102040816
 11
26.0674273317
 21
59.2253479845
  0
LINE
  5
441
100
AcDbEntity
  8
0
100
AcDbLine
 62
7
  6
CONTINUOUS
 10
12.7081504512
 20
59.2253479843
 11
13.1737557043
 21
68.0102040816
  0
LINE
  5
442
100
AcDbEntity
  8
0
100
AcDbLine
 62
7
  6
CONTINUOUS
 10
33.3863643009
 20
59.2253479843
 11
33.2418013105
 21
68.0102040816
  0
ENDSEC
  0
SECTION
  2
OBJECTS
  0
DICTIONARY
  5
C
100
AcDbDictionary
280
0
281
1
  3
ACAD_GROUP
350
D
  3
ACAD_MLINESTYLE
350
17
  3
ACAD_LAYOUT
350
1A
  3
ACAD_PLOTSETTINGS
350
19
  3
ACAD_PLOTSTYLENAME
350
E
  0
DICTIONARY
  5
D
102
{ACAD_REACTORS
330
C
102
}
100
AcDbDictionary
280
0
281
1
  0
ACDBDICTIONARYWDFLT
  5
E
102
{ACAD_REACTORS
330
C
102
}
100
AcDbDictionary
281
1
  3
Normal
350
F
100
AcDbDictionaryWithDefault
340
F
  0
DICTIONARY
  5
17
102
{ACAD_REACTORS
330
C
102
}
100
AcDbDictionary
280
0
281
1
  3
Standard
350
18
  0
DICTIONARY
  5
19
102
{ACAD_REACTORS
330
C
102
}
100
AcDbDictionary
281
1
  0
DICTIONARY
  5
1A
102
{ACAD_REACTORS
330
C
102
}
100
AcDbDictionary
281
1
  3
Model
350
443
  3
Layout1
350
444
  0
ACDBPLACEHOLDER
  5
F
102
{ACAD_REACTORS
330
E
102
}
  0
MLINESTYLE
  5
18
102
{ACAD_REACTORS
330
17
102
}
100
AcDbMlineStyle
  2
STANDARD
 70
0
  3

 62
256
 51
90.0
 52
90.0
 71
2
 49
0.5
 62
256
  6
BYLAYER
 49
-0.5
 62
256
  6
BYLAYER
  0
LAYOUT
  5
443
102
{ACAD_REACTORS
330
1A
102
}
100
AcDbPlotSettings
  1

  2
none_device
  4

  6

 40
0.0
 41
0.0
 42
0.0
 43
0.0
 44
210.0
 45
297.0
 46
0.0
 47
0.0
 48
0.0
 49
0.0
140
0.0
141
0.0
142
1.0
143
1.0
 70
1024
 72
1
 73
0
 74
0
  7

 75
0
147
1.0
148
0.0
149
0.0
100
AcDbLayout
  1
Model
 70
0
 71
0
 10
0.0
 20
0.0
 11
210.0
 21
297.0
 12
0.0
 22
0.0
 32
0.0
 14
0.0
 24
0.0
 34
0.0
 15
0.0
 25
0.0
 35
0.0
146
0.0
 13
0.0
 23
0.0
 33
0.0
 16
1.0
 26
0.0
 36
0.0
 17
0.0
 27
1.0
 37
0.0
 76
0
330
210
345
0
346
0
  0
LAYOUT
  5
444
102
{ACAD_REACTORS
330
1A
102
}
100
AcDbPlotSettings
  1

  2
none_device
  4

  6

 40
0.0
 41
0.0
 42
0.0
 43
0.0
 44
210.0
 45
297.0
 46
0.0
 47
0.0
 48
0.0
 49
0.0
140
0.0
141
0.0
142
1.0
143
1.0
 70
0
 72
1
 73
0
 74
0
  7

 75
0
147
1.0
148
0.0
149
0.0
100
AcDbLayout
  1
Layout1
 70
0
 71
1
 10
0.0
 20
0.0
 11
210.0
 21
297.0
 12
0.0
 22
0.0
 32
0.0
 14
0.0
 24
0.0
 34
0.0
 15
0.0
 25
0.0
 35
0.0
146
0.0
 13
0.0
 23
0.0
 33
0.0
 16
1.0
 26
0.0
 36
0.0
 17
0.0
 27
1.0
 37
0.0
 76
0
330
211
345
0
346
0
  0
ENDSEC
  0
EOF
