999
DXF file: C:\Users\sesa63760\Dev\_Creo\CAD\MCADPP0003179_3D-CAD\drw0001_7.dxf
999
Pro/ENGINEER 2019471 by Parametric Technology Corporation
  0
SECTION
  2
HEADER
  9
$ACADVER
  1
AC1024
  9
$DWGCODEPAGE
  3
ANSI_1252
  9
$EXTMAX
 10
551.7418733521
 20
780.3206494551
 30
0.0
  9
$EXTMIN
 10
0.0
 20
0.0
 30
0.0
  9
$LIMMIN
 10
0.0
 20
0.0
  9
$LIMMAX
 10
551.7418733521
 20
780.3206494551
  9
$VIEWCTR
 10
275.8709366761
 20
390.1603247276
  9
$VIEWSIZE
 40
780.3206494551
  9
$CLAYER
  8
0
  9
$LTSCALE
 40
50.8653460386
  9
$CELTYPE
  6
BYLAYER
  9
$DIMSCALE
 40
1.0
  9
$DIMASZ
 40
6.5683556351
  9
$DIMEXO
 40
1.0
  9
$DIMDLI
 40
35.1433299903
  9
$DIMEXE
 40
1.0
  9
$DIMCEN
 40
8.3234202609
  9
$DIMLFAC
 40
1.0
  9
$DIMBLK
  1
_FILLED
  9
$DIMALT
 70
0
  9
$DIMALTF
 40
0.0393700787
  9
$DIMTXT
 40
9.1956978892
  9
$DIMTOL
 70
1
  9
$DIMLIM
 70
0
  9
$DIMTFAC
 40
1.0
  9
$DIMTP
 40
0.01
  9
$DIMTM
 40
0.01
  9
$DIMGAP
 40
0.625
  9
$DIMDSEP
 70
46
  9
$AUNITS
 70
0
  9
$PDMODE
 70
3
  9
$PDSIZE
 40
0.3125
  9
$HANDSEED
  5
591
  9
$TILEMODE
 70
1
  9
$MEASUREMENT
 70
1
  9
$INSUNITS
 70
4
  0
ENDSEC
  0
SECTION
  2
CLASSES
  0
CLASS
  1
ACDBDICTIONARYWDFLT
  2
AcDbDictionaryWithDefault
  3
AutoCAD 2000
 90
0
 91
1
280
0
281
0
  0
CLASS
  1
ACDBPLACEHOLDER
  2
AcDbPlaceHolder
  3
AutoCAD 2000
 90
0
 91
1
280
0
281
0
  0
CLASS
  1
LAYOUT
  2
AcDbLayout
  3
AutoCAD 2000
 90
0
 91
0
280
0
281
0
  0
ENDSEC
  0
SECTION
  2
TABLES
  0
TABLE
  2
VPORT
  5
8
100
AcDbSymbolTable
 70
2
  0
VPORT
  5
1F4
100
AcDbSymbolTableRecord
100
AcDbViewportTableRecord
  2
*ACTIVE
 70
0
 10
0.0
 20
0.0
 11
1.0
 21
1.0
 12
275.8709366761
 22
390.1603247276
 13
0.0
 23
0.0
 14
1.0
 24
1.0
 15
0.0
 25
0.0
 16
0.0
 26
0.0
 36
1.0
 17
0.0
 27
0.0
 37
0.0
 40
780.3206494551
 41
0.7070707071
 42
50.0
 43
0.0
 44
0.0
 50
0.0
 51
0.0
 71
0
 72
100
 73
1
 74
1
 75
0
 76
0
 77
0
 78
0
  0
ENDTAB
  0
TABLE
  2
LTYPE
  5
5
100
AcDbSymbolTable
 70
6
  0
LTYPE
  5
14
100
AcDbSymbolTableRecord
100
AcDbLinetypeTableRecord
  2
BYBLOCK
 70
0
  3

 72
65
 73
0
 40
0.0
  0
LTYPE
  5
15
100
AcDbSymbolTableRecord
100
AcDbLinetypeTableRecord
  2
BYLAYER
 70
0
  3

 72
65
 73
0
 40
0.0
  0
LTYPE
  5
16
100
AcDbSymbolTableRecord
100
AcDbLinetypeTableRecord
  2
CONTINUOUS
 70
64
  3
Solid line
 72
65
 73
0
 40
0.0
  0
LTYPE
  5
1F5
100
AcDbSymbolTableRecord
100
AcDbLinetypeTableRecord
  2
CENTER
 70
64
  3
____ _ ____ _ ____ _ ____ _ ____ _ ____ _ ____
 72
65
 73
4
 40
0.6
 49
0.375
 74
0
 49
-0.075
 74
0
 49
0.075
 74
0
 49
-0.075
 74
0
  0
LTYPE
  5
1F6
100
AcDbSymbolTableRecord
100
AcDbLinetypeTableRecord
  2
HIDDEN
 70
64
  3
- - - - - - - - - - - - - - - - - - - -
 72
65
 73
2
 40
0.2
 49
0.1
 74
0
 49
-0.1
 74
0
  0
LTYPE
  5
1F7
100
AcDbSymbolTableRecord
100
AcDbLinetypeTableRecord
  2
PHANTOM
 70
64
  3
_____ _ _ _____ _ _ _____ _ _ _____
 72
65
 73
6
 40
0.8
 49
0.45
 74
0
 49
-0.05
 74
0
 49
0.1
 74
0
 49
-0.05
 74
0
 49
0.1
 74
0
 49
-0.05
 74
0
  0
LTYPE
  5
1F8
100
AcDbSymbolTableRecord
100
AcDbLinetypeTableRecord
  2
DOT
 70
64
  3
. . . . . . . . . . . . . . . . . . . .
 72
65
 73
2
 40
0.2
 49
0.1
 74
0
 49
-0.1
 74
0
  0
LTYPE
  5
1F9
100
AcDbSymbolTableRecord
100
AcDbLinetypeTableRecord
  2
DASHED
 70
64
  3
- - - - - - - - - - - - - - - - - - - -
 72
65
 73
2
 40
0.2
 49
0.1
 74
0
 49
-0.1
 74
0
  0
ENDTAB
  0
TABLE
  2
LAYER
  5
2
100
AcDbSymbolTable
 70
36
  0
LAYER
  5
10
100
AcDbSymbolTableRecord
100
AcDbLayerTableRecord
  2
0
 70
0
 62
7
  6
CONTINUOUS
370
-3
390
F
  0
LAYER
  5
1FA
100
AcDbSymbolTableRecord
100
AcDbLayerTableRecord
  2
DEFAULT_1
 70
0
 62
7
  6
CENTER
370
-3
390
F
  0
LAYER
  5
1FB
100
AcDbSymbolTableRecord
100
AcDbLayerTableRecord
  2
DEFAULT_2
 70
0
 62
8
  6
HIDDEN
370
-3
390
F
  0
LAYER
  5
1FC
100
AcDbSymbolTableRecord
100
AcDbLayerTableRecord
  2
DEFAULT_3
 70
0
 62
7
  6
PHANTOM
370
-3
390
F
  0
LAYER
  5
1FD
100
AcDbSymbolTableRecord
100
AcDbLayerTableRecord
  2
00_COMPONENTS
 70
0
 62
7
  6
CONTINUOUS
370
-3
390
F
  0
LAYER
  5
1FE
100
AcDbSymbolTableRecord
100
AcDbLayerTableRecord
  2
01_1_DEFAULT_DATUMS
 70
0
 62
7
  6
CONTINUOUS
370
-3
390
F
  0
LAYER
  5
1FF
100
AcDbSymbolTableRecord
100
AcDbLayerTableRecord
  2
01_PLANES
 70
0
 62
7
  6
CONTINUOUS
370
-3
390
F
  0
LAYER
  5
200
100
AcDbSymbolTableRecord
100
AcDbLayerTableRecord
  2
02_COORD_SYS
 70
0
 62
7
  6
CONTINUOUS
370
-3
390
F
  0
LAYER
  5
201
100
AcDbSymbolTableRecord
100
AcDbLayerTableRecord
  2
03_AXES
 70
0
 62
7
  6
CONTINUOUS
370
-3
390
F
  0
LAYER
  5
202
100
AcDbSymbolTableRecord
100
AcDbLayerTableRecord
  2
04_POINTS
 70
0
 62
7
  6
CONTINUOUS
370
-3
390
F
  0
LAYER
  5
203
100
AcDbSymbolTableRecord
100
AcDbLayerTableRecord
  2
05_CURVES
 70
0
 62
7
  6
CONTINUOUS
370
-3
390
F
  0
LAYER
  5
204
100
AcDbSymbolTableRecord
100
AcDbLayerTableRecord
  2
06_SURFS
 70
0
 62
7
  6
CONTINUOUS
370
-3
390
F
  0
LAYER
  5
205
100
AcDbSymbolTableRecord
100
AcDbLayerTableRecord
  2
07_COSMETICS
 70
0
 62
7
  6
CONTINUOUS
370
-3
390
F
  0
LAYER
  5
206
100
AcDbSymbolTableRecord
100
AcDbLayerTableRecord
  2
10_NOTES
 70
0
 62
7
  6
CONTINUOUS
370
-3
390
F
  0
LAYER
  5
207
100
AcDbSymbolTableRecord
100
AcDbLayerTableRecord
  2
11_NOTES_PUB
 70
0
 62
7
  6
CONTINUOUS
370
-3
390
F
  0
LAYER
  5
208
100
AcDbSymbolTableRecord
100
AcDbLayerTableRecord
  2
13_REF_GTOL
 70
0
 62
7
  6
CONTINUOUS
370
-3
390
F
  0
LAYER
  5
209
100
AcDbSymbolTableRecord
100
AcDbLayerTableRecord
  2
16_MISC
 70
0
 62
7
  6
CONTINUOUS
370
-3
390
F
  0
LAYER
  5
20A
100
AcDbSymbolTableRecord
100
AcDbLayerTableRecord
  2
17_NO_PRINT
 70
0
 62
7
  6
CONTINUOUS
370
-3
390
F
  0
LAYER
  5
20B
100
AcDbSymbolTableRecord
100
AcDbLayerTableRecord
  2
18_DATUM_CAMS_JOINTS
 70
0
 62
7
  6
CONTINUOUS
370
-3
390
F
  0
LAYER
  5
20C
100
AcDbSymbolTableRecord
100
AcDbLayerTableRecord
  2
19_DATUM_FUNCTIONAL
 70
0
 62
7
  6
CONTINUOUS
370
-3
390
F
  0
LAYER
  5
20D
100
AcDbSymbolTableRecord
100
AcDbLayerTableRecord
  2
20_DATUM_KINEMATIC_SCHEME
 70
0
 62
7
  6
CONTINUOUS
370
-3
390
F
  0
ENDTAB
  0
TABLE
  2
STYLE
  5
3
100
AcDbSymbolTable
 70
1
  0
STYLE
  5
11
100
AcDbSymbolTableRecord
100
AcDbTextStyleTableRecord
  2
STANDARD
 70
0
 40
0.0
 41
0.8
 50
0.0
 71
0
 42
0.2
  3
txt
  4

  0
STYLE
  5
20E
100
AcDbSymbolTableRecord
100
AcDbTextStyleTableRecord
  2
TEXTSTYLE_1
 70
0
 40
0.0
 41
0.8
 50
0.0
 71
0
 42
0.2
  3
gdt
  4

  0
ENDTAB
  0
TABLE
  2
VIEW
  5
6
100
AcDbSymbolTable
 70
0
  0
ENDTAB
  0
TABLE
  2
UCS
  5
7
100
AcDbSymbolTable
 70
0
  0
ENDTAB
  0
TABLE
  2
APPID
  5
9
100
AcDbSymbolTable
 70
1
  0
APPID
  5
20F
100
AcDbSymbolTableRecord
100
AcDbRegAppTableRecord
  2
ACAD
 70
0
  0
ENDTAB
  0
TABLE
  2
BLOCK_RECORD
  5
1
100
AcDbSymbolTable
 70
0
  0
BLOCK_RECORD
  5
210
100
AcDbSymbolTableRecord
100
AcDbBlockTableRecord
  2
*Model_Space
  0
BLOCK_RECORD
  5
211
100
AcDbSymbolTableRecord
100
AcDbBlockTableRecord
  2
*Paper_Space
  0
BLOCK_RECORD
  5
212
100
AcDbSymbolTableRecord
100
AcDbBlockTableRecord
  2
_FILLED
  0
ENDTAB
  0
TABLE
  2
DIMSTYLE
  5
A
100
AcDbSymbolTable
 70
1
100
AcDbDimStyleTable
 71
0
  0
DIMSTYLE
105
213
100
AcDbSymbolTableRecord
100
AcDbDimStyleTableRecord
  2
STANDARD
 70
0
  3

  4

 40
1.0
 41
6.5683556351
 42
1.0
 43
0.38
 44
1.0
 45
0.0
 46
0.0
 47
0.01
 48
0.01
140
9.1956978892
141
0.09
142
0.0
143
25.4
144
1.0
145
0.0
146
1.0
147
0.625
 71
1
 72
0
 73
0
 74
0
 75
0
 76
0
 77
1
 78
8
 79
2
170
0
171
1
172
0
173
0
174
0
175
0
176
0
177
0
178
0
270
2
179
2
271
2
272
2
273
2
274
2
275
0
280
0
281
0
282
0
283
1
284
8
285
0
286
0
287
3
288
0
340
11
278
46
341
212
342
212
343
212
344
212
  0
ENDTAB
  0
ENDSEC
  0
SECTION
  2
BLOCKS
  0
BLOCK
  5
20
100
AcDbEntity
  8
0
100
AcDbBlockBegin
  2
*Model_Space
 70
0
 10
0.0
 20
0.0
 30
0.0
  3
*Model_Space
  1

  0
ENDBLK
  5
21
100
AcDbEntity
  8
0
100
AcDbBlockEnd
  0
BLOCK
  5
1C
100
AcDbEntity
  8
0
100
AcDbBlockBegin
  2
*Paper_Space
 70
0
 10
0.0
 20
0.0
 30
0.0
  3
*Paper_Space
  1

  0
ENDBLK
  5
1D
100
AcDbEntity
  8
0
100
AcDbBlockEnd
  0
BLOCK
  5
214
100
AcDbEntity
  8
0
100
AcDbBlockBegin
  2
_FILLED
 70
64
 10
0.0
 20
0.0
  3
_FILLED
  1

  0
SOLID
  5
215
100
AcDbEntity
  8
0
  6
BYBLOCK
 62
0
100
AcDbTrace
 10
0.0
 20
0.0
 11
-1.0
 21
0.25
 12
-1.0
 22
-0.25
 13
-1.0
 23
-0.25
  0
ENDBLK
  5
216
100
AcDbEntity
  8
0
  6
BYBLOCK
 62
0
100
AcDbBlockEnd
  0
ENDSEC
  0
SECTION
  2
ENTITIES
  0
LINE
  5
217
100
AcDbEntity
  8
0
100
AcDbLine
 62
7
  6
CONTINUOUS
 10
58.5845869196
 20
240.4579343957
 11
58.5845869196
 21
429.9419343957
  0
LINE
  5
218
100
AcDbEntity
  8
0
100
AcDbLine
 62
7
  6
CONTINUOUS
 10
58.5845869196
 20
520.2389343957
 11
58.5845869196
 21
556.9419343957
  0
LINE
  5
219
100
AcDbEntity
  8
0
100
AcDbLine
 62
7
  6
CONTINUOUS
 10
111.900906862
 20
537.8428543382
 11
112.4325869196
 21
538.3745343957
  0
LINE
  5
21A
100
AcDbEntity
  8
0
100
AcDbLine
 62
7
  6
CONTINUOUS
 10
71.2845869196
 20
429.9419343957
 11
71.2845869196
 21
427.2749343957
  0
LINE
  5
21B
100
AcDbEntity
  8
0
100
AcDbLine
 62
7
  6
CONTINUOUS
 10
71.2845869196
 20
240.4579343957
 11
71.2845869196
 21
243.1249343957
  0
LINE
  5
21C
100
AcDbEntity
  8
0
100
AcDbLine
 62
7
  6
CONTINUOUS
 10
154.7489869196
 20
227.0975343957
 11
155.2569869196
 21
226.5895343957
  0
LINE
  5
21D
100
AcDbEntity
  8
0
100
AcDbLine
 62
7
  6
CONTINUOUS
 10
89.8663855459
 20
285.6699343957
 11
97.4446423886
 21
278.0499343957
  0
LINE
  5
21E
100
AcDbEntity
  8
0
100
AcDbLine
 62
7
  6
CONTINUOUS
 10
97.8004154662
 20
278.0499343957
 11
90.2221586235
 21
285.6699343957
  0
LINE
  5
21F
100
AcDbEntity
  8
0
100
AcDbLine
 62
7
  6
CONTINUOUS
 10
89.8663855459
 20
384.7299343957
 11
89.8663855459
 21
285.6699343957
  0
LINE
  5
220
100
AcDbEntity
  8
0
100
AcDbLine
 62
7
  6
CONTINUOUS
 10
90.2221586235
 20
384.7299343957
 11
90.2221586235
 21
285.6699343957
  0
LINE
  5
221
100
AcDbEntity
  8
0
100
AcDbLine
 62
7
  6
CONTINUOUS
 10
91.0479961115
 20
545.6404237486
 11
91.0479961115
 21
546.0199343957
  0
LINE
  5
222
100
AcDbEntity
  8
0
100
AcDbLine
 62
7
  6
CONTINUOUS
 10
93.3825869196
 20
547.0359343957
 11
93.3825869196
 21
546.0199343957
  0
LINE
  5
223
100
AcDbEntity
  8
0
100
AcDbLine
 62
7
  6
CONTINUOUS
 10
93.5678130383
 20
439.8225343957
 11
93.5678130383
 21
442.4895343957
  0
LINE
  5
224
100
AcDbEntity
  8
0
100
AcDbLine
 62
7
  6
CONTINUOUS
 10
95.6685869196
 20
540.2963037641
 11
95.6685869196
 21
540.0382343957
  0
LINE
  5
225
100
AcDbEntity
  8
0
100
AcDbLine
 62
7
  6
CONTINUOUS
 10
139.3057869196
 20
535.1233343957
 11
139.7629869196
 21
535.5805343957
  0
LINE
  5
226
100
AcDbEntity
  8
0
100
AcDbLine
 62
7
  6
CONTINUOUS
 10
121.8444278194
 20
274.8368343957
 11
123.1003841179
 21
272.4555843957
  0
LINE
  5
227
100
AcDbEntity
  8
0
100
AcDbLine
 62
7
  6
CONTINUOUS
 10
124.3401174059
 20
272.4555843957
 11
123.0841611075
 21
274.8368343957
  0
LINE
  5
228
100
AcDbEntity
  8
0
100
AcDbLine
 62
7
  6
CONTINUOUS
 10
126.8682530132
 20
274.8368343957
 11
125.6122967148
 21
277.2180843957
  0
LINE
  5
229
100
AcDbEntity
  8
0
100
AcDbLine
 62
7
  6
CONTINUOUS
 10
119.0599412645
 20
300.3257343957
 11
120.3158975629
 21
297.9444843957
  0
LINE
  5
22A
100
AcDbEntity
  8
0
100
AcDbLine
 62
7
  6
CONTINUOUS
 10
121.555630851
 20
297.9444843957
 11
120.2996745526
 21
300.3257343957
  0
LINE
  5
22B
100
AcDbEntity
  8
0
100
AcDbLine
 62
7
  6
CONTINUOUS
 10
107.9973313257
 20
371.1444770294
 11
108.5962429487
 21
349.0562040041
  0
LINE
  5
22C
100
AcDbEntity
  8
0
100
AcDbLine
 62
7
  6
CONTINUOUS
 10
108.9271312918
 20
371.1444770294
 11
109.5260429147
 21
349.0562040041
  0
LINE
  5
22D
100
AcDbEntity
  8
0
100
AcDbLine
 62
7
  6
CONTINUOUS
 10
111.3363385854
 20
320.4305884046
 11
111.460251335
 21
315.8606008821
  0
LINE
  5
22E
100
AcDbEntity
  8
0
100
AcDbLine
 62
7
  6
CONTINUOUS
 10
112.2661385514
 20
320.4305884046
 11
112.390051301
 21
315.8606008821
  0
LINE
  5
22F
100
AcDbEntity
  8
0
100
AcDbLine
 62
7
  6
CONTINUOUS
 10
112.0200050601
 20
344.4769313212
 11
112.543192225
 21
325.1814284485
  0
LINE
  5
230
100
AcDbEntity
  8
0
100
AcDbLine
 62
7
  6
CONTINUOUS
 10
114.1074507314
 20
344.5447510167
 11
114.6306378963
 21
325.249248144
  0
LINE
  5
231
100
AcDbEntity
  8
0
100
AcDbLine
 62
7
  6
CONTINUOUS
 10
114.7328062045
 20
323.5902795788
 11
114.73096731
 21
323.6580992743
  0
LINE
  5
232
100
AcDbEntity
  8
0
100
AcDbLine
 62
7
  6
CONTINUOUS
 10
97.3350353547
 20
442.4895343957
 11
97.3350353547
 21
439.8225343957
  0
LINE
  5
233
100
AcDbEntity
  8
0
100
AcDbLine
 62
7
  6
CONTINUOUS
 10
98.0343666927
 20
278.0499343957
 11
98.0343666927
 21
392.3499343957
  0
LINE
  5
234
100
AcDbEntity
  8
0
100
AcDbLine
 62
7
  6
CONTINUOUS
 10
98.0811420416
 20
430.0689343957
 11
98.0811420416
 21
392.3499343957
  0
LINE
  5
235
100
AcDbEntity
  8
0
100
AcDbLine
 62
7
  6
CONTINUOUS
 10
98.0811420416
 20
278.0499343957
 11
98.0811420416
 21
240.3309343957
  0
LINE
  5
236
100
AcDbEntity
  8
0
100
AcDbLine
 62
7
  6
CONTINUOUS
 10
99.471747538
 20
308.8641943244
 11
99.471747538
 21
378.7449540485
  0
LINE
  5
237
100
AcDbEntity
  8
0
100
AcDbLine
 62
7
  6
CONTINUOUS
 10
99.7225640738
 20
392.3499343957
 11
99.7225640738
 21
380.883664618
  0
LINE
  5
238
100
AcDbEntity
  8
0
100
AcDbLine
 62
7
  6
CONTINUOUS
 10
99.7225640738
 20
307.4136600437
 11
99.7225640738
 21
278.0499343957
  0
LINE
  5
239
100
AcDbEntity
  8
0
100
AcDbLine
 62
7
  6
CONTINUOUS
 10
100.4388200812
 20
231.6813390052
 11
100.4388200812
 21
230.5773343957
  0
LINE
  5
23A
100
AcDbEntity
  8
0
100
AcDbLine
 62
7
  6
CONTINUOUS
 10
100.4388200812
 20
438.7185297863
 11
100.4388200812
 21
439.8225343957
  0
LINE
  5
23B
100
AcDbEntity
  8
0
100
AcDbLine
 62
7
  6
CONTINUOUS
 10
112.4325869196
 20
538.9773708737
 11
112.4325869196
 21
538.3745343957
  0
LINE
  5
23C
100
AcDbEntity
  8
0
100
AcDbLine
 62
7
  6
CONTINUOUS
 10
112.5213874267
 20
446.3630343957
 11
112.5213874267
 21
443.0102343957
  0
LINE
  5
23D
100
AcDbEntity
  8
0
100
AcDbLine
 62
7
  6
CONTINUOUS
 10
112.5340874267
 20
443.0102343957
 11
112.5340874267
 21
442.4895343957
  0
LINE
  5
23E
100
AcDbEntity
  8
0
100
AcDbLine
 62
7
  6
CONTINUOUS
 10
112.5645969117
 20
446.4900343957
 11
112.5645969117
 21
446.3630343957
  0
LINE
  5
23F
100
AcDbEntity
  8
0
100
AcDbLine
 62
7
  6
CONTINUOUS
 10
112.5832068748
 20
446.3630343957
 11
112.5832068748
 21
446.4900343957
  0
LINE
  5
240
100
AcDbEntity
  8
0
100
AcDbLine
 62
7
  6
CONTINUOUS
 10
113.9400285252
 20
540.0382343957
 11
113.9400285252
 21
540.465207595
  0
LINE
  5
241
100
AcDbEntity
  8
0
100
AcDbLine
 62
7
  6
CONTINUOUS
 10
114.2019198729
 20
540.5832365811
 11
114.2019198729
 21
540.0382343957
  0
LINE
  5
242
100
AcDbEntity
  8
0
100
AcDbLine
 62
7
  6
CONTINUOUS
 10
155.2569869196
 20
226.5895343957
 11
163.5881869196
 21
226.5895343957
  0
LINE
  5
243
100
AcDbEntity
  8
0
100
AcDbLine
 62
7
  6
CONTINUOUS
 10
154.7489869196
 20
227.0975343957
 11
164.0961869196
 21
227.0975343957
  0
LINE
  5
244
100
AcDbEntity
  8
0
100
AcDbLine
 62
7
  6
CONTINUOUS
 10
164.0961869196
 20
229.5613343957
 11
154.7489869196
 21
229.5613343957
  0
LINE
  5
245
100
AcDbEntity
  8
0
100
AcDbLine
 62
7
  6
CONTINUOUS
 10
152.5147418343
 20
229.6629343957
 11
168.0585869196
 21
229.6629343957
  0
LINE
  5
246
100
AcDbEntity
  8
0
100
AcDbLine
 62
7
  6
CONTINUOUS
 10
124.0837664583
 20
300.3257343957
 11
122.8278101598
 21
302.7069843957
  0
LINE
  5
247
100
AcDbEntity
  8
0
100
AcDbLine
 62
7
  6
CONTINUOUS
 10
117.9778975811
 20
323.7259189699
 11
117.3721019165
 21
346.0680801909
  0
LINE
  5
248
100
AcDbEntity
  8
0
100
AcDbLine
 62
7
  6
CONTINUOUS
 10
118.3733265111
 20
323.7142013507
 11
117.7675308465
 21
346.0563625717
  0
LINE
  5
249
100
AcDbEntity
  8
0
100
AcDbLine
 62
7
  6
CONTINUOUS
 10
129.733859178
 20
325.8678177748
 11
129.2106720131
 21
345.1633206475
  0
LINE
  5
24A
100
AcDbEntity
  8
0
100
AcDbLine
 62
7
  6
CONTINUOUS
 10
131.8213048493
 20
325.9356374703
 11
131.2981176844
 21
345.231140343
  0
LINE
  5
24B
100
AcDbEntity
  8
0
100
AcDbLine
 62
7
  6
CONTINUOUS
 10
121.9337679786
 20
446.4900343957
 11
121.9337679786
 21
446.3630343957
  0
LINE
  5
24C
100
AcDbEntity
  8
0
100
AcDbLine
 62
7
  6
CONTINUOUS
 10
121.9523779417
 20
446.3630343957
 11
121.9523779417
 21
446.4900343957
  0
LINE
  5
24D
100
AcDbEntity
  8
0
100
AcDbLine
 62
7
  6
CONTINUOUS
 10
121.9828874267
 20
443.0102343957
 11
121.9828874267
 21
442.4895343957
  0
LINE
  5
24E
100
AcDbEntity
  8
0
100
AcDbLine
 62
7
  6
CONTINUOUS
 10
121.9955874267
 20
446.3630343957
 11
121.9955874267
 21
443.0102343957
  0
LINE
  5
24F
100
AcDbEntity
  8
0
100
AcDbLine
 62
7
  6
CONTINUOUS
 10
122.1759157245
 20
439.8225343957
 11
122.1759157245
 21
438.4255343957
  0
LINE
  5
250
100
AcDbEntity
  8
0
100
AcDbLine
 62
7
  6
CONTINUOUS
 10
124.5635157245
 20
449.2205343957
 11
124.5635157245
 21
447.4298343957
  0
LINE
  5
251
100
AcDbEntity
  8
0
100
AcDbLine
 62
7
  6
CONTINUOUS
 10
124.5635157245
 20
443.0356343957
 11
124.5635157245
 21
442.4895343957
  0
LINE
  5
252
100
AcDbEntity
  8
0
100
AcDbLine
 62
7
  6
CONTINUOUS
 10
127.0629869196
 20
538.6539343957
 11
127.0629869196
 21
538.2729343957
  0
LINE
  5
253
100
AcDbEntity
  8
0
100
AcDbLine
 62
7
  6
CONTINUOUS
 10
127.0629869196
 20
537.1045343957
 11
127.0629869196
 21
535.5805343957
  0
LINE
  5
254
100
AcDbEntity
  8
0
100
AcDbLine
 62
7
  6
CONTINUOUS
 10
128.3837869196
 20
537.2061343957
 11
128.3837869196
 21
537.1045343957
  0
LINE
  5
255
100
AcDbEntity
  8
0
100
AcDbLine
 62
7
  6
CONTINUOUS
 10
129.356630736
 20
439.8225343957
 11
129.356630736
 21
442.4895343957
  0
LINE
  5
256
100
AcDbEntity
  8
0
100
AcDbLine
 62
7
  6
CONTINUOUS
 10
124.5635157245
 20
449.2205343957
 11
125.3255157245
 21
449.9825343957
  0
LINE
  5
257
100
AcDbEntity
  8
0
100
AcDbLine
 62
7
  6
CONTINUOUS
 10
168.0585869196
 20
230.5519343957
 11
152.5147418343
 21
230.5519343957
  0
LINE
  5
258
100
AcDbEntity
  8
0
100
AcDbLine
 62
7
  6
CONTINUOUS
 10
100.4388675149
 20
230.5773343957
 11
191.1725185779
 21
230.5773343957
  0
LINE
  5
259
100
AcDbEntity
  8
0
100
AcDbLine
 62
7
  6
CONTINUOUS
 10
160.0584251238
 20
233.9809343957
 11
191.1725156941
 21
233.9809343957
  0
LINE
  5
25A
100
AcDbEntity
  8
0
100
AcDbLine
 62
7
  6
CONTINUOUS
 10
159.2497488584
 20
234.5143343957
 11
167.4235869196
 21
234.5143343957
  0
LINE
  5
25B
100
AcDbEntity
  8
0
100
AcDbLine
 62
7
  6
CONTINUOUS
 10
98.0811420416
 20
240.3309343957
 11
156.0912786019
 21
240.3309343957
  0
LINE
  5
25C
100
AcDbEntity
  8
0
100
AcDbLine
 62
7
  6
CONTINUOUS
 10
58.5845869196
 20
240.4579343957
 11
98.0811420416
 21
240.4579343957
  0
LINE
  5
25D
100
AcDbEntity
  8
0
100
AcDbLine
 62
7
  6
CONTINUOUS
 10
157.4756474403
 20
240.4579343957
 11
299.8845869196
 21
240.4579343957
  0
LINE
  5
25E
100
AcDbEntity
  8
0
100
AcDbLine
 62
7
  6
CONTINUOUS
 10
299.8845869196
 20
243.1249343957
 11
157.4756474403
 21
243.1249343957
  0
LINE
  5
25F
100
AcDbEntity
  8
0
100
AcDbLine
 62
7
  6
CONTINUOUS
 10
98.0811420416
 20
243.1249343957
 11
58.5845869196
 21
243.1249343957
  0
LINE
  5
260
100
AcDbEntity
  8
0
100
AcDbLine
 62
7
  6
CONTINUOUS
 10
58.5845869196
 20
245.7919343957
 11
98.0811420416
 21
245.7919343957
  0
LINE
  5
261
100
AcDbEntity
  8
0
100
AcDbLine
 62
7
  6
CONTINUOUS
 10
163.3087869196
 20
245.7919343957
 11
299.8845869196
 21
245.7919343957
  0
LINE
  5
262
100
AcDbEntity
  8
0
100
AcDbLine
 62
7
  6
CONTINUOUS
 10
163.3087869196
 20
247.9255343957
 11
157.4756474403
 21
247.9255343957
  0
LINE
  5
263
100
AcDbEntity
  8
0
100
AcDbLine
 62
7
  6
CONTINUOUS
 10
121.8444278194
 20
370.0868343957
 11
123.1003841179
 21
367.7055843957
  0
LINE
  5
264
100
AcDbEntity
  8
0
100
AcDbLine
 62
7
  6
CONTINUOUS
 10
124.3401174059
 20
367.7055843957
 11
123.0841611075
 21
370.0868343957
  0
LINE
  5
265
100
AcDbEntity
  8
0
100
AcDbLine
 62
7
  6
CONTINUOUS
 10
135.1685645341
 20
324.4123082962
 11
134.5627688695
 21
346.7544695172
  0
LINE
  5
266
100
AcDbEntity
  8
0
100
AcDbLine
 62
7
  6
CONTINUOUS
 10
137.5800145069
 20
346.8222892127
 11
138.1858101715
 21
324.4801279917
  0
LINE
  5
267
100
AcDbEntity
  8
0
100
AcDbLine
 62
7
  6
CONTINUOUS
 10
140.976482126
 20
349.9819803869
 11
140.8525693764
 21
354.5519679094
  0
LINE
  5
268
100
AcDbEntity
  8
0
100
AcDbLine
 62
7
  6
CONTINUOUS
 10
144.3154893857
 20
299.268091762
 11
143.7165777627
 21
321.3563647874
  0
LINE
  5
269
100
AcDbEntity
  8
0
100
AcDbLine
 62
7
  6
CONTINUOUS
 10
135.6633157245
 20
449.2205343957
 11
135.6633157245
 21
447.4298343957
  0
LINE
  5
26A
100
AcDbEntity
  8
0
100
AcDbLine
 62
7
  6
CONTINUOUS
 10
135.6633157245
 20
443.0356343957
 11
135.6633157245
 21
442.4895343957
  0
LINE
  5
26B
100
AcDbEntity
  8
0
100
AcDbLine
 62
7
  6
CONTINUOUS
 10
136.6387869196
 20
530.7799343957
 11
136.6387869196
 21
538.1459343957
  0
LINE
  5
26C
100
AcDbEntity
  8
0
100
AcDbLine
 62
7
  6
CONTINUOUS
 10
137.6931659357
 20
540.4874181384
 11
137.6931659357
 21
541.3209343957
  0
LINE
  5
26D
100
AcDbEntity
  8
0
100
AcDbLine
 62
7
  6
CONTINUOUS
 10
137.7404220756
 20
442.4895343957
 11
137.7404220756
 21
439.8225343957
  0
LINE
  5
26E
100
AcDbEntity
  8
0
100
AcDbLine
 62
7
  6
CONTINUOUS
 10
138.0509157245
 20
439.8225343957
 11
138.0509157245
 21
438.4255343957
  0
LINE
  5
26F
100
AcDbEntity
  8
0
100
AcDbLine
 62
7
  6
CONTINUOUS
 10
139.3057869196
 20
530.7799343957
 11
139.3057869196
 21
538.1459343957
  0
LINE
  5
270
100
AcDbEntity
  8
0
100
AcDbLine
 62
7
  6
CONTINUOUS
 10
139.7629869196
 20
538.6374128578
 11
139.7629869196
 21
538.2729343957
  0
LINE
  5
271
100
AcDbEntity
  8
0
100
AcDbLine
 62
7
  6
CONTINUOUS
 10
139.7629869196
 20
537.1045343957
 11
139.7629869196
 21
535.5805343957
  0
LINE
  5
272
100
AcDbEntity
  8
0
100
AcDbLine
 62
7
  6
CONTINUOUS
 10
141.2704285252
 20
537.2061343957
 11
141.2704285252
 21
538.2729343957
  0
LINE
  5
273
100
AcDbEntity
  8
0
100
AcDbLine
 62
7
  6
CONTINUOUS
 10
141.5323198729
 20
538.2729343957
 11
141.5323198729
 21
537.2061343957
  0
LINE
  5
274
100
AcDbEntity
  8
0
100
AcDbLine
 62
7
  6
CONTINUOUS
 10
143.2827406301
 20
541.3209343957
 11
143.2827406301
 21
543.4799343957
  0
LINE
  5
275
100
AcDbEntity
  8
0
100
AcDbLine
 62
7
  6
CONTINUOUS
 10
144.4556440528
 20
439.8225343957
 11
144.4556440528
 21
442.4895343957
  0
LINE
  5
276
100
AcDbEntity
  8
0
100
AcDbLine
 62
7
  6
CONTINUOUS
 10
146.1129869196
 20
543.4799343957
 11
146.1129869196
 21
541.3209343957
  0
LINE
  5
277
100
AcDbEntity
  8
0
100
AcDbLine
 62
7
  6
CONTINUOUS
 10
147.9810212292
 20
442.4895343957
 11
147.9810212292
 21
439.8225343957
  0
LINE
  5
278
100
AcDbEntity
  8
0
100
AcDbLine
 62
7
  6
CONTINUOUS
 10
120.3158975629
 20
397.9569843957
 11
119.0599412645
 21
395.5757343957
  0
LINE
  5
279
100
AcDbEntity
  8
0
100
AcDbLine
 62
7
  6
CONTINUOUS
 10
120.2996745526
 20
395.5757343957
 11
121.555630851
 21
397.9569843957
  0
LINE
  5
27A
100
AcDbEntity
  8
0
100
AcDbLine
 62
7
  6
CONTINUOUS
 10
122.8278101598
 20
393.1944843957
 11
124.0837664583
 21
395.5757343957
  0
LINE
  5
27B
100
AcDbEntity
  8
0
100
AcDbLine
 62
7
  6
CONTINUOUS
 10
123.1003841179
 20
372.4680843957
 11
121.8444278194
 21
370.0868343957
  0
LINE
  5
27C
100
AcDbEntity
  8
0
100
AcDbLine
 62
7
  6
CONTINUOUS
 10
123.0841611075
 20
370.0868343957
 11
124.3401174059
 21
372.4680843957
  0
LINE
  5
27D
100
AcDbEntity
  8
0
100
AcDbLine
 62
7
  6
CONTINUOUS
 10
162.8105898606
 20
451.5006201657
 11
162.9625269702
 21
451.771931127
  0
LINE
  5
27E
100
AcDbEntity
  8
0
100
AcDbLine
 62
7
  6
CONTINUOUS
 10
152.2788047099
 20
448.4657528918
 11
153.0237935448
 21
449.2220113642
  0
LINE
  5
27F
100
AcDbEntity
  8
0
100
AcDbLine
 62
7
  6
CONTINUOUS
 10
97.4446423886
 20
392.3499343957
 11
89.8663855459
 21
384.7299343957
  0
LINE
  5
280
100
AcDbEntity
  8
0
100
AcDbLine
 62
7
  6
CONTINUOUS
 10
90.2221586235
 20
384.7299343958
 11
97.8004154662
 21
392.3499343957
  0
LINE
  5
281
100
AcDbEntity
  8
0
100
AcDbLine
 62
7
  6
CONTINUOUS
 10
138.0509157245
 20
438.4255343957
 11
137.6699157245
 21
438.0445343957
  0
LINE
  5
282
100
AcDbEntity
  8
0
100
AcDbLine
 62
7
  6
CONTINUOUS
 10
127.8928557153
 20
262.1424246111
 11
127.5486537277
 21
262.1371216452
  0
LINE
  5
283
100
AcDbEntity
  8
0
100
AcDbLine
 62
7
  6
CONTINUOUS
 10
128.4784537968
 20
262.1372230431
 11
128.8226556814
 21
262.1424246111
  0
LINE
  5
284
100
AcDbEntity
  8
0
100
AcDbLine
 62
7
  6
CONTINUOUS
 10
128.4784535992
 20
262.1368343958
 11
127.5486536332
 21
262.1368343958
  0
LINE
  5
285
100
AcDbEntity
  8
0
100
AcDbLine
 62
7
  6
CONTINUOUS
 10
134.6288656629
 20
264.7758445214
 11
135.558665629
 21
264.7758445214
  0
LINE
  5
286
100
AcDbEntity
  8
0
100
AcDbLine
 62
7
  6
CONTINUOUS
 10
153.7708731395
 20
313.8893343957
 11
156.0912786019
 21
311.3493343957
  0
LINE
  5
287
100
AcDbEntity
  8
0
100
AcDbLine
 62
7
  6
CONTINUOUS
 10
157.4756474403
 20
311.3493343957
 11
153.7708731395
 21
315.4047147491
  0
LINE
  5
288
100
AcDbEntity
  8
0
100
AcDbLine
 62
7
  6
CONTINUOUS
 10
126.8682530132
 20
370.0868343957
 11
125.6122967148
 21
372.4680843957
  0
LINE
  5
289
100
AcDbEntity
  8
0
100
AcDbLine
 62
7
  6
CONTINUOUS
 10
119.0599412645
 20
395.5757343957
 11
120.3158975629
 21
393.1944843957
  0
LINE
  5
28A
100
AcDbEntity
  8
0
100
AcDbLine
 62
7
  6
CONTINUOUS
 10
121.555630851
 20
393.1944843957
 11
120.2996745526
 21
395.5757343957
  0
LINE
  5
28B
100
AcDbEntity
  8
0
100
AcDbLine
 62
7
  6
CONTINUOUS
 10
124.0837664583
 20
395.5757343957
 11
122.8278101598
 21
397.9569843957
  0
LINE
  5
28C
100
AcDbEntity
  8
0
100
AcDbLine
 62
7
  6
CONTINUOUS
 10
152.5147418343
 20
229.6629343957
 11
152.5147418343
 21
230.5519343957
  0
LINE
  5
28D
100
AcDbEntity
  8
0
100
AcDbLine
 62
7
  6
CONTINUOUS
 10
152.7130546934
 20
230.5519343957
 11
152.7130546934
 21
229.6629343957
  0
LINE
  5
28E
100
AcDbEntity
  8
0
100
AcDbLine
 62
7
  6
CONTINUOUS
 10
152.8410731734
 20
361.5483744671
 11
152.8410731734
 21
291.667614743
  0
LINE
  5
28F
100
AcDbEntity
  8
0
100
AcDbLine
 62
7
  6
CONTINUOUS
 10
153.4658112276
 20
439.8225343957
 11
153.4658112276
 21
442.4895343957
  0
LINE
  5
290
100
AcDbEntity
  8
0
100
AcDbLine
 62
7
  6
CONTINUOUS
 10
153.7708731395
 20
291.667614743
 11
153.7708731395
 21
361.5483744671
  0
LINE
  5
291
100
AcDbEntity
  8
0
100
AcDbLine
 62
7
  6
CONTINUOUS
 10
154.7489869196
 20
229.5613343957
 11
154.7489869196
 21
227.0975343957
  0
LINE
  5
292
100
AcDbEntity
  8
0
100
AcDbLine
 62
7
  6
CONTINUOUS
 10
154.7489869196
 20
442.4895343957
 11
154.7489869196
 21
442.8959343957
  0
LINE
  5
293
100
AcDbEntity
  8
0
100
AcDbLine
 62
7
  6
CONTINUOUS
 10
155.5744869196
 20
229.6629343957
 11
155.5744869196
 21
229.5613343957
  0
LINE
  5
294
100
AcDbEntity
  8
0
100
AcDbLine
 62
7
  6
CONTINUOUS
 10
156.0912786019
 20
240.3309343957
 11
156.0912786019
 21
311.3493343957
  0
LINE
  5
295
100
AcDbEntity
  8
0
100
AcDbLine
 62
7
  6
CONTINUOUS
 10
156.0912786019
 20
358.9743343957
 11
156.0912786019
 21
430.0689343957
  0
LINE
  5
296
100
AcDbEntity
  8
0
100
AcDbLine
 62
7
  6
CONTINUOUS
 10
156.15771012
 20
442.8959343957
 11
156.15771012
 21
442.4895343957
  0
LINE
  5
297
100
AcDbEntity
  8
0
100
AcDbLine
 62
7
  6
CONTINUOUS
 10
156.9911884041
 20
442.4895343957
 11
156.9911884041
 21
439.8225343957
  0
LINE
  5
298
100
AcDbEntity
  8
0
100
AcDbLine
 62
7
  6
CONTINUOUS
 10
157.4756474403
 20
240.3309343957
 11
157.4756474403
 21
311.3493343957
  0
LINE
  5
299
100
AcDbEntity
  8
0
100
AcDbLine
 62
7
  6
CONTINUOUS
 10
157.4756474403
 20
358.9743343957
 11
157.4756474403
 21
430.0689343957
  0
LINE
  5
29A
100
AcDbEntity
  8
0
100
AcDbLine
 62
7
  6
CONTINUOUS
 10
157.5937869196
 20
531.3802523701
 11
157.5937869196
 21
538.1459343957
  0
LINE
  5
29B
100
AcDbEntity
  8
0
100
AcDbLine
 62
7
  6
CONTINUOUS
 10
158.60881012
 20
435.0854343957
 11
158.60881012
 21
435.1804935679
  0
LINE
  5
29C
100
AcDbEntity
  8
0
100
AcDbLine
 62
7
  6
CONTINUOUS
 10
159.9305869196
 20
552.7509343957
 11
159.9305869196
 21
556.9419343957
  0
LINE
  5
29D
100
AcDbEntity
  8
0
100
AcDbLine
 62
7
  6
CONTINUOUS
 10
160.0584251238
 20
233.9809343957
 11
160.0584251238
 21
230.5773343957
  0
LINE
  5
29E
100
AcDbEntity
  8
0
100
AcDbLine
 62
7
  6
CONTINUOUS
 10
160.2607869196
 20
533.3547041827
 11
160.2607869196
 21
538.1459343957
  0
LINE
  5
29F
100
AcDbEntity
  8
0
100
AcDbLine
 62
7
  6
CONTINUOUS
 10
162.6412028074
 20
230.5773343957
 11
162.6412028074
 21
233.9809343957
  0
LINE
  5
2A0
100
AcDbEntity
  8
0
100
AcDbLine
 62
7
  6
CONTINUOUS
 10
163.15541012
 20
435.0854343957
 11
163.15541012
 21
436.4189343957
  0
LINE
  5
2A1
100
AcDbEntity
  8
0
100
AcDbLine
 62
7
  6
CONTINUOUS
 10
163.2706869196
 20
229.6629343957
 11
163.2706869196
 21
229.5613343957
  0
LINE
  5
2A2
100
AcDbEntity
  8
0
100
AcDbLine
 62
7
  6
CONTINUOUS
 10
163.3087869196
 20
247.9255343957
 11
163.3087869196
 21
243.1249343957
  0
LINE
  5
2A3
100
AcDbEntity
  8
0
100
AcDbLine
 62
7
  6
CONTINUOUS
 10
163.3087869196
 20
422.4743343957
 11
163.3087869196
 21
427.2749343957
  0
LINE
  5
2A4
100
AcDbEntity
  8
0
100
AcDbLine
 62
7
  6
CONTINUOUS
 10
164.0961869196
 20
234.5143343957
 11
164.0961869196
 21
233.9809343957
  0
LINE
  5
2A5
100
AcDbEntity
  8
0
100
AcDbLine
 62
7
  6
CONTINUOUS
 10
164.0961869196
 20
230.5773343957
 11
164.0961869196
 21
230.5519343957
  0
LINE
  5
2A6
100
AcDbEntity
  8
0
100
AcDbLine
 62
7
  6
CONTINUOUS
 10
164.0961869196
 20
229.5613343957
 11
164.0961869196
 21
227.0975343957
  0
LINE
  5
2A7
100
AcDbEntity
  8
0
100
AcDbLine
 62
7
  6
CONTINUOUS
 10
164.0961869196
 20
435.8855343957
 11
164.0961869196
 21
436.4189343957
  0
LINE
  5
2A8
100
AcDbEntity
  8
0
100
AcDbLine
 62
7
  6
CONTINUOUS
 10
166.2805869196
 20
556.9419343957
 11
166.2805869196
 21
554.2749343957
  0
LINE
  5
2A9
100
AcDbEntity
  8
0
100
AcDbLine
 62
7
  6
CONTINUOUS
 10
167.4235869196
 20
240.4579343957
 11
167.4235869196
 21
234.5143343957
  0
LINE
  5
2AA
100
AcDbEntity
  8
0
100
AcDbLine
 62
7
  6
CONTINUOUS
 10
167.4235869196
 20
429.9419343957
 11
167.4235869196
 21
435.8855343957
  0
LINE
  5
2AB
100
AcDbEntity
  8
0
100
AcDbLine
 62
7
  6
CONTINUOUS
 10
168.0585869196
 20
229.6629343957
 11
168.0585869196
 21
230.5519343957
  0
LINE
  5
2AC
100
AcDbEntity
  8
0
100
AcDbLine
 62
7
  6
CONTINUOUS
 10
125.6122967148
 20
367.7055843957
 11
126.8682530132
 21
370.0868343957
  0
LINE
  5
2AD
100
AcDbEntity
  8
0
100
AcDbLine
 62
7
  6
CONTINUOUS
 10
167.030390838
 20
440.6412486257
 11
166.8784537284
 21
440.3699376645
  0
LINE
  5
2AE
100
AcDbEntity
  8
0
100
AcDbLine
 62
7
  6
CONTINUOUS
 10
256.2730263493
 20
544.3671539175
 11
256.0387364549
 21
544.1325781415
  0
LINE
  5
2AF
100
AcDbEntity
  8
0
100
AcDbLine
 62
7
  6
CONTINUOUS
 10
107.3308200956
 20
396.9066668198
 11
117.6839550486
 21
405.6367242701
  0
LINE
  5
2B0
100
AcDbEntity
  8
0
100
AcDbLine
 62
7
  6
CONTINUOUS
 10
126.8771314354
 20
266.8993343957
 11
127.5486536332
 21
266.8993343957
  0
LINE
  5
2B1
100
AcDbEntity
  8
0
100
AcDbLine
 62
7
  6
CONTINUOUS
 10
126.8771314354
 20
270.2013343957
 11
124.6164053525
 21
270.2013343957
  0
LINE
  5
2B2
100
AcDbEntity
  8
0
100
AcDbLine
 62
7
  6
CONTINUOUS
 10
125.6122967148
 20
272.4555843957
 11
123.1003841179
 21
272.4555843957
  0
LINE
  5
2B3
100
AcDbEntity
  8
0
100
AcDbLine
 62
7
  6
CONTINUOUS
 10
145.9118005819
 20
273.5059019717
 11
144.9820006158
 21
273.5059019717
  0
LINE
  5
2B4
100
AcDbEntity
  8
0
100
AcDbLine
 62
7
  6
CONTINUOUS
 10
123.0841611075
 20
274.8368343957
 11
121.8444278194
 21
274.8368343957
  0
LINE
  5
2B5
100
AcDbEntity
  8
0
100
AcDbLine
 62
7
  6
CONTINUOUS
 10
123.1003841179
 20
277.2180843957
 11
125.6122967148
 21
277.2180843957
  0
LINE
  5
2B6
100
AcDbEntity
  8
0
100
AcDbLine
 62
7
  6
CONTINUOUS
 10
97.4446423886
 20
278.0499343957
 11
99.7225640738
 21
278.0499343957
  0
LINE
  5
2B7
100
AcDbEntity
  8
0
100
AcDbLine
 62
7
  6
CONTINUOUS
 10
126.8771314354
 20
279.4723343957
 11
124.6164053525
 21
279.4723343957
  0
LINE
  5
2B8
100
AcDbEntity
  8
0
100
AcDbLine
 62
7
  6
CONTINUOUS
 10
126.8771314354
 20
282.7743343957
 11
127.5486536332
 21
282.7743343957
  0
LINE
  5
2B9
100
AcDbEntity
  8
0
100
AcDbLine
 62
7
  6
CONTINUOUS
 10
169.728344771
 20
439.8225343957
 11
169.728344771
 21
442.4895343957
  0
LINE
  5
2BA
100
AcDbEntity
  8
0
100
AcDbLine
 62
7
  6
CONTINUOUS
 10
170.2773311149
 20
439.8225343957
 11
170.2773311149
 21
442.4895343957
  0
LINE
  5
2BB
100
AcDbEntity
  8
0
100
AcDbLine
 62
7
  6
CONTINUOUS
 10
120.3158975629
 20
302.7069843957
 11
119.0599412645
 21
300.3257343957
  0
LINE
  5
2BC
100
AcDbEntity
  8
0
100
AcDbLine
 62
7
  6
CONTINUOUS
 10
120.2996745526
 20
300.3257343957
 11
121.555630851
 21
302.7069843957
  0
LINE
  5
2BD
100
AcDbEntity
  8
0
100
AcDbLine
 62
7
  6
CONTINUOUS
 10
122.8278101598
 20
297.9444843957
 11
124.0837664583
 21
300.3257343957
  0
LINE
  5
2BE
100
AcDbEntity
  8
0
100
AcDbLine
 62
7
  6
CONTINUOUS
 10
153.0237935448
 20
449.2220113642
 11
153.0711055315
 21
449.2459343957
  0
LINE
  5
2BF
100
AcDbEntity
  8
0
100
AcDbLine
 62
7
  6
CONTINUOUS
 10
127.204451551
 20
287.5312441804
 11
134.4130972693
 21
287.7654481956
  0
LINE
  5
2C0
100
AcDbEntity
  8
0
100
AcDbLine
 62
7
  6
CONTINUOUS
 10
130.0168432855
 20
290.7679862031
 11
118.3132312216
 21
290.3877437768
  0
LINE
  5
2C1
100
AcDbEntity
  8
0
100
AcDbLine
 62
7
  6
CONTINUOUS
 10
129.0870433194
 20
290.7679862031
 11
117.3834312555
 21
290.3877437768
  0
LINE
  5
2C2
100
AcDbEntity
  8
0
100
AcDbLine
 62
7
  6
CONTINUOUS
 10
117.7969282663
 20
290.379813041
 11
118.3132312216
 21
290.3877437768
  0
LINE
  5
2C3
100
AcDbEntity
  8
0
100
AcDbLine
 62
7
  6
CONTINUOUS
 10
117.3834312555
 20
290.3877437768
 11
116.8671283003
 21
290.379813041
  0
LINE
  5
2C4
100
AcDbEntity
  8
0
100
AcDbLine
 62
7
  6
CONTINUOUS
 10
89.8663855459
 20
285.6699343957
 11
90.2221586235
 21
285.6699343957
  0
LINE
  5
2C5
100
AcDbEntity
  8
0
100
AcDbLine
 62
7
  6
CONTINUOUS
 10
117.7969280984
 20
290.3877437768
 11
118.3132312216
 21
290.3877437768
  0
LINE
  5
2C6
100
AcDbEntity
  8
0
100
AcDbLine
 62
7
  6
CONTINUOUS
 10
130.0168432855
 20
290.7679862031
 11
129.0870433194
 21
290.7679862031
  0
LINE
  5
2C7
100
AcDbEntity
  8
0
100
AcDbLine
 62
7
  6
CONTINUOUS
 10
152.8410731734
 20
291.6676147431
 11
153.7708731395
 21
291.6676147431
  0
LINE
  5
2C8
100
AcDbEntity
  8
0
100
AcDbLine
 62
7
  6
CONTINUOUS
 10
124.0926448805
 20
292.3882343957
 11
124.7641670782
 21
292.3882343957
  0
LINE
  5
2C9
100
AcDbEntity
  8
0
100
AcDbLine
 62
7
  6
CONTINUOUS
 10
124.0926448805
 20
295.6902343957
 11
121.8319187976
 21
295.6902343957
  0
LINE
  5
2CA
100
AcDbEntity
  8
0
100
AcDbLine
 62
7
  6
CONTINUOUS
 10
122.8278101598
 20
297.9444843957
 11
120.3158975629
 21
297.9444843957
  0
LINE
  5
2CB
100
AcDbEntity
  8
0
100
AcDbLine
 62
7
  6
CONTINUOUS
 10
120.2996745526
 20
300.3257343957
 11
119.0599412645
 21
300.3257343957
  0
LINE
  5
2CC
100
AcDbEntity
  8
0
100
AcDbLine
 62
7
  6
CONTINUOUS
 10
120.3158975629
 20
302.7069843957
 11
122.8278101598
 21
302.7069843957
  0
LINE
  5
2CD
100
AcDbEntity
  8
0
100
AcDbLine
 62
7
  6
CONTINUOUS
 10
188.4276551997
 20
230.5773343957
 11
188.4276551997
 21
233.9809343957
  0
LINE
  5
2CE
100
AcDbEntity
  8
0
100
AcDbLine
 62
7
  6
CONTINUOUS
 10
188.4276551997
 20
436.4189343957
 11
188.4276551997
 21
439.8225343957
  0
LINE
  5
2CF
100
AcDbEntity
  8
0
100
AcDbLine
 62
7
  6
CONTINUOUS
 10
191.1725869196
 20
233.9809343957
 11
191.1725869196
 21
230.5773343957
  0
LINE
  5
2D0
100
AcDbEntity
  8
0
100
AcDbLine
 62
7
  6
CONTINUOUS
 10
191.1725869196
 20
436.4189343957
 11
191.1725869196
 21
439.8225343957
  0
LINE
  5
2D1
100
AcDbEntity
  8
0
100
AcDbLine
 62
7
  6
CONTINUOUS
 10
123.1003841179
 20
277.2180843957
 11
121.8444278194
 21
274.8368343957
  0
LINE
  5
2D2
100
AcDbEntity
  8
0
100
AcDbLine
 62
7
  6
CONTINUOUS
 10
123.0841611075
 20
274.8368343957
 11
124.3401174059
 21
277.2180843957
  0
LINE
  5
2D3
100
AcDbEntity
  8
0
100
AcDbLine
 62
7
  6
CONTINUOUS
 10
125.6122967148
 20
272.4555843957
 11
126.8682530132
 21
274.8368343957
  0
LINE
  5
2D4
100
AcDbEntity
  8
0
100
AcDbLine
 62
7
  6
CONTINUOUS
 10
117.4308125741
 20
309.7017840329
 11
128.5638561545
 21
310.0634890758
  0
LINE
  5
2D5
100
AcDbEntity
  8
0
100
AcDbLine
 62
7
  6
CONTINUOUS
 10
128.5638561545
 20
310.0634890758
 11
128.8254496047
 21
310.0674555313
  0
LINE
  5
2D6
100
AcDbEntity
  8
0
100
AcDbLine
 62
7
  6
CONTINUOUS
 10
117.2587117656
 20
309.6992716816
 11
117.4308125741
 21
309.7017840329
  0
LINE
  5
2D7
100
AcDbEntity
  8
0
100
AcDbLine
 62
7
  6
CONTINUOUS
 10
124.0926448805
 20
304.9612343957
 11
121.8319187976
 21
304.9612343957
  0
LINE
  5
2D8
100
AcDbEntity
  8
0
100
AcDbLine
 62
7
  6
CONTINUOUS
 10
124.0926448805
 20
308.2632343957
 11
124.7641670782
 21
308.2632343957
  0
LINE
  5
2D9
100
AcDbEntity
  8
0
100
AcDbLine
 62
7
  6
CONTINUOUS
 10
281.8251869196
 20
309.4951343957
 11
283.0951869196
 21
309.4951343957
  0
LINE
  5
2DA
100
AcDbEntity
  8
0
100
AcDbLine
 62
7
  6
CONTINUOUS
 10
129.755249703
 20
310.0677376394
 11
128.825449737
 21
310.0677376394
  0
LINE
  5
2DB
100
AcDbEntity
  8
0
100
AcDbLine
 62
7
  6
CONTINUOUS
 10
156.0912786019
 20
311.3493343957
 11
157.4756474403
 21
311.3493343957
  0
LINE
  5
2DC
100
AcDbEntity
  8
0
100
AcDbLine
 62
7
  6
CONTINUOUS
 10
283.0951869196
 20
315.8451343957
 11
281.8251869196
 21
315.8451343957
  0
LINE
  5
2DD
100
AcDbEntity
  8
0
100
AcDbLine
 62
7
  6
CONTINUOUS
 10
111.460251335
 20
315.8606008821
 11
112.390051301
 21
315.8606008821
  0
LINE
  5
2DE
100
AcDbEntity
  8
0
100
AcDbLine
 62
7
  6
CONTINUOUS
 10
122.7934602163
 20
317.6993343957
 11
143.8157361716
 21
317.6993343957
  0
LINE
  5
2DF
100
AcDbEntity
  8
0
100
AcDbLine
 62
7
  6
CONTINUOUS
 10
112.2661385514
 20
320.4305884046
 11
111.3363385854
 21
320.4305884046
  0
LINE
  5
2E0
100
AcDbEntity
  8
0
100
AcDbLine
 62
7
  6
CONTINUOUS
 10
116.0879391306
 20
323.652234302
 11
115.8904519098
 21
323.6580992743
  0
LINE
  5
2E1
100
AcDbEntity
  8
0
100
AcDbLine
 62
7
  6
CONTINUOUS
 10
122.1759157245
 20
438.4255343957
 11
122.5569157245
 21
438.0445343957
  0
LINE
  5
2E2
100
AcDbEntity
  8
0
100
AcDbLine
 62
7
  6
CONTINUOUS
 10
162.8105898606
 20
440.6412486257
 11
162.9625269702
 21
440.3699376645
  0
LINE
  5
2E3
100
AcDbEntity
  8
0
100
AcDbLine
 62
7
  6
CONTINUOUS
 10
213.2705869196
 20
554.2749343957
 11
213.2705869196
 21
556.9419343957
  0
LINE
  5
2E4
100
AcDbEntity
  8
0
100
AcDbLine
 62
7
  6
CONTINUOUS
 10
219.6205869196
 20
556.9419343957
 11
219.6205869196
 21
552.7509343957
  0
LINE
  5
2E5
100
AcDbEntity
  8
0
100
AcDbLine
 62
7
  6
CONTINUOUS
 10
219.7235497902
 20
429.9419343957
 11
219.7235497902
 21
432.6089343957
  0
LINE
  5
2E6
100
AcDbEntity
  8
0
100
AcDbLine
 62
7
  6
CONTINUOUS
 10
219.7253796504
 20
432.6089343957
 11
219.7253796504
 21
429.9419343957
  0
LINE
  5
2E7
100
AcDbEntity
  8
0
100
AcDbLine
 62
7
  6
CONTINUOUS
 10
220.7021848752
 20
429.9419343957
 11
220.7021848752
 21
432.6089343957
  0
LINE
  5
2E8
100
AcDbEntity
  8
0
100
AcDbLine
 62
7
  6
CONTINUOUS
 10
223.8539555799
 20
432.6089343957
 11
223.8539555799
 21
429.9419343957
  0
LINE
  5
2E9
100
AcDbEntity
  8
0
100
AcDbLine
 62
7
  6
CONTINUOUS
 10
156.0912786019
 20
358.9743343957
 11
153.7708731395
 21
356.4343343958
  0
LINE
  5
2EA
100
AcDbEntity
  8
0
100
AcDbLine
 62
7
  6
CONTINUOUS
 10
153.7708731395
 20
354.9189540424
 11
157.4756474403
 21
358.9743343957
  0
LINE
  5
2EB
100
AcDbEntity
  8
0
100
AcDbLine
 62
7
  6
CONTINUOUS
 10
114.9667909468
 20
323.5676730136
 11
115.6626061706
 21
323.5902795788
  0
LINE
  5
2EC
100
AcDbEntity
  8
0
100
AcDbLine
 62
7
  6
CONTINUOUS
 10
114.7328062045
 20
323.5902795788
 11
114.0369909808
 21
323.5676730136
  0
LINE
  5
2ED
100
AcDbEntity
  8
0
100
AcDbLine
 62
7
  6
CONTINUOUS
 10
139.1156101375
 20
324.4801279917
 11
140.7933142573
 21
324.5346354618
  0
LINE
  5
2EE
100
AcDbEntity
  8
0
100
AcDbLine
 62
7
  6
CONTINUOUS
 10
115.2918087902
 20
323.7259189699
 11
113.2043631189
 21
323.6580992743
  0
LINE
  5
2EF
100
AcDbEntity
  8
0
100
AcDbLine
 62
7
  6
CONTINUOUS
 10
140.6118859183
 20
324.5589495489
 11
138.1858101715
 21
324.4801279917
  0
LINE
  5
2F0
100
AcDbEntity
  8
0
100
AcDbLine
 62
7
  6
CONTINUOUS
 10
132.4824757432
 20
324.4123082962
 11
130.3950300719
 21
324.3444886006
  0
LINE
  5
2F1
100
AcDbEntity
  8
0
100
AcDbLine
 62
7
  6
CONTINUOUS
 10
112.543192225
 20
325.1814284485
 11
114.6306378963
 21
325.249248144
  0
LINE
  5
2F2
100
AcDbEntity
  8
0
100
AcDbLine
 62
7
  6
CONTINUOUS
 10
129.733859178
 20
325.8678177748
 11
131.8213048493
 21
325.9356374703
  0
LINE
  5
2F3
100
AcDbEntity
  8
0
100
AcDbLine
 62
7
  6
CONTINUOUS
 10
140.7013774559
 20
324.5600155316
 11
140.6118859183
 21
324.5589495489
  0
LINE
  5
2F4
100
AcDbEntity
  8
0
100
AcDbLine
 62
7
  6
CONTINUOUS
 10
114.0369909808
 20
323.5676730136
 11
114.9667909468
 21
323.5676730136
  0
LINE
  5
2F5
100
AcDbEntity
  8
0
100
AcDbLine
 62
7
  6
CONTINUOUS
 10
113.2043631189
 20
323.6580992743
 11
115.8904519098
 21
323.6580992743
  0
LINE
  5
2F6
100
AcDbEntity
  8
0
100
AcDbLine
 62
7
  6
CONTINUOUS
 10
115.2918087902
 20
323.7259189699
 11
117.9778975811
 21
323.7259189699
  0
LINE
  5
2F7
100
AcDbEntity
  8
0
100
AcDbLine
 62
7
  6
CONTINUOUS
 10
133.0811188627
 20
324.3444886006
 11
130.3950300719
 21
324.3444886006
  0
LINE
  5
2F8
100
AcDbEntity
  8
0
100
AcDbLine
 62
7
  6
CONTINUOUS
 10
135.1685645341
 20
324.4123082962
 11
132.4824757432
 21
324.4123082962
  0
LINE
  5
2F9
100
AcDbEntity
  8
0
100
AcDbLine
 62
7
  6
CONTINUOUS
 10
135.6633157245
 20
449.2205343957
 11
134.9013157245
 21
449.9825343957
  0
LINE
  5
2FA
100
AcDbEntity
  8
0
100
AcDbLine
 62
7
  6
CONTINUOUS
 10
152.2788047099
 20
443.6761158997
 11
153.0237935448
 21
442.9198574273
  0
LINE
  5
2FB
100
AcDbEntity
  8
0
100
AcDbLine
 62
7
  6
CONTINUOUS
 10
167.030390838
 20
451.5006201657
 11
166.8784537284
 21
451.771931127
  0
LINE
  5
2FC
100
AcDbEntity
  8
0
100
AcDbLine
 62
7
  6
CONTINUOUS
 10
226.0594869196
 20
436.4824343957
 11
226.0594869196
 21
433.1296343957
  0
LINE
  5
2FD
100
AcDbEntity
  8
0
100
AcDbLine
 62
7
  6
CONTINUOUS
 10
226.0721869196
 20
433.1296343957
 11
226.0721869196
 21
432.6089343957
  0
LINE
  5
2FE
100
AcDbEntity
  8
0
100
AcDbLine
 62
7
  6
CONTINUOUS
 10
226.1026964046
 20
436.6094343957
 11
226.1026964046
 21
436.4824343957
  0
LINE
  5
2FF
100
AcDbEntity
  8
0
100
AcDbLine
 62
7
  6
CONTINUOUS
 10
226.1213063677
 20
436.4824343957
 11
226.1213063677
 21
436.6094343957
  0
LINE
  5
300
100
AcDbEntity
  8
0
100
AcDbLine
 62
7
  6
CONTINUOUS
 10
228.3210395882
 20
429.9419343957
 11
228.3210395882
 21
432.6089343957
  0
LINE
  5
301
100
AcDbEntity
  8
0
100
AcDbLine
 62
7
  6
CONTINUOUS
 10
228.5232869196
 20
425.2048343957
 11
228.5232869196
 21
427.2749343957
  0
LINE
  5
302
100
AcDbEntity
  8
0
100
AcDbLine
 62
7
  6
CONTINUOUS
 10
231.2529862348
 20
432.6089343957
 11
231.2529862348
 21
429.9419343957
  0
LINE
  5
303
100
AcDbEntity
  8
0
100
AcDbLine
 62
7
  6
CONTINUOUS
 10
233.0698869196
 20
425.2048343957
 11
233.0698869196
 21
427.2749343957
  0
LINE
  5
304
100
AcDbEntity
  8
0
100
AcDbLine
 62
7
  6
CONTINUOUS
 10
235.4718674715
 20
436.6094343957
 11
235.4718674715
 21
436.4824343957
  0
LINE
  5
305
100
AcDbEntity
  8
0
100
AcDbLine
 62
7
  6
CONTINUOUS
 10
235.4904774345
 20
436.4824343957
 11
235.4904774345
 21
436.6094343957
  0
LINE
  5
306
100
AcDbEntity
  8
0
100
AcDbLine
 62
7
  6
CONTINUOUS
 10
235.5209869196
 20
433.1296343957
 11
235.5209869196
 21
432.6089343957
  0
LINE
  5
307
100
AcDbEntity
  8
0
100
AcDbLine
 62
7
  6
CONTINUOUS
 10
235.5336869196
 20
436.4824343957
 11
235.5336869196
 21
433.1296343957
  0
LINE
  5
308
100
AcDbEntity
  8
0
100
AcDbLine
 62
7
  6
CONTINUOUS
 10
114.1074507314
 20
344.5447510167
 11
112.0200050601
 21
344.4769313212
  0
LINE
  5
309
100
AcDbEntity
  8
0
100
AcDbLine
 62
7
  6
CONTINUOUS
 10
131.2981176844
 20
345.231140343
 11
129.2106720131
 21
345.1633206475
  0
LINE
  5
30A
100
AcDbEntity
  8
0
100
AcDbLine
 62
7
  6
CONTINUOUS
 10
111.700934793
 20
345.8536192426
 11
112.4440887898
 21
345.8777638124
  0
LINE
  5
30B
100
AcDbEntity
  8
0
100
AcDbLine
 62
7
  6
CONTINUOUS
 10
112.5903840883
 20
346.0001276237
 11
114.6860131256
 21
346.0680801909
  0
LINE
  5
30C
100
AcDbEntity
  8
0
100
AcDbLine
 62
7
  6
CONTINUOUS
 10
137.5800145069
 20
346.8222892127
 11
138.2758297306
 21
346.8448957779
  0
LINE
  5
30D
100
AcDbEntity
  8
0
100
AcDbLine
 62
7
  6
CONTINUOUS
 10
131.8766800786
 20
346.7544695172
 11
129.7810510413
 21
346.6865169499
  0
LINE
  5
30E
100
AcDbEntity
  8
0
100
AcDbLine
 62
7
  6
CONTINUOUS
 10
111.6114432555
 20
345.8525532599
 11
111.700934793
 21
345.8536192426
  0
LINE
  5
30F
100
AcDbEntity
  8
0
100
AcDbLine
 62
7
  6
CONTINUOUS
 10
117.3721019165
 20
346.0680801909
 11
114.6860131256
 21
346.0680801909
  0
LINE
  5
310
100
AcDbEntity
  8
0
100
AcDbLine
 62
7
  6
CONTINUOUS
 10
131.8766800786
 20
346.7544695172
 11
134.5627688695
 21
346.7544695172
  0
LINE
  5
311
100
AcDbEntity
  8
0
100
AcDbLine
 62
7
  6
CONTINUOUS
 10
108.5962429487
 20
349.0562040041
 11
109.5260429147
 21
349.0562040041
  0
LINE
  5
312
100
AcDbEntity
  8
0
100
AcDbLine
 62
7
  6
CONTINUOUS
 10
122.7934602163
 20
352.6243343957
 11
140.9048361206
 21
352.6243343957
  0
LINE
  5
313
100
AcDbEntity
  8
0
100
AcDbLine
 62
7
  6
CONTINUOUS
 10
281.8251869196
 20
354.5039343957
 11
283.0951869196
 21
354.5039343957
  0
LINE
  5
314
100
AcDbEntity
  8
0
100
AcDbLine
 62
7
  6
CONTINUOUS
 10
245.0363293046
 20
429.9419343957
 11
245.0363293046
 21
432.6089343957
  0
LINE
  5
315
100
AcDbEntity
  8
0
100
AcDbLine
 62
7
  6
CONTINUOUS
 10
247.9682759512
 20
432.6089343957
 11
247.9682759512
 21
429.9419343957
  0
LINE
  5
316
100
AcDbEntity
  8
0
100
AcDbLine
 62
7
  6
CONTINUOUS
 10
328.7223268375
 20
453.9309807858
 11
328.8403418569
 21
453.9906543957
  0
LINE
  5
317
100
AcDbEntity
  8
0
100
AcDbLine
 62
7
  6
CONTINUOUS
 10
135.1702973115
 20
360.6899425076
 11
124.6787645229
 21
360.3490797157
  0
LINE
  5
318
100
AcDbEntity
  8
0
100
AcDbLine
 62
7
  6
CONTINUOUS
 10
134.8820081373
 20
360.7107847586
 11
123.7489645569
 21
360.3490797157
  0
LINE
  5
319
100
AcDbEntity
  8
0
100
AcDbLine
 62
7
  6
CONTINUOUS
 10
123.7489645569
 20
360.3490797157
 11
123.4873711067
 21
360.3451132602
  0
LINE
  5
31A
100
AcDbEntity
  8
0
100
AcDbLine
 62
7
  6
CONTINUOUS
 10
124.4171711036
 20
360.3451390612
 11
124.6787645229
 21
360.3490797157
  0
LINE
  5
31B
100
AcDbEntity
  8
0
100
AcDbLine
 62
7
  6
CONTINUOUS
 10
135.0541089458
 20
360.7132971099
 11
134.8820081373
 21
360.7107847586
  0
LINE
  5
31C
100
AcDbEntity
  8
0
100
AcDbLine
 62
7
  6
CONTINUOUS
 10
156.0912786019
 20
358.9743343957
 11
157.4756474403
 21
358.9743343957
  0
LINE
  5
31D
100
AcDbEntity
  8
0
100
AcDbLine
 62
7
  6
CONTINUOUS
 10
124.4171709405
 20
360.3448311521
 11
123.4873709744
 21
360.3448311521
  0
LINE
  5
31E
100
AcDbEntity
  8
0
100
AcDbLine
 62
7
  6
CONTINUOUS
 10
123.7489645569
 20
360.3490797157
 11
124.6787645229
 21
360.3490797157
  0
LINE
  5
31F
100
AcDbEntity
  8
0
100
AcDbLine
 62
7
  6
CONTINUOUS
 10
283.0951869196
 20
360.8539343957
 11
281.8251869196
 21
360.8539343957
  0
LINE
  5
320
100
AcDbEntity
  8
0
100
AcDbLine
 62
7
  6
CONTINUOUS
 10
153.7708731395
 20
361.5483744671
 11
152.8410731734
 21
361.5483744671
  0
LINE
  5
321
100
AcDbEntity
  8
0
100
AcDbLine
 62
7
  6
CONTINUOUS
 10
126.8771314354
 20
362.1493343957
 11
127.5486536332
 21
362.1493343957
  0
LINE
  5
322
100
AcDbEntity
  8
0
100
AcDbLine
 62
7
  6
CONTINUOUS
 10
126.8771314354
 20
365.4513343957
 11
124.6164053525
 21
365.4513343957
  0
LINE
  5
323
100
AcDbEntity
  8
0
100
AcDbLine
 62
7
  6
CONTINUOUS
 10
125.6122967148
 20
367.7055843957
 11
123.1003841179
 21
367.7055843957
  0
LINE
  5
324
100
AcDbEntity
  8
0
100
AcDbLine
 62
7
  6
CONTINUOUS
 10
123.0841611075
 20
370.0868343957
 11
121.8444278194
 21
370.0868343957
  0
LINE
  5
325
100
AcDbEntity
  8
0
100
AcDbLine
 62
7
  6
CONTINUOUS
 10
108.9271312918
 20
371.1444770294
 11
107.9973313257
 21
371.1444770294
  0
LINE
  5
326
100
AcDbEntity
  8
0
100
AcDbLine
 62
7
  6
CONTINUOUS
 10
123.1003841179
 20
372.4680843957
 11
125.6122967148
 21
372.4680843957
  0
LINE
  5
327
100
AcDbEntity
  8
0
100
AcDbLine
 62
7
  6
CONTINUOUS
 10
126.8771314354
 20
374.7223343957
 11
124.6164053525
 21
374.7223343957
  0
LINE
  5
328
100
AcDbEntity
  8
0
100
AcDbLine
 62
7
  6
CONTINUOUS
 10
263.5099004224
 20
557.5515343957
 11
263.5099004224
 21
556.9419343957
  0
LINE
  5
329
100
AcDbEntity
  8
0
100
AcDbLine
 62
7
  6
CONTINUOUS
 10
264.1594869196
 20
436.4824343957
 11
264.1594869196
 21
433.1296343957
  0
LINE
  5
32A
100
AcDbEntity
  8
0
100
AcDbLine
 62
7
  6
CONTINUOUS
 10
264.1721869196
 20
433.1296343957
 11
264.1721869196
 21
432.6089343957
  0
LINE
  5
32B
100
AcDbEntity
  8
0
100
AcDbLine
 62
7
  6
CONTINUOUS
 10
264.2026964046
 20
436.6094343957
 11
264.2026964046
 21
436.4824343957
  0
LINE
  5
32C
100
AcDbEntity
  8
0
100
AcDbLine
 62
7
  6
CONTINUOUS
 10
264.2213063677
 20
436.4824343957
 11
264.2213063677
 21
436.6094343957
  0
LINE
  5
32D
100
AcDbEntity
  8
0
100
AcDbLine
 62
7
  6
CONTINUOUS
 10
265.9588409091
 20
429.9419343957
 11
265.9588409091
 21
432.6089343957
  0
LINE
  5
32E
100
AcDbEntity
  8
0
100
AcDbLine
 62
7
  6
CONTINUOUS
 10
266.6232869196
 20
425.2048343957
 11
266.6232869196
 21
427.2749343957
  0
LINE
  5
32F
100
AcDbEntity
  8
0
100
AcDbLine
 62
7
  6
CONTINUOUS
 10
268.3359004224
 20
557.5515343957
 11
268.3359004224
 21
556.9419343957
  0
LINE
  5
330
100
AcDbEntity
  8
0
100
AcDbLine
 62
7
  6
CONTINUOUS
 10
268.8907875557
 20
432.6089343957
 11
268.8907875557
 21
429.9419343957
  0
LINE
  5
331
100
AcDbEntity
  8
0
100
AcDbLine
 62
7
  6
CONTINUOUS
 10
269.2223476386
 20
557.5515343957
 11
269.2223476386
 21
556.9419343957
  0
LINE
  5
332
100
AcDbEntity
  8
0
100
AcDbLine
 62
7
  6
CONTINUOUS
 10
269.8226214855
 20
429.9419343957
 11
269.8226214855
 21
432.6089343957
  0
LINE
  5
333
100
AcDbEntity
  8
0
100
AcDbLine
 62
7
  6
CONTINUOUS
 10
271.1698869196
 20
425.2048343957
 11
271.1698869196
 21
427.2749343957
  0
LINE
  5
334
100
AcDbEntity
  8
0
100
AcDbLine
 62
7
  6
CONTINUOUS
 10
272.7545681321
 20
432.6089343957
 11
272.7545681321
 21
429.9419343957
  0
LINE
  5
335
100
AcDbEntity
  8
0
100
AcDbLine
 62
7
  6
CONTINUOUS
 10
273.5718674715
 20
436.6094343957
 11
273.5718674715
 21
436.4824343957
  0
LINE
  5
336
100
AcDbEntity
  8
0
100
AcDbLine
 62
7
  6
CONTINUOUS
 10
273.5904774345
 20
436.4824343957
 11
273.5904774345
 21
436.6094343957
  0
LINE
  5
337
100
AcDbEntity
  8
0
100
AcDbLine
 62
7
  6
CONTINUOUS
 10
273.6209869196
 20
433.1296343957
 11
273.6209869196
 21
432.6089343957
  0
LINE
  5
338
100
AcDbEntity
  8
0
100
AcDbLine
 62
7
  6
CONTINUOUS
 10
273.6336869196
 20
436.4824343957
 11
273.6336869196
 21
433.1296343957
  0
LINE
  5
339
100
AcDbEntity
  8
0
100
AcDbLine
 62
7
  6
CONTINUOUS
 10
327.2347829065
 20
452.4209343957
 11
328.7223268375
 21
453.9309807858
  0
LINE
  5
33A
100
AcDbEntity
  8
0
100
AcDbLine
 62
7
  6
CONTINUOUS
 10
123.225777392
 20
379.6445825884
 11
134.9293894559
 21
380.0248250147
  0
LINE
  5
33B
100
AcDbEntity
  8
0
100
AcDbLine
 62
7
  6
CONTINUOUS
 10
126.0381691265
 20
382.8813246111
 11
118.8295234082
 21
382.6471205959
  0
LINE
  5
33C
100
AcDbEntity
  8
0
100
AcDbLine
 62
7
  6
CONTINUOUS
 10
125.1083691604
 20
382.8813246111
 11
117.8997234421
 21
382.6471205959
  0
LINE
  5
33D
100
AcDbEntity
  8
0
100
AcDbLine
 62
7
  6
CONTINUOUS
 10
134.9293894559
 20
380.0248250147
 11
135.4456924111
 21
380.0327557505
  0
LINE
  5
33E
100
AcDbEntity
  8
0
100
AcDbLine
 62
7
  6
CONTINUOUS
 10
126.8771314354
 20
378.0243343957
 11
127.5486536332
 21
378.0243343957
  0
LINE
  5
33F
100
AcDbEntity
  8
0
100
AcDbLine
 62
7
  6
CONTINUOUS
 10
117.8997234421
 20
382.6471205959
 11
118.8295234082
 21
382.6471205959
  0
LINE
  5
340
100
AcDbEntity
  8
0
100
AcDbLine
 62
7
  6
CONTINUOUS
 10
126.0381691265
 20
382.8813246111
 11
125.1083691604
 21
382.8813246111
  0
LINE
  5
341
100
AcDbEntity
  8
0
100
AcDbLine
 62
7
  6
CONTINUOUS
 10
89.8663855459
 20
384.7299343957
 11
90.2221586235
 21
384.7299343957
  0
LINE
  5
342
100
AcDbEntity
  8
0
100
AcDbLine
 62
7
  6
CONTINUOUS
 10
124.0926448805
 20
387.6382343957
 11
124.7641670782
 21
387.6382343957
  0
LINE
  5
343
100
AcDbEntity
  8
0
100
AcDbLine
 62
7
  6
CONTINUOUS
 10
124.0926448805
 20
390.9402343957
 11
121.8319187976
 21
390.9402343957
  0
LINE
  5
344
100
AcDbEntity
  8
0
100
AcDbLine
 62
7
  6
CONTINUOUS
 10
97.4446423886
 20
392.3499343957
 11
99.7225640738
 21
392.3499343957
  0
LINE
  5
345
100
AcDbEntity
  8
0
100
AcDbLine
 62
7
  6
CONTINUOUS
 10
122.8278101598
 20
393.1944843957
 11
120.3158975629
 21
393.1944843957
  0
LINE
  5
346
100
AcDbEntity
  8
0
100
AcDbLine
 62
7
  6
CONTINUOUS
 10
153.0711055315
 20
442.8959343957
 11
153.0237935448
 21
442.9198574273
  0
LINE
  5
347
100
AcDbEntity
  8
0
100
AcDbLine
 62
7
  6
CONTINUOUS
 10
127.8249869196
 20
534.8185343957
 11
127.0629869196
 21
535.5805343957
  0
LINE
  5
348
100
AcDbEntity
  8
0
100
AcDbLine
 62
7
  6
CONTINUOUS
 10
287.1845869196
 20
429.9419343957
 11
287.1845869196
 21
427.2749343957
  0
LINE
  5
349
100
AcDbEntity
  8
0
100
AcDbLine
 62
7
  6
CONTINUOUS
 10
287.1845869196
 20
240.4579343957
 11
287.1845869196
 21
243.1249343957
  0
LINE
  5
34A
100
AcDbEntity
  8
0
100
AcDbLine
 62
7
  6
CONTINUOUS
 10
292.0105869196
 20
520.2389343957
 11
292.0105869196
 21
556.9419343957
  0
LINE
  5
34B
100
AcDbEntity
  8
0
100
AcDbLine
 62
7
  6
CONTINUOUS
 10
334.0641557596
 20
437.7524343957
 11
334.2788534186
 21
437.9420275228
  0
LINE
  5
34C
100
AcDbEntity
  8
0
100
AcDbLine
 62
7
  6
CONTINUOUS
 10
144.9820006158
 20
273.5059019717
 11
134.6288656628
 21
264.7758445214
  0
LINE
  5
34D
100
AcDbEntity
  8
0
100
AcDbLine
 62
7
  6
CONTINUOUS
 10
135.5586656289
 20
264.7758445214
 11
145.9118005819
 21
273.5059019717
  0
LINE
  5
34E
100
AcDbEntity
  8
0
100
AcDbLine
 62
7
  6
CONTINUOUS
 10
124.4199649961
 20
408.2701441804
 11
124.7641669836
 21
408.2754471463
  0
LINE
  5
34F
100
AcDbEntity
  8
0
100
AcDbLine
 62
7
  6
CONTINUOUS
 10
120.2996745526
 20
395.5757343957
 11
119.0599412645
 21
395.5757343957
  0
LINE
  5
350
100
AcDbEntity
  8
0
100
AcDbLine
 62
7
  6
CONTINUOUS
 10
120.3158975629
 20
397.9569843957
 11
122.8278101598
 21
397.9569843957
  0
LINE
  5
351
100
AcDbEntity
  8
0
100
AcDbLine
 62
7
  6
CONTINUOUS
 10
124.0926448805
 20
400.2112343957
 11
121.8319187976
 21
400.2112343957
  0
LINE
  5
352
100
AcDbEntity
  8
0
100
AcDbLine
 62
7
  6
CONTINUOUS
 10
124.0926448805
 20
403.5132343957
 11
124.7641670782
 21
403.5132343957
  0
LINE
  5
353
100
AcDbEntity
  8
0
100
AcDbLine
 62
7
  6
CONTINUOUS
 10
125.6939670443
 20
408.2757343957
 11
124.7641670782
 21
408.2757343957
  0
LINE
  5
354
100
AcDbEntity
  8
0
100
AcDbLine
 62
7
  6
CONTINUOUS
 10
299.8845869196
 20
240.4579343957
 11
299.8845869196
 21
429.9419343957
  0
LINE
  5
355
100
AcDbEntity
  8
0
100
AcDbLine
 62
7
  6
CONTINUOUS
 10
348.8699236056
 20
447.5899171934
 11
349.03076127
 21
447.7993788
  0
LINE
  5
356
100
AcDbEntity
  8
0
100
AcDbLine
 62
7
  6
CONTINUOUS
 10
164.0961869196
 20
227.0975343957
 11
163.5881869196
 21
226.5895343957
  0
LINE
  5
357
100
AcDbEntity
  8
0
100
AcDbLine
 62
7
  6
CONTINUOUS
 10
157.4756474403
 20
422.4743343957
 11
163.3087869196
 21
422.4743343957
  0
LINE
  5
358
100
AcDbEntity
  8
0
100
AcDbLine
 62
7
  6
CONTINUOUS
 10
299.8845869196
 20
424.6079343957
 11
163.3087869196
 21
424.6079343957
  0
LINE
  5
359
100
AcDbEntity
  8
0
100
AcDbLine
 62
7
  6
CONTINUOUS
 10
98.0811420416
 20
424.6079343957
 11
58.5845869196
 21
424.6079343957
  0
LINE
  5
35A
100
AcDbEntity
  8
0
100
AcDbLine
 62
7
  6
CONTINUOUS
 10
228.5232869196
 20
425.2048343957
 11
233.0698869196
 21
425.2048343957
  0
LINE
  5
35B
100
AcDbEntity
  8
0
100
AcDbLine
 62
7
  6
CONTINUOUS
 10
266.6232869196
 20
425.2048343957
 11
271.1698869196
 21
425.2048343957
  0
LINE
  5
35C
100
AcDbEntity
  8
0
100
AcDbLine
 62
7
  6
CONTINUOUS
 10
58.5845869196
 20
427.2749343957
 11
98.0811420416
 21
427.2749343957
  0
LINE
  5
35D
100
AcDbEntity
  8
0
100
AcDbLine
 62
7
  6
CONTINUOUS
 10
157.4756474403
 20
427.2749343957
 11
299.8845869196
 21
427.2749343957
  0
LINE
  5
35E
100
AcDbEntity
  8
0
100
AcDbLine
 62
7
  6
CONTINUOUS
 10
58.5845869196
 20
429.9419343957
 11
98.0811420416
 21
429.9419343957
  0
LINE
  5
35F
100
AcDbEntity
  8
0
100
AcDbLine
 62
7
  6
CONTINUOUS
 10
157.4756474403
 20
429.9419343957
 11
344.6938176069
 21
429.9419343957
  0
LINE
  5
360
100
AcDbEntity
  8
0
100
AcDbLine
 62
7
  6
CONTINUOUS
 10
156.0912786019
 20
430.0689343957
 11
98.0811420416
 21
430.0689343957
  0
LINE
  5
361
100
AcDbEntity
  8
0
100
AcDbLine
 62
7
  6
CONTINUOUS
 10
216.8339735375
 20
440.4858947424
 11
220.8635338032
 21
439.4069666276
  0
LINE
  5
362
100
AcDbEntity
  8
0
100
AcDbLine
 62
7
  6
CONTINUOUS
 10
333.4073126148
 20
456.5747451971
 11
333.7164954342
 21
457.8819343957
  0
LINE
  5
363
100
AcDbEntity
  8
0
100
AcDbLine
 62
7
  6
CONTINUOUS
 10
344.1752953016
 20
435.5671235943
 11
343.8661124821
 21
434.2599343957
  0
LINE
  5
364
100
AcDbEntity
  8
0
100
AcDbLine
 62
7
  6
CONTINUOUS
 10
357.8316234337
 20
432.4327663369
 11
349.3492350701
 21
432.4327663369
  0
LINE
  5
365
100
AcDbEntity
  8
0
100
AcDbLine
 62
7
  6
CONTINUOUS
 10
344.6938176069
 20
432.6089343957
 11
219.7239472314
 21
432.6089343957
  0
LINE
  5
366
100
AcDbEntity
  8
0
100
AcDbLine
 62
7
  6
CONTINUOUS
 10
348.4939046058
 20
432.6343343957
 11
348.8632810533
 21
432.6343343957
  0
LINE
  5
367
100
AcDbEntity
  8
0
100
AcDbLine
 62
7
  6
CONTINUOUS
 10
226.0594869196
 20
433.1296343957
 11
235.5336869196
 21
433.1296343957
  0
LINE
  5
368
100
AcDbEntity
  8
0
100
AcDbLine
 62
7
  6
CONTINUOUS
 10
264.1594869196
 20
433.1296343957
 11
273.6336869196
 21
433.1296343957
  0
LINE
  5
369
100
AcDbEntity
  8
0
100
AcDbLine
 62
7
  6
CONTINUOUS
 10
342.3613670322
 20
434.1329343957
 11
342.8014426168
 21
434.1329343957
  0
LINE
  5
36A
100
AcDbEntity
  8
0
100
AcDbLine
 62
7
  6
CONTINUOUS
 10
345.3951887215
 20
434.1329343957
 11
348.8699236056
 21
434.1329343957
  0
LINE
  5
36B
100
AcDbEntity
  8
0
100
AcDbLine
 62
7
  6
CONTINUOUS
 10
333.7163947835
 20
434.2599343957
 11
343.8618176532
 21
434.2599343957
  0
LINE
  5
36C
100
AcDbEntity
  8
0
100
AcDbLine
 62
7
  6
CONTINUOUS
 10
158.60881012
 20
435.0854343957
 11
163.15541012
 21
435.0854343957
  0
LINE
  5
36D
100
AcDbEntity
  8
0
100
AcDbLine
 62
7
  6
CONTINUOUS
 10
167.4235869196
 20
435.8855343957
 11
163.15541012
 21
435.8855343957
  0
LINE
  5
36E
100
AcDbEntity
  8
0
100
AcDbLine
 62
7
  6
CONTINUOUS
 10
160.0584251238
 20
436.4189343957
 11
191.171977388
 21
436.4189343957
  0
LINE
  5
36F
100
AcDbEntity
  8
0
100
AcDbLine
 62
7
  6
CONTINUOUS
 10
273.6336869196
 20
436.4824343957
 11
273.5718674715
 21
436.4824343957
  0
LINE
  5
370
100
AcDbEntity
  8
0
100
AcDbLine
 62
7
  6
CONTINUOUS
 10
264.2213063677
 20
436.4824343957
 11
264.1594869196
 21
436.4824343957
  0
LINE
  5
371
100
AcDbEntity
  8
0
100
AcDbLine
 62
7
  6
CONTINUOUS
 10
235.5336869196
 20
436.4824343957
 11
235.4718674715
 21
436.4824343957
  0
LINE
  5
372
100
AcDbEntity
  8
0
100
AcDbLine
 62
7
  6
CONTINUOUS
 10
226.1213063677
 20
436.4824343957
 11
226.0594869196
 21
436.4824343957
  0
LINE
  5
373
100
AcDbEntity
  8
0
100
AcDbLine
 62
7
  6
CONTINUOUS
 10
226.1026964046
 20
436.6094343957
 11
235.4904774345
 21
436.6094343957
  0
LINE
  5
374
100
AcDbEntity
  8
0
100
AcDbLine
 62
7
  6
CONTINUOUS
 10
264.2026964046
 20
436.6094343957
 11
273.5904774345
 21
436.6094343957
  0
LINE
  5
375
100
AcDbEntity
  8
0
100
AcDbLine
 62
7
  6
CONTINUOUS
 10
122.5569157245
 20
438.0445343957
 11
137.6699157245
 21
438.0445343957
  0
LINE
  5
376
100
AcDbEntity
  8
0
100
AcDbLine
 62
7
  6
CONTINUOUS
 10
365.8558031112
 20
438.1334343957
 11
365.0994593995
 21
438.1334343957
  0
LINE
  5
377
100
AcDbEntity
  8
0
100
AcDbLine
 62
7
  6
CONTINUOUS
 10
365.0994593995
 20
438.1512143957
 11
359.3735879256
 21
438.1512143957
  0
LINE
  5
378
100
AcDbEntity
  8
0
100
AcDbLine
 62
7
  6
CONTINUOUS
 10
122.1759157245
 20
438.4255343957
 11
138.0509157245
 21
438.4255343957
  0
LINE
  5
379
100
AcDbEntity
  8
0
100
AcDbLine
 62
7
  6
CONTINUOUS
 10
366.0663829593
 20
438.4509343957
 11
391.0672601705
 21
438.4509343957
  0
LINE
  5
37A
100
AcDbEntity
  8
0
100
AcDbLine
 62
7
  6
CONTINUOUS
 10
391.3552513628
 20
438.6947197852
 11
366.1705842571
 21
438.6947197852
  0
LINE
  5
37B
100
AcDbEntity
  8
0
100
AcDbLine
 62
7
  6
CONTINUOUS
 10
321.9878678282
 20
438.9589343957
 11
314.676545281
 21
438.9589343957
  0
LINE
  5
37C
100
AcDbEntity
  8
0
100
AcDbLine
 62
7
  6
CONTINUOUS
 10
366.3206591483
 20
439.1807277443
 11
391.4979483845
 21
439.1807277443
  0
LINE
  5
37D
100
AcDbEntity
  8
0
100
AcDbLine
 62
7
  6
CONTINUOUS
 10
359.2680469663
 20
439.2518503663
 11
350.7856586027
 21
439.2518503663
  0
LINE
  5
37E
100
AcDbEntity
  8
0
100
AcDbLine
 62
7
  6
CONTINUOUS
 10
391.4920173895
 20
439.2984632362
 11
366.3396433162
 21
439.2984632362
  0
LINE
  5
37F
100
AcDbEntity
  8
0
100
AcDbLine
 62
7
  6
CONTINUOUS
 10
228.2012475679
 20
439.4034343957
 11
220.8899250208
 21
439.4034343957
  0
LINE
  5
380
100
AcDbEntity
  8
0
100
AcDbLine
 62
7
  6
CONTINUOUS
 10
163.4465771874
 20
439.6551295294
 11
166.3944035112
 21
439.6551295294
  0
LINE
  5
381
100
AcDbEntity
  8
0
100
AcDbLine
 62
7
  6
CONTINUOUS
 10
327.2822738106
 20
439.7209343957
 11
322.3607450265
 21
439.7209343957
  0
LINE
  5
382
100
AcDbEntity
  8
0
100
AcDbLine
 62
7
  6
CONTINUOUS
 10
191.1719773391
 20
439.8225343957
 11
166.5094020046
 21
439.8225343957
  0
LINE
  5
383
100
AcDbEntity
  8
0
100
AcDbLine
 62
7
  6
CONTINUOUS
 10
93.5678525664
 20
439.8225343957
 11
163.3315788809
 21
439.8225343957
  0
LINE
  5
384
100
AcDbEntity
  8
0
100
AcDbLine
 62
7
  6
CONTINUOUS
 10
313.9202015693
 20
440.2289343957
 11
306.565624042
 21
440.2289343957
  0
LINE
  5
385
100
AcDbEntity
  8
0
100
AcDbLine
 62
7
  6
CONTINUOUS
 10
305.8525352837
 20
440.7369343957
 11
299.8017856161
 21
440.7369343957
  0
LINE
  5
386
100
AcDbEntity
  8
0
100
AcDbLine
 62
7
  6
CONTINUOUS
 10
494.4342341132
 20
440.8639343957
 11
391.7386423014
 21
440.8639343957
  0
LINE
  5
387
100
AcDbEntity
  8
0
100
AcDbLine
 62
7
  6
CONTINUOUS
 10
299.8017856155
 20
441.7529343957
 11
228.8082512772
 21
441.7529343957
  0
LINE
  5
388
100
AcDbEntity
  8
0
100
AcDbLine
 62
7
  6
CONTINUOUS
 10
348.9660858088
 20
442.3145943014
 11
348.8699236056
 21
442.3145943014
  0
LINE
  5
389
100
AcDbEntity
  8
0
100
AcDbLine
 62
7
  6
CONTINUOUS
 10
170.2772914532
 20
442.4895343957
 11
167.3972269236
 21
442.4895343957
  0
LINE
  5
38A
100
AcDbEntity
  8
0
100
AcDbLine
 62
7
  6
CONTINUOUS
 10
162.443753775
 20
442.4895343957
 11
93.5678527
 21
442.4895343957
  0
LINE
  5
38B
100
AcDbEntity
  8
0
100
AcDbLine
 62
7
  6
CONTINUOUS
 10
391.9052294346
 20
442.529598306
 11
366.7054066
 21
442.529598306
  0
LINE
  5
38C
100
AcDbEntity
  8
0
100
AcDbLine
 62
7
  6
CONTINUOUS
 10
164.1223140642
 20
442.8630319626
 11
167.0701403881
 21
442.8630319626
  0
LINE
  5
38D
100
AcDbEntity
  8
0
100
AcDbLine
 62
7
  6
CONTINUOUS
 10
216.8560918909
 20
442.8959343957
 11
167.4351524094
 21
442.8959343957
  0
LINE
  5
38E
100
AcDbEntity
  8
0
100
AcDbLine
 62
7
  6
CONTINUOUS
 10
163.1371420512
 20
442.8959343957
 11
153.0711055315
 21
442.8959343957
  0
LINE
  5
38F
100
AcDbEntity
  8
0
100
AcDbLine
 62
7
  6
CONTINUOUS
 10
112.5213874267
 20
443.0102343957
 11
121.9955874267
 21
443.0102343957
  0
LINE
  5
390
100
AcDbEntity
  8
0
100
AcDbLine
 62
7
  6
CONTINUOUS
 10
366.7670639972
 20
443.7029253123
 11
391.9643364763
 21
443.7029253123
  0
LINE
  5
391
100
AcDbEntity
  8
0
100
AcDbLine
 62
7
  6
CONTINUOUS
 10
391.9500177876
 20
443.7516929498
 11
366.768177689
 21
443.7516929498
  0
LINE
  5
392
100
AcDbEntity
  8
0
100
AcDbLine
 62
7
  6
CONTINUOUS
 10
336.2087488028
 20
446.0709343957
 11
344.6911371664
 21
446.0709343957
  0
LINE
  5
393
100
AcDbEntity
  8
0
100
AcDbLine
 62
7
  6
CONTINUOUS
 10
121.9955874267
 20
446.3630343957
 11
121.9337679786
 21
446.3630343957
  0
LINE
  5
394
100
AcDbEntity
  8
0
100
AcDbLine
 62
7
  6
CONTINUOUS
 10
112.5832068748
 20
446.3630343957
 11
112.5213874267
 21
446.3630343957
  0
LINE
  5
395
100
AcDbEntity
  8
0
100
AcDbLine
 62
7
  6
CONTINUOUS
 10
112.5645969117
 20
446.4900343957
 11
121.9523779417
 21
446.4900343957
  0
LINE
  5
396
100
AcDbEntity
  8
0
100
AcDbLine
 62
7
  6
CONTINUOUS
 10
366.7684333647
 20
448.3901758417
 11
391.9500177876
 21
448.3901758417
  0
LINE
  5
397
100
AcDbEntity
  8
0
100
AcDbLine
 62
7
  6
CONTINUOUS
 10
391.9643364763
 20
448.4389434792
 11
366.767325049
 21
448.4389434792
  0
LINE
  5
398
100
AcDbEntity
  8
0
100
AcDbLine
 62
7
  6
CONTINUOUS
 10
135.6633157245
 20
449.2205343957
 11
124.5635157245
 21
449.2205343957
  0
LINE
  5
399
100
AcDbEntity
  8
0
100
AcDbLine
 62
7
  6
CONTINUOUS
 10
216.8560918917
 20
449.2459343957
 11
167.4351524094
 21
449.2459343957
  0
LINE
  5
39A
100
AcDbEntity
  8
0
100
AcDbLine
 62
7
  6
CONTINUOUS
 10
163.1368969162
 20
449.2459343957
 11
153.0711055315
 21
449.2459343957
  0
LINE
  5
39B
100
AcDbEntity
  8
0
100
AcDbLine
 62
7
  6
CONTINUOUS
 10
164.1223140642
 20
449.2788368289
 11
167.0701403881
 21
449.2788368289
  0
LINE
  5
39C
100
AcDbEntity
  8
0
100
AcDbLine
 62
7
  6
CONTINUOUS
 10
220.8899250208
 20
439.4034343957
 11
220.8635338032
 21
439.4069666276
  0
LINE
  5
39D
100
AcDbEntity
  8
0
100
AcDbLine
 62
7
  6
CONTINUOUS
 10
342.3613670322
 20
434.2599343957
 11
342.3613670322
 21
434.1329343958
  0
LINE
  5
39E
100
AcDbEntity
  8
0
100
AcDbLine
 62
7
  6
CONTINUOUS
 10
344.6938176069
 20
429.9419343957
 11
344.6938176069
 21
432.6089343957
  0
LINE
  5
39F
100
AcDbEntity
  8
0
100
AcDbLine
 62
7
  6
CONTINUOUS
 10
346.2227206143
 20
434.1329343957
 11
346.2227206143
 21
442.0624346359
  0
LINE
  5
3A0
100
AcDbEntity
  8
0
100
AcDbLine
 62
7
  6
CONTINUOUS
 10
346.2227206143
 20
450.0822385475
 11
346.2227206143
 21
450.7699343957
  0
LINE
  5
3A1
100
AcDbEntity
  8
0
100
AcDbLine
 62
7
  6
CONTINUOUS
 10
346.4094828544
 20
453.9957343957
 11
346.4094828544
 21
455.7229343957
  0
LINE
  5
3A2
100
AcDbEntity
  8
0
100
AcDbLine
 62
7
  6
CONTINUOUS
 10
347.2311788967
 20
455.7229343957
 11
347.2311788967
 21
450.7699343957
  0
LINE
  5
3A3
100
AcDbEntity
  8
0
100
AcDbLine
 62
7
  6
CONTINUOUS
 10
348.8699236056
 20
434.1329343957
 11
348.8699236056
 21
450.7699343957
  0
LINE
  5
3A4
100
AcDbEntity
  8
0
100
AcDbLine
 62
7
  6
CONTINUOUS
 10
349.8783818879
 20
450.7699343957
 11
349.8783818879
 21
455.7229343957
  0
LINE
  5
3A5
100
AcDbEntity
  8
0
100
AcDbLine
 62
7
  6
CONTINUOUS
 10
358.9714130597
 20
435.5546721349
 11
359.035789217
 21
435.8423083525
  0
LINE
  5
3A6
100
AcDbEntity
  8
0
100
AcDbLine
 62
7
  6
CONTINUOUS
 10
358.9744205953
 20
435.5671235943
 11
358.9714754178
 21
435.5546717243
  0
LINE
  5
3A7
100
AcDbEntity
  8
0
100
AcDbLine
 62
7
  6
CONTINUOUS
 10
216.8339735375
 20
451.6559740491
 11
220.8635338032
 21
452.7349021639
  0
LINE
  5
3A8
100
AcDbEntity
  8
0
100
AcDbLine
 62
7
  6
CONTINUOUS
 10
220.8635338032
 20
452.7349021639
 11
220.8899250208
 21
452.7384343957
  0
LINE
  5
3A9
100
AcDbEntity
  8
0
100
AcDbLine
 62
7
  6
CONTINUOUS
 10
366.705248091
 20
449.6122704855
 11
391.9052294346
 21
449.6122704855
  0
LINE
  5
3AA
100
AcDbEntity
  8
0
100
AcDbLine
 62
7
  6
CONTINUOUS
 10
348.8699236056
 20
449.8272744901
 11
348.9660858088
 21
449.8272744901
  0
LINE
  5
3AB
100
AcDbEntity
  8
0
100
AcDbLine
 62
7
  6
CONTINUOUS
 10
134.9013157245
 20
449.9825343957
 11
125.3255157245
 21
449.9825343957
  0
LINE
  5
3AC
100
AcDbEntity
  8
0
100
AcDbLine
 62
7
  6
CONTINUOUS
 10
299.8017856167
 20
450.3889343957
 11
228.8082239157
 21
450.3889343957
  0
LINE
  5
3AD
100
AcDbEntity
  8
0
100
AcDbLine
 62
7
  6
CONTINUOUS
 10
347.2311788967
 20
450.7699343957
 11
346.1992750717
 21
450.7699343957
  0
LINE
  5
3AE
100
AcDbEntity
  8
0
100
AcDbLine
 62
7
  6
CONTINUOUS
 10
348.8699236056
 20
450.7699343957
 11
349.878381888
 21
450.7699343957
  0
LINE
  5
3AF
100
AcDbEntity
  8
0
100
AcDbLine
 62
7
  6
CONTINUOUS
 10
494.4342341132
 20
451.2779343957
 11
391.7386423014
 21
451.2779343957
  0
LINE
  5
3B0
100
AcDbEntity
  8
0
100
AcDbLine
 62
7
  6
CONTINUOUS
 10
305.8525352831
 20
451.4049343957
 11
299.8017856161
 21
451.4049343957
  0
LINE
  5
3B1
100
AcDbEntity
  8
0
100
AcDbLine
 62
7
  6
CONTINUOUS
 10
313.9202015693
 20
451.9129343957
 11
306.565624042
 21
451.9129343957
  0
LINE
  5
3B2
100
AcDbEntity
  8
0
100
AcDbLine
 62
7
  6
CONTINUOUS
 10
327.2822738106
 20
452.4209343957
 11
322.3608549522
 21
452.4209343957
  0
LINE
  5
3B3
100
AcDbEntity
  8
0
100
AcDbLine
 62
7
  6
CONTINUOUS
 10
163.4465771874
 20
452.4867392621
 11
166.3944035112
 21
452.4867392621
  0
LINE
  5
3B4
100
AcDbEntity
  8
0
100
AcDbLine
 62
7
  6
CONTINUOUS
 10
228.2012475679
 20
452.7384343957
 11
220.8899250208
 21
452.7384343957
  0
LINE
  5
3B5
100
AcDbEntity
  8
0
100
AcDbLine
 62
7
  6
CONTINUOUS
 10
366.3395958273
 20
452.8434055553
 11
391.4920173895
 21
452.8434055553
  0
LINE
  5
3B6
100
AcDbEntity
  8
0
100
AcDbLine
 62
7
  6
CONTINUOUS
 10
359.2680469663
 20
452.8900184251
 11
350.7856586027
 21
452.8900184251
  0
LINE
  5
3B7
100
AcDbEntity
  8
0
100
AcDbLine
 62
7
  6
CONTINUOUS
 10
391.4979483845
 20
452.9611410472
 11
366.32065417
 21
452.9611410472
  0
LINE
  5
3B8
100
AcDbEntity
  8
0
100
AcDbLine
 62
7
  6
CONTINUOUS
 10
321.9878678282
 20
453.1829343957
 11
314.676545281
 21
453.1829343957
  0
LINE
  5
3B9
100
AcDbEntity
  8
0
100
AcDbLine
 62
7
  6
CONTINUOUS
 10
366.1702328262
 20
453.4471490063
 11
391.3552513628
 21
453.4471490063
  0
LINE
  5
3BA
100
AcDbEntity
  8
0
100
AcDbLine
 62
7
  6
CONTINUOUS
 10
366.0658591991
 20
453.6909343957
 11
391.0672601705
 21
453.6909343957
  0
LINE
  5
3BB
100
AcDbEntity
  8
0
100
AcDbLine
 62
7
  6
CONTINUOUS
 10
365.0994593995
 20
453.9906543957
 11
359.3735879256
 21
453.9906543957
  0
LINE
  5
3BC
100
AcDbEntity
  8
0
100
AcDbLine
 62
7
  6
CONTINUOUS
 10
334.3700607932
 20
453.9906543957
 11
328.8403418569
 21
453.9906543957
  0
LINE
  5
3BD
100
AcDbEntity
  8
0
100
AcDbLine
 62
7
  6
CONTINUOUS
 10
345.9868523388
 20
453.9957343957
 11
346.4094828544
 21
453.9957343957
  0
LINE
  5
3BE
100
AcDbEntity
  8
0
100
AcDbLine
 62
7
  6
CONTINUOUS
 10
365.8558031112
 20
454.0084343957
 11
365.0994593995
 21
454.0084343957
  0
LINE
  5
3BF
100
AcDbEntity
  8
0
100
AcDbLine
 62
7
  6
CONTINUOUS
 10
349.878381888
 20
455.7229343957
 11
347.2311788967
 21
455.7229343957
  0
LINE
  5
3C0
100
AcDbEntity
  8
0
100
AcDbLine
 62
7
  6
CONTINUOUS
 10
346.4094828544
 20
455.7229343957
 11
345.7931190063
 21
455.7229343957
  0
LINE
  5
3C1
100
AcDbEntity
  8
0
100
AcDbLine
 62
7
  6
CONTINUOUS
 10
349.693036916
 20
457.2469343957
 11
345.5738931974
 21
457.2469343957
  0
LINE
  5
3C2
100
AcDbEntity
  8
0
100
AcDbLine
 62
7
  6
CONTINUOUS
 10
333.7163735802
 20
457.8819343957
 11
343.8618176532
 21
457.8819343957
  0
LINE
  5
3C3
100
AcDbEntity
  8
0
100
AcDbLine
 62
7
  6
CONTINUOUS
 10
344.6781791815
 20
459.5075343957
 11
343.5184521568
 21
459.5075343957
  0
LINE
  5
3C4
100
AcDbEntity
  8
0
100
AcDbLine
 62
7
  6
CONTINUOUS
 10
347.7035540286
 20
459.5075343957
 11
348.8632810533
 21
459.5075343957
  0
LINE
  5
3C5
100
AcDbEntity
  8
0
100
AcDbLine
 62
7
  6
CONTINUOUS
 10
357.8316234337
 20
459.7091024545
 11
349.3492350701
 21
459.7091024545
  0
LINE
  5
3C6
100
AcDbEntity
  8
0
100
AcDbLine
 62
7
  6
CONTINUOUS
 10
328.8403418569
 20
438.1512143957
 11
328.7223268375
 21
438.2108880057
  0
LINE
  5
3C7
100
AcDbEntity
  8
0
100
AcDbLine
 62
7
  6
CONTINUOUS
 10
327.2347829065
 20
439.7209343957
 11
328.7223268375
 21
438.2108880057
  0
LINE
  5
3C8
100
AcDbEntity
  8
0
100
AcDbLine
 62
7
  6
CONTINUOUS
 10
333.4073126148
 20
435.5671235943
 11
333.7164954342
 21
434.2599343957
  0
LINE
  5
3C9
100
AcDbEntity
  8
0
100
AcDbLine
 62
7
  6
CONTINUOUS
 10
334.2788528745
 20
454.1998206818
 11
334.0641557596
 21
454.3894343957
  0
LINE
  5
3CA
100
AcDbEntity
  8
0
100
AcDbLine
 62
7
  6
CONTINUOUS
 10
349.03076127
 20
444.3424899915
 11
348.8699236056
 21
444.5519515981
  0
LINE
  5
3CB
100
AcDbEntity
  8
0
100
AcDbLine
 62
7
  6
CONTINUOUS
 10
348.8699236056
 20
441.1843407937
 11
348.900844978
 21
441.0547933641
  0
LINE
  5
3CC
100
AcDbEntity
  8
0
100
AcDbLine
 62
7
  6
CONTINUOUS
 10
344.1752953016
 20
456.5747451971
 11
343.8661124821
 21
457.8819343957
  0
LINE
  5
3CD
100
AcDbEntity
  8
0
100
AcDbLine
 62
7
  6
CONTINUOUS
 10
391.4920173895
 20
452.8434055553
 11
391.4979483845
 21
452.9611410472
  0
LINE
  5
3CE
100
AcDbEntity
  8
0
100
AcDbLine
 62
7
  6
CONTINUOUS
 10
391.9500177876
 20
448.3901758417
 11
391.9643364763
 21
448.4389434792
  0
LINE
  5
3CF
100
AcDbEntity
  8
0
100
AcDbLine
 62
7
  6
CONTINUOUS
 10
358.9744205953
 20
456.5747451971
 11
358.9714754178
 21
456.5871970672
  0
LINE
  5
3D0
100
AcDbEntity
  8
0
100
AcDbLine
 62
7
  6
CONTINUOUS
 10
359.0357892165
 20
456.2995604414
 11
358.9714127822
 21
456.5871966548
  0
LINE
  5
3D1
100
AcDbEntity
  8
0
100
AcDbLine
 62
7
  6
CONTINUOUS
 10
391.4979483845
 20
439.1807277443
 11
391.4920173895
 21
439.2984632362
  0
LINE
  5
3D2
100
AcDbEntity
  8
0
100
AcDbLine
 62
7
  6
CONTINUOUS
 10
58.5845869196
 20
520.2389343957
 11
292.0105869196
 21
520.2389343957
  0
LINE
  5
3D3
100
AcDbEntity
  8
0
100
AcDbLine
 62
7
  6
CONTINUOUS
 10
236.7251579038
 20
557.3228509429
 11
236.7339515985
 21
557.3184694205
  0
LINE
  5
3D4
100
AcDbEntity
  8
0
100
AcDbLine
 62
7
  6
CONTINUOUS
 10
256.2640203064
 20
544.372602054
 11
256.2712436985
 21
544.3689343957
  0
LINE
  5
3D5
100
AcDbEntity
  8
0
100
AcDbLine
 62
7
  6
CONTINUOUS
 10
391.9643364763
 20
443.7029253123
 11
391.9500177876
 21
443.7516929498
  0
LINE
  5
3D6
100
AcDbEntity
  8
0
100
AcDbLine
 62
7
  6
CONTINUOUS
 10
257.4665869196
 20
525.3189343957
 11
258.4603007542
 21
525.3189343957
  0
LINE
  5
3D7
100
AcDbEntity
  8
0
100
AcDbLine
 62
7
  6
CONTINUOUS
 10
129.9585869196
 20
530.7799343957
 11
155.3585869196
 21
530.7799343957
  0
LINE
  5
3D8
100
AcDbEntity
  8
0
100
AcDbLine
 62
7
  6
CONTINUOUS
 10
177.7105869196
 20
530.7799343957
 11
203.1105869196
 21
530.7799343957
  0
LINE
  5
3D9
100
AcDbEntity
  8
0
100
AcDbLine
 62
7
  6
CONTINUOUS
 10
136.6387869196
 20
533.6374343957
 11
139.3057869196
 21
533.6374343957
  0
LINE
  5
3DA
100
AcDbEntity
  8
0
100
AcDbLine
 62
7
  6
CONTINUOUS
 10
157.5937869196
 20
533.6374343957
 11
160.2607869196
 21
533.6374343957
  0
LINE
  5
3DB
100
AcDbEntity
  8
0
100
AcDbLine
 62
7
  6
CONTINUOUS
 10
127.8249869196
 20
534.8185343957
 11
136.6387869196
 21
534.8185343957
  0
LINE
  5
3DC
100
AcDbEntity
  8
0
100
AcDbLine
 62
7
  6
CONTINUOUS
 10
127.0629869196
 20
535.5805343957
 11
136.6387869196
 21
535.5805343957
  0
LINE
  5
3DD
100
AcDbEntity
  8
0
100
AcDbLine
 62
7
  6
CONTINUOUS
 10
139.3057869196
 20
535.5805343957
 11
139.7629869196
 21
535.5805343957
  0
LINE
  5
3DE
100
AcDbEntity
  8
0
100
AcDbLine
 62
7
  6
CONTINUOUS
 10
139.7629869196
 20
537.1045343957
 11
139.3057869196
 21
537.1045343957
  0
LINE
  5
3DF
100
AcDbEntity
  8
0
100
AcDbLine
 62
7
  6
CONTINUOUS
 10
136.6387869196
 20
537.1045343957
 11
127.0629869196
 21
537.1045343957
  0
LINE
  5
3E0
100
AcDbEntity
  8
0
100
AcDbLine
 62
7
  6
CONTINUOUS
 10
123.6225446119
 20
537.2061343957
 11
136.6387869196
 21
537.2061343957
  0
LINE
  5
3E1
100
AcDbEntity
  8
0
100
AcDbLine
 62
7
  6
CONTINUOUS
 10
139.3057869196
 20
537.2061343957
 11
141.5323198729
 21
537.2061343957
  0
LINE
  5
3E2
100
AcDbEntity
  8
0
100
AcDbLine
 62
7
  6
CONTINUOUS
 10
141.5323198729
 20
538.2729343957
 11
139.3470866711
 21
538.2729343957
  0
LINE
  5
3E3
100
AcDbEntity
  8
0
100
AcDbLine
 62
7
  6
CONTINUOUS
 10
136.6531677819
 20
538.2729343957
 11
123.9114746112
 21
538.2729343957
  0
LINE
  5
3E4
100
AcDbEntity
  8
0
100
AcDbLine
 62
7
  6
CONTINUOUS
 10
112.0418546408
 20
538.3745343957
 11
112.4325869196
 21
538.3745343957
  0
LINE
  5
3E5
100
AcDbEntity
  8
0
100
AcDbLine
 62
7
  6
CONTINUOUS
 10
157.0857869196
 20
538.6539343957
 11
139.8137869196
 21
538.6539343957
  0
LINE
  5
3E6
100
AcDbEntity
  8
0
100
AcDbLine
 62
7
  6
CONTINUOUS
 10
124.0146638967
 20
538.6539343957
 11
136.6963103687
 21
538.6539343957
  0
LINE
  5
3E7
100
AcDbEntity
  8
0
100
AcDbLine
 62
7
  6
CONTINUOUS
 10
95.6685869196
 20
540.0382343957
 11
96.1326931489
 21
540.0382343957
  0
LINE
  5
3E8
100
AcDbEntity
  8
0
100
AcDbLine
 62
7
  6
CONTINUOUS
 10
113.1201923259
 20
540.0382343957
 11
114.2019198729
 21
540.0382343957
  0
LINE
  5
3E9
100
AcDbEntity
  8
0
100
AcDbLine
 62
7
  6
CONTINUOUS
 10
157.0857869196
 20
541.3209343957
 11
139.8137869196
 21
541.3209343957
  0
LINE
  5
3EA
100
AcDbEntity
  8
0
100
AcDbLine
 62
7
  6
CONTINUOUS
 10
125.4722767467
 20
541.3209343957
 11
139.7401003688
 21
541.3209343957
  0
LINE
  5
3EB
100
AcDbEntity
  8
0
100
AcDbLine
 62
7
  6
CONTINUOUS
 10
203.1105869196
 20
543.4799343957
 11
177.7105869196
 21
543.4799343957
  0
LINE
  5
3EC
100
AcDbEntity
  8
0
100
AcDbLine
 62
7
  6
CONTINUOUS
 10
155.3585869196
 20
543.4799343957
 11
129.9585869196
 21
543.4799343957
  0
LINE
  5
3ED
100
AcDbEntity
  8
0
100
AcDbLine
 62
7
  6
CONTINUOUS
 10
256.2147963062
 20
544.3088528218
 11
258.3769581434
 21
544.3088528218
  0
LINE
  5
3EE
100
AcDbEntity
  8
0
100
AcDbLine
 62
7
  6
CONTINUOUS
 10
256.2712436985
 20
544.3689343957
 11
258.4603007542
 21
544.3689343957
  0
LINE
  5
3EF
100
AcDbEntity
  8
0
100
AcDbLine
 62
7
  6
CONTINUOUS
 10
258.5473449802
 20
544.4316844591
 11
255.9497124208
 21
544.4316844591
  0
LINE
  5
3F0
100
AcDbEntity
  8
0
100
AcDbLine
 62
7
  6
CONTINUOUS
 10
255.9093905355
 20
544.9589572521
 11
259.2787554323
 21
544.9589572521
  0
LINE
  5
3F1
100
AcDbEntity
  8
0
100
AcDbLine
 62
7
  6
CONTINUOUS
 10
380.4015807593
 20
545.0039343957
 11
292.0105869196
 21
545.0039343957
  0
LINE
  5
3F2
100
AcDbEntity
  8
0
100
AcDbLine
 62
7
  6
CONTINUOUS
 10
259.4000369092
 20
545.1913509474
 11
256.1669371304
 21
545.1913509474
  0
LINE
  5
3F3
100
AcDbEntity
  8
0
100
AcDbLine
 62
7
  6
CONTINUOUS
 10
96.0955261787
 20
546.0199343957
 11
91.0479961115
 21
546.0199343957
  0
LINE
  5
3F4
100
AcDbEntity
  8
0
100
AcDbLine
 62
7
  6
CONTINUOUS
 10
96.1787504751
 20
547.0359343957
 11
90.8404233641
 21
547.0359343957
  0
LINE
  5
3F5
100
AcDbEntity
  8
0
100
AcDbLine
 62
7
  6
CONTINUOUS
 10
259.6040768027
 20
547.4957894438
 11
255.8269187662
 21
547.4957894438
  0
LINE
  5
3F6
100
AcDbEntity
  8
0
100
AcDbLine
 62
7
  6
CONTINUOUS
 10
255.811418752
 20
548.6855986639
 11
258.8144916503
 21
548.6855986639
  0
LINE
  5
3F7
100
AcDbEntity
  8
0
100
AcDbLine
 62
7
  6
CONTINUOUS
 10
258.6905716499
 20
548.7749324224
 11
256.0736161891
 21
548.7749324224
  0
LINE
  5
3F8
100
AcDbEntity
  8
0
100
AcDbLine
 62
7
  6
CONTINUOUS
 10
218.8585869196
 20
551.9889343957
 11
160.6925869196
 21
551.9889343957
  0
LINE
  5
3F9
100
AcDbEntity
  8
0
100
AcDbLine
 62
7
  6
CONTINUOUS
 10
292.0105869196
 20
552.7509343957
 11
219.6205869196
 21
552.7509343957
  0
LINE
  5
3FA
100
AcDbEntity
  8
0
100
AcDbLine
 62
7
  6
CONTINUOUS
 10
159.9305869196
 20
552.7509343957
 11
58.5845869196
 21
552.7509343957
  0
LINE
  5
3FB
100
AcDbEntity
  8
0
100
AcDbLine
 62
7
  6
CONTINUOUS
 10
159.9305869196
 20
554.2749343957
 11
219.6205869196
 21
554.2749343957
  0
LINE
  5
3FC
100
AcDbEntity
  8
0
100
AcDbLine
 62
7
  6
CONTINUOUS
 10
380.4015807593
 20
555.4179343957
 11
292.0105869196
 21
555.4179343957
  0
LINE
  5
3FD
100
AcDbEntity
  8
0
100
AcDbLine
 62
7
  6
CONTINUOUS
 10
58.5845869196
 20
556.9419343957
 11
292.0105869196
 21
556.9419343957
  0
LINE
  5
3FE
100
AcDbEntity
  8
0
100
AcDbLine
 62
7
  6
CONTINUOUS
 10
236.7251579037
 20
557.3229343957
 11
229.3636450719
 21
557.3229343957
  0
LINE
  5
3FF
100
AcDbEntity
  8
0
100
AcDbLine
 62
7
  6
CONTINUOUS
 10
269.2223476386
 20
557.5515343957
 11
263.5099004224
 21
557.5515343957
  0
LINE
  5
400
100
AcDbEntity
  8
0
100
AcDbLine
 62
7
  6
CONTINUOUS
 10
380.3976550026
 20
547.0379276883
 11
380.4015807332
 21
547.0362986837
  0
LINE
  5
401
100
AcDbEntity
  8
0
100
AcDbLine
 62
7
  6
CONTINUOUS
 10
380.4015807495
 20
545.0042454406
 11
380.3951425184
 21
545.0072033955
  0
LINE
  5
402
100
AcDbEntity
  8
0
100
AcDbLine
 62
7
  6
CONTINUOUS
 10
380.4055065159
 20
553.3839411032
 11
380.4015807853
 21
553.3855701078
  0
LINE
  5
403
100
AcDbEntity
  8
0
100
AcDbLine
 62
7
  6
CONTINUOUS
 10
380.401580769
 20
555.4176233509
 11
380.4080190001
 21
555.414665396
  0
ARC
  5
404
100
AcDbEntity
  8
0
100
AcDbCircle
 62
7
  6
CONTINUOUS
 10
135.4441834446
 20
364.108456229
 40
15.9247304517
100
AcDbArc
 50
86.707775271
 51
89.9945707777
  0
ARC
  5
405
100
AcDbEntity
  8
0
100
AcDbCircle
 62
7
  6
CONTINUOUS
 10
127.5445898527
 20
272.7806716534
 40
10.6440020872
100
AcDbArc
 50
274.9300553688
 51
276.752555678
  0
ARC
  5
406
100
AcDbEntity
  8
0
100
AcDbCircle
 62
7
  6
CONTINUOUS
 10
124.7623390296
 20
397.6481663896
 40
10.6275451738
100
AcDbArc
 50
85.0917478807
 51
89.9901449074
  0
ARC
  5
407
100
AcDbEntity
  8
0
100
AcDbCircle
 62
7
  6
CONTINUOUS
 10
124.7627385231
 20
393.487331021
 40
10.6116366553
100
AcDbArc
 50
271.8665056595
 51
276.7056937442
  0
ARC
  5
408
100
AcDbEntity
  8
0
100
AcDbCircle
 62
7
  6
CONTINUOUS
 10
127.5483474302
 20
272.735079842
 40
10.5982560263
100
AcDbArc
 50
271.862792192
 51
274.9309985503
  0
ARC
  5
409
100
AcDbEntity
  8
0
100
AcDbCircle
 62
7
  6
CONTINUOUS
 10
125.5478558443
 20
345.0044864335
 40
8.331144952
100
AcDbArc
 50
172.3884117725
 51
172.5889459597
  0
ARC
  5
40A
100
AcDbEntity
  8
0
100
AcDbCircle
 62
7
  6
CONTINUOUS
 10
124.0349099389
 20
325.2966875926
 40
8.200587462
100
AcDbArc
 50
191.6335626276
 51
191.8297693064
  0
ARC
  5
40B
100
AcDbEntity
  8
0
100
AcDbCircle
 62
7
  6
CONTINUOUS
 10
123.8354281251
 20
300.4925788367
 40
8.1496754794
100
AcDbArc
 50
27.5083199541
 51
28.2779758554
  0
ARC
  5
40C
100
AcDbEntity
  8
0
100
AcDbCircle
 62
7
  6
CONTINUOUS
 10
123.8559689997
 20
300.5035978478
 40
8.1263657091
100
AcDbArc
 50
28.2781678896
 51
28.6407961218
  0
ARC
  5
40D
100
AcDbEntity
  8
0
100
AcDbCircle
 62
7
  6
CONTINUOUS
 10
126.6449826135
 20
370.2670380026
 40
8.1212706801
100
AcDbArc
 50
27.6576871442
 51
29.5717962666
  0
ARC
  5
40E
100
AcDbEntity
  8
0
100
AcDbCircle
 62
7
  6
CONTINUOUS
 10
128.8234811493
 20
301.9818161287
 40
8.0859015652
100
AcDbArc
 50
83.5536736175
 51
89.9860515491
  0
ARC
  5
40F
100
AcDbEntity
  8
0
100
AcDbCircle
 62
7
  6
CONTINUOUS
 10
126.6780962331
 20
370.2855856245
 40
8.0833170034
100
AcDbArc
 50
29.5732880202
 51
29.9371684051
  0
ARC
  5
410
100
AcDbEntity
  8
0
100
AcDbCircle
 62
7
  6
CONTINUOUS
 10
128.8233053614
 20
298.8415406994
 40
8.0778610978
100
AcDbArc
 50
271.8710098753
 51
278.218893687
  0
ARC
  5
411
100
AcDbEntity
  8
0
100
AcDbCircle
 62
7
  6
CONTINUOUS
 10
124.0924232615
 20
396.880685939
 40
6.6325375081
100
AcDbArc
 50
84.2804435324
 51
89.9980855383
  0
ARC
  5
412
100
AcDbEntity
  8
0
100
AcDbCircle
 62
7
  6
CONTINUOUS
 10
124.0924232615
 20
301.630685939
 40
6.6325375081
100
AcDbArc
 50
84.2804435324
 51
89.9980855383
  0
ARC
  5
413
100
AcDbEntity
  8
0
100
AcDbCircle
 62
7
  6
CONTINUOUS
 10
126.8769098164
 20
276.141785939
 40
6.632537508
100
AcDbArc
 50
84.2804435324
 51
89.9980855383
  0
ARC
  5
414
100
AcDbEntity
  8
0
100
AcDbCircle
 62
7
  6
CONTINUOUS
 10
126.8769098164
 20
371.391785939
 40
6.632537508
100
AcDbArc
 50
84.2804435324
 51
89.9980855383
  0
ARC
  5
415
100
AcDbEntity
  8
0
100
AcDbCircle
 62
7
  6
CONTINUOUS
 10
124.0924248844
 20
394.2707250943
 40
6.6324797498
100
AcDbArc
 50
270.0019004879
 51
275.7190604982
  0
ARC
  5
416
100
AcDbEntity
  8
0
100
AcDbCircle
 62
7
  6
CONTINUOUS
 10
124.0924248844
 20
299.0207250944
 40
6.6324797498
100
AcDbArc
 50
270.0019004879
 51
275.7190604982
  0
ARC
  5
417
100
AcDbEntity
  8
0
100
AcDbCircle
 62
7
  6
CONTINUOUS
 10
126.8769114393
 20
273.5318250943
 40
6.6324797498
100
AcDbArc
 50
270.0019004879
 51
275.7190604982
  0
ARC
  5
418
100
AcDbEntity
  8
0
100
AcDbCircle
 62
7
  6
CONTINUOUS
 10
126.8769114393
 20
368.7818250943
 40
6.6324797498
100
AcDbArc
 50
270.0019004879
 51
275.7190604982
  0
ARC
  5
419
100
AcDbEntity
  8
0
100
AcDbCircle
 62
7
  6
CONTINUOUS
 10
124.1853572394
 20
324.1242178615
 40
6.4252183861
100
AcDbArc
 50
255.9114748403
 51
257.645792351
  0
ARC
  5
41A
100
AcDbEntity
  8
0
100
AcDbCircle
 62
7
  6
CONTINUOUS
 10
124.1853572396
 20
346.1994509291
 40
6.425218387
100
AcDbArc
 50
102.3542076491
 51
104.0885251596
  0
ARC
  5
41B
100
AcDbEntity
  8
0
100
AcDbCircle
 62
7
  6
CONTINUOUS
 10
124.1820494564
 20
324.108059011
 40
6.4087260049
100
AcDbArc
 50
257.6437711781
 51
269.9622684409
  0
ARC
  5
41C
100
AcDbEntity
  8
0
100
AcDbCircle
 62
7
  6
CONTINUOUS
 10
124.1820494564
 20
346.2156097805
 40
6.4087260049
100
AcDbArc
 50
90.0377315591
 51
102.3562288219
  0
ARC
  5
41D
100
AcDbEntity
  8
0
100
AcDbCircle
 62
7
  6
CONTINUOUS
 10
118.1905946122
 20
315.0273553751
 40
5.328384438
100
AcDbArc
 50
260.1614469782
 51
261.9955753514
  0
ARC
  5
41E
100
AcDbEntity
  8
0
100
AcDbCircle
 62
7
  6
CONTINUOUS
 10
118.1904117033
 20
315.0260275921
 40
5.3270441211
100
AcDbArc
 50
261.9955348415
 51
268.7253913529
  0
CIRCLE
  5
41F
100
AcDbEntity
  8
0
100
AcDbCircle
 62
7
  6
CONTINUOUS
 10
71.2845869196
 20
257.2727343957
 40
3.9624
  0
CIRCLE
  5
420
100
AcDbEntity
  8
0
100
AcDbCircle
 62
7
  6
CONTINUOUS
 10
82.4605869196
 20
357.6789343957
 40
3.175
  0
CIRCLE
  5
421
100
AcDbEntity
  8
0
100
AcDbCircle
 62
7
  6
CONTINUOUS
 10
82.4605869196
 20
312.6701343957
 40
3.175
  0
ARC
  5
422
100
AcDbEntity
  8
0
100
AcDbCircle
 62
7
  6
CONTINUOUS
 10
112.5455927728
 20
348.6452805654
 40
2.7931984942
100
AcDbArc
 50
253.1476642711
 51
268.0103056684
  0
ARC
  5
423
100
AcDbEntity
  8
0
100
AcDbCircle
 62
7
  6
CONTINUOUS
 10
129.9585869196
 20
537.1299343957
 40
6.35
100
AcDbArc
 50
90.0
 51
270.0
  0
ARC
  5
424
100
AcDbEntity
  8
0
100
AcDbCircle
 62
7
  6
CONTINUOUS
 10
155.3585869196
 20
537.1299343957
 40
6.35
100
AcDbArc
 50
270.0
 51
90.0
  0
ARC
  5
425
100
AcDbEntity
  8
0
100
AcDbCircle
 62
7
  6
CONTINUOUS
 10
177.7105869196
 20
537.1299343957
 40
6.35
100
AcDbArc
 50
90.0
 51
270.0
  0
ARC
  5
426
100
AcDbEntity
  8
0
100
AcDbCircle
 62
7
  6
CONTINUOUS
 10
203.1105869196
 20
537.1299343957
 40
6.35
100
AcDbArc
 50
270.0
 51
90.0
  0
CIRCLE
  5
427
100
AcDbEntity
  8
0
100
AcDbCircle
 62
7
  6
CONTINUOUS
 10
71.2845869196
 20
412.7969343957
 40
3.9624
  0
CIRCLE
  5
428
100
AcDbEntity
  8
0
100
AcDbCircle
 62
7
  6
CONTINUOUS
 10
115.7345869196
 20
537.1299343957
 40
3.937
  0
CIRCLE
  5
429
100
AcDbEntity
  8
0
100
AcDbCircle
 62
7
  6
CONTINUOUS
 10
93.5095869196
 20
537.1299343957
 40
3.937
  0
CIRCLE
  5
42A
100
AcDbEntity
  8
0
100
AcDbCircle
 62
7
  6
CONTINUOUS
 10
234.8605869196
 20
537.1299343957
 40
3.937
  0
ARC
  5
42B
100
AcDbEntity
  8
0
100
AcDbCircle
 62
7
  6
CONTINUOUS
 10
139.8137869196
 20
538.1459343957
 40
3.175
100
AcDbArc
 50
90.0
 51
180.0
  0
ARC
  5
42C
100
AcDbEntity
  8
0
100
AcDbCircle
 62
7
  6
CONTINUOUS
 10
157.0857869196
 20
538.1459343957
 40
3.175
100
AcDbArc
 50
0.0
 51
90.0
  0
CIRCLE
  5
42D
100
AcDbEntity
  8
0
100
AcDbCircle
 62
7
  6
CONTINUOUS
 10
93.5095869196
 20
546.6549343957
 40
2.794
  0
CIRCLE
  5
42E
100
AcDbEntity
  8
0
100
AcDbCircle
 62
7
  6
CONTINUOUS
 10
93.5095869196
 20
527.6049343957
 40
2.794
  0
CIRCLE
  5
42F
100
AcDbEntity
  8
0
100
AcDbCircle
 62
7
  6
CONTINUOUS
 10
78.5235869196
 20
537.1299343957
 40
2.413
  0
ARC
  5
430
100
AcDbEntity
  8
0
100
AcDbCircle
 62
7
  6
CONTINUOUS
 10
218.8585869196
 20
552.7509343957
 40
0.762
100
AcDbArc
 50
270.0
 51
360.0
  0
ARC
  5
431
100
AcDbEntity
  8
0
100
AcDbCircle
 62
7
  6
CONTINUOUS
 10
160.6925869196
 20
552.7509343957
 40
0.762
100
AcDbArc
 50
180.0
 51
270.0
  0
ARC
  5
432
100
AcDbEntity
  8
0
100
AcDbCircle
 62
7
  6
CONTINUOUS
 10
157.0857869196
 20
538.1459343957
 40
0.508
100
AcDbArc
 50
0.0
 51
90.0
  0
ARC
  5
433
100
AcDbEntity
  8
0
100
AcDbCircle
 62
7
  6
CONTINUOUS
 10
139.8137869196
 20
538.1459343957
 40
0.508
100
AcDbArc
 50
90.0
 51
180.0
  0
CIRCLE
  5
434
100
AcDbEntity
  8
0
100
AcDbCircle
 62
7
  6
CONTINUOUS
 10
249.0845869196
 20
257.2727343957
 40
3.9624
  0
ARC
  5
435
100
AcDbEntity
  8
0
100
AcDbCircle
 62
7
  6
CONTINUOUS
 10
283.0951869196
 20
357.6789343957
 40
3.175
100
AcDbArc
 50
270.0
 51
90.0
  0
ARC
  5
436
100
AcDbEntity
  8
0
100
AcDbCircle
 62
7
  6
CONTINUOUS
 10
281.8251869196
 20
357.6789343957
 40
3.175
100
AcDbArc
 50
90.0
 51
270.0
  0
ARC
  5
437
100
AcDbEntity
  8
0
100
AcDbCircle
 62
7
  6
CONTINUOUS
 10
283.0951869196
 20
312.6701343957
 40
3.175
100
AcDbArc
 50
270.0
 51
90.0
  0
ARC
  5
438
100
AcDbEntity
  8
0
100
AcDbCircle
 62
7
  6
CONTINUOUS
 10
281.8251869196
 20
312.6701343957
 40
3.175
100
AcDbArc
 50
90.0
 51
270.0
  0
ARC
  5
439
100
AcDbEntity
  8
0
100
AcDbCircle
 62
7
  6
CONTINUOUS
 10
298.4018635136
 20
449.9585660679
 40
46.4522392928
100
AcDbArc
 50
355.1992468503
 51
357.3383115531
  0
ARC
  5
43A
100
AcDbEntity
  8
0
100
AcDbCircle
 62
7
  6
CONTINUOUS
 10
298.4019835645
 20
442.1833087849
 40
46.4521191558
100
AcDbArc
 50
2.6616875454
 51
4.8007580923
  0
ARC
  5
43B
100
AcDbEntity
  8
0
100
AcDbCircle
 62
7
  6
CONTINUOUS
 10
311.2297250611
 20
442.5191421345
 40
33.6152098954
100
AcDbArc
 50
355.9849140371
 51
357.499225819
  0
ARC
  5
43C
100
AcDbEntity
  8
0
100
AcDbCircle
 62
7
  6
CONTINUOUS
 10
311.2297357829
 20
449.6227275673
 40
33.6151991362
100
AcDbArc
 50
2.5007739422
 51
4.0150856877
  0
ARC
  5
43D
100
AcDbEntity
  8
0
100
AcDbCircle
 62
7
  6
CONTINUOUS
 10
326.6005982438
 20
453.0531297466
 40
23.5464470101
100
AcDbArc
 50
9.2493550063
 51
9.7676967718
  0
ARC
  5
43E
100
AcDbEntity
  8
0
100
AcDbCircle
 62
7
  6
CONTINUOUS
 10
329.2569705063
 20
453.509386157
 40
20.851176647
100
AcDbArc
 50
9.77050379
 51
10.4962508004
  0
CIRCLE
  5
43F
100
AcDbEntity
  8
0
100
AcDbCircle
 62
7
  6
CONTINUOUS
 10
249.0845869196
 20
412.7969343957
 40
3.9624
  0
ARC
  5
440
100
AcDbEntity
  8
0
100
AcDbCircle
 62
7
  6
CONTINUOUS
 10
306.910405396
 20
450.7672362778
 40
1.3082516134
100
AcDbArc
 50
149.4196283518
 51
150.8247420355
  0
ARC
  5
441
100
AcDbEntity
  8
0
100
AcDbCircle
 62
7
  6
CONTINUOUS
 10
306.910002937
 20
441.3743926198
 40
1.3077837015
100
AcDbArc
 50
209.1745338549
 51
210.5795271282
  0
ARC
  5
442
100
AcDbEntity
  8
0
100
AcDbCircle
 62
7
  6
CONTINUOUS
 10
257.4665869196
 20
531.6689343957
 40
6.35
100
AcDbArc
 50
244.8411707022
 51
270.0
  0
CIRCLE
  5
443
100
AcDbEntity
  8
0
100
AcDbCircle
 62
7
  6
CONTINUOUS
 10
257.0855869196
 20
537.1299343957
 40
3.937
  0
CIRCLE
  5
444
100
AcDbEntity
  8
0
100
AcDbCircle
 62
7
  6
CONTINUOUS
 10
257.0855869196
 20
546.6549343957
 40
2.794
  0
CIRCLE
  5
445
100
AcDbEntity
  8
0
100
AcDbCircle
 62
7
  6
CONTINUOUS
 10
257.0855869196
 20
527.6049343957
 40
2.794
  0
CIRCLE
  5
446
100
AcDbEntity
  8
0
100
AcDbCircle
 62
7
  6
CONTINUOUS
 10
272.0715869196
 20
537.1299343957
 40
2.413
  0
ARC
  5
447
100
AcDbEntity
  8
0
100
AcDbCircle
 62
7
  6
CONTINUOUS
 10
256.6537869196
 20
539.9239343957
 40
2.0193
100
AcDbArc
 50
171.6693763689
 51
21.2084393709
  0
ARC
  5
448
100
AcDbEntity
  8
0
100
AcDbCircle
 62
7
  6
CONTINUOUS
 10
256.6916907476
 20
544.5372835397
 40
0.4624641167
100
AcDbArc
 50
193.5907773718
 51
194.9146571882
  0
ARC
  5
449
100
AcDbEntity
  8
0
100
AcDbCircle
 62
7
  6
CONTINUOUS
 10
340.8508458758
 20
446.4522234475
 40
51.1520867399
100
AcDbArc
 50
2.2258976829
 51
3.5418442217
  0
ARC
  5
44A
100
AcDbEntity
  8
0
100
AcDbCircle
 62
7
  6
CONTINUOUS
 10
342.5325428186
 20
445.6049288661
 40
49.4683721354
100
AcDbArc
 50
356.4357598438
 51
357.7964982516
  0
ARC
  5
44B
100
AcDbEntity
  8
0
100
AcDbCircle
 62
7
  6
CONTINUOUS
 10
369.1076934177
 20
441.8534223672
 40
21.8893909534
100
AcDbArc
 50
204.0471907831
 51
205.4913881899
  0
ARC
  5
44C
100
AcDbEntity
  8
0
100
AcDbCircle
 62
7
  6
CONTINUOUS
 10
368.6411102061
 20
450.5037347521
 40
21.3755758004
100
AcDbArc
 50
154.4912534794
 51
155.9713004994
  0
ARC
  5
44D
100
AcDbEntity
  8
0
100
AcDbCircle
 62
7
  6
CONTINUOUS
 10
365.4900575962
 20
453.8420236381
 40
19.0012244227
100
AcDbArc
 50
169.3512086678
 51
169.5439775985
  0
ARC
  5
44E
100
AcDbEntity
  8
0
100
AcDbCircle
 62
7
  6
CONTINUOUS
 10
364.9572976797
 20
433.3088578032
 40
15.6326310864
100
AcDbArc
 50
180.0732679233
 51
183.2126809743
  0
ARC
  5
44F
100
AcDbEntity
  8
0
100
AcDbCircle
 62
7
  6
CONTINUOUS
 10
364.9572591877
 20
458.8330142603
 40
15.6325924715
100
AcDbArc
 50
176.7873230929
 51
179.9268928189
  0
ARC
  5
450
100
AcDbEntity
  8
0
100
AcDbCircle
 62
7
  6
CONTINUOUS
 10
363.5635930233
 20
439.4862679645
 40
2.7642119271
100
AcDbArc
 50
340.6281314784
 51
340.8872034001
  0
ARC
  5
451
100
AcDbEntity
  8
0
100
AcDbCircle
 62
7
  6
CONTINUOUS
 10
363.5699608988
 20
452.6578253447
 40
2.7574664731
100
AcDbArc
 50
19.1325889689
 51
19.3893920107
  0
ARC
  5
452
100
AcDbEntity
  8
0
100
AcDbCircle
 62
7
  6
CONTINUOUS
 10
334.282397126
 20
453.8893893373
 40
0.1190450974
100
AcDbArc
 50
80.1899224484
 51
89.9536723286
  0
ARC
  5
453
100
AcDbEntity
  8
0
100
AcDbCircle
 62
7
  6
CONTINUOUS
 10
334.282397126
 20
438.2524794542
 40
0.1190450974
100
AcDbArc
 50
270.0463276709
 51
279.8100775517
  0
ARC
  5
454
100
AcDbEntity
  8
0
100
AcDbCircle
 62
7
  6
CONTINUOUS
 10
334.2825290052
 20
453.8903772707
 40
0.1180571305
100
AcDbArc
 50
90.0172885698
 51
97.0122628467
  0
ARC
  5
455
100
AcDbEntity
  8
0
100
AcDbCircle
 62
7
  6
CONTINUOUS
 10
334.2825290052
 20
438.2514915209
 40
0.1180571305
100
AcDbArc
 50
262.987737154
 51
269.9827114299
  0
ARC
  5
456
100
AcDbEntity
  8
0
100
AcDbCircle
 62
7
  6
CONTINUOUS
 10
365.0994572926
 20
453.890703506
 40
0.1176946328
100
AcDbArc
 50
87.1576716283
 51
89.9989751254
  0
ARC
  5
457
100
AcDbEntity
  8
0
100
AcDbCircle
 62
7
  6
CONTINUOUS
 10
365.099458902
 20
438.2511624773
 40
0.1176918246
100
AcDbArc
 50
270.0002429674
 51
272.815542405
  0
ARC
  5
458
100
AcDbEntity
  8
0
100
AcDbCircle
 62
7
  6
CONTINUOUS
 10
413.143668003
 20
550.1621805824
 40
157.0761778064
100
AcDbArc
 50
180.353363958
 51
180.50602516
  0
ARC
  5
459
100
AcDbEntity
  8
0
100
AcDbCircle
 62
7
  6
CONTINUOUS
 10
401.7413170708
 20
549.9916671903
 40
145.9357428402
100
AcDbArc
 50
180.5127819398
 51
180.9799534409
  0
SPLINE
  5
45A
100
AcDbEntity
  8
0
100
AcDbSpline
 62
7
  6
CONTINUOUS
 70
0
 71
3
 72
10
 73
6
 74
0
 42
0.0000001
 43
0.0000001
 44
0.0000000001
 40
0.0
 40
0.0
 40
0.0
 40
0.0
 40
0.1829415696
 40
0.4106761953
 40
1.0
 40
1.0
 40
1.0
 40
1.0
 10
167.0303906617
 20
440.6412553155
 30
0.0
 10
167.0497437102
 20
440.6758113523
 30
0.0
 10
167.0866041891
 20
440.7570299452
 30
0.0
 10
167.1574605387
 20
440.9617342048
 30
0.0
 10
167.1985537074
 20
441.134233685
 30
0.0
 10
167.2248524384
 20
441.259080746
 30
0.0
  0
SPLINE
  5
45B
100
AcDbEntity
  8
0
100
AcDbSpline
 62
7
  6
CONTINUOUS
 70
0
 71
3
 72
13
 73
9
 74
0
 42
0.0000001
 43
0.0000001
 44
0.0000000001
 40
0.0
 40
0.0
 40
0.0
 40
0.0
 40
0.0849718839
 40
0.1851352439
 40
0.2989085978
 40
0.4244348179
 40
0.7022292328
 40
1.0
 40
1.0
 40
1.0
 40
1.0
 10
167.2248524384
 20
441.259080746
 30
0.0
 10
167.2530514733
 20
441.3929490544
 30
0.0
 10
167.3051123658
 20
441.6865921444
 30
0.0
 10
167.370052319
 20
442.1635129675
 30
0.0
 10
167.4272015408
 20
442.7071326617
 30
0.0
 10
167.4937887869
 20
443.5370588348
 30
0.0
 10
167.5483259072
 20
444.6647936428
 30
0.0
 10
167.5627208768
 20
445.5915186632
 30
0.0
 10
167.5627208768
 20
446.0709343957
 30
0.0
  0
SPLINE
  5
45C
100
AcDbEntity
  8
0
100
AcDbSpline
 62
7
  6
CONTINUOUS
 70
0
 71
3
 72
13
 73
9
 74
0
 42
0.0000001
 43
0.0000001
 44
0.0000000001
 40
0.0
 40
0.0
 40
0.0
 40
0.0
 40
0.2977707672
 40
0.5755651821
 40
0.7010914022
 40
0.8148647561
 40
0.9150281161
 40
1.0
 40
1.0
 40
1.0
 40
1.0
 10
167.5627208768
 20
446.0709343957
 30
0.0
 10
167.5627208768
 20
446.5503501283
 30
0.0
 10
167.5483259072
 20
447.4770751487
 30
0.0
 10
167.4937887869
 20
448.6048099567
 30
0.0
 10
167.4272015408
 20
449.4347361298
 30
0.0
 10
167.370052319
 20
449.978355824
 30
0.0
 10
167.3051123658
 20
450.4552766471
 30
0.0
 10
167.2530514733
 20
450.7489197371
 30
0.0
 10
167.2248524384
 20
450.8827880455
 30
0.0
  0
SPLINE
  5
45D
100
AcDbEntity
  8
0
100
AcDbSpline
 62
7
  6
CONTINUOUS
 70
0
 71
3
 72
10
 73
6
 74
0
 42
0.0000001
 43
0.0000001
 44
0.0000000001
 40
0.0
 40
0.0
 40
0.0
 40
0.0
 40
0.5893238047
 40
0.8170584304
 40
1.0
 40
1.0
 40
1.0
 40
1.0
 10
167.2248524384
 20
450.8827880455
 30
0.0
 10
167.1985537074
 20
451.0076351065
 30
0.0
 10
167.1574605387
 20
451.1801345867
 30
0.0
 10
167.0866041891
 20
451.3848388463
 30
0.0
 10
167.0497437102
 20
451.4660574392
 30
0.0
 10
167.0303906617
 20
451.500613476
 30
0.0
  0
SPLINE
  5
45E
100
AcDbEntity
  8
0
100
AcDbSpline
 62
7
  6
CONTINUOUS
 70
0
 71
3
 72
9
 73
5
 74
0
 42
0.0000001
 43
0.0000001
 44
0.0000000001
 40
0.0
 40
0.0
 40
0.0
 40
0.0
 40
0.2425974364
 40
1.0
 40
1.0
 40
1.0
 40
1.0
 10
166.8784537889
 20
451.7719311312
 30
0.0
 10
166.8443250683
 20
451.8328777473
 30
0.0
 10
166.6973896428
 20
452.0806054614
 30
0.0
 10
166.5289259758
 20
452.3150914764
 30
0.0
 10
166.3944035112
 20
452.4867392621
 30
0.0
  0
SPLINE
  5
45F
100
AcDbEntity
  8
0
100
AcDbSpline
 62
7
  6
CONTINUOUS
 70
0
 71
3
 72
9
 73
5
 74
0
 42
0.0000001
 43
0.0000001
 44
0.0000000001
 40
0.0
 40
0.0
 40
0.0
 40
0.0
 40
0.2573288499
 40
1.0
 40
1.0
 40
1.0
 40
1.0
 10
163.4465771874
 20
439.6551295294
 30
0.0
 10
163.4008769762
 20
439.7134420207
 30
0.0
 10
163.2266206237
 20
439.9425755041
 30
0.0
 10
163.0669970074
 20
440.1833763281
 30
0.0
 10
162.9625269057
 20
440.3699376598
 30
0.0
  0
SPLINE
  5
460
100
AcDbEntity
  8
0
100
AcDbSpline
 62
7
  6
CONTINUOUS
 70
0
 71
3
 72
10
 73
6
 74
0
 42
0.0000001
 43
0.0000001
 44
0.0000000001
 40
0.0
 40
0.0
 40
0.0
 40
0.0
 40
0.2055089941
 40
0.4424589039
 40
1.0
 40
1.0
 40
1.0
 40
1.0
 10
162.6161282603
 20
441.2590807458
 30
0.0
 10
162.5931528838
 20
441.3681509602
 30
0.0
 10
162.5499112383
 20
441.6042951845
 30
0.0
 10
162.4713496624
 20
442.1410194619
 30
0.0
 10
162.4273695322
 20
442.5699114011
 30
0.0
 10
162.4015588545
 20
442.8712065704
 30
0.0
  0
SPLINE
  5
461
100
AcDbEntity
  8
0
100
AcDbSpline
 62
7
  6
CONTINUOUS
 70
0
 71
3
 72
10
 73
6
 74
0
 42
0.0000001
 43
0.0000001
 44
0.0000000001
 40
0.0
 40
0.0
 40
0.0
 40
0.0
 40
0.5575410961
 40
0.7944910059
 40
1.0
 40
1.0
 40
1.0
 40
1.0
 10
162.4015588545
 20
449.2706622211
 30
0.0
 10
162.4273695322
 20
449.5719573904
 30
0.0
 10
162.4713496624
 20
450.0008493296
 30
0.0
 10
162.5499112383
 20
450.537573607
 30
0.0
 10
162.5931528838
 20
450.7737178313
 30
0.0
 10
162.6161282603
 20
450.8827880457
 30
0.0
  0
SPLINE
  5
462
100
AcDbEntity
  8
0
100
AcDbSpline
 62
7
  6
CONTINUOUS
 70
0
 71
3
 72
10
 73
6
 74
0
 42
0.0000001
 43
0.0000001
 44
0.0000000001
 40
0.0
 40
0.0
 40
0.0
 40
0.0
 40
0.5893238047
 40
0.8170584303
 40
1.0
 40
1.0
 40
1.0
 40
1.0
 10
162.6161282603
 20
450.8827880457
 30
0.0
 10
162.6424269912
 20
451.0076351067
 30
0.0
 10
162.68352016
 20
451.1801345868
 30
0.0
 10
162.7543765095
 20
451.3848388463
 30
0.0
 10
162.7912369884
 20
451.4660574392
 30
0.0
 10
162.8105900369
 20
451.500613476
 30
0.0
  0
SPLINE
  5
463
100
AcDbEntity
  8
0
100
AcDbSpline
 62
7
  6
CONTINUOUS
 70
0
 71
3
 72
16
 73
12
 74
0
 42
0.0000001
 43
0.0000001
 44
0.0000000001
 40
0.0
 40
0.0
 40
0.0
 40
0.0
 40
0.3374959666
 40
0.4943043783
 40
0.6371748829
 40
0.7621423505
 40
0.8658106059
 40
0.9088108623
 40
0.9455795347
 40
0.9759782706
 40
1.0
 40
1.0
 40
1.0
 40
1.0
 10
163.3864682999
 20
446.0709343957
 30
0.0
 10
163.3864682999
 20
446.4654563727
 30
0.0
 10
163.3751948104
 20
447.0434106923
 30
0.0
 10
163.3350782108
 20
447.7872188931
 30
0.0
 10
163.2952743429
 20
448.2821003358
 30
0.0
 10
163.2462850431
 20
448.7136792111
 30
0.0
 10
163.1967999581
 20
449.027538415
 30
0.0
 10
163.1519485367
 20
449.2372774807
 30
0.0
 10
163.1191540305
 20
449.3618944388
 30
0.0
 10
163.0854066973
 20
449.4630723796
 30
0.0
 10
163.059496433
 20
449.5214246576
 30
0.0
 10
163.0457768711
 20
449.5459255869
 30
0.0
  0
SPLINE
  5
464
100
AcDbEntity
  8
0
100
AcDbSpline
 62
7
  6
CONTINUOUS
 70
0
 71
3
 72
16
 73
12
 74
0
 42
0.0000001
 43
0.0000001
 44
0.0000000001
 40
0.0
 40
0.0
 40
0.0
 40
0.0
 40
0.0240218614
 40
0.0544202673
 40
0.0911887155
 40
0.1341884532
 40
0.2378554285
 40
0.362821412
 40
0.5056908482
 40
0.6624991579
 40
1.0
 40
1.0
 40
1.0
 40
1.0
 10
163.0457768858
 20
442.5959426339
 30
0.0
 10
163.0594963585
 20
442.6204437948
 30
0.0
 10
163.0854063066
 20
442.6787959411
 30
0.0
 10
163.1191540181
 20
442.779973251
 30
0.0
 10
163.151947949
 20
442.9045890951
 30
0.0
 10
163.1967992761
 20
443.1143257815
 30
0.0
 10
163.2462838654
 20
443.4281812399
 30
0.0
 10
163.2952731263
 20
443.8597556658
 30
0.0
 10
163.3350771489
 20
444.3546340614
 30
0.0
 10
163.375194571
 20
445.0984466661
 30
0.0
 10
163.3864682999
 20
445.6764066604
 30
0.0
 10
163.3864682999
 20
446.0709343957
 30
0.0
  0
SPLINE
  5
465
100
AcDbEntity
  8
0
100
AcDbSpline
 62
7
  6
CONTINUOUS
 70
0
 71
3
 72
9
 73
5
 74
0
 42
0.0000001
 43
0.0000001
 44
0.0000000001
 40
0.0
 40
0.0
 40
0.0
 40
0.0
 40
0.2425974723
 40
1.0
 40
1.0
 40
1.0
 40
1.0
 10
162.9625269175
 20
451.7719311305
 30
0.0
 10
162.9966556566
 20
451.8328777473
 30
0.0
 10
163.1435911693
 20
452.0806054047
 30
0.0
 10
163.3120547304
 20
452.3150914861
 30
0.0
 10
163.4465771874
 20
452.4867392621
 30
0.0
  0
SPLINE
  5
466
100
AcDbEntity
  8
0
100
AcDbSpline
 62
7
  6
CONTINUOUS
 70
0
 71
3
 72
10
 73
6
 74
0
 42
0.0000001
 43
0.0000001
 44
0.0000000001
 40
0.0
 40
0.0
 40
0.0
 40
0.0
 40
0.1829415697
 40
0.4106761953
 40
1.0
 40
1.0
 40
1.0
 40
1.0
 10
162.8105900369
 20
440.6412553155
 30
0.0
 10
162.7912369884
 20
440.6758113523
 30
0.0
 10
162.7543765095
 20
440.7570299452
 30
0.0
 10
162.68352016
 20
440.9617342047
 30
0.0
 10
162.6424269912
 20
441.1342336848
 30
0.0
 10
162.6161282603
 20
441.2590807458
 30
0.0
  0
SPLINE
  5
467
100
AcDbEntity
  8
0
100
AcDbSpline
 62
7
  6
CONTINUOUS
 70
0
 71
3
 72
9
 73
5
 74
0
 42
0.0000001
 43
0.0000001
 44
0.0000000001
 40
0.0
 40
0.0
 40
0.0
 40
0.0
 40
0.2573288176
 40
1.0
 40
1.0
 40
1.0
 40
1.0
 10
166.3944035112
 20
439.6551295294
 30
0.0
 10
166.4401037163
 20
439.713442013
 30
0.0
 10
166.6143599927
 20
439.9425755522
 30
0.0
 10
166.7739836378
 20
440.1833763455
 30
0.0
 10
166.8784537849
 20
440.3699376605
 30
0.0
  0
SPLINE
  5
468
100
AcDbEntity
  8
0
100
AcDbSpline
 62
7
  6
CONTINUOUS
 70
0
 71
3
 72
17
 73
13
 74
0
 42
0.0000001
 43
0.0000001
 44
0.0000000001
 40
0.0
 40
0.0
 40
0.0
 40
0.0
 40
0.1146317404
 40
0.1595166559
 40
0.1978487979
 40
0.2320456492
 40
0.2654697189
 40
0.3430155846
 40
0.4502532922
 40
0.594338958
 40
0.7774934143
 40
1.0
 40
1.0
 40
1.0
 40
1.0
 10
163.0457768711
 20
449.5459255869
 30
0.0
 10
163.0358161042
 20
449.5637139133
 30
0.0
 10
163.0202631542
 20
449.5878875087
 30
0.0
 10
162.9946095669
 20
449.6122292958
 30
0.0
 10
162.9765399912
 20
449.6231357453
 30
0.0
 10
162.9579514053
 20
449.6278639976
 30
0.0
 10
162.9317196608
 20
449.6251131046
 30
0.0
 10
162.8984429442
 20
449.6017104354
 30
0.0
 10
162.8645515997
 20
449.55372634
 30
0.0
 10
162.8308650297
 20
449.4838769608
 30
0.0
 10
162.7980163102
 20
449.391692647
 30
0.0
 10
162.7784940259
 20
449.3221851221
 30
0.0
 10
162.7686642692
 20
449.28385254
 30
0.0
  0
SPLINE
  5
469
100
AcDbEntity
  8
0
100
AcDbSpline
 62
7
  6
CONTINUOUS
 70
0
 71
3
 72
10
 73
6
 74
0
 42
0.0000001
 43
0.0000001
 44
0.0000000001
 40
0.0
 40
0.0
 40
0.0
 40
0.0
 40
0.2500986061
 40
0.5001758282
 40
1.0
 40
1.0
 40
1.0
 40
1.0
 10
163.6297335756
 20
446.0709343957
 30
0.0
 10
163.6297335756
 20
445.7995842266
 30
0.0
 10
163.6527171746
 20
445.2566237233
 30
0.0
 10
163.7862434149
 20
444.179009436
 30
0.0
 10
163.972939781
 20
443.3843493716
 30
0.0
 10
164.1223140642
 20
442.8630319626
 30
0.0
  0
SPLINE
  5
46A
100
AcDbEntity
  8
0
100
AcDbSpline
 62
7
  6
CONTINUOUS
 70
0
 71
3
 72
11
 73
7
 74
0
 42
0.0000001
 43
0.0000001
 44
0.0000000001
 40
0.0
 40
0.0
 40
0.0
 40
0.0
 40
0.2675274955
 40
0.5234674875
 40
0.7672232857
 40
1.0
 40
1.0
 40
1.0
 40
1.0
 10
164.1223140642
 20
442.8630319626
 30
0.0
 10
164.0221430933
 20
442.7352159475
 30
0.0
 10
163.8339014946
 20
442.4788202039
 30
0.0
 10
163.5913056533
 20
442.0803879667
 30
0.0
 10
163.4041867962
 20
441.6758061557
 30
0.0
 10
163.3209900395
 20
441.3973443934
 30
0.0
 10
163.2918651371
 20
441.2590807459
 30
0.0
  0
SPLINE
  5
46B
100
AcDbEntity
  8
0
100
AcDbSpline
 62
7
  6
CONTINUOUS
 70
0
 71
3
 72
13
 73
9
 74
0
 42
0.0000001
 43
0.0000001
 44
0.0000000001
 40
0.0
 40
0.0
 40
0.0
 40
0.0
 40
0.0849718839
 40
0.1851352439
 40
0.2989085978
 40
0.4244348179
 40
0.7022292328
 40
1.0
 40
1.0
 40
1.0
 40
1.0
 10
163.2918651371
 20
450.8827880457
 30
0.0
 10
163.320064172
 20
450.7489197372
 30
0.0
 10
163.3721250645
 20
450.4552766472
 30
0.0
 10
163.4370650178
 20
449.9783558242
 30
0.0
 10
163.4942142395
 20
449.4347361299
 30
0.0
 10
163.5608014856
 20
448.6048099568
 30
0.0
 10
163.615338606
 20
447.4770751487
 30
0.0
 10
163.6297335756
 20
446.5503501283
 30
0.0
 10
163.6297335756
 20
446.0709343957
 30
0.0
  0
SPLINE
  5
46C
100
AcDbEntity
  8
0
100
AcDbSpline
 62
7
  6
CONTINUOUS
 70
0
 71
3
 72
13
 73
9
 74
0
 42
0.0000001
 43
0.0000001
 44
0.0000000001
 40
0.0
 40
0.0
 40
0.0
 40
0.0
 40
0.2977707672
 40
0.5755651821
 40
0.7010914022
 40
0.8148647561
 40
0.9150281161
 40
1.0
 40
1.0
 40
1.0
 40
1.0
 10
163.6297335756
 20
446.0709343957
 30
0.0
 10
163.6297335756
 20
445.5915186632
 30
0.0
 10
163.615338606
 20
444.6647936428
 30
0.0
 10
163.5608014856
 20
443.5370588347
 30
0.0
 10
163.4942142395
 20
442.7071326616
 30
0.0
 10
163.4370650178
 20
442.1635129673
 30
0.0
 10
163.3721250645
 20
441.6865921443
 30
0.0
 10
163.320064172
 20
441.3929490543
 30
0.0
 10
163.2918651371
 20
441.2590807458
 30
0.0
  0
SPLINE
  5
46D
100
AcDbEntity
  8
0
100
AcDbSpline
 62
7
  6
CONTINUOUS
 70
0
 71
3
 72
18
 73
14
 74
0
 42
0.0000001
 43
0.0000001
 44
0.0000000001
 40
0.0
 40
0.0
 40
0.0
 40
0.0
 40
0.2306501036
 40
0.4224220363
 40
0.5746395719
 40
0.6882371835
 40
0.7318273966
 40
0.7680862123
 40
0.7993244573
 40
0.829086257
 40
0.8614217317
 40
0.8995479683
 40
1.0
 40
1.0
 40
1.0
 40
1.0
 10
163.2918651371
 20
441.2590807458
 30
0.0
 10
163.2752597675
 20
441.180250646
 30
0.0
 10
163.2420658548
 20
441.0364471085
 30
0.0
 10
163.1857629705
 20
440.8435615307
 30
0.0
 10
163.1279605208
 20
440.6944595021
 30
0.0
 10
163.0752704249
 20
440.5990355028
 30
0.0
 10
163.0302758528
 20
440.5482064541
 30
0.0
 10
162.9987939116
 20
440.5248588301
 30
0.0
 10
162.9660510711
 20
440.51341754
 30
0.0
 10
162.9326576147
 20
440.5153266981
 30
0.0
 10
162.9002872594
 20
440.5302301156
 30
0.0
 10
162.8545070933
 20
440.5692505334
 30
0.0
 10
162.8277339435
 20
440.610643835
 30
0.0
 10
162.8105900369
 20
440.6412553155
 30
0.0
  0
SPLINE
  5
46E
100
AcDbEntity
  8
0
100
AcDbSpline
 62
7
  6
CONTINUOUS
 70
0
 71
3
 72
17
 73
13
 74
0
 42
0.0000001
 43
0.0000001
 44
0.0000000001
 40
0.0
 40
0.0
 40
0.0
 40
0.0
 40
0.222439951
 40
0.4055296625
 40
0.5495534508
 40
0.6567486612
 40
0.7342872967
 40
0.7677314223
 40
0.8019625524
 40
0.8403388011
 40
0.8852717725
 40
1.0
 40
1.0
 40
1.0
 40
1.0
 10
162.7688668516
 20
442.8572267012
 30
0.0
 10
162.7786909921
 20
442.8189672897
 30
0.0
 10
162.7982020024
 20
442.7495954486
 30
0.0
 10
162.8310286866
 20
442.6575975256
 30
0.0
 10
162.8646941071
 20
442.5879034631
 30
0.0
 10
162.8985629731
 20
442.5400333093
 30
0.0
 10
162.9318220684
 20
442.5167198459
 30
0.0
 10
162.9580258158
 20
442.5140119375
 30
0.0
 10
162.9765969164
 20
442.5187586625
 30
0.0
 10
162.9946498525
 20
442.5296727625
 30
0.0
 10
163.0202800311
 20
442.5540087639
 30
0.0
 10
163.0358230811
 20
442.5781664572
 30
0.0
 10
163.0457768858
 20
442.5959426339
 30
0.0
  0
SPLINE
  5
46F
100
AcDbEntity
  8
0
100
AcDbSpline
 62
7
  6
CONTINUOUS
 70
0
 71
3
 72
11
 73
7
 74
0
 42
0.0000001
 43
0.0000001
 44
0.0000000001
 40
0.0
 40
0.0
 40
0.0
 40
0.0
 40
0.2327767765
 40
0.4765325832
 40
0.7324725842
 40
1.0
 40
1.0
 40
1.0
 40
1.0
 10
163.2918651371
 20
450.8827880455
 30
0.0
 10
163.3209900472
 20
450.7445243616
 30
0.0
 10
163.4041868337
 20
450.4660625679
 30
0.0
 10
163.591305656
 20
450.0614806806
 30
0.0
 10
163.8339016983
 20
449.6630486154
 30
0.0
 10
164.0221431235
 20
449.4066528055
 30
0.0
 10
164.1223140642
 20
449.2788368289
 30
0.0
  0
SPLINE
  5
470
100
AcDbEntity
  8
0
100
AcDbSpline
 62
7
  6
CONTINUOUS
 70
0
 71
3
 72
10
 73
6
 74
0
 42
0.0000001
 43
0.0000001
 44
0.0000000001
 40
0.0
 40
0.0
 40
0.0
 40
0.0
 40
0.4998242353
 40
0.74990144
 40
1.0
 40
1.0
 40
1.0
 40
1.0
 10
164.1223140642
 20
449.2788368289
 30
0.0
 10
163.972939762
 20
448.7575193534
 30
0.0
 10
163.7862440229
 20
447.962859143
 30
0.0
 10
163.6527166455
 20
446.8852449851
 30
0.0
 10
163.6297335756
 20
446.342284515
 30
0.0
 10
163.6297335756
 20
446.0709343957
 30
0.0
  0
SPLINE
  5
471
100
AcDbEntity
  8
0
100
AcDbSpline
 62
7
  6
CONTINUOUS
 70
0
 71
3
 72
18
 73
14
 74
0
 42
0.0000001
 43
0.0000001
 44
0.0000000001
 40
0.0
 40
0.0
 40
0.0
 40
0.0
 40
0.1004520317
 40
0.1385782683
 40
0.170913743
 40
0.2006755427
 40
0.2319137877
 40
0.2681726034
 40
0.3117628165
 40
0.4253604281
 40
0.5775779637
 40
0.7693498964
 40
1.0
 40
1.0
 40
1.0
 40
1.0
 10
162.8105900369
 20
451.500613476
 30
0.0
 10
162.8277339435
 20
451.5312249565
 30
0.0
 10
162.8545070933
 20
451.5726182581
 30
0.0
 10
162.9002872594
 20
451.6116386759
 30
0.0
 10
162.9326576147
 20
451.6265420933
 30
0.0
 10
162.9660510711
 20
451.6284512515
 30
0.0
 10
162.9987939116
 20
451.6170099614
 30
0.0
 10
163.0302758528
 20
451.5936623374
 30
0.0
 10
163.0752704249
 20
451.5428332887
 30
0.0
 10
163.1279605208
 20
451.4474092893
 30
0.0
 10
163.1857629705
 20
451.2983072608
 30
0.0
 10
163.2420658548
 20
451.105421683
 30
0.0
 10
163.2752597675
 20
450.9616181455
 30
0.0
 10
163.2918651371
 20
450.8827880457
 30
0.0
  0
SPLINE
  5
472
100
AcDbEntity
  8
0
100
AcDbSpline
 62
7
  6
CONTINUOUS
 70
0
 71
3
 72
9
 73
5
 74
0
 42
0.0000001
 43
0.0000001
 44
0.0000000001
 40
0.0
 40
0.0
 40
0.0
 40
0.0
 40
0.5128038222
 40
1.0
 40
1.0
 40
1.0
 40
1.0
 10
166.8784537849
 20
440.3699376605
 30
0.0
 10
166.9583797934
 20
440.512668399
 30
0.0
 10
167.0984164193
 20
440.8004547331
 30
0.0
 10
167.1928173209
 20
441.1070015349
 30
0.0
 10
167.2248524383
 20
441.259080746
 30
0.0
  0
SPLINE
  5
473
100
AcDbEntity
  8
0
100
AcDbSpline
 62
7
  6
CONTINUOUS
 70
0
 71
3
 72
9
 73
5
 74
0
 42
0.0000001
 43
0.0000001
 44
0.0000000001
 40
0.0
 40
0.0
 40
0.0
 40
0.0
 40
0.4871962539
 40
1.0
 40
1.0
 40
1.0
 40
1.0
 10
167.2248524384
 20
450.8827880455
 30
0.0
 10
167.192817316
 20
451.0348672799
 30
0.0
 10
167.0984164132
 20
451.341414084
 30
0.0
 10
166.9583797573
 20
451.6292003985
 30
0.0
 10
166.8784537889
 20
451.7719311312
 30
0.0
  0
SPLINE
  5
474
100
AcDbEntity
  8
0
100
AcDbSpline
 62
7
  6
CONTINUOUS
 70
0
 71
3
 72
11
 73
7
 74
0
 42
0.0000001
 43
0.0000001
 44
0.0000000001
 40
0.0
 40
0.0
 40
0.0
 40
0.0
 40
0.2511978317
 40
0.4988810284
 40
0.7475474639
 40
1.0
 40
1.0
 40
1.0
 40
1.0
 10
163.2918651371
 20
441.2590807459
 30
0.0
 10
163.2636984152
 20
441.1253658358
 30
0.0
 10
163.2290420797
 20
440.8547317123
 30
0.0
 10
163.2441295281
 20
440.446743523
 30
0.0
 10
163.3185110474
 20
440.0450445588
 30
0.0
 10
163.3997840401
 20
439.7842436188
 30
0.0
 10
163.4465771874
 20
439.6551295294
 30
0.0
  0
SPLINE
  5
475
100
AcDbEntity
  8
0
100
AcDbSpline
 62
7
  6
CONTINUOUS
 70
0
 71
3
 72
10
 73
6
 74
0
 42
0.0000001
 43
0.0000001
 44
0.0000000001
 40
0.0
 40
0.0
 40
0.0
 40
0.0
 40
0.2500986154
 40
0.5001758243
 40
1.0
 40
1.0
 40
1.0
 40
1.0
 10
167.5627208768
 20
446.0709343957
 30
0.0
 10
167.5627208768
 20
446.3422845751
 30
0.0
 10
167.5397378094
 20
446.8852451109
 30
0.0
 10
167.4062103815
 20
447.9628592624
 30
0.0
 10
167.2195146725
 20
448.7575194157
 30
0.0
 10
167.0701403881
 20
449.2788368289
 30
0.0
  0
SPLINE
  5
476
100
AcDbEntity
  8
0
100
AcDbSpline
 62
7
  6
CONTINUOUS
 70
0
 71
3
 72
11
 73
7
 74
0
 42
0.0000001
 43
0.0000001
 44
0.0000000001
 40
0.0
 40
0.0
 40
0.0
 40
0.0
 40
0.252452583
 40
0.501119045
 40
0.7488022367
 40
1.0
 40
1.0
 40
1.0
 40
1.0
 10
167.0701403881
 20
449.2788368289
 30
0.0
 10
167.1169335441
 20
449.4079509422
 30
0.0
 10
167.1982065669
 20
449.6687519156
 30
0.0
 10
167.2725880528
 20
450.0704509256
 30
0.0
 10
167.287675478
 20
450.4784390881
 30
0.0
 10
167.2530191526
 20
450.7490731718
 30
0.0
 10
167.2248524384
 20
450.8827880455
 30
0.0
  0
SPLINE
  5
477
100
AcDbEntity
  8
0
100
AcDbSpline
 62
7
  6
CONTINUOUS
 70
0
 71
3
 72
11
 73
7
 74
0
 42
0.0000001
 43
0.0000001
 44
0.0000000001
 40
0.0
 40
0.0
 40
0.0
 40
0.0
 40
0.2511978335
 40
0.498881027
 40
0.7475474499
 40
1.0
 40
1.0
 40
1.0
 40
1.0
 10
167.2248524383
 20
441.259080746
 30
0.0
 10
167.2530191607
 20
441.392795658
 30
0.0
 10
167.2876755252
 20
441.6634297849
 30
0.0
 10
167.2725879761
 20
442.0714179548
 30
0.0
 10
167.1982067136
 20
442.4731169723
 30
0.0
 10
167.1169335383
 20
442.7339178652
 30
0.0
 10
167.0701403881
 20
442.8630319626
 30
0.0
  0
SPLINE
  5
478
100
AcDbEntity
  8
0
100
AcDbSpline
 62
7
  6
CONTINUOUS
 70
0
 71
3
 72
10
 73
6
 74
0
 42
0.0000001
 43
0.0000001
 44
0.0000000001
 40
0.0
 40
0.0
 40
0.0
 40
0.0
 40
0.4998242396
 40
0.7499014568
 40
1.0
 40
1.0
 40
1.0
 40
1.0
 10
167.0701403881
 20
442.8630319626
 30
0.0
 10
167.2195146916
 20
443.3843494423
 30
0.0
 10
167.4062110792
 20
444.1790095737
 30
0.0
 10
167.5397372755
 20
445.2566238661
 30
0.0
 10
167.5627208768
 20
445.7995842948
 30
0.0
 10
167.5627208768
 20
446.0709343957
 30
0.0
  0
SPLINE
  5
479
100
AcDbEntity
  8
0
100
AcDbSpline
 62
7
  6
CONTINUOUS
 70
0
 71
3
 72
11
 73
7
 74
0
 42
0.0000001
 43
0.0000001
 44
0.0000000001
 40
0.0
 40
0.0
 40
0.0
 40
0.0
 40
0.2524525968
 40
0.5011190463
 40
0.7488022346
 40
1.0
 40
1.0
 40
1.0
 40
1.0
 10
163.4465771874
 20
452.4867392621
 30
0.0
 10
163.3997840285
 20
452.3576251409
 30
0.0
 10
163.318510822
 20
452.096824215
 30
0.0
 10
163.2441295937
 20
451.6951251516
 30
0.0
 10
163.2290420678
 20
451.2871370086
 30
0.0
 10
163.2636984224
 20
451.0165029213
 30
0.0
 10
163.2918651371
 20
450.8827880455
 30
0.0
  0
SPLINE
  5
47A
100
AcDbEntity
  8
0
100
AcDbSpline
 62
7
  6
CONTINUOUS
 70
0
 71
3
 72
16
 73
12
 74
0
 42
0.0000001
 43
0.0000001
 44
0.0000000001
 40
0.0
 40
0.0
 40
0.0
 40
0.0
 40
0.2090086609
 40
0.3938506246
 40
0.5538965245
 40
0.6887960423
 40
0.7986863594
 40
0.8845227663
 40
0.919271615
 40
0.9493735036
 40
1.0
 40
1.0
 40
1.0
 40
1.0
 10
346.8160656968
 20
457.3532280051
 30
0.0
 10
346.8471339921
 20
457.5184521714
 30
0.0
 10
346.9098199186
 20
457.8290479815
 30
0.0
 10
347.0133080598
 20
458.2625232681
 30
0.0
 10
347.1199801983
 20
458.6335704335
 30
0.0
 10
347.2291875001
 20
458.9407208336
 30
0.0
 10
347.3403606336
 20
459.1826670174
 30
0.0
 10
347.4402605469
 20
459.3403089359
 30
0.0
 10
347.5238448742
 20
459.4288216641
 30
0.0
 10
347.5975825287
 20
459.4854383971
 30
0.0
 10
347.6628317158
 20
459.5075159399
 30
0.0
 10
347.7035540282
 20
459.5075158568
 30
0.0
  0
SPLINE
  5
47B
100
AcDbEntity
  8
0
100
AcDbSpline
 62
7
  6
CONTINUOUS
 70
0
 71
3
 72
9
 73
5
 74
0
 42
0.0000001
 43
0.0000001
 44
0.0000000001
 40
0.0
 40
0.0
 40
0.0
 40
0.0
 40
0.2398110648
 40
1.0
 40
1.0
 40
1.0
 40
1.0
 10
348.900844978
 20
441.0547933641
 30
0.0
 10
348.9171126975
 20
441.3173149099
 30
0.0
 10
348.9782486377
 20
442.4124271422
 30
0.0
 10
349.0147037928
 20
443.5088683929
 30
0.0
 10
349.03076127
 20
444.3424899915
 30
0.0
  0
SPLINE
  5
47C
100
AcDbEntity
  8
0
100
AcDbSpline
 62
7
  6
CONTINUOUS
 70
0
 71
3
 72
9
 73
5
 74
0
 42
0.0000001
 43
0.0000001
 44
0.0000000001
 40
0.0
 40
0.0
 40
0.0
 40
0.0
 40
0.2574079552
 40
1.0
 40
1.0
 40
1.0
 40
1.0
 10
349.03076127
 20
447.7993788
 30
0.0
 10
349.0258357657
 20
448.0550856373
 30
0.0
 10
349.0023266066
 20
449.048382936
 30
0.0
 10
348.961450606
 20
450.0413079104
 30
0.0
 10
348.9192694019
 20
450.7779225337
 30
0.0
  0
SPLINE
  5
47D
100
AcDbEntity
  8
0
100
AcDbSpline
 62
7
  6
CONTINUOUS
 70
0
 71
3
 72
11
 73
7
 74
0
 42
0.0000001
 43
0.0000001
 44
0.0000000001
 40
0.0
 40
0.0
 40
0.0
 40
0.0
 40
0.2773577983
 40
0.5434720658
 40
0.7876139762
 40
1.0
 40
1.0
 40
1.0
 40
1.0
 10
350.4974058893
 20
446.0709343957
 30
0.0
 10
350.4974058893
 20
446.9745927878
 30
0.0
 10
350.4758892176
 20
448.7453537349
 30
0.0
 10
350.3799441401
 20
451.3099928331
 30
0.0
 10
350.2248642782
 20
453.6596279394
 30
0.0
 10
350.0751270234
 20
455.1400340142
 30
0.0
 10
349.986999307
 20
455.8263733327
 30
0.0
  0
SPLINE
  5
47E
100
AcDbEntity
  8
0
100
AcDbSpline
 62
7
  6
CONTINUOUS
 70
0
 71
3
 72
9
 73
5
 74
0
 42
0.0000001
 43
0.0000001
 44
0.0000000001
 40
0.0
 40
0.0
 40
0.0
 40
0.0
 40
0.2624728381
 40
1.0
 40
1.0
 40
1.0
 40
1.0
 10
349.986999307
 20
455.8263733327
 30
0.0
 10
349.9756123127
 20
455.9150553303
 30
0.0
 10
349.930990571
 20
456.2527643029
 30
0.0
 10
349.8812896944
 20
456.5898175792
 30
0.0
 10
349.8408984945
 20
456.8377844279
 30
0.0
  0
SPLINE
  5
47F
100
AcDbEntity
  8
0
100
AcDbSpline
 62
7
  6
CONTINUOUS
 70
0
 71
3
 72
17
 73
13
 74
0
 42
0.0000001
 43
0.0000001
 44
0.0000000001
 40
0.0
 40
0.0
 40
0.0
 40
0.0
 40
0.2091030303
 40
0.3940500822
 40
0.5541824768
 40
0.6891273443
 40
0.7989929117
 40
0.8847053342
 40
0.9193431215
 40
0.9492971832
 40
0.9756498668
 40
1.0
 40
1.0
 40
1.0
 40
1.0
 10
349.7592408739
 20
457.3078697145
 30
0.0
 10
349.7279614439
 20
457.476481805
 30
0.0
 10
349.6648195239
 20
457.7934793904
 30
0.0
 10
349.5604926102
 20
458.2359634705
 30
0.0
 10
349.4528824026
 20
458.6148017188
 30
0.0
 10
349.3426300891
 20
458.9284480012
 30
0.0
 10
349.2304305968
 20
459.1755311148
 30
0.0
 10
349.1293786803
 20
459.3365820936
 30
0.0
 10
349.0450946805
 20
459.4270790947
 30
0.0
 10
348.9856135765
 20
459.4728282705
 30
0.0
 10
348.9250450055
 20
459.5010163334
 30
0.0
 10
348.8832510051
 20
459.5075158976
 30
0.0
 10
348.8632810537
 20
459.5075158568
 30
0.0
  0
SPLINE
  5
480
100
AcDbEntity
  8
0
100
AcDbSpline
 62
7
  6
CONTINUOUS
 70
0
 71
3
 72
23
 73
19
 74
0
 42
0.0000001
 43
0.0000001
 44
0.0000000001
 40
0.0
 40
0.0
 40
0.0
 40
0.0
 40
0.0059561188
 40
0.0127682374
 40
0.021023987
 40
0.0310489696
 40
0.0430149794
 40
0.0570052737
 40
0.0911688101
 40
0.1335548077
 40
0.183921728
 40
0.2418812819
 40
0.3069377001
 40
0.37850984
 40
0.4559425373
 40
0.6254487553
 40
0.8091076102
 40
1.0
 40
1.0
 40
1.0
 40
1.0
 10
348.8632810529
 20
432.6343529347
 30
0.0
 10
348.8905470791
 20
432.6343529903
 30
0.0
 10
348.9493811362
 20
432.6471791803
 30
0.0
 10
349.0313267119
 20
432.7001501542
 30
0.0
 10
349.1108260383
 20
432.7840208257
 30
0.0
 10
349.1890980167
 20
432.8987116979
 30
0.0
 10
349.266524638
 20
433.0443583671
 30
0.0
 10
349.3759699356
 20
433.2971077129
 30
0.0
 10
349.5050730988
 20
433.6917231132
 30
0.0
 10
349.646791357
 20
434.2553994998
 30
0.0
 10
349.7817908456
 20
434.932237225
 30
0.0
 10
349.9086728648
 20
435.7158675445
 30
0.0
 10
350.0259688717
 20
436.5990008661
 30
0.0
 10
350.1324628388
 20
437.5732038017
 30
0.0
 10
350.262455525
 20
439.025558012
 30
0.0
 10
350.3872246538
 20
440.9931521562
 30
0.0
 10
350.4772623906
 20
443.4823564869
 30
0.0
 10
350.4974058893
 20
445.1970638307
 30
0.0
 10
350.4974058893
 20
446.0709343957
 30
0.0
  0
SPLINE
  5
481
100
AcDbEntity
  8
0
100
AcDbSpline
 62
7
  6
CONTINUOUS
 70
0
 71
3
 72
11
 73
7
 74
0
 42
0.0000001
 43
0.0000001
 44
0.0000000001
 40
0.0
 40
0.0
 40
0.0
 40
0.0
 40
0.2742272044
 40
0.5385231299
 40
0.7833743981
 40
1.0
 40
1.0
 40
1.0
 40
1.0
 10
349.3376788646
 20
446.0709343957
 30
0.0
 10
349.3376788646
 20
445.2165082686
 30
0.0
 10
349.3183831112
 20
443.5385338629
 30
0.0
 10
349.2322253545
 20
441.098992129
 30
0.0
 10
349.092484344
 20
438.8417163346
 30
0.0
 10
348.9580040548
 20
437.4097519653
 30
0.0
 10
348.8793143393
 20
436.7394013317
 30
0.0
  0
SPLINE
  5
482
100
AcDbEntity
  8
0
100
AcDbSpline
 62
7
  6
CONTINUOUS
 70
0
 71
3
 72
17
 73
13
 74
0
 42
0.0000001
 43
0.0000001
 44
0.0000000001
 40
0.0
 40
0.0
 40
0.0
 40
0.0
 40
0.0242732849
 40
0.0505587542
 40
0.0804602964
 40
0.1150610534
 40
0.2007409988
 40
0.3106174504
 40
0.4456051723
 40
0.6058008312
 40
0.7908226808
 40
1.0
 40
1.0
 40
1.0
 40
1.0
 10
347.7035540282
 20
459.5075158568
 30
0.0
 10
347.7236108075
 20
459.5075158159
 30
0.0
 10
347.7656009286
 20
459.500955334
 30
0.0
 10
347.8264307536
 20
459.4725171519
 30
0.0
 10
347.8861585097
 20
459.4263748631
 30
0.0
 10
347.9708083937
 20
459.3350856097
 30
0.0
 10
348.072264319
 20
459.1726609173
 30
0.0
 10
348.1848964652
 20
458.9235151871
 30
0.0
 10
348.2955557534
 20
458.6072586407
 30
0.0
 10
348.4035416071
 20
458.2252913096
 30
0.0
 10
348.508199663
 20
457.779189923
 30
0.0
 10
348.5715220819
 20
457.4596222878
 30
0.0
 10
348.6028846789
 20
457.2896503415
 30
0.0
  0
SPLINE
  5
483
100
AcDbEntity
  8
0
100
AcDbSpline
 62
7
  6
CONTINUOUS
 70
0
 71
3
 72
9
 73
5
 74
0
 42
0.0000001
 43
0.0000001
 44
0.0000000001
 40
0.0
 40
0.0
 40
0.0
 40
0.0
 40
0.2429687866
 40
1.0
 40
1.0
 40
1.0
 40
1.0
 10
349.2332588459
 20
450.7969829934
 30
0.0
 10
349.2507356168
 20
450.4145091879
 30
0.0
 10
349.3127067264
 20
448.8398958713
 30
0.0
 10
349.3376788646
 20
447.2638725177
 30
0.0
 10
349.3376788646
 20
446.0709343957
 30
0.0
  0
SPLINE
  5
484
100
AcDbEntity
  8
0
100
AcDbSpline
 62
7
  6
CONTINUOUS
 70
0
 71
3
 72
9
 73
5
 74
0
 42
0.0000001
 43
0.0000001
 44
0.0000000001
 40
0.0
 40
0.0
 40
0.0
 40
0.0
 40
0.255013546
 40
1.0
 40
1.0
 40
1.0
 40
1.0
 10
346.3123040175
 20
446.0709343957
 30
0.0
 10
346.3123040175
 20
446.4726868195
 30
0.0
 10
346.3036555866
 20
448.0480816357
 30
0.0
 10
346.2614960683
 20
449.6233656318
 30
0.0
 10
346.2079378095
 20
450.7958065609
 30
0.0
  0
SPLINE
  5
485
100
AcDbEntity
  8
0
100
AcDbSpline
 62
7
  6
CONTINUOUS
 70
0
 71
3
 72
20
 73
16
 74
0
 42
0.0000001
 43
0.0000001
 44
0.0000000001
 40
0.0
 40
0.0
 40
0.0
 40
0.0
 40
0.204992698
 40
0.3935792107
 40
0.5615780095
 40
0.7053325417
 40
0.8218598788
 40
0.8692340104
 40
0.9091284787
 40
0.9415399976
 40
0.9667072884
 40
0.9768075523
 40
0.985481759
 40
0.9930506083
 40
1.0
 40
1.0
 40
1.0
 40
1.0
 10
346.2079378095
 20
450.7958065609
 30
0.0
 10
346.1798518069
 20
451.4106357132
 30
0.0
 10
346.1140662777
 20
452.5906021533
 30
0.0
 10
345.9803400639
 20
454.2715367457
 30
0.0
 10
345.8184890162
 20
455.7653215397
 30
0.0
 10
345.6324466429
 20
457.037919242
 30
0.0
 10
345.4522124216
 20
457.9447787933
 30
0.0
 10
345.2924556249
 20
458.5356556053
 30
0.0
 10
345.1780173268
 20
458.876667452
 30
0.0
 10
345.0613838597
 20
459.1453900335
 30
0.0
 10
344.9561872699
 20
459.3208569884
 30
0.0
 10
344.8681375724
 20
459.4196746682
 30
0.0
 10
344.8061232287
 20
459.4695506453
 30
0.0
 10
344.7428683332
 20
459.5003743403
 30
0.0
 10
344.6990440435
 20
459.5075158994
 30
0.0
 10
344.6781791819
 20
459.5075158568
 30
0.0
  0
SPLINE
  5
486
100
AcDbEntity
  8
0
100
AcDbSpline
 62
7
  6
CONTINUOUS
 70
0
 71
3
 72
15
 73
11
 74
0
 42
0.0000001
 43
0.0000001
 44
0.0000000001
 40
0.0
 40
0.0
 40
0.0
 40
0.0
 40
0.0572654082
 40
0.126230879
 40
0.213904748
 40
0.3235944096
 40
0.4567371055
 40
0.613866647
 40
0.7950446367
 40
1.0
 40
1.0
 40
1.0
 40
1.0
 10
343.5184521572
 20
432.6343529347
 30
0.0
 10
343.4848507319
 20
432.6343530033
 30
0.0
 10
343.4103938682
 20
432.6548601983
 30
0.0
 10
343.3112222952
 20
432.734945287
 30
0.0
 10
343.2153923841
 20
432.8593875328
 30
0.0
 10
343.1211566921
 20
433.0294342331
 30
0.0
 10
343.0281388389
 20
433.2451658275
 30
0.0
 10
342.9366239416
 20
433.5063987501
 30
0.0
 10
342.8469769031
 20
433.8124095702
 30
0.0
 10
342.79202685
 20
434.0322727946
 30
0.0
 10
342.7646354573
 20
434.1493727837
 30
0.0
  0
SPLINE
  5
487
100
AcDbEntity
  8
0
100
AcDbSpline
 62
7
  6
CONTINUOUS
 70
0
 71
3
 72
18
 73
14
 74
0
 42
0.0000001
 43
0.0000001
 44
0.0000000001
 40
0.0
 40
0.0
 40
0.0
 40
0.0
 40
0.0154686459
 40
0.0376562516
 40
0.0673377605
 40
0.1046454044
 40
0.1494421272
 40
0.2014425392
 40
0.3254131426
 40
0.4725558771
 40
0.6378965037
 40
0.8157538644
 40
1.0
 40
1.0
 40
1.0
 40
1.0
 10
344.790221152
 20
432.6659606483
 30
0.0
 10
344.8513382074
 20
432.7004976593
 30
0.0
 10
344.9703857093
 20
432.8313324721
 30
0.0
 10
345.1135309412
 20
433.1011676509
 30
0.0
 10
345.2558978935
 20
433.4813621703
 30
0.0
 10
345.3937082283
 20
433.9697516146
 30
0.0
 10
345.5265111829
 20
434.5639842859
 30
0.0
 10
345.7049422886
 20
435.5500383879
 30
0.0
 10
345.8965460592
 20
437.004593624
 30
0.0
 10
346.0770429129
 20
438.9773848283
 30
0.0
 10
346.2111374763
 20
441.1989471126
 30
0.0
 10
346.2938119599
 20
443.5914011882
 30
0.0
 10
346.3123040175
 20
445.2347812527
 30
0.0
 10
346.3123040175
 20
446.0709343957
 30
0.0
  0
SPLINE
  5
488
100
AcDbEntity
  8
0
100
AcDbSpline
 62
7
  6
CONTINUOUS
 70
0
 71
3
 72
15
 73
11
 74
0
 42
0.0000001
 43
0.0000001
 44
0.0000000001
 40
0.0
 40
0.0
 40
0.0
 40
0.0
 40
0.2049513555
 40
0.3861260623
 40
0.5432530818
 40
0.676394322
 40
0.786084081
 40
0.8737595774
 40
0.942728971
 40
1.0
 40
1.0
 40
1.0
 40
1.0
 10
342.7647390354
 20
457.9929388243
 30
0.0
 10
342.7921273863
 20
458.1100052441
 30
0.0
 10
342.8470711354
 20
458.3298053763
 30
0.0
 10
342.9367070674
 20
458.6357277393
 30
0.0
 10
343.0282100808
 20
458.8968846852
 30
0.0
 10
343.1212156193
 20
459.1125531344
 30
0.0
 10
343.215438087
 20
459.2825500938
 30
0.0
 10
343.3112551398
 20
459.4069554491
 30
0.0
 10
343.4104125673
 20
459.4870160829
 30
0.0
 10
343.4848561033
 20
459.5075159254
 30
0.0
 10
343.5184521564
 20
459.5075158568
 30
0.0
  0
SPLINE
  5
489
100
AcDbEntity
  8
0
100
AcDbSpline
 62
7
  6
CONTINUOUS
 70
0
 71
3
 72
23
 73
19
 74
0
 42
0.0000001
 43
0.0000001
 44
0.0000000001
 40
0.0
 40
0.0
 40
0.0
 40
0.0
 40
0.0059561188
 40
0.0127682374
 40
0.021023987
 40
0.0310489696
 40
0.0430149794
 40
0.0570052737
 40
0.0911688101
 40
0.1335548077
 40
0.183921728
 40
0.2418812819
 40
0.3069377001
 40
0.37850984
 40
0.4559425373
 40
0.6254487553
 40
0.8091076102
 40
1.0
 40
1.0
 40
1.0
 40
1.0
 10
343.5184521564
 20
459.5075158568
 30
0.0
 10
343.5457181826
 20
459.5075158012
 30
0.0
 10
343.6045522396
 20
459.4946896112
 30
0.0
 10
343.6864978154
 20
459.4417186373
 30
0.0
 10
343.7659971418
 20
459.3578479658
 30
0.0
 10
343.8442691202
 20
459.2431570936
 30
0.0
 10
343.9216957415
 20
459.0975104244
 30
0.0
 10
344.031141039
 20
458.8447610786
 30
0.0
 10
344.1602442023
 20
458.4501456783
 30
0.0
 10
344.3019624605
 20
457.8864692917
 30
0.0
 10
344.4369619491
 20
457.2096315665
 30
0.0
 10
344.5638439682
 20
456.426001247
 30
0.0
 10
344.6811399751
 20
455.5428679254
 30
0.0
 10
344.7876339423
 20
454.5686649898
 30
0.0
 10
344.9176266285
 20
453.1163107795
 30
0.0
 10
345.0423957573
 20
451.1487166353
 30
0.0
 10
345.132433494
 20
448.6595123046
 30
0.0
 10
345.1525769927
 20
446.9448049608
 30
0.0
 10
345.1525769927
 20
446.0709343957
 30
0.0
  0
SPLINE
  5
48A
100
AcDbEntity
  8
0
100
AcDbSpline
 62
7
  6
CONTINUOUS
 70
0
 71
3
 72
23
 73
19
 74
0
 42
0.0000001
 43
0.0000001
 44
0.0000000001
 40
0.0
 40
0.0
 40
0.0
 40
0.0
 40
0.1908916153
 40
0.374549891
 40
0.5440559454
 40
0.6214888035
 40
0.6930611799
 40
0.7581178165
 40
0.8160775778
 40
0.8664447032
 40
0.9088308763
 40
0.9429945682
 40
0.9569849146
 40
0.9689509823
 40
0.9789759889
 40
0.9872317458
 40
0.9940438845
 40
1.0
 40
1.0
 40
1.0
 40
1.0
 10
345.1525769927
 20
446.0709343957
 30
0.0
 10
345.1525769927
 20
445.1970673772
 30
0.0
 10
345.1324336213
 20
443.4823662344
 30
0.0
 10
345.0423966431
 20
440.9931688302
 30
0.0
 10
344.9176280195
 20
439.025577328
 30
0.0
 10
344.7876357775
 20
437.5732220067
 30
0.0
 10
344.6811419189
 20
436.599016224
 30
0.0
 10
344.5638457917
 20
435.7158798594
 30
0.0
 10
344.4369636216
 20
434.9322466432
 30
0.0
 10
344.3019640427
 20
434.2554061863
 30
0.0
 10
344.1602453698
 20
433.6917273821
 30
0.0
 10
344.0311420364
 20
433.2971101794
 30
0.0
 10
343.9216962423
 20
433.0443597217
 30
0.0
 10
343.8442695884
 20
432.8987123941
 30
0.0
 10
343.765997431
 20
432.7840210876
 30
0.0
 10
343.686497716
 20
432.7001505494
 30
0.0
 10
343.6045524059
 20
432.6471789398
 30
0.0
 10
343.5457181682
 20
432.634352879
 30
0.0
 10
343.5184521572
 20
432.6343529347
 30
0.0
  0
SPLINE
  5
48B
100
AcDbEntity
  8
0
100
AcDbSpline
 62
7
  6
CONTINUOUS
 70
0
 71
3
 72
15
 73
11
 74
0
 42
0.0000001
 43
0.0000001
 44
0.0000000001
 40
0.0
 40
0.0
 40
0.0
 40
0.0
 40
0.1304805982
 40
0.2601425106
 40
0.388300595
 40
0.514460605
 40
0.6384204766
 40
0.7603116773
 40
0.8805954304
 40
1.0
 40
1.0
 40
1.0
 40
1.0
 10
128.3273848494
 20
395.5757343957
 30
0.0
 10
128.3273848494
 20
395.8784070103
 30
0.0
 10
128.2731971066
 20
396.4832660527
 30
0.0
 10
128.0320362181
 20
397.3560204561
 30
0.0
 10
127.6400348677
 20
398.1616165802
 30
0.0
 10
127.1115974529
 20
398.8688858092
 30
0.0
 10
126.4664562752
 20
399.4505551251
 30
0.0
 10
125.7288100684
 20
399.8837055338
 30
0.0
 10
124.9274435919
 20
400.1509346241
 30
0.0
 10
124.3696247049
 20
400.211229123
 30
0.0
 10
124.0926448799
 20
400.211230653
 30
0.0
  0
SPLINE
  5
48C
100
AcDbEntity
  8
0
100
AcDbSpline
 62
7
  6
CONTINUOUS
 70
0
 71
3
 72
15
 73
11
 74
0
 42
0.0000001
 43
0.0000001
 44
0.0000000001
 40
0.0
 40
0.0
 40
0.0
 40
0.0
 40
0.1304814395
 40
0.260143515
 40
0.388302995
 40
0.5144618781
 40
0.638420521
 40
0.7603111053
 40
0.8805948806
 40
1.0
 40
1.0
 40
1.0
 40
1.0
 10
117.5971788287
 20
395.5757343957
 30
0.0
 10
117.5971788287
 20
395.8784091047
 30
0.0
 10
117.6513671681
 20
396.4832707267
 30
0.0
 10
117.8925297305
 20
397.3560310088
 30
0.0
 10
118.2845348651
 20
398.1616269874
 30
0.0
 10
118.8129714885
 20
398.8688943214
 30
0.0
 10
119.4581083584
 20
399.4505585923
 30
0.0
 10
120.1957506584
 20
399.88370799
 30
0.0
 10
120.9971169716
 20
400.1509378919
 30
0.0
 10
121.5549375665
 20
400.2112343957
 30
0.0
 10
121.8319187976
 20
400.2112343957
 30
0.0
  0
SPLINE
  5
48D
100
AcDbEntity
  8
0
100
AcDbSpline
 62
7
  6
CONTINUOUS
 70
0
 71
3
 72
15
 73
11
 74
0
 42
0.0000001
 43
0.0000001
 44
0.0000000001
 40
0.0
 40
0.0
 40
0.0
 40
0.0
 40
0.1194051194
 40
0.2396888947
 40
0.361579479
 40
0.4855381219
 40
0.611697005
 40
0.739856485
 40
0.8695185605
 40
1.0
 40
1.0
 40
1.0
 40
1.0
 10
121.8319187976
 20
390.9402343957
 30
0.0
 10
121.5549375665
 20
390.9402343957
 30
0.0
 10
120.9971169716
 20
391.0005308996
 30
0.0
 10
120.1957506584
 20
391.2677608015
 30
0.0
 10
119.4581083584
 20
391.7009101992
 30
0.0
 10
118.8129714885
 20
392.2825744701
 30
0.0
 10
118.2845348651
 20
392.9898418041
 30
0.0
 10
117.8925297305
 20
393.7954377827
 30
0.0
 10
117.6513671681
 20
394.6681980648
 30
0.0
 10
117.5971788287
 20
395.2730596868
 30
0.0
 10
117.5971788287
 20
395.5757343957
 30
0.0
  0
SPLINE
  5
48E
100
AcDbEntity
  8
0
100
AcDbSpline
 62
7
  6
CONTINUOUS
 70
0
 71
3
 72
15
 73
11
 74
0
 42
0.0000001
 43
0.0000001
 44
0.0000000001
 40
0.0
 40
0.0
 40
0.0
 40
0.0
 40
0.1194049421
 40
0.2396882929
 40
0.3615784774
 40
0.4855371259
 40
0.6116962011
 40
0.7398541466
 40
0.8695169554
 40
1.0
 40
1.0
 40
1.0
 40
1.0
 10
124.0926448811
 20
390.9402381385
 30
0.0
 10
124.3696255831
 20
390.9402366084
 30
0.0
 10
124.927444615
 20
391.0005343333
 30
0.0
 10
125.7288084998
 20
391.2677621228
 30
0.0
 10
126.4664494491
 20
391.7009094526
 30
0.0
 10
127.1115868279
 20
392.2825716973
 30
0.0
 10
127.6400238043
 20
392.989834597
 30
0.0
 10
128.0320286804
 20
393.7954285382
 30
0.0
 10
128.2731955818
 20
394.6681891538
 30
0.0
 10
128.3273848494
 20
395.2730560925
 30
0.0
 10
128.3273848494
 20
395.5757343957
 30
0.0
  0
SPLINE
  5
48F
100
AcDbEntity
  8
0
100
AcDbSpline
 62
7
  6
CONTINUOUS
 70
0
 71
3
 72
15
 73
11
 74
0
 42
0.0000001
 43
0.0000001
 44
0.0000000001
 40
0.0
 40
0.0
 40
0.0
 40
0.0
 40
0.1304814395
 40
0.260143515
 40
0.388302995
 40
0.5144618781
 40
0.638420521
 40
0.7603111053
 40
0.8805948806
 40
1.0
 40
1.0
 40
1.0
 40
1.0
 10
126.0666587665
 20
395.5757343957
 30
0.0
 10
126.0666587665
 20
395.2730596868
 30
0.0
 10
126.0124704271
 20
394.6681980648
 30
0.0
 10
125.7713078647
 20
393.7954377827
 30
0.0
 10
125.3793027301
 20
392.9898418041
 30
0.0
 10
124.8508661067
 20
392.2825744701
 30
0.0
 10
124.2057292368
 20
391.7009101992
 30
0.0
 10
123.4680869368
 20
391.2677608015
 30
0.0
 10
122.6667206236
 20
391.0005308996
 30
0.0
 10
122.1089000286
 20
390.9402343957
 30
0.0
 10
121.8319187976
 20
390.9402343957
 30
0.0
  0
SPLINE
  5
490
100
AcDbEntity
  8
0
100
AcDbSpline
 62
7
  6
CONTINUOUS
 70
0
 71
3
 72
15
 73
11
 74
0
 42
0.0000001
 43
0.0000001
 44
0.0000000001
 40
0.0
 40
0.0
 40
0.0
 40
0.0
 40
0.1194051194
 40
0.2396888947
 40
0.361579479
 40
0.4855381219
 40
0.611697005
 40
0.739856485
 40
0.8695185605
 40
1.0
 40
1.0
 40
1.0
 40
1.0
 10
121.8319187976
 20
400.2112343957
 30
0.0
 10
122.1089000286
 20
400.2112343957
 30
0.0
 10
122.6667206236
 20
400.1509378919
 30
0.0
 10
123.4680869368
 20
399.88370799
 30
0.0
 10
124.2057292368
 20
399.4505585923
 30
0.0
 10
124.8508661067
 20
398.8688943214
 30
0.0
 10
125.3793027301
 20
398.1616269874
 30
0.0
 10
125.7713078647
 20
397.3560310088
 30
0.0
 10
126.0124704271
 20
396.4832707267
 30
0.0
 10
126.0666587665
 20
395.8784091047
 30
0.0
 10
126.0666587665
 20
395.5757343957
 30
0.0
  0
SPLINE
  5
491
100
AcDbEntity
  8
0
100
AcDbSpline
 62
7
  6
CONTINUOUS
 70
0
 71
3
 72
23
 73
19
 74
0
 42
0.0000001
 43
0.0000001
 44
0.0000000001
 40
0.0
 40
0.0
 40
0.0
 40
0.0
 40
0.0652405997
 40
0.1300716897
 40
0.1941511849
 40
0.2572309483
 40
0.3192112322
 40
0.3801570245
 40
0.440299021
 40
0.5000014008
 40
0.5597035795
 40
0.6198449609
 40
0.680789829
 40
0.7427691217
 40
0.8058480996
 40
0.8699272515
 40
0.9347585403
 40
1.0
 40
1.0
 40
1.0
 40
1.0
 10
125.1104721916
 20
395.5757343957
 30
0.0
 10
125.1104721916
 20
395.3228150912
 30
0.0
 10
125.065192998
 20
394.8173831364
 30
0.0
 10
124.8636709759
 20
394.0880930383
 30
0.0
 10
124.5361040504
 20
393.4149233362
 30
0.0
 10
124.0945318253
 20
392.8239207752
 30
0.0
 10
123.5554279078
 20
392.3378607062
 30
0.0
 10
122.939106543
 20
391.9759115566
 30
0.0
 10
122.2692058714
 20
391.7526211314
 30
0.0
 10
121.5718381157
 20
391.677148636
 30
0.0
 10
120.8744735822
 20
391.7526280038
 30
0.0
 10
120.2045812772
 20
391.9759214872
 30
0.0
 10
119.5882701229
 20
392.3378682336
 30
0.0
 10
119.0491752073
 20
392.8239223655
 30
0.0
 10
118.6076075783
 20
393.4149178693
 30
0.0
 10
118.280040491
 20
394.0880834036
 30
0.0
 10
118.0785156301
 20
394.8173756409
 30
0.0
 10
118.0332355312
 20
395.322811757
 30
0.0
 10
118.0332355312
 20
395.5757343957
 30
0.0
  0
SPLINE
  5
492
100
AcDbEntity
  8
0
100
AcDbSpline
 62
7
  6
CONTINUOUS
 70
0
 71
3
 72
23
 73
19
 74
0
 42
0.0000001
 43
0.0000001
 44
0.0000000001
 40
0.0
 40
0.0
 40
0.0
 40
0.0
 40
0.0652405997
 40
0.1300716897
 40
0.1941511849
 40
0.2572309483
 40
0.3192112322
 40
0.3801570245
 40
0.440299021
 40
0.5000014008
 40
0.5597035795
 40
0.6198449609
 40
0.680789829
 40
0.7427691217
 40
0.8058480996
 40
0.8699272515
 40
0.9347585403
 40
1.0
 40
1.0
 40
1.0
 40
1.0
 10
118.0332355312
 20
395.5757343957
 30
0.0
 10
118.0332355312
 20
395.8286537003
 30
0.0
 10
118.0785147248
 20
396.3340856551
 30
0.0
 10
118.2800367469
 20
397.0633757532
 30
0.0
 10
118.6076036724
 20
397.7365454553
 30
0.0
 10
119.0491758974
 20
398.3275480163
 30
0.0
 10
119.588279815
 20
398.8136080853
 30
0.0
 10
120.2046011798
 20
399.1755572349
 30
0.0
 10
120.8745018514
 20
399.3988476601
 30
0.0
 10
121.5718696071
 20
399.4743201555
 30
0.0
 10
122.2692341406
 20
399.3988407877
 30
0.0
 10
122.9391264456
 20
399.1755473043
 30
0.0
 10
123.5554375999
 20
398.8136005579
 30
0.0
 10
124.0945325155
 20
398.327546426
 30
0.0
 10
124.5361001445
 20
397.7365509222
 30
0.0
 10
124.8636672317
 20
397.0633853879
 30
0.0
 10
125.0651920927
 20
396.3340931506
 30
0.0
 10
125.1104721916
 20
395.8286570345
 30
0.0
 10
125.1104721916
 20
395.5757343957
 30
0.0
  0
SPLINE
  5
493
100
AcDbEntity
  8
0
100
AcDbSpline
 62
7
  6
CONTINUOUS
 70
0
 71
3
 72
15
 73
11
 74
0
 42
0.0000001
 43
0.0000001
 44
0.0000000001
 40
0.0
 40
0.0
 40
0.0
 40
0.0
 40
0.1304805982
 40
0.2601425106
 40
0.388300595
 40
0.514460605
 40
0.6384204766
 40
0.7603116773
 40
0.8805954304
 40
1.0
 40
1.0
 40
1.0
 40
1.0
 10
128.3273848494
 20
300.3257343957
 30
0.0
 10
128.3273848494
 20
300.6284070103
 30
0.0
 10
128.2731971066
 20
301.2332660527
 30
0.0
 10
128.0320362181
 20
302.1060204561
 30
0.0
 10
127.6400348677
 20
302.9116165802
 30
0.0
 10
127.1115974529
 20
303.6188858092
 30
0.0
 10
126.4664562752
 20
304.2005551251
 30
0.0
 10
125.7288100684
 20
304.6337055338
 30
0.0
 10
124.9274435919
 20
304.9009346241
 30
0.0
 10
124.3696247049
 20
304.961229123
 30
0.0
 10
124.0926448799
 20
304.961230653
 30
0.0
  0
SPLINE
  5
494
100
AcDbEntity
  8
0
100
AcDbSpline
 62
7
  6
CONTINUOUS
 70
0
 71
3
 72
15
 73
11
 74
0
 42
0.0000001
 43
0.0000001
 44
0.0000000001
 40
0.0
 40
0.0
 40
0.0
 40
0.0
 40
0.1304814395
 40
0.260143515
 40
0.388302995
 40
0.5144618781
 40
0.638420521
 40
0.7603111053
 40
0.8805948806
 40
1.0
 40
1.0
 40
1.0
 40
1.0
 10
117.5971788287
 20
300.3257343957
 30
0.0
 10
117.5971788287
 20
300.6284091047
 30
0.0
 10
117.6513671681
 20
301.2332707267
 30
0.0
 10
117.8925297305
 20
302.1060310088
 30
0.0
 10
118.2845348651
 20
302.9116269874
 30
0.0
 10
118.8129714885
 20
303.6188943214
 30
0.0
 10
119.4581083584
 20
304.2005585923
 30
0.0
 10
120.1957506584
 20
304.63370799
 30
0.0
 10
120.9971169716
 20
304.9009378919
 30
0.0
 10
121.5549375665
 20
304.9612343957
 30
0.0
 10
121.8319187976
 20
304.9612343957
 30
0.0
  0
SPLINE
  5
495
100
AcDbEntity
  8
0
100
AcDbSpline
 62
7
  6
CONTINUOUS
 70
0
 71
3
 72
15
 73
11
 74
0
 42
0.0000001
 43
0.0000001
 44
0.0000000001
 40
0.0
 40
0.0
 40
0.0
 40
0.0
 40
0.1194051194
 40
0.2396888947
 40
0.361579479
 40
0.4855381219
 40
0.611697005
 40
0.739856485
 40
0.8695185605
 40
1.0
 40
1.0
 40
1.0
 40
1.0
 10
121.8319187976
 20
295.6902343957
 30
0.0
 10
121.5549375665
 20
295.6902343957
 30
0.0
 10
120.9971169716
 20
295.7505308996
 30
0.0
 10
120.1957506584
 20
296.0177608015
 30
0.0
 10
119.4581083584
 20
296.4509101992
 30
0.0
 10
118.8129714885
 20
297.0325744701
 30
0.0
 10
118.2845348651
 20
297.7398418041
 30
0.0
 10
117.8925297305
 20
298.5454377827
 30
0.0
 10
117.6513671681
 20
299.4181980648
 30
0.0
 10
117.5971788287
 20
300.0230596868
 30
0.0
 10
117.5971788287
 20
300.3257343957
 30
0.0
  0
SPLINE
  5
496
100
AcDbEntity
  8
0
100
AcDbSpline
 62
7
  6
CONTINUOUS
 70
0
 71
3
 72
15
 73
11
 74
0
 42
0.0000001
 43
0.0000001
 44
0.0000000001
 40
0.0
 40
0.0
 40
0.0
 40
0.0
 40
0.1194049421
 40
0.2396882929
 40
0.3615784774
 40
0.4855371259
 40
0.6116962011
 40
0.7398541466
 40
0.8695169554
 40
1.0
 40
1.0
 40
1.0
 40
1.0
 10
124.0926448811
 20
295.6902381385
 30
0.0
 10
124.3696255831
 20
295.6902366084
 30
0.0
 10
124.927444615
 20
295.7505343333
 30
0.0
 10
125.7288084998
 20
296.0177621228
 30
0.0
 10
126.4664494491
 20
296.4509094526
 30
0.0
 10
127.1115868279
 20
297.0325716973
 30
0.0
 10
127.6400238043
 20
297.739834597
 30
0.0
 10
128.0320286804
 20
298.5454285382
 30
0.0
 10
128.2731955818
 20
299.4181891538
 30
0.0
 10
128.3273848494
 20
300.0230560925
 30
0.0
 10
128.3273848494
 20
300.3257343957
 30
0.0
  0
SPLINE
  5
497
100
AcDbEntity
  8
0
100
AcDbSpline
 62
7
  6
CONTINUOUS
 70
0
 71
3
 72
15
 73
11
 74
0
 42
0.0000001
 43
0.0000001
 44
0.0000000001
 40
0.0
 40
0.0
 40
0.0
 40
0.0
 40
0.1304814395
 40
0.260143515
 40
0.388302995
 40
0.5144618781
 40
0.638420521
 40
0.7603111053
 40
0.8805948806
 40
1.0
 40
1.0
 40
1.0
 40
1.0
 10
126.0666587665
 20
300.3257343957
 30
0.0
 10
126.0666587665
 20
300.0230596868
 30
0.0
 10
126.0124704271
 20
299.4181980648
 30
0.0
 10
125.7713078647
 20
298.5454377827
 30
0.0
 10
125.3793027301
 20
297.7398418041
 30
0.0
 10
124.8508661067
 20
297.0325744701
 30
0.0
 10
124.2057292368
 20
296.4509101992
 30
0.0
 10
123.4680869368
 20
296.0177608015
 30
0.0
 10
122.6667206236
 20
295.7505308996
 30
0.0
 10
122.1089000286
 20
295.6902343957
 30
0.0
 10
121.8319187976
 20
295.6902343957
 30
0.0
  0
SPLINE
  5
498
100
AcDbEntity
  8
0
100
AcDbSpline
 62
7
  6
CONTINUOUS
 70
0
 71
3
 72
15
 73
11
 74
0
 42
0.0000001
 43
0.0000001
 44
0.0000000001
 40
0.0
 40
0.0
 40
0.0
 40
0.0
 40
0.1194051194
 40
0.2396888947
 40
0.361579479
 40
0.4855381219
 40
0.611697005
 40
0.739856485
 40
0.8695185605
 40
1.0
 40
1.0
 40
1.0
 40
1.0
 10
121.8319187976
 20
304.9612343957
 30
0.0
 10
122.1089000286
 20
304.9612343957
 30
0.0
 10
122.6667206236
 20
304.9009378919
 30
0.0
 10
123.4680869368
 20
304.63370799
 30
0.0
 10
124.2057292368
 20
304.2005585923
 30
0.0
 10
124.8508661067
 20
303.6188943214
 30
0.0
 10
125.3793027301
 20
302.9116269874
 30
0.0
 10
125.7713078647
 20
302.1060310088
 30
0.0
 10
126.0124704271
 20
301.2332707267
 30
0.0
 10
126.0666587665
 20
300.6284091047
 30
0.0
 10
126.0666587665
 20
300.3257343957
 30
0.0
  0
SPLINE
  5
499
100
AcDbEntity
  8
0
100
AcDbSpline
 62
7
  6
CONTINUOUS
 70
0
 71
3
 72
23
 73
19
 74
0
 42
0.0000001
 43
0.0000001
 44
0.0000000001
 40
0.0
 40
0.0
 40
0.0
 40
0.0
 40
0.0652405997
 40
0.1300716897
 40
0.1941511849
 40
0.2572309483
 40
0.3192112322
 40
0.3801570245
 40
0.440299021
 40
0.5000014008
 40
0.5597035795
 40
0.6198449609
 40
0.680789829
 40
0.7427691217
 40
0.8058480996
 40
0.8699272515
 40
0.9347585403
 40
1.0
 40
1.0
 40
1.0
 40
1.0
 10
125.1104721916
 20
300.3257343957
 30
0.0
 10
125.1104721916
 20
300.0728150912
 30
0.0
 10
125.065192998
 20
299.5673831364
 30
0.0
 10
124.8636709759
 20
298.8380930383
 30
0.0
 10
124.5361040504
 20
298.1649233362
 30
0.0
 10
124.0945318253
 20
297.5739207752
 30
0.0
 10
123.5554279078
 20
297.0878607062
 30
0.0
 10
122.939106543
 20
296.7259115566
 30
0.0
 10
122.2692058714
 20
296.5026211314
 30
0.0
 10
121.5718381157
 20
296.427148636
 30
0.0
 10
120.8744735822
 20
296.5026280038
 30
0.0
 10
120.2045812772
 20
296.7259214872
 30
0.0
 10
119.5882701229
 20
297.0878682336
 30
0.0
 10
119.0491752073
 20
297.5739223655
 30
0.0
 10
118.6076075783
 20
298.1649178693
 30
0.0
 10
118.280040491
 20
298.8380834036
 30
0.0
 10
118.0785156301
 20
299.5673756409
 30
0.0
 10
118.0332355312
 20
300.072811757
 30
0.0
 10
118.0332355312
 20
300.3257343957
 30
0.0
  0
SPLINE
  5
49A
100
AcDbEntity
  8
0
100
AcDbSpline
 62
7
  6
CONTINUOUS
 70
0
 71
3
 72
23
 73
19
 74
0
 42
0.0000001
 43
0.0000001
 44
0.0000000001
 40
0.0
 40
0.0
 40
0.0
 40
0.0
 40
0.0652405997
 40
0.1300716897
 40
0.1941511849
 40
0.2572309483
 40
0.3192112322
 40
0.3801570245
 40
0.440299021
 40
0.5000014008
 40
0.5597035795
 40
0.6198449609
 40
0.680789829
 40
0.7427691217
 40
0.8058480996
 40
0.8699272515
 40
0.9347585403
 40
1.0
 40
1.0
 40
1.0
 40
1.0
 10
118.0332355312
 20
300.3257343957
 30
0.0
 10
118.0332355312
 20
300.5786537003
 30
0.0
 10
118.0785147248
 20
301.0840856551
 30
0.0
 10
118.2800367469
 20
301.8133757532
 30
0.0
 10
118.6076036724
 20
302.4865454553
 30
0.0
 10
119.0491758974
 20
303.0775480163
 30
0.0
 10
119.588279815
 20
303.5636080853
 30
0.0
 10
120.2046011798
 20
303.9255572349
 30
0.0
 10
120.8745018514
 20
304.1488476601
 30
0.0
 10
121.5718696071
 20
304.2243201555
 30
0.0
 10
122.2692341406
 20
304.1488407877
 30
0.0
 10
122.9391264456
 20
303.9255473043
 30
0.0
 10
123.5554375999
 20
303.5636005579
 30
0.0
 10
124.0945325155
 20
303.077546426
 30
0.0
 10
124.5361001445
 20
302.4865509222
 30
0.0
 10
124.8636672318
 20
301.8133853879
 30
0.0
 10
125.0651920927
 20
301.0840931506
 30
0.0
 10
125.1104721916
 20
300.5786570345
 30
0.0
 10
125.1104721916
 20
300.3257343957
 30
0.0
  0
SPLINE
  5
49B
100
AcDbEntity
  8
0
100
AcDbSpline
 62
7
  6
CONTINUOUS
 70
0
 71
3
 72
15
 73
11
 74
0
 42
0.0000001
 43
0.0000001
 44
0.0000000001
 40
0.0
 40
0.0
 40
0.0
 40
0.0
 40
0.1304805982
 40
0.2601425106
 40
0.388300595
 40
0.514460605
 40
0.6384204766
 40
0.7603116773
 40
0.8805954304
 40
1.0
 40
1.0
 40
1.0
 40
1.0
 10
131.1118714043
 20
370.0868343957
 30
0.0
 10
131.1118714043
 20
370.3895070103
 30
0.0
 10
131.0576836615
 20
370.9943660527
 30
0.0
 10
130.8165227731
 20
371.8671204561
 30
0.0
 10
130.4245214226
 20
372.6727165802
 30
0.0
 10
129.8960840079
 20
373.3799858092
 30
0.0
 10
129.2509428301
 20
373.9616551251
 30
0.0
 10
128.5132966233
 20
374.3948055338
 30
0.0
 10
127.7119301468
 20
374.6620346241
 30
0.0
 10
127.1541112598
 20
374.722329123
 30
0.0
 10
126.8771314348
 20
374.722330653
 30
0.0
  0
SPLINE
  5
49C
100
AcDbEntity
  8
0
100
AcDbSpline
 62
7
  6
CONTINUOUS
 70
0
 71
3
 72
15
 73
11
 74
0
 42
0.0000001
 43
0.0000001
 44
0.0000000001
 40
0.0
 40
0.0
 40
0.0
 40
0.0
 40
0.1304814395
 40
0.260143515
 40
0.388302995
 40
0.5144618781
 40
0.638420521
 40
0.7603111053
 40
0.8805948806
 40
1.0
 40
1.0
 40
1.0
 40
1.0
 10
120.3816653836
 20
370.0868343957
 30
0.0
 10
120.3816653836
 20
370.3895091047
 30
0.0
 10
120.435853723
 20
370.9943707267
 30
0.0
 10
120.6770162854
 20
371.8671310088
 30
0.0
 10
121.06902142
 20
372.6727269874
 30
0.0
 10
121.5974580434
 20
373.3799943214
 30
0.0
 10
122.2425949133
 20
373.9616585923
 30
0.0
 10
122.9802372133
 20
374.39480799
 30
0.0
 10
123.7816035265
 20
374.6620378919
 30
0.0
 10
124.3394241215
 20
374.7223343957
 30
0.0
 10
124.6164053525
 20
374.7223343957
 30
0.0
  0
SPLINE
  5
49D
100
AcDbEntity
  8
0
100
AcDbSpline
 62
7
  6
CONTINUOUS
 70
0
 71
3
 72
15
 73
11
 74
0
 42
0.0000001
 43
0.0000001
 44
0.0000000001
 40
0.0
 40
0.0
 40
0.0
 40
0.0
 40
0.1194051194
 40
0.2396888947
 40
0.361579479
 40
0.4855381219
 40
0.611697005
 40
0.739856485
 40
0.8695185605
 40
1.0
 40
1.0
 40
1.0
 40
1.0
 10
124.6164053525
 20
365.4513343957
 30
0.0
 10
124.3394241215
 20
365.4513343957
 30
0.0
 10
123.7816035265
 20
365.5116308996
 30
0.0
 10
122.9802372133
 20
365.7788608015
 30
0.0
 10
122.2425949133
 20
366.2120101992
 30
0.0
 10
121.5974580434
 20
366.7936744701
 30
0.0
 10
121.06902142
 20
367.5009418041
 30
0.0
 10
120.6770162854
 20
368.3065377827
 30
0.0
 10
120.435853723
 20
369.1792980648
 30
0.0
 10
120.3816653836
 20
369.7841596868
 30
0.0
 10
120.3816653836
 20
370.0868343957
 30
0.0
  0
SPLINE
  5
49E
100
AcDbEntity
  8
0
100
AcDbSpline
 62
7
  6
CONTINUOUS
 70
0
 71
3
 72
15
 73
11
 74
0
 42
0.0000001
 43
0.0000001
 44
0.0000000001
 40
0.0
 40
0.0
 40
0.0
 40
0.0
 40
0.1194049421
 40
0.2396882929
 40
0.3615784774
 40
0.4855371259
 40
0.6116962011
 40
0.7398541466
 40
0.8695169554
 40
1.0
 40
1.0
 40
1.0
 40
1.0
 10
126.877131436
 20
365.4513381385
 30
0.0
 10
127.154112138
 20
365.4513366084
 30
0.0
 10
127.7119311699
 20
365.5116343333
 30
0.0
 10
128.5132950547
 20
365.7788621228
 30
0.0
 10
129.250936004
 20
366.2120094526
 30
0.0
 10
129.8960733828
 20
366.7936716973
 30
0.0
 10
130.4245103592
 20
367.500934597
 30
0.0
 10
130.8165152354
 20
368.3065285382
 30
0.0
 10
131.0576821367
 20
369.1792891538
 30
0.0
 10
131.1118714043
 20
369.7841560925
 30
0.0
 10
131.1118714043
 20
370.0868343957
 30
0.0
  0
SPLINE
  5
49F
100
AcDbEntity
  8
0
100
AcDbSpline
 62
7
  6
CONTINUOUS
 70
0
 71
3
 72
15
 73
11
 74
0
 42
0.0000001
 43
0.0000001
 44
0.0000000001
 40
0.0
 40
0.0
 40
0.0
 40
0.0
 40
0.1304814395
 40
0.260143515
 40
0.388302995
 40
0.5144618781
 40
0.638420521
 40
0.7603111053
 40
0.8805948806
 40
1.0
 40
1.0
 40
1.0
 40
1.0
 10
128.8511453214
 20
370.0868343957
 30
0.0
 10
128.8511453214
 20
369.7841596868
 30
0.0
 10
128.796956982
 20
369.1792980648
 30
0.0
 10
128.5557944196
 20
368.3065377827
 30
0.0
 10
128.163789285
 20
367.5009418041
 30
0.0
 10
127.6353526616
 20
366.7936744701
 30
0.0
 10
126.9902157917
 20
366.2120101992
 30
0.0
 10
126.2525734917
 20
365.7788608015
 30
0.0
 10
125.4512071785
 20
365.5116308996
 30
0.0
 10
124.8933865836
 20
365.4513343957
 30
0.0
 10
124.6164053525
 20
365.4513343957
 30
0.0
  0
SPLINE
  5
4A0
100
AcDbEntity
  8
0
100
AcDbSpline
 62
7
  6
CONTINUOUS
 70
0
 71
3
 72
15
 73
11
 74
0
 42
0.0000001
 43
0.0000001
 44
0.0000000001
 40
0.0
 40
0.0
 40
0.0
 40
0.0
 40
0.1194051194
 40
0.2396888947
 40
0.361579479
 40
0.4855381219
 40
0.611697005
 40
0.739856485
 40
0.8695185605
 40
1.0
 40
1.0
 40
1.0
 40
1.0
 10
124.6164053525
 20
374.7223343957
 30
0.0
 10
124.8933865836
 20
374.7223343957
 30
0.0
 10
125.4512071785
 20
374.6620378919
 30
0.0
 10
126.2525734917
 20
374.39480799
 30
0.0
 10
126.9902157917
 20
373.9616585923
 30
0.0
 10
127.6353526616
 20
373.3799943214
 30
0.0
 10
128.163789285
 20
372.6727269874
 30
0.0
 10
128.5557944196
 20
371.8671310088
 30
0.0
 10
128.796956982
 20
370.9943707267
 30
0.0
 10
128.8511453214
 20
370.3895091047
 30
0.0
 10
128.8511453214
 20
370.0868343957
 30
0.0
  0
SPLINE
  5
4A1
100
AcDbEntity
  8
0
100
AcDbSpline
 62
7
  6
CONTINUOUS
 70
0
 71
3
 72
23
 73
19
 74
0
 42
0.0000001
 43
0.0000001
 44
0.0000000001
 40
0.0
 40
0.0
 40
0.0
 40
0.0
 40
0.0652405997
 40
0.1300716897
 40
0.1941511849
 40
0.2572309483
 40
0.3192112322
 40
0.3801570245
 40
0.440299021
 40
0.5000014008
 40
0.5597035795
 40
0.6198449609
 40
0.680789829
 40
0.7427691217
 40
0.8058480996
 40
0.8699272515
 40
0.9347585403
 40
1.0
 40
1.0
 40
1.0
 40
1.0
 10
127.8949587465
 20
370.0868343957
 30
0.0
 10
127.8949587465
 20
369.8339150912
 30
0.0
 10
127.8496795529
 20
369.3284831364
 30
0.0
 10
127.6481575308
 20
368.5991930383
 30
0.0
 10
127.3205906053
 20
367.9260233362
 30
0.0
 10
126.8790183803
 20
367.3350207752
 30
0.0
 10
126.3399144627
 20
366.8489607062
 30
0.0
 10
125.7235930979
 20
366.4870115566
 30
0.0
 10
125.0536924263
 20
366.2637211314
 30
0.0
 10
124.3563246706
 20
366.188248636
 30
0.0
 10
123.6589601371
 20
366.2637280038
 30
0.0
 10
122.9890678321
 20
366.4870214872
 30
0.0
 10
122.3727566778
 20
366.8489682336
 30
0.0
 10
121.8336617622
 20
367.3350223655
 30
0.0
 10
121.3920941332
 20
367.9260178693
 30
0.0
 10
121.0645270459
 20
368.5991834036
 30
0.0
 10
120.863002185
 20
369.3284756409
 30
0.0
 10
120.8177220861
 20
369.833911757
 30
0.0
 10
120.8177220861
 20
370.0868343957
 30
0.0
  0
SPLINE
  5
4A2
100
AcDbEntity
  8
0
100
AcDbSpline
 62
7
  6
CONTINUOUS
 70
0
 71
3
 72
23
 73
19
 74
0
 42
0.0000001
 43
0.0000001
 44
0.0000000001
 40
0.0
 40
0.0
 40
0.0
 40
0.0
 40
0.0652405997
 40
0.1300716897
 40
0.1941511849
 40
0.2572309483
 40
0.3192112322
 40
0.3801570245
 40
0.440299021
 40
0.5000014008
 40
0.5597035795
 40
0.6198449609
 40
0.680789829
 40
0.7427691217
 40
0.8058480996
 40
0.8699272515
 40
0.9347585403
 40
1.0
 40
1.0
 40
1.0
 40
1.0
 10
120.8177220861
 20
370.0868343957
 30
0.0
 10
120.8177220861
 20
370.3397537003
 30
0.0
 10
120.8630012797
 20
370.8451856551
 30
0.0
 10
121.0645233018
 20
371.5744757532
 30
0.0
 10
121.3920902273
 20
372.2476454553
 30
0.0
 10
121.8336624524
 20
372.8386480163
 30
0.0
 10
122.3727663699
 20
373.3247080853
 30
0.0
 10
122.9890877347
 20
373.6866572349
 30
0.0
 10
123.6589884063
 20
373.9099476601
 30
0.0
 10
124.356356162
 20
373.9854201555
 30
0.0
 10
125.0537206955
 20
373.9099407877
 30
0.0
 10
125.7236130005
 20
373.6866473043
 30
0.0
 10
126.3399241548
 20
373.3247005579
 30
0.0
 10
126.8790190704
 20
372.838646426
 30
0.0
 10
127.3205866994
 20
372.2476509222
 30
0.0
 10
127.6481537867
 20
371.5744853879
 30
0.0
 10
127.8496786476
 20
370.8451931506
 30
0.0
 10
127.8949587465
 20
370.3397570345
 30
0.0
 10
127.8949587465
 20
370.0868343957
 30
0.0
  0
SPLINE
  5
4A3
100
AcDbEntity
  8
0
100
AcDbSpline
 62
7
  6
CONTINUOUS
 70
0
 71
3
 72
15
 73
11
 74
0
 42
0.0000001
 43
0.0000001
 44
0.0000000001
 40
0.0
 40
0.0
 40
0.0
 40
0.0
 40
0.1304805982
 40
0.2601425106
 40
0.388300595
 40
0.514460605
 40
0.6384204766
 40
0.7603116773
 40
0.8805954304
 40
1.0
 40
1.0
 40
1.0
 40
1.0
 10
131.1118714043
 20
274.8368343957
 30
0.0
 10
131.1118714043
 20
275.1395070103
 30
0.0
 10
131.0576836615
 20
275.7443660527
 30
0.0
 10
130.8165227731
 20
276.6171204561
 30
0.0
 10
130.4245214226
 20
277.4227165802
 30
0.0
 10
129.8960840079
 20
278.1299858092
 30
0.0
 10
129.2509428301
 20
278.7116551251
 30
0.0
 10
128.5132966233
 20
279.1448055338
 30
0.0
 10
127.7119301468
 20
279.4120346241
 30
0.0
 10
127.1541112598
 20
279.472329123
 30
0.0
 10
126.8771314348
 20
279.472330653
 30
0.0
  0
SPLINE
  5
4A4
100
AcDbEntity
  8
0
100
AcDbSpline
 62
7
  6
CONTINUOUS
 70
0
 71
3
 72
15
 73
11
 74
0
 42
0.0000001
 43
0.0000001
 44
0.0000000001
 40
0.0
 40
0.0
 40
0.0
 40
0.0
 40
0.1304814395
 40
0.260143515
 40
0.388302995
 40
0.5144618781
 40
0.638420521
 40
0.7603111053
 40
0.8805948806
 40
1.0
 40
1.0
 40
1.0
 40
1.0
 10
120.3816653836
 20
274.8368343957
 30
0.0
 10
120.3816653836
 20
275.1395091047
 30
0.0
 10
120.435853723
 20
275.7443707267
 30
0.0
 10
120.6770162854
 20
276.6171310088
 30
0.0
 10
121.06902142
 20
277.4227269874
 30
0.0
 10
121.5974580434
 20
278.1299943214
 30
0.0
 10
122.2425949133
 20
278.7116585923
 30
0.0
 10
122.9802372133
 20
279.14480799
 30
0.0
 10
123.7816035265
 20
279.4120378919
 30
0.0
 10
124.3394241215
 20
279.4723343957
 30
0.0
 10
124.6164053525
 20
279.4723343957
 30
0.0
  0
SPLINE
  5
4A5
100
AcDbEntity
  8
0
100
AcDbSpline
 62
7
  6
CONTINUOUS
 70
0
 71
3
 72
15
 73
11
 74
0
 42
0.0000001
 43
0.0000001
 44
0.0000000001
 40
0.0
 40
0.0
 40
0.0
 40
0.0
 40
0.1194051194
 40
0.2396888947
 40
0.361579479
 40
0.4855381219
 40
0.611697005
 40
0.739856485
 40
0.8695185605
 40
1.0
 40
1.0
 40
1.0
 40
1.0
 10
124.6164053525
 20
270.2013343957
 30
0.0
 10
124.3394241215
 20
270.2013343957
 30
0.0
 10
123.7816035265
 20
270.2616308996
 30
0.0
 10
122.9802372133
 20
270.5288608015
 30
0.0
 10
122.2425949133
 20
270.9620101992
 30
0.0
 10
121.5974580434
 20
271.5436744701
 30
0.0
 10
121.06902142
 20
272.2509418041
 30
0.0
 10
120.6770162854
 20
273.0565377827
 30
0.0
 10
120.435853723
 20
273.9292980648
 30
0.0
 10
120.3816653836
 20
274.5341596868
 30
0.0
 10
120.3816653836
 20
274.8368343957
 30
0.0
  0
SPLINE
  5
4A6
100
AcDbEntity
  8
0
100
AcDbSpline
 62
7
  6
CONTINUOUS
 70
0
 71
3
 72
15
 73
11
 74
0
 42
0.0000001
 43
0.0000001
 44
0.0000000001
 40
0.0
 40
0.0
 40
0.0
 40
0.0
 40
0.1194049421
 40
0.2396882929
 40
0.3615784774
 40
0.4855371259
 40
0.6116962011
 40
0.7398541466
 40
0.8695169554
 40
1.0
 40
1.0
 40
1.0
 40
1.0
 10
126.877131436
 20
270.2013381385
 30
0.0
 10
127.154112138
 20
270.2013366084
 30
0.0
 10
127.7119311699
 20
270.2616343333
 30
0.0
 10
128.5132950547
 20
270.5288621228
 30
0.0
 10
129.250936004
 20
270.9620094526
 30
0.0
 10
129.8960733828
 20
271.5436716973
 30
0.0
 10
130.4245103592
 20
272.250934597
 30
0.0
 10
130.8165152354
 20
273.0565285382
 30
0.0
 10
131.0576821367
 20
273.9292891538
 30
0.0
 10
131.1118714043
 20
274.5341560925
 30
0.0
 10
131.1118714043
 20
274.8368343957
 30
0.0
  0
SPLINE
  5
4A7
100
AcDbEntity
  8
0
100
AcDbSpline
 62
7
  6
CONTINUOUS
 70
0
 71
3
 72
15
 73
11
 74
0
 42
0.0000001
 43
0.0000001
 44
0.0000000001
 40
0.0
 40
0.0
 40
0.0
 40
0.0
 40
0.1304814395
 40
0.260143515
 40
0.388302995
 40
0.5144618781
 40
0.638420521
 40
0.7603111053
 40
0.8805948806
 40
1.0
 40
1.0
 40
1.0
 40
1.0
 10
128.8511453214
 20
274.8368343957
 30
0.0
 10
128.8511453214
 20
274.5341596868
 30
0.0
 10
128.796956982
 20
273.9292980648
 30
0.0
 10
128.5557944196
 20
273.0565377827
 30
0.0
 10
128.163789285
 20
272.2509418041
 30
0.0
 10
127.6353526616
 20
271.5436744701
 30
0.0
 10
126.9902157917
 20
270.9620101992
 30
0.0
 10
126.2525734917
 20
270.5288608015
 30
0.0
 10
125.4512071785
 20
270.2616308996
 30
0.0
 10
124.8933865836
 20
270.2013343957
 30
0.0
 10
124.6164053525
 20
270.2013343957
 30
0.0
  0
SPLINE
  5
4A8
100
AcDbEntity
  8
0
100
AcDbSpline
 62
7
  6
CONTINUOUS
 70
0
 71
3
 72
15
 73
11
 74
0
 42
0.0000001
 43
0.0000001
 44
0.0000000001
 40
0.0
 40
0.0
 40
0.0
 40
0.0
 40
0.1194051194
 40
0.2396888947
 40
0.361579479
 40
0.4855381219
 40
0.611697005
 40
0.739856485
 40
0.8695185605
 40
1.0
 40
1.0
 40
1.0
 40
1.0
 10
124.6164053525
 20
279.4723343957
 30
0.0
 10
124.8933865836
 20
279.4723343957
 30
0.0
 10
125.4512071785
 20
279.4120378919
 30
0.0
 10
126.2525734917
 20
279.14480799
 30
0.0
 10
126.9902157917
 20
278.7116585923
 30
0.0
 10
127.6353526616
 20
278.1299943214
 30
0.0
 10
128.163789285
 20
277.4227269874
 30
0.0
 10
128.5557944196
 20
276.6171310088
 30
0.0
 10
128.796956982
 20
275.7443707267
 30
0.0
 10
128.8511453214
 20
275.1395091047
 30
0.0
 10
128.8511453214
 20
274.8368343957
 30
0.0
  0
SPLINE
  5
4A9
100
AcDbEntity
  8
0
100
AcDbSpline
 62
7
  6
CONTINUOUS
 70
0
 71
3
 72
23
 73
19
 74
0
 42
0.0000001
 43
0.0000001
 44
0.0000000001
 40
0.0
 40
0.0
 40
0.0
 40
0.0
 40
0.0652405997
 40
0.1300716897
 40
0.1941511849
 40
0.2572309483
 40
0.3192112322
 40
0.3801570245
 40
0.440299021
 40
0.5000014008
 40
0.5597035795
 40
0.6198449609
 40
0.680789829
 40
0.7427691217
 40
0.8058480996
 40
0.8699272515
 40
0.9347585403
 40
1.0
 40
1.0
 40
1.0
 40
1.0
 10
127.8949587465
 20
274.8368343957
 30
0.0
 10
127.8949587465
 20
274.5839150912
 30
0.0
 10
127.8496795529
 20
274.0784831364
 30
0.0
 10
127.6481575308
 20
273.3491930383
 30
0.0
 10
127.3205906053
 20
272.6760233362
 30
0.0
 10
126.8790183803
 20
272.0850207752
 30
0.0
 10
126.3399144627
 20
271.5989607062
 30
0.0
 10
125.7235930979
 20
271.2370115566
 30
0.0
 10
125.0536924263
 20
271.0137211314
 30
0.0
 10
124.3563246706
 20
270.938248636
 30
0.0
 10
123.6589601371
 20
271.0137280038
 30
0.0
 10
122.9890678321
 20
271.2370214872
 30
0.0
 10
122.3727566778
 20
271.5989682336
 30
0.0
 10
121.8336617622
 20
272.0850223655
 30
0.0
 10
121.3920941332
 20
272.6760178693
 30
0.0
 10
121.0645270459
 20
273.3491834036
 30
0.0
 10
120.863002185
 20
274.0784756409
 30
0.0
 10
120.8177220861
 20
274.583911757
 30
0.0
 10
120.8177220861
 20
274.8368343957
 30
0.0
  0
SPLINE
  5
4AA
100
AcDbEntity
  8
0
100
AcDbSpline
 62
7
  6
CONTINUOUS
 70
0
 71
3
 72
23
 73
19
 74
0
 42
0.0000001
 43
0.0000001
 44
0.0000000001
 40
0.0
 40
0.0
 40
0.0
 40
0.0
 40
0.0652405997
 40
0.1300716897
 40
0.1941511849
 40
0.2572309483
 40
0.3192112322
 40
0.3801570245
 40
0.440299021
 40
0.5000014008
 40
0.5597035795
 40
0.6198449609
 40
0.680789829
 40
0.7427691217
 40
0.8058480996
 40
0.8699272515
 40
0.9347585403
 40
1.0
 40
1.0
 40
1.0
 40
1.0
 10
120.8177220861
 20
274.8368343957
 30
0.0
 10
120.8177220861
 20
275.0897537003
 30
0.0
 10
120.8630012797
 20
275.5951856551
 30
0.0
 10
121.0645233018
 20
276.3244757532
 30
0.0
 10
121.3920902273
 20
276.9976454553
 30
0.0
 10
121.8336624524
 20
277.5886480163
 30
0.0
 10
122.3727663699
 20
278.0747080853
 30
0.0
 10
122.9890877347
 20
278.4366572349
 30
0.0
 10
123.6589884063
 20
278.6599476601
 30
0.0
 10
124.356356162
 20
278.7354201555
 30
0.0
 10
125.0537206955
 20
278.6599407877
 30
0.0
 10
125.7236130005
 20
278.4366473043
 30
0.0
 10
126.3399241548
 20
278.0747005579
 30
0.0
 10
126.8790190704
 20
277.588646426
 30
0.0
 10
127.3205866994
 20
276.9976509222
 30
0.0
 10
127.6481537867
 20
276.3244853879
 30
0.0
 10
127.8496786476
 20
275.5951931506
 30
0.0
 10
127.8949587465
 20
275.0897570345
 30
0.0
 10
127.8949587465
 20
274.8368343957
 30
0.0
  0
LINE
  5
4AB
100
AcDbEntity
  8
0
100
AcDbLine
 62
7
  6
CONTINUOUS
 10
259.8338305104
 20
546.7658797913
 11
259.8367799741
 21
546.6384102942
  0
LINE
  5
4AC
100
AcDbEntity
  8
0
100
AcDbLine
 62
7
  6
CONTINUOUS
 10
259.8367799741
 20
546.6384102942
 11
259.839468141
 21
546.5277617719
  0
LINE
  5
4AD
100
AcDbEntity
  8
0
100
AcDbLine
 62
7
  6
CONTINUOUS
 10
259.839468141
 20
546.5277617719
 11
259.8407453155
 21
546.4768987182
  0
SPLINE
  5
4AE
100
AcDbEntity
  8
0
100
AcDbSpline
 62
7
  6
CONTINUOUS
 70
0
 71
3
 72
22
 73
18
 74
0
 42
0.0000001
 43
0.0000001
 44
0.0000000001
 40
0.0
 40
0.0
 40
0.0
 40
0.0
 40
0.1908967274
 40
0.3745578457
 40
0.5440683945
 40
0.6215024491
 40
0.6930763024
 40
0.7581351324
 40
0.8160959441
 40
0.8664631985
 40
0.9088510973
 40
0.9430159272
 40
0.9689496623
 40
0.9789762361
 40
0.9872313155
 40
0.9940434623
 40
1.0
 40
1.0
 40
1.0
 40
1.0
 10
229.0121318202
 20
446.0709343957
 30
0.0
 10
229.0121318202
 20
446.5045661416
 30
0.0
 10
229.0021368184
 20
447.3554333341
 30
0.0
 10
228.9574565547
 20
448.5906219719
 30
0.0
 10
228.8955469816
 20
449.5669772126
 30
0.0
 10
228.831040083
 20
450.2876635645
 30
0.0
 10
228.7781960192
 20
450.7710850912
 30
0.0
 10
228.7199903994
 20
451.2093105886
 30
0.0
 10
228.6570380443
 20
451.5981793821
 30
0.0
 10
228.5900179644
 20
451.9339911908
 30
0.0
 10
228.5197759742
 20
452.21383837
 30
0.0
 10
228.4470497955
 20
452.4351147736
 30
0.0
 10
228.3807727078
 20
452.5809016078
 30
0.0
 10
228.3241006124
 20
452.6641672806
 30
0.0
 10
228.2846309912
 20
452.7057728519
 30
0.0
 10
228.2439705457
 20
452.7320507537
 30
0.0
 10
228.21477815
 20
452.7384306885
 30
0.0
 10
228.2012475679
 20
452.7384306851
 30
0.0
  0
SPLINE
  5
4AF
100
AcDbEntity
  8
0
100
AcDbSpline
 62
7
  6
CONTINUOUS
 70
0
 71
3
 72
15
 73
11
 74
0
 42
0.0000001
 43
0.0000001
 44
0.0000000001
 40
0.0
 40
0.0
 40
0.0
 40
0.0
 40
0.3918380199
 40
0.5559703257
 40
0.6960886601
 40
0.8106317168
 40
0.8986868685
 40
0.932833871
 40
0.9606598009
 40
1.0
 40
1.0
 40
1.0
 40
1.0
 10
216.2971086147
 20
449.249027436
 30
0.0
 10
216.3245432315
 20
449.575259039
 30
0.0
 10
216.3715683272
 20
450.0376677753
 30
0.0
 10
216.4576471814
 20
450.6129511597
 30
0.0
 10
216.5231736529
 20
450.9567933653
 30
0.0
 10
216.5927269771
 20
451.234791433
 30
0.0
 10
216.6565537848
 20
451.4223354251
 30
0.0
 10
216.7122302309
 20
451.5353832835
 30
0.0
 10
216.7578069041
 20
451.6056276408
 30
0.0
 10
216.8022214101
 20
451.6474701603
 30
0.0
 10
216.8339735703
 20
451.6559654796
 30
0.0
  0
SPLINE
  5
4B0
100
AcDbEntity
  8
0
100
AcDbSpline
 62
7
  6
CONTINUOUS
 70
0
 71
3
 72
19
 73
15
 74
0
 42
0.0000001
 43
0.0000001
 44
0.0000000001
 40
0.0
 40
0.0
 40
0.0
 40
0.0
 40
0.3746106639
 40
0.5441610184
 40
0.6931956156
 40
0.7582692815
 40
0.8162447828
 40
0.8666229915
 40
0.9090216903
 40
0.9431928292
 40
0.9691329166
 40
0.97916063
 40
0.9874190835
 40
1.0
 40
1.0
 40
1.0
 40
1.0
 10
217.2422272495
 20
446.0709343957
 30
0.0
 10
217.2422272495
 20
446.476055386
 30
0.0
 10
217.2292263654
 20
447.0647318533
 30
0.0
 10
217.1817713616
 20
447.8129537984
 30
0.0
 10
217.1418356532
 20
448.2260623568
 30
0.0
 10
217.1031144271
 20
448.5177761545
 30
0.0
 10
217.0731372168
 20
448.702952838
 30
0.0
 10
217.0412135271
 20
448.8628654761
 30
0.0
 10
217.0077887216
 20
448.9961247343
 30
0.0
 10
216.9730980948
 20
449.1014971908
 30
0.0
 10
216.9416628839
 20
449.1709092294
 30
0.0
 10
216.9144924728
 20
449.2105739816
 30
0.0
 10
216.8918448944
 20
449.2348939299
 30
0.0
 10
216.8696974664
 20
449.2459253308
 30
0.0
 10
216.8560918917
 20
449.2459251317
 30
0.0
  0
SPLINE
  5
4B1
100
AcDbEntity
  8
0
100
AcDbSpline
 62
7
  6
CONTINUOUS
 70
0
 71
3
 72
19
 73
15
 74
0
 42
0.0000001
 43
0.0000001
 44
0.0000000001
 40
0.0
 40
0.0
 40
0.0
 40
0.0
 40
0.0125809254
 40
0.0208393914
 40
0.0308672182
 40
0.0568070385
 40
0.0909780387
 40
0.1333761316
 40
0.1837536751
 40
0.2417283085
 40
0.3068011157
 40
0.4558343007
 40
0.6253844887
 40
1.0
 40
1.0
 40
1.0
 40
1.0
 10
216.8560918909
 20
442.8959436598
 30
0.0
 10
216.8696974758
 20
442.895943859
 30
0.0
 10
216.8918450443
 20
442.9069744436
 30
0.0
 10
216.9144927178
 20
442.931294735
 30
0.0
 10
216.9416624867
 20
442.9709596585
 30
0.0
 10
216.9730984043
 20
443.0403709921
 30
0.0
 10
217.0077880551
 20
443.145742686
 30
0.0
 10
217.0412130364
 20
443.2790002886
 30
0.0
 10
217.0731362234
 20
443.4389106986
 30
0.0
 10
217.1031133122
 20
443.6240847797
 30
0.0
 10
217.1418343321
 20
443.9157951998
 30
0.0
 10
217.1817702487
 20
444.3289011046
 30
0.0
 10
217.2292260956
 20
445.0771265786
 30
0.0
 10
217.2422272495
 20
445.6658081439
 30
0.0
 10
217.2422272495
 20
446.0709343957
 30
0.0
  0
SPLINE
  5
4B2
100
AcDbEntity
  8
0
100
AcDbSpline
 62
7
  6
CONTINUOUS
 70
0
 71
3
 72
22
 73
18
 74
0
 42
0.0000001
 43
0.0000001
 44
0.0000000001
 40
0.0
 40
0.0
 40
0.0
 40
0.0
 40
0.0059565347
 40
0.0127686718
 40
0.0210237386
 40
0.0310502841
 40
0.0569839431
 40
0.0911486503
 40
0.1335364399
 40
0.1839035592
 40
0.2418641577
 40
0.3069227344
 40
0.3784963251
 40
0.4559301392
 40
0.6254408442
 40
0.8091025514
 40
1.0
 40
1.0
 40
1.0
 40
1.0
 10
228.2012475679
 20
439.4034381064
 30
0.0
 10
228.2147781432
 20
439.4034381098
 30
0.0
 10
228.2439705086
 20
439.4098180168
 30
0.0
 10
228.2846309333
 20
439.4360958529
 30
0.0
 10
228.3241004544
 20
439.4777013603
 30
0.0
 10
228.3807724878
 20
439.5609667477
 30
0.0
 10
228.4470493779
 20
439.706753112
 30
0.0
 10
228.5197755408
 20
439.9280287762
 30
0.0
 10
228.5900173759
 20
440.2078751413
 30
0.0
 10
228.6570373634
 20
440.5436859049
 30
0.0
 10
228.7199896927
 20
440.932553319
 30
0.0
 10
228.778195216
 20
441.3707771591
 30
0.0
 10
228.8310391813
 20
441.8541969674
 30
0.0
 10
228.8955463712
 20
442.5748825024
 30
0.0
 10
228.9574560912
 20
443.5512388858
 30
0.0
 10
229.0021367712
 20
444.7864308408
 30
0.0
 10
229.0121318202
 20
445.6373010114
 30
0.0
 10
229.0121318202
 20
446.0709343957
 30
0.0
  0
SPLINE
  5
4B3
100
AcDbEntity
  8
0
100
AcDbSpline
 62
7
  6
CONTINUOUS
 70
0
 71
3
 72
15
 73
11
 74
0
 42
0.0000001
 43
0.0000001
 44
0.0000000001
 40
0.0
 40
0.0
 40
0.0
 40
0.0
 40
0.0393373972
 40
0.0671626337
 40
0.1013095073
 40
0.1893653252
 40
0.3039099814
 40
0.4440302009
 40
0.608163768
 40
1.0
 40
1.0
 40
1.0
 40
1.0
 10
216.8339735699
 20
440.4859032076
 30
0.0
 10
216.8022155483
 20
440.4944000198
 30
0.0
 10
216.7577943864
 20
440.5362550677
 30
0.0
 10
216.7122118888
 20
440.6065170513
 30
0.0
 10
216.6565276041
 20
440.7195969298
 30
0.0
 10
216.5926923508
 20
440.9071931003
 30
0.0
 10
216.523130889
 20
441.1852681558
 30
0.0
 10
216.4575981306
 20
441.529204101
 30
0.0
 10
216.3715138548
 20
442.1046379421
 30
0.0
 10
216.324488264
 20
442.5671653933
 30
0.0
 10
216.2970549748
 20
442.8934794667
 30
0.0
  0
SPLINE
  5
4B4
100
AcDbEntity
  8
0
100
AcDbSpline
 62
7
  6
CONTINUOUS
 70
0
 71
3
 72
23
 73
19
 74
0
 42
0.0000001
 43
0.0000001
 44
0.0000000001
 40
0.0
 40
0.0
 40
0.0
 40
0.0
 40
0.1940491166
 40
0.3804350537
 40
0.4684550818
 40
0.5518563863
 40
0.6298266876
 40
0.7016130934
 40
0.766532301
 40
0.8239806905
 40
0.8734563689
 40
0.9145783669
 40
0.947134126
 40
0.9712184543
 40
0.980320734
 40
0.9877640027
 40
0.9940505462
 40
1.0
 40
1.0
 40
1.0
 40
1.0
 10
217.5356901217
 20
446.0709343957
 30
0.0
 10
217.5356901217
 20
445.7000757644
 30
0.0
 10
217.5269636177
 20
444.9729758454
 30
0.0
 10
217.4939650888
 20
444.0781790198
 30
0.0
 10
217.4540202881
 20
443.3954971266
 30
0.0
 10
217.4187220118
 20
442.9201567218
 30
0.0
 10
217.3778930636
 20
442.476403193
 30
0.0
 10
217.3319684473
 20
442.068666953
 30
0.0
 10
217.2814482756
 20
441.7010217765
 30
0.0
 10
217.2268975206
 20
441.3770883842
 30
0.0
 10
217.1689424112
 20
441.1000840332
 30
0.0
 10
217.1083655057
 20
440.8723873382
 30
0.0
 10
217.045820721
 20
440.696256632
 30
0.0
 10
216.9886540273
 20
440.5832173004
 30
0.0
 10
216.9394049656
 20
440.5227378655
 30
0.0
 10
216.9050888304
 20
440.4950276295
 30
0.0
 10
216.869104365
 20
440.4813818566
 30
0.0
 10
216.8449575835
 20
440.4829644508
 30
0.0
 10
216.8339735699
 20
440.4859032076
 30
0.0
  0
SPLINE
  5
4B5
100
AcDbEntity
  8
0
100
AcDbSpline
 62
7
  6
CONTINUOUS
 70
0
 71
3
 72
22
 73
18
 74
0
 42
0.0000001
 43
0.0000001
 44
0.0000000001
 40
0.0
 40
0.0
 40
0.0
 40
0.0
 40
0.0059565387
 40
0.0127686853
 40
0.0210237632
 40
0.0310503307
 40
0.0569840543
 40
0.0911488872
 40
0.1335368699
 40
0.1839042226
 40
0.2418650912
 40
0.3069239001
 40
0.3784976262
 40
0.4559315735
 40
0.6254427155
 40
0.8091036556
 40
1.0
 40
1.0
 40
1.0
 40
1.0
 10
220.8899250208
 20
452.7384343957
 30
0.0
 10
220.9034556125
 20
452.7384343957
 30
0.0
 10
220.9326480242
 20
452.7320544504
 30
0.0
 10
220.9733084828
 20
452.7057765225
 30
0.0
 10
221.0127780922
 20
452.6641709232
 30
0.0
 10
221.0694501871
 20
452.5809052385
 30
0.0
 10
221.1357272475
 20
452.4351183325
 30
0.0
 10
221.2084535261
 20
452.2138416511
 30
0.0
 10
221.2786955512
 20
451.9339938841
 30
0.0
 10
221.3457157633
 20
451.5981813613
 30
0.0
 10
221.4086680928
 20
451.2093120388
 30
0.0
 10
221.4668736518
 20
450.7710865036
 30
0.0
 10
221.5197176425
 20
450.2876652893
 30
0.0
 10
221.5842245936
 20
449.5669777326
 30
0.0
 10
221.6461341813
 20
448.5906212627
 30
0.0
 10
221.6908143002
 20
447.3554318807
 30
0.0
 10
221.700809273
 20
446.5045655053
 30
0.0
 10
221.700809273
 20
446.0709343957
 30
0.0
  0
SPLINE
  5
4B6
100
AcDbEntity
  8
0
100
AcDbSpline
 62
7
  6
CONTINUOUS
 70
0
 71
3
 72
22
 73
18
 74
0
 42
0.0000001
 43
0.0000001
 44
0.0000000001
 40
0.0
 40
0.0
 40
0.0
 40
0.0
 40
0.1908963444
 40
0.3745572845
 40
0.5440684265
 40
0.6215023738
 40
0.6930760999
 40
0.7581349088
 40
0.8160957774
 40
0.8664631301
 40
0.9088511128
 40
0.9430159457
 40
0.9689496693
 40
0.9789762368
 40
0.9872313147
 40
0.9940434613
 40
1.0
 40
1.0
 40
1.0
 40
1.0
 10
221.700809273
 20
446.0709343957
 30
0.0
 10
221.700809273
 20
445.6373032861
 30
0.0
 10
221.6908143002
 20
444.7864369108
 30
0.0
 10
221.6461341813
 20
443.5512475288
 30
0.0
 10
221.5842245936
 20
442.5748910589
 30
0.0
 10
221.5197176425
 20
441.8542035022
 30
0.0
 10
221.4668736518
 20
441.3707822879
 30
0.0
 10
221.4086680928
 20
440.9325567527
 30
0.0
 10
221.3457157633
 20
440.5436874302
 30
0.0
 10
221.2786955512
 20
440.2078749074
 30
0.0
 10
221.2084535261
 20
439.9280271404
 30
0.0
 10
221.1357272475
 20
439.706750459
 30
0.0
 10
221.0694501871
 20
439.560963553
 30
0.0
 10
221.0127780922
 20
439.4776978683
 30
0.0
 10
220.9733084828
 20
439.436092269
 30
0.0
 10
220.9326480242
 20
439.4098143411
 30
0.0
 10
220.9034556125
 20
439.4034343957
 30
0.0
 10
220.8899250208
 20
439.4034343957
 30
0.0
  0
SPLINE
  5
4B7
100
AcDbEntity
  8
0
100
AcDbSpline
 62
7
  6
CONTINUOUS
 70
0
 71
3
 72
23
 73
19
 74
0
 42
0.0000001
 43
0.0000001
 44
0.0000000001
 40
0.0
 40
0.0
 40
0.0
 40
0.0
 40
0.0059494501
 40
0.0122359871
 40
0.0196792618
 40
0.0287815022
 40
0.0528658182
 40
0.0854215088
 40
0.1265434601
 40
0.1760190755
 40
0.2334672654
 40
0.2983861453
 40
0.3701722186
 40
0.4481422035
 40
0.5315434373
 40
0.619563653
 40
0.8059502065
 40
1.0
 40
1.0
 40
1.0
 40
1.0
 10
216.8339735703
 20
451.6559654796
 30
0.0
 10
216.8449575706
 20
451.6589042589
 30
0.0
 10
216.8691043208
 20
451.6604870742
 30
0.0
 10
216.9050888062
 20
451.6468412284
 30
0.0
 10
216.9394047377
 20
451.6191309032
 30
0.0
 10
216.9886540653
 20
451.5586518145
 30
0.0
 10
217.0458203543
 20
451.445612457
 30
0.0
 10
217.10836536
 20
451.2694821495
 30
0.0
 10
217.1689421559
 20
451.0417857448
 30
0.0
 10
217.2268971638
 20
450.7647819888
 30
0.0
 10
217.2814478374
 20
450.4408497233
 30
0.0
 10
217.3319679185
 20
450.0732061928
 30
0.0
 10
217.3778923454
 20
449.6654718088
 30
0.0
 10
217.4187213695
 20
449.2217196683
 30
0.0
 10
217.4540197648
 20
448.7463796526
 30
0.0
 10
217.493964717
 20
448.063696363
 30
0.0
 10
217.5269635846
 20
447.1688967155
 30
0.0
 10
217.5356901217
 20
446.4417943215
 30
0.0
 10
217.5356901217
 20
446.0709343957
 30
0.0
  0
SPLINE
  5
4B8
100
AcDbEntity
  8
0
100
AcDbSpline
 62
7
  6
CONTINUOUS
 70
0
 71
3
 72
11
 73
7
 74
0
 42
0.0000001
 43
0.0000001
 44
0.0000000001
 40
0.0
 40
0.0
 40
0.0
 40
0.0
 40
0.080491617
 40
0.3020551067
 40
0.6236874357
 40
1.0
 40
1.0
 40
1.0
 40
1.0
 10
124.5635157245
 20
447.4298343957
 30
0.0
 10
124.5857880696
 20
447.3735703177
 30
0.0
 10
124.6670434408
 20
447.1614759325
 30
0.0
 10
124.8154026613
 20
446.7162500122
 30
0.0
 10
124.9723792353
 20
446.0413857612
 30
0.0
 10
125.0169324664
 20
445.5156649848
 30
0.0
 10
125.0169324664
 20
445.2327343957
 30
0.0
  0
SPLINE
  5
4B9
100
AcDbEntity
  8
0
100
AcDbSpline
 62
7
  6
CONTINUOUS
 70
0
 71
3
 72
11
 73
7
 74
0
 42
0.0000001
 43
0.0000001
 44
0.0000000001
 40
0.0
 40
0.0
 40
0.0
 40
0.0
 40
0.080491617
 40
0.3020551067
 40
0.6236874357
 40
1.0
 40
1.0
 40
1.0
 40
1.0
 10
135.6633157245
 20
443.0356343957
 30
0.0
 10
135.6410433794
 20
443.0918984738
 30
0.0
 10
135.5597880082
 20
443.303992859
 30
0.0
 10
135.4114287877
 20
443.7492187793
 30
0.0
 10
135.2544522137
 20
444.4240830303
 30
0.0
 10
135.2098989826
 20
444.9498038067
 30
0.0
 10
135.2098989826
 20
445.2327343957
 30
0.0
  0
SPLINE
  5
4BA
100
AcDbEntity
  8
0
100
AcDbSpline
 62
7
  6
CONTINUOUS
 70
0
 71
3
 72
11
 73
7
 74
0
 42
0.0000001
 43
0.0000001
 44
0.0000000001
 40
0.0
 40
0.0
 40
0.0
 40
0.0
 40
0.3763076067
 40
0.6979392901
 40
0.9195057814
 40
1.0
 40
1.0
 40
1.0
 40
1.0
 10
135.2098989826
 20
445.2327343957
 30
0.0
 10
135.2098989826
 20
445.5156613282
 30
0.0
 10
135.2544514398
 20
446.0413776993
 30
0.0
 10
135.4114209028
 20
446.716241967
 30
0.0
 10
135.5597844802
 20
447.1614706031
 30
0.0
 10
135.6410424589
 20
447.3735685746
 30
0.0
 10
135.6633157245
 20
447.4298343957
 30
0.0
  0
SPLINE
  5
4BB
100
AcDbEntity
  8
0
100
AcDbSpline
 62
7
  6
CONTINUOUS
 70
0
 71
3
 72
11
 73
7
 74
0
 42
0.0000001
 43
0.0000001
 44
0.0000000001
 40
0.0
 40
0.0
 40
0.0
 40
0.0
 40
0.3763076067
 40
0.6979392901
 40
0.9195057814
 40
1.0
 40
1.0
 40
1.0
 40
1.0
 10
125.0169324664
 20
445.2327343957
 30
0.0
 10
125.0169324664
 20
444.9498074633
 30
0.0
 10
124.9723800092
 20
444.4240910922
 30
0.0
 10
124.8154105462
 20
443.7492268245
 30
0.0
 10
124.6670469688
 20
443.3039981884
 30
0.0
 10
124.5857889901
 20
443.0919002169
 30
0.0
 10
124.5635157245
 20
443.0356343957
 30
0.0
  0
SPLINE
  5
4BC
100
AcDbEntity
  8
0
100
AcDbSpline
 62
7
  6
CONTINUOUS
 70
0
 71
3
 72
15
 73
11
 74
0
 42
0.0000001
 43
0.0000001
 44
0.0000000001
 40
0.0
 40
0.0
 40
0.0
 40
0.0
 40
0.1304802904
 40
0.2601446522
 40
0.3883025006
 40
0.5144616567
 40
0.6384202448
 40
0.7603107599
 40
0.8805947764
 40
1.0
 40
1.0
 40
1.0
 40
1.0
 10
116.8413778105
 20
395.5757343957
 30
0.0
 10
116.8413778105
 20
396.0940084942
 30
0.0
 10
116.9341772765
 20
397.1297322879
 30
0.0
 10
117.347090783
 20
398.6241940415
 30
0.0
 10
118.0183634517
 20
400.0036306344
 30
0.0
 10
118.9232170348
 20
401.2146972568
 30
0.0
 10
120.0278956134
 20
402.210708774
 30
0.0
 10
121.2909831614
 20
402.9524008929
 30
0.0
 10
122.6631854819
 20
403.409996106
 30
0.0
 10
123.6183614874
 20
403.5132235701
 30
0.0
 10
124.0926448788
 20
403.5132234433
 30
0.0
  0
SPLINE
  5
4BD
100
AcDbEntity
  8
0
100
AcDbSpline
 62
7
  6
CONTINUOUS
 70
0
 71
3
 72
15
 73
11
 74
0
 42
0.0000001
 43
0.0000001
 44
0.0000000001
 40
0.0
 40
0.0
 40
0.0
 40
0.0
 40
0.1304802904
 40
0.2601446522
 40
0.3883025006
 40
0.5144616567
 40
0.6384202448
 40
0.7603107599
 40
0.8805947764
 40
1.0
 40
1.0
 40
1.0
 40
1.0
 10
132.0154341483
 20
395.5757343957
 30
0.0
 10
132.0154341483
 20
396.0940084942
 30
0.0
 10
131.9226346822
 20
397.1297322879
 30
0.0
 10
131.5097211758
 20
398.6241940415
 30
0.0
 10
130.8384485071
 20
400.0036306344
 30
0.0
 10
129.9335949239
 20
401.2146972568
 30
0.0
 10
128.8289163454
 20
402.210708774
 30
0.0
 10
127.5658287973
 20
402.9524008929
 30
0.0
 10
126.1936264768
 20
403.409996106
 30
0.0
 10
125.2384504713
 20
403.5132235701
 30
0.0
 10
124.7641670799
 20
403.5132234433
 30
0.0
  0
SPLINE
  5
4BE
100
AcDbEntity
  8
0
100
AcDbSpline
 62
7
  6
CONTINUOUS
 70
0
 71
3
 72
15
 73
11
 74
0
 42
0.0000001
 43
0.0000001
 44
0.0000000001
 40
0.0
 40
0.0
 40
0.0
 40
0.0
 40
0.1194050895
 40
0.239688757
 40
0.3615789799
 40
0.4855373147
 40
0.6116963025
 40
0.7398543615
 40
0.869519176
 40
1.0
 40
1.0
 40
1.0
 40
1.0
 10
124.0926448822
 20
387.6382453482
 30
0.0
 10
123.6183620266
 20
387.6382454749
 30
0.0
 10
122.6631879612
 20
387.7414722777
 30
0.0
 10
121.2909883817
 20
388.1990657795
 30
0.0
 10
120.0279031068
 20
388.9407546387
 30
0.0
 10
118.9232255602
 20
389.9367629312
 30
0.0
 10
118.0183699696
 20
391.1478269841
 30
0.0
 10
117.3470948587
 20
392.5272646301
 30
0.0
 10
116.9341779265
 20
394.0217304059
 30
0.0
 10
116.8413778105
 20
395.0574581808
 30
0.0
 10
116.8413778105
 20
395.5757343957
 30
0.0
  0
SPLINE
  5
4BF
100
AcDbEntity
  8
0
100
AcDbSpline
 62
7
  6
CONTINUOUS
 70
0
 71
3
 72
15
 73
11
 74
0
 42
0.0000001
 43
0.0000001
 44
0.0000000001
 40
0.0
 40
0.0
 40
0.0
 40
0.0
 40
0.1194050895
 40
0.239688757
 40
0.3615789799
 40
0.4855373147
 40
0.6116963025
 40
0.7398543615
 40
0.869519176
 40
1.0
 40
1.0
 40
1.0
 40
1.0
 10
124.7641670765
 20
387.6382453482
 30
0.0
 10
125.2384499321
 20
387.6382454749
 30
0.0
 10
126.1936239976
 20
387.7414722777
 30
0.0
 10
127.565823577
 20
388.1990657795
 30
0.0
 10
128.828908852
 20
388.9407546387
 30
0.0
 10
129.9335863985
 20
389.9367629312
 30
0.0
 10
130.8384419891
 20
391.1478269841
 30
0.0
 10
131.5097171
 20
392.5272646301
 30
0.0
 10
131.9226340322
 20
394.0217304059
 30
0.0
 10
132.0154341483
 20
395.0574581808
 30
0.0
 10
132.0154341483
 20
395.5757343957
 30
0.0
  0
SPLINE
  5
4C0
100
AcDbEntity
  8
0
100
AcDbSpline
 62
7
  6
CONTINUOUS
 70
0
 71
3
 72
15
 73
11
 74
0
 42
0.0000001
 43
0.0000001
 44
0.0000000001
 40
0.0
 40
0.0
 40
0.0
 40
0.0
 40
0.1193493129
 40
0.2398270287
 40
0.3619987122
 40
0.4861836519
 40
0.6124200256
 40
0.7404733855
 40
0.8698738351
 40
1.0
 40
1.0
 40
1.0
 40
1.0
 10
124.7534178443
 20
403.4802041
 30
0.0
 10
125.1990477669
 20
403.4355576238
 30
0.0
 10
126.0879123667
 20
403.2542591388
 30
0.0
 10
127.3461326339
 20
402.7202374411
 30
0.0
 10
128.4922239398
 20
401.9423500815
 30
0.0
 10
129.4866584232
 20
400.9481201456
 30
0.0
 10
130.2964154151
 20
399.7720596242
 30
0.0
 10
130.8945776219
 20
398.4542571429
 30
0.0
 10
131.2615463479
 20
397.0399349117
 30
0.0
 10
131.3439119506
 20
396.0640356074
 30
0.0
 10
131.3439119506
 20
395.5757343957
 30
0.0
  0
SPLINE
  5
4C1
100
AcDbEntity
  8
0
100
AcDbSpline
 62
7
  6
CONTINUOUS
 70
0
 71
3
 72
15
 73
11
 74
0
 42
0.0000001
 43
0.0000001
 44
0.0000000001
 40
0.0
 40
0.0
 40
0.0
 40
0.0
 40
0.1301256782
 40
0.259525687
 40
0.3875787872
 40
0.5138152723
 40
0.6380004489
 40
0.7601723725
 40
0.880650415
 40
1.0
 40
1.0
 40
1.0
 40
1.0
 10
131.3439119506
 20
395.5757343957
 30
0.0
 10
131.3439119506
 20
395.0874323509
 30
0.0
 10
131.2615459472
 20
394.1115312471
 30
0.0
 10
130.8945762456
 20
392.6972056238
 30
0.0
 10
130.2964099486
 20
391.3793986932
 30
0.0
 10
129.4866461481
 20
390.2033329386
 30
0.0
 10
128.4922014985
 20
389.2090989698
 30
0.0
 10
127.3460973961
 20
388.4312113684
 30
0.0
 10
126.0878636919
 20
387.8971937146
 30
0.0
 10
125.1989903503
 20
387.7159015097
 30
0.0
 10
124.7533565841
 20
387.6712586826
 30
0.0
  0
SPLINE
  5
4C2
100
AcDbEntity
  8
0
100
AcDbSpline
 62
7
  6
CONTINUOUS
 70
0
 71
3
 72
15
 73
11
 74
0
 42
0.0000001
 43
0.0000001
 44
0.0000000001
 40
0.0
 40
0.0
 40
0.0
 40
0.0
 40
0.1304802904
 40
0.2601446522
 40
0.3883025006
 40
0.5144616567
 40
0.6384202448
 40
0.7603107599
 40
0.8805947764
 40
1.0
 40
1.0
 40
1.0
 40
1.0
 10
116.8413778105
 20
300.3257343957
 30
0.0
 10
116.8413778105
 20
300.8440084942
 30
0.0
 10
116.9341772765
 20
301.8797322879
 30
0.0
 10
117.347090783
 20
303.3741940415
 30
0.0
 10
118.0183634517
 20
304.7536306344
 30
0.0
 10
118.9232170348
 20
305.9646972568
 30
0.0
 10
120.0278956134
 20
306.960708774
 30
0.0
 10
121.2909831614
 20
307.7024008929
 30
0.0
 10
122.6631854819
 20
308.159996106
 30
0.0
 10
123.6183614874
 20
308.2632235701
 30
0.0
 10
124.0926448788
 20
308.2632234433
 30
0.0
  0
SPLINE
  5
4C3
100
AcDbEntity
  8
0
100
AcDbSpline
 62
7
  6
CONTINUOUS
 70
0
 71
3
 72
9
 73
5
 74
0
 42
0.0000001
 43
0.0000001
 44
0.0000000001
 40
0.0
 40
0.0
 40
0.0
 40
0.0
 40
0.5026611423
 40
1.0
 40
1.0
 40
1.0
 40
1.0
 10
132.0154341483
 20
300.3257343957
 30
0.0
 10
132.0154341483
 20
301.0083019392
 30
0.0
 10
131.854804398
 20
302.3710602529
 30
0.0
 10
131.3756590111
 20
303.657742221
 30
0.0
 10
131.0637320438
 20
304.2567298536
 30
0.0
  0
SPLINE
  5
4C4
100
AcDbEntity
  8
0
100
AcDbSpline
 62
7
  6
CONTINUOUS
 70
0
 71
3
 72
13
 73
9
 74
0
 42
0.0000001
 43
0.0000001
 44
0.0000000001
 40
0.0
 40
0.0
 40
0.0
 40
0.0
 40
0.2574294359
 40
0.5089922062
 40
0.6330255684
 40
0.7559893957
 40
0.8781924197
 40
1.0
 40
1.0
 40
1.0
 40
1.0
 10
130.9880081345
 20
304.3987021363
 30
0.0
 10
130.6722505251
 20
304.9768613132
 30
0.0
 10
129.9051079357
 20
306.0489381825
 30
0.0
 10
128.6419134544
 20
307.094594581
 30
0.0
 10
127.5122572137
 20
307.6949376143
 30
0.0
 10
126.6221846976
 20
308.0210780147
 30
0.0
 10
125.701195435
 20
308.2189618864
 30
0.0
 10
125.0758739801
 20
308.2632235266
 30
0.0
 10
124.7641670799
 20
308.2632234433
 30
0.0
  0
SPLINE
  5
4C5
100
AcDbEntity
  8
0
100
AcDbSpline
 62
7
  6
CONTINUOUS
 70
0
 71
3
 72
15
 73
11
 74
0
 42
0.0000001
 43
0.0000001
 44
0.0000000001
 40
0.0
 40
0.0
 40
0.0
 40
0.0
 40
0.1194050895
 40
0.239688757
 40
0.3615789799
 40
0.4855373147
 40
0.6116963025
 40
0.7398543615
 40
0.869519176
 40
1.0
 40
1.0
 40
1.0
 40
1.0
 10
124.0926448822
 20
292.3882453482
 30
0.0
 10
123.6183620266
 20
292.3882454749
 30
0.0
 10
122.6631879612
 20
292.4914722777
 30
0.0
 10
121.2909883817
 20
292.9490657795
 30
0.0
 10
120.0279031068
 20
293.6907546387
 30
0.0
 10
118.9232255602
 20
294.6867629312
 30
0.0
 10
118.0183699696
 20
295.8978269841
 30
0.0
 10
117.3470948587
 20
297.2772646301
 30
0.0
 10
116.9341779265
 20
298.7717304059
 30
0.0
 10
116.8413778105
 20
299.8074581808
 30
0.0
 10
116.8413778105
 20
300.3257343957
 30
0.0
  0
SPLINE
  5
4C6
100
AcDbEntity
  8
0
100
AcDbSpline
 62
7
  6
CONTINUOUS
 70
0
 71
3
 72
15
 73
11
 74
0
 42
0.0000001
 43
0.0000001
 44
0.0000000001
 40
0.0
 40
0.0
 40
0.0
 40
0.0
 40
0.1213415514
 40
0.2431315114
 40
0.3657798309
 40
0.4896238537
 40
0.6149028975
 40
0.7417416908
 40
0.8701449381
 40
1.0
 40
1.0
 40
1.0
 40
1.0
 10
124.7641670765
 20
292.3882453482
 30
0.0
 10
125.0971916887
 20
292.3882454372
 30
0.0
 10
125.7655582196
 20
292.4388037173
 30
0.0
 10
126.7473829447
 20
292.664680158
 30
0.0
 10
127.691394526
 20
293.0361934703
 30
0.0
 10
128.5793017654
 20
293.5460787207
 30
0.0
 10
129.3943540863
 20
294.1844226751
 30
0.0
 10
130.1212046622
 20
294.9389843373
 30
0.0
 10
130.7461362628
 20
295.7951205065
 30
0.0
 10
131.0855628546
 20
296.4201067763
 30
0.0
 10
131.2350348593
 20
296.7436373724
 30
0.0
  0
SPLINE
  5
4C7
100
AcDbEntity
  8
0
100
AcDbSpline
 62
7
  6
CONTINUOUS
 70
0
 71
3
 72
9
 73
5
 74
0
 42
0.0000001
 43
0.0000001
 44
0.0000000001
 40
0.0
 40
0.0
 40
0.0
 40
0.0
 40
0.4978048812
 40
1.0
 40
1.0
 40
1.0
 40
1.0
 10
131.2350348593
 20
296.7436373724
 30
0.0
 10
131.4916694367
 20
297.2991202402
 30
0.0
 10
131.8840161535
 20
298.475671522
 30
0.0
 10
132.0154341483
 20
299.7084371786
 30
0.0
 10
132.0154341483
 20
300.3257343957
 30
0.0
  0
SPLINE
  5
4C8
100
AcDbEntity
  8
0
100
AcDbSpline
 62
7
  6
CONTINUOUS
 70
0
 71
3
 72
11
 73
7
 74
0
 42
0.0000001
 43
0.0000001
 44
0.0000000001
 40
0.0
 40
0.0
 40
0.0
 40
0.0
 40
0.2437702967
 40
0.4908531751
 40
0.7427803837
 40
1.0
 40
1.0
 40
1.0
 40
1.0
 10
124.7534178443
 20
308.2302041
 30
0.0
 10
125.3142832128
 20
308.1740124911
 30
0.0
 10
126.4340161976
 20
307.9147292866
 30
0.0
 10
127.9734251503
 20
307.1158823283
 30
0.0
 10
129.3001260296
 20
305.9524803287
 30
0.0
 10
129.990146966
 20
304.9839772938
 30
0.0
 10
130.2800692675
 20
304.4646517208
 30
0.0
  0
SPLINE
  5
4C9
100
AcDbEntity
  8
0
100
AcDbSpline
 62
7
  6
CONTINUOUS
 70
0
 71
3
 72
9
 73
5
 74
0
 42
0.0000001
 43
0.0000001
 44
0.0000000001
 40
0.0
 40
0.0
 40
0.0
 40
0.0
 40
0.497034588
 40
1.0
 40
1.0
 40
1.0
 40
1.0
 10
130.2800692675
 20
304.4646517208
 30
0.0
 10
130.627992467
 20
303.8414315892
 30
0.0
 10
131.1640701955
 20
302.489811465
 30
0.0
 10
131.3439119506
 20
301.048011666
 30
0.0
 10
131.3439119506
 20
300.3257343957
 30
0.0
  0
SPLINE
  5
4CA
100
AcDbEntity
  8
0
100
AcDbSpline
 62
7
  6
CONTINUOUS
 70
0
 71
3
 72
9
 73
5
 74
0
 42
0.0000001
 43
0.0000001
 44
0.0000000001
 40
0.0
 40
0.0
 40
0.0
 40
0.0
 40
0.5025905976
 40
1.0
 40
1.0
 40
1.0
 40
1.0
 10
131.3439119506
 20
300.3257343957
 30
0.0
 10
131.3439119506
 20
299.6526800401
 30
0.0
 10
131.1877226923
 20
298.308862863
 30
0.0
 10
130.7217550816
 20
297.0379757193
 30
0.0
 10
130.4181895794
 20
296.4450521863
 30
0.0
  0
SPLINE
  5
4CB
100
AcDbEntity
  8
0
100
AcDbSpline
 62
7
  6
CONTINUOUS
 70
0
 71
3
 72
13
 73
9
 74
0
 42
0.0000001
 43
0.0000001
 44
0.0000000001
 40
0.0
 40
0.0
 40
0.0
 40
0.0
 40
0.2572719384
 40
0.5090811064
 40
0.633246645
 40
0.7562884986
 40
0.8784420511
 40
1.0
 40
1.0
 40
1.0
 40
1.0
 10
130.4181895794
 20
296.4450521863
 30
0.0
 10
130.1354223411
 20
295.8927517808
 30
0.0
 10
129.4485444128
 20
294.859526918
 30
0.0
 10
128.3127021613
 20
293.8144880802
 30
0.0
 10
127.2875886678
 20
293.1786136844
 30
0.0
 10
126.474643534
 20
292.8081316593
 30
0.0
 10
125.6267479186
 20
292.5479910139
 30
0.0
 10
125.0450650472
 20
292.4504815366
 30
0.0
 10
124.7533565841
 20
292.4212586826
 30
0.0
  0
SPLINE
  5
4CC
100
AcDbEntity
  8
0
100
AcDbSpline
 62
7
  6
CONTINUOUS
 70
0
 71
3
 72
15
 73
11
 74
0
 42
0.0000001
 43
0.0000001
 44
0.0000000001
 40
0.0
 40
0.0
 40
0.0
 40
0.0
 40
0.1304802904
 40
0.2601446522
 40
0.3883025006
 40
0.5144616567
 40
0.6384202448
 40
0.7603107599
 40
0.8805947764
 40
1.0
 40
1.0
 40
1.0
 40
1.0
 10
119.6258643654
 20
274.8368343957
 30
0.0
 10
119.6258643654
 20
275.3551084942
 30
0.0
 10
119.7186638314
 20
276.3908322879
 30
0.0
 10
120.1315773379
 20
277.8852940415
 30
0.0
 10
120.8028500066
 20
279.2647306344
 30
0.0
 10
121.7077035897
 20
280.4757972568
 30
0.0
 10
122.8123821683
 20
281.471808774
 30
0.0
 10
124.0754697164
 20
282.2135008929
 30
0.0
 10
125.4476720368
 20
282.671096106
 30
0.0
 10
126.4028480423
 20
282.7743235701
 30
0.0
 10
126.8771314337
 20
282.7743234433
 30
0.0
  0
SPLINE
  5
4CD
100
AcDbEntity
  8
0
100
AcDbSpline
 62
7
  6
CONTINUOUS
 70
0
 71
3
 72
15
 73
11
 74
0
 42
0.0000001
 43
0.0000001
 44
0.0000000001
 40
0.0
 40
0.0
 40
0.0
 40
0.0
 40
0.1304802904
 40
0.2601446522
 40
0.3883025006
 40
0.5144616567
 40
0.6384202448
 40
0.7603107599
 40
0.8805947764
 40
1.0
 40
1.0
 40
1.0
 40
1.0
 10
134.7999207032
 20
274.8368343957
 30
0.0
 10
134.7999207032
 20
275.3551084942
 30
0.0
 10
134.7071212372
 20
276.3908322879
 30
0.0
 10
134.2942077307
 20
277.8852940415
 30
0.0
 10
133.622935062
 20
279.2647306344
 30
0.0
 10
132.7180814788
 20
280.4757972568
 30
0.0
 10
131.6134029003
 20
281.471808774
 30
0.0
 10
130.3503153522
 20
282.2135008929
 30
0.0
 10
128.9781130317
 20
282.671096106
 30
0.0
 10
128.0229370262
 20
282.7743235701
 30
0.0
 10
127.5486536348
 20
282.7743234433
 30
0.0
  0
SPLINE
  5
4CE
100
AcDbEntity
  8
0
100
AcDbSpline
 62
7
  6
CONTINUOUS
 70
0
 71
3
 72
15
 73
11
 74
0
 42
0.0000001
 43
0.0000001
 44
0.0000000001
 40
0.0
 40
0.0
 40
0.0
 40
0.0
 40
0.1194050895
 40
0.239688757
 40
0.3615789799
 40
0.4855373147
 40
0.6116963025
 40
0.7398543615
 40
0.869519176
 40
1.0
 40
1.0
 40
1.0
 40
1.0
 10
126.8771314371
 20
266.8993453482
 30
0.0
 10
126.4028485815
 20
266.8993454749
 30
0.0
 10
125.4476745161
 20
267.0025722777
 30
0.0
 10
124.0754749366
 20
267.4601657795
 30
0.0
 10
122.8123896617
 20
268.2018546387
 30
0.0
 10
121.7077121151
 20
269.1978629312
 30
0.0
 10
120.8028565245
 20
270.4089269841
 30
0.0
 10
120.1315814136
 20
271.7883646301
 30
0.0
 10
119.7186644814
 20
273.2828304059
 30
0.0
 10
119.6258643654
 20
274.3185581808
 30
0.0
 10
119.6258643654
 20
274.8368343957
 30
0.0
  0
SPLINE
  5
4CF
100
AcDbEntity
  8
0
100
AcDbSpline
 62
7
  6
CONTINUOUS
 70
0
 71
3
 72
15
 73
11
 74
0
 42
0.0000001
 43
0.0000001
 44
0.0000000001
 40
0.0
 40
0.0
 40
0.0
 40
0.0
 40
0.1194050895
 40
0.239688757
 40
0.3615789799
 40
0.4855373147
 40
0.6116963025
 40
0.7398543615
 40
0.869519176
 40
1.0
 40
1.0
 40
1.0
 40
1.0
 10
127.5486536315
 20
266.8993453482
 30
0.0
 10
128.022936487
 20
266.8993454749
 30
0.0
 10
128.9781105525
 20
267.0025722777
 30
0.0
 10
130.3503101319
 20
267.4601657795
 30
0.0
 10
131.6133954069
 20
268.2018546387
 30
0.0
 10
132.7180729535
 20
269.1978629312
 30
0.0
 10
133.6229285441
 20
270.4089269841
 30
0.0
 10
134.294203655
 20
271.7883646301
 30
0.0
 10
134.7071205872
 20
273.2828304059
 30
0.0
 10
134.7999207032
 20
274.3185581808
 30
0.0
 10
134.7999207032
 20
274.8368343957
 30
0.0
  0
SPLINE
  5
4D0
100
AcDbEntity
  8
0
100
AcDbSpline
 62
7
  6
CONTINUOUS
 70
0
 71
3
 72
15
 73
11
 74
0
 42
0.0000001
 43
0.0000001
 44
0.0000000001
 40
0.0
 40
0.0
 40
0.0
 40
0.0
 40
0.1193493129
 40
0.2398270287
 40
0.3619987122
 40
0.4861836519
 40
0.6124200256
 40
0.7404733855
 40
0.8698738351
 40
1.0
 40
1.0
 40
1.0
 40
1.0
 10
127.5379043992
 20
282.7413041
 30
0.0
 10
127.9835343218
 20
282.6966576238
 30
0.0
 10
128.8723989216
 20
282.5153591388
 30
0.0
 10
130.1306191888
 20
281.9813374411
 30
0.0
 10
131.2767104948
 20
281.2034500815
 30
0.0
 10
132.2711449782
 20
280.2092201456
 30
0.0
 10
133.08090197
 20
279.0331596242
 30
0.0
 10
133.6790641769
 20
277.7153571429
 30
0.0
 10
134.0460329028
 20
276.3010349117
 30
0.0
 10
134.1283985055
 20
275.3251356074
 30
0.0
 10
134.1283985055
 20
274.8368343957
 30
0.0
  0
SPLINE
  5
4D1
100
AcDbEntity
  8
0
100
AcDbSpline
 62
7
  6
CONTINUOUS
 70
0
 71
3
 72
15
 73
11
 74
0
 42
0.0000001
 43
0.0000001
 44
0.0000000001
 40
0.0
 40
0.0
 40
0.0
 40
0.0
 40
0.1301256782
 40
0.259525687
 40
0.3875787872
 40
0.5138152723
 40
0.6380004489
 40
0.7601723725
 40
0.880650415
 40
1.0
 40
1.0
 40
1.0
 40
1.0
 10
134.1283985055
 20
274.8368343957
 30
0.0
 10
134.1283985055
 20
274.3485323509
 30
0.0
 10
134.0460325021
 20
273.3726312471
 30
0.0
 10
133.6790628005
 20
271.9583056238
 30
0.0
 10
133.0808965035
 20
270.6404986932
 30
0.0
 10
132.271132703
 20
269.4644329386
 30
0.0
 10
131.2766880534
 20
268.4701989698
 30
0.0
 10
130.1305839511
 20
267.6923113684
 30
0.0
 10
128.8723502469
 20
267.1582937146
 30
0.0
 10
127.9834769052
 20
266.9770015097
 30
0.0
 10
127.537843139
 20
266.9323586826
 30
0.0
  0
SPLINE
  5
4D2
100
AcDbEntity
  8
0
100
AcDbSpline
 62
7
  6
CONTINUOUS
 70
0
 71
3
 72
15
 73
11
 74
0
 42
0.0000001
 43
0.0000001
 44
0.0000000001
 40
0.0
 40
0.0
 40
0.0
 40
0.0
 40
0.1304802904
 40
0.2601446522
 40
0.3883025006
 40
0.5144616567
 40
0.6384202448
 40
0.7603107599
 40
0.8805947764
 40
1.0
 40
1.0
 40
1.0
 40
1.0
 10
119.6258643654
 20
370.0868343957
 30
0.0
 10
119.6258643654
 20
370.6051084942
 30
0.0
 10
119.7186638314
 20
371.6408322879
 30
0.0
 10
120.1315773379
 20
373.1352940415
 30
0.0
 10
120.8028500066
 20
374.5147306344
 30
0.0
 10
121.7077035897
 20
375.7257972568
 30
0.0
 10
122.8123821683
 20
376.721808774
 30
0.0
 10
124.0754697164
 20
377.4635008929
 30
0.0
 10
125.4476720368
 20
377.921096106
 30
0.0
 10
126.4028480423
 20
378.0243235701
 30
0.0
 10
126.8771314337
 20
378.0243234433
 30
0.0
  0
SPLINE
  5
4D3
100
AcDbEntity
  8
0
100
AcDbSpline
 62
7
  6
CONTINUOUS
 70
0
 71
3
 72
9
 73
5
 74
0
 42
0.0000001
 43
0.0000001
 44
0.0000000001
 40
0.0
 40
0.0
 40
0.0
 40
0.0
 40
0.5026880878
 40
1.0
 40
1.0
 40
1.0
 40
1.0
 10
134.7999207032
 20
370.0868343957
 30
0.0
 10
134.7999207032
 20
370.7730047829
 30
0.0
 10
134.6375928986
 20
372.1429360018
 30
0.0
 10
134.1534101418
 20
373.4355762234
 30
0.0
 10
133.8382898579
 20
374.0368348602
 30
0.0
  0
SPLINE
  5
4D4
100
AcDbEntity
  8
0
100
AcDbSpline
 62
7
  6
CONTINUOUS
 70
0
 71
3
 72
13
 73
9
 74
0
 42
0.0000001
 43
0.0000001
 44
0.0000000001
 40
0.0
 40
0.0
 40
0.0
 40
0.0
 40
0.2572284376
 40
0.5087150542
 40
0.632766002
 40
0.7557892981
 40
0.8780837363
 40
1.0
 40
1.0
 40
1.0
 40
1.0
 10
133.6828820511
 20
374.3195649776
 30
0.0
 10
133.3621825623
 20
374.8764413851
 30
0.0
 10
132.5929536746
 20
375.9066179327
 30
0.0
 10
131.3454818422
 20
376.907648433
 30
0.0
 10
130.2364337416
 20
377.4815694662
 30
0.0
 10
129.3647181545
 20
377.7931345635
 30
0.0
 10
128.4641638705
 20
377.9820749874
 30
0.0
 10
127.8532301356
 20
378.0243235247
 30
0.0
 10
127.5486536348
 20
378.0243234433
 30
0.0
  0
SPLINE
  5
4D5
100
AcDbEntity
  8
0
100
AcDbSpline
 62
7
  6
CONTINUOUS
 70
0
 71
3
 72
15
 73
11
 74
0
 42
0.0000001
 43
0.0000001
 44
0.0000000001
 40
0.0
 40
0.0
 40
0.0
 40
0.0
 40
0.1194050895
 40
0.239688757
 40
0.3615789799
 40
0.4855373147
 40
0.6116963025
 40
0.7398543615
 40
0.869519176
 40
1.0
 40
1.0
 40
1.0
 40
1.0
 10
126.8771314371
 20
362.1493453482
 30
0.0
 10
126.4028485815
 20
362.1493454749
 30
0.0
 10
125.4476745161
 20
362.2525722777
 30
0.0
 10
124.0754749366
 20
362.7101657795
 30
0.0
 10
122.8123896617
 20
363.4518546387
 30
0.0
 10
121.7077121151
 20
364.4478629312
 30
0.0
 10
120.8028565245
 20
365.6589269841
 30
0.0
 10
120.1315814136
 20
367.0383646301
 30
0.0
 10
119.7186644814
 20
368.5328304059
 30
0.0
 10
119.6258643654
 20
369.5685581808
 30
0.0
 10
119.6258643654
 20
370.0868343957
 30
0.0
  0
SPLINE
  5
4D6
100
AcDbEntity
  8
0
100
AcDbSpline
 62
7
  6
CONTINUOUS
 70
0
 71
3
 72
15
 73
11
 74
0
 42
0.0000001
 43
0.0000001
 44
0.0000000001
 40
0.0
 40
0.0
 40
0.0
 40
0.0
 40
0.1212168459
 40
0.2429029196
 40
0.3654852727
 40
0.4893116269
 40
0.6146230465
 40
0.7415366484
 40
0.8700409243
 40
1.0
 40
1.0
 40
1.0
 40
1.0
 10
127.5486536315
 20
362.1493453482
 30
0.0
 10
127.8896435559
 20
362.1493454393
 30
0.0
 10
128.5741094892
 20
362.2023680113
 30
0.0
 10
129.5785477854
 20
362.4391680327
 30
0.0
 10
130.5423926541
 20
362.8283884817
 30
0.0
 10
131.4460666777
 20
363.3620420559
 30
0.0
 10
132.2717089496
 20
364.0292474107
 30
0.0
 10
133.0030343412
 20
364.8165925174
 30
0.0
 10
133.6255984256
 20
365.7080677997
 30
0.0
 10
133.9585994852
 20
366.3572955897
 30
0.0
 10
134.1036180464
 20
366.6928846948
 30
0.0
  0
SPLINE
  5
4D7
100
AcDbEntity
  8
0
100
AcDbSpline
 62
7
  6
CONTINUOUS
 70
0
 71
3
 72
9
 73
5
 74
0
 42
0.0000001
 43
0.0000001
 44
0.0000000001
 40
0.0
 40
0.0
 40
0.0
 40
0.0
 40
0.4980349322
 40
1.0
 40
1.0
 40
1.0
 40
1.0
 10
134.1036180464
 20
366.6928846948
 30
0.0
 10
134.3329625619
 20
367.2236134518
 30
0.0
 10
134.6827920511
 20
368.3402289628
 30
0.0
 10
134.7999207032
 20
369.5041094126
 30
0.0
 10
134.7999207032
 20
370.0868343957
 30
0.0
  0
SPLINE
  5
4D8
100
AcDbEntity
  8
0
100
AcDbSpline
 62
7
  6
CONTINUOUS
 70
0
 71
3
 72
11
 73
7
 74
0
 42
0.0000001
 43
0.0000001
 44
0.0000000001
 40
0.0
 40
0.0
 40
0.0
 40
0.0
 40
0.2439810876
 40
0.4911457806
 40
0.7429869294
 40
1.0
 40
1.0
 40
1.0
 40
1.0
 10
127.5379043992
 20
377.9913041
 30
0.0
 10
128.0845294108
 20
377.9365391946
 30
0.0
 10
129.1756768819
 20
377.6876244283
 30
0.0
 10
130.6817623267
 20
376.9241878742
 30
0.0
 10
131.9897916816
 20
375.81178146
 30
0.0
 10
132.6799957763
 20
374.8834342451
 30
0.0
 10
132.973466228
 20
374.3846610836
 30
0.0
  0
SPLINE
  5
4D9
100
AcDbEntity
  8
0
100
AcDbSpline
 62
7
  6
CONTINUOUS
 70
0
 71
3
 72
9
 73
5
 74
0
 42
0.0000001
 43
0.0000001
 44
0.0000000001
 40
0.0
 40
0.0
 40
0.0
 40
0.0
 40
0.4967884451
 40
1.0
 40
1.0
 40
1.0
 40
1.0
 10
132.973466228
 20
374.3846610836
 30
0.0
 10
133.3504939308
 20
373.7438766427
 30
0.0
 10
133.9329072583
 20
372.3430306926
 30
0.0
 10
134.1283985055
 20
370.8399216496
 30
0.0
 10
134.1283985055
 20
370.0868343957
 30
0.0
  0
SPLINE
  5
4DA
100
AcDbEntity
  8
0
100
AcDbSpline
 62
7
  6
CONTINUOUS
 70
0
 71
3
 72
15
 73
11
 74
0
 42
0.0000001
 43
0.0000001
 44
0.0000000001
 40
0.0
 40
0.0
 40
0.0
 40
0.0
 40
0.1301256782
 40
0.259525687
 40
0.3875787872
 40
0.5138152723
 40
0.6380004489
 40
0.7601723725
 40
0.880650415
 40
1.0
 40
1.0
 40
1.0
 40
1.0
 10
134.1283985055
 20
370.0868343957
 30
0.0
 10
134.1283985055
 20
369.5985323509
 30
0.0
 10
134.0460325021
 20
368.6226312471
 30
0.0
 10
133.6790628005
 20
367.2083056238
 30
0.0
 10
133.0808965035
 20
365.8904986932
 30
0.0
 10
132.271132703
 20
364.7144329386
 30
0.0
 10
131.2766880534
 20
363.7201989698
 30
0.0
 10
130.1305839511
 20
362.9423113684
 30
0.0
 10
128.8723502469
 20
362.4082937146
 30
0.0
 10
127.9834769052
 20
362.2270015097
 30
0.0
 10
127.537843139
 20
362.1823586826
 30
0.0
  0
SPLINE
  5
4DB
100
AcDbEntity
  8
0
100
AcDbSpline
 62
7
  6
CONTINUOUS
 70
0
 71
3
 72
11
 73
7
 74
0
 42
0.0000001
 43
0.0000001
 44
0.0000000001
 40
0.0
 40
0.0
 40
0.0
 40
0.0
 40
0.1930961916
 40
0.4271301495
 40
0.697810463
 40
1.0
 40
1.0
 40
1.0
 40
1.0
 10
344.1752946833
 20
435.5671334969
 30
0.0
 10
344.2433021056
 20
435.8546543859
 30
0.0
 10
344.3674434166
 20
436.4968219016
 30
0.0
 10
344.5203943015
 20
437.5537225239
 30
0.0
 10
344.6546383687
 20
438.7812506382
 30
0.0
 10
344.7262062435
 20
439.6549621851
 30
0.0
 10
344.7589535061
 20
440.1161779535
 30
0.0
  0
LINE
  5
4DC
100
AcDbEntity
  8
0
100
AcDbLine
 62
7
  6
CONTINUOUS
 10
344.7589535061
 20
440.1161779535
 11
344.7624314267
 21
440.1654343979
  0
SPLINE
  5
4DD
100
AcDbEntity
  8
0
100
AcDbSpline
 62
7
  6
CONTINUOUS
 70
0
 71
3
 72
11
 73
7
 74
0
 42
0.0000001
 43
0.0000001
 44
0.0000000001
 40
0.0
 40
0.0
 40
0.0
 40
0.0
 40
0.2413231836
 40
0.5
 40
0.7586768164
 40
1.0
 40
1.0
 40
1.0
 40
1.0
 10
344.7624314267
 20
440.1654343979
 30
0.0
 10
344.8290240409
 20
441.1138328783
 30
0.0
 10
344.9243182566
 20
443.0819038345
 30
0.0
 10
344.9706839529
 20
446.0709343957
 30
0.0
 10
344.9243182567
 20
449.059964957
 30
0.0
 10
344.8290240409
 20
451.0280359132
 30
0.0
 10
344.7624314267
 20
451.9764343936
 30
0.0
  0
SPLINE
  5
4DE
100
AcDbEntity
  8
0
100
AcDbSpline
 62
7
  6
CONTINUOUS
 70
0
 71
3
 72
11
 73
7
 74
0
 42
0.0000001
 43
0.0000001
 44
0.0000000001
 40
0.0
 40
0.0
 40
0.0
 40
0.0
 40
0.3023521523
 40
0.5731510781
 40
0.8071556126
 40
1.0
 40
1.0
 40
1.0
 40
1.0
 10
344.7624314267
 20
451.9764343936
 30
0.0
 10
344.7296790132
 20
452.4428876131
 30
0.0
 10
344.6579651168
 20
453.3264844811
 30
0.0
 10
344.5230733967
 20
454.567696177
 30
0.0
 10
344.3691109076
 20
455.6358024682
 30
0.0
 10
344.2439439539
 20
456.2845008077
 30
0.0
 10
344.1752946833
 20
456.5747352946
 30
0.0
  0
SPLINE
  5
4DF
100
AcDbEntity
  8
0
100
AcDbSpline
 62
7
  6
CONTINUOUS
 70
0
 71
3
 72
9
 73
5
 74
0
 42
0.0000001
 43
0.0000001
 44
0.0000000001
 40
0.0
 40
0.0
 40
0.0
 40
0.0
 40
0.2820496093
 40
1.0
 40
1.0
 40
1.0
 40
1.0
 10
334.3899355841
 20
453.9591008328
 30
0.0
 10
334.3830108209
 20
453.9654747902
 30
0.0
 10
334.3575093039
 20
453.9868499957
 30
0.0
 10
334.3262892877
 20
454.0026236158
 30
0.0
 10
334.302680365
 20
454.0066937508
 30
0.0
  0
SPLINE
  5
4E0
100
AcDbEntity
  8
0
100
AcDbSpline
 62
7
  6
CONTINUOUS
 70
0
 71
3
 72
25
 73
21
 74
0
 42
0.0000001
 43
0.0000001
 44
0.0000000001
 40
0.0
 40
0.0
 40
0.0
 40
0.0
 40
0.0120105926
 40
0.0272097955
 40
0.0455942126
 40
0.0670936446
 40
0.1189271448
 40
0.1814098536
 40
0.2528460493
 40
0.3312499543
 40
0.4999997543
 40
0.6687495999
 40
0.7471535736
 40
0.818589721
 40
0.8810723166
 40
0.9329059013
 40
0.9544054816
 40
0.9727900088
 40
0.9879893316
 40
1.0
 40
1.0
 40
1.0
 40
1.0
 10
334.2788562874
 20
437.9419189098
 30
0.0
 10
334.3109508011
 20
437.9992317315
 30
0.0
 10
334.3715535727
 20
438.1357363203
 30
0.0
 10
334.4505014828
 20
438.3724172115
 30
0.0
 10
334.5272160457
 20
438.6639286813
 30
0.0
 10
334.6321405774
 20
439.1545613503
 30
0.0
 10
334.7478966271
 20
439.8887568728
 30
0.0
 10
334.8625000586
 20
440.8983418831
 30
0.0
 10
334.9556108381
 20
442.0560068057
 30
0.0
 10
335.0494581758
 20
443.7960309897
 30
0.0
 10
335.0938331719
 20
446.0709305608
 30
0.0
 10
335.0494584422
 20
448.3458305113
 30
0.0
 10
334.9556113074
 20
450.0858550702
 30
0.0
 10
334.862500686
 20
451.2435194907
 30
0.0
 10
334.7478975993
 20
452.253104127
 30
0.0
 10
334.6321415631
 20
452.9873002876
 30
0.0
 10
334.5272173717
 20
453.47793496
 30
0.0
 10
334.450502168
 20
453.7694483904
 30
0.0
 10
334.3715542516
 20
454.0061310512
 30
0.0
 10
334.3109509651
 20
454.1426365902
 30
0.0
 10
334.2788562847
 20
454.1999497942
 30
0.0
  0
SPLINE
  5
4E1
100
AcDbEntity
  8
0
100
AcDbSpline
 62
7
  6
CONTINUOUS
 70
0
 71
3
 72
9
 73
5
 74
0
 42
0.0000001
 43
0.0000001
 44
0.0000000001
 40
0.0
 40
0.0
 40
0.0
 40
0.0
 40
0.4439506889
 40
1.0
 40
1.0
 40
1.0
 40
1.0
 10
333.4073132331
 20
435.5671334969
 30
0.0
 10
333.3195141861
 20
435.9383291574
 30
0.0
 10
333.1651342859
 20
436.7845096034
 30
0.0
 10
333.0555450734
 20
437.6368481489
 30
0.0
 10
333.0028732652
 20
438.1116876811
 30
0.0
  0
SPLINE
  5
4E2
100
AcDbEntity
  8
0
100
AcDbSpline
 62
7
  6
CONTINUOUS
 70
0
 71
3
 72
9
 73
5
 74
0
 42
0.0000001
 43
0.0000001
 44
0.0000000001
 40
0.0
 40
0.0
 40
0.0
 40
0.0
 40
0.5560493111
 40
1.0
 40
1.0
 40
1.0
 40
1.0
 10
333.0028732652
 20
454.0301811104
 30
0.0
 10
333.0555450734
 20
454.5050206426
 30
0.0
 10
333.1651342859
 20
455.3573591881
 30
0.0
 10
333.3195141861
 20
456.2035396341
 30
0.0
 10
333.4073132331
 20
456.5747352946
 30
0.0
  0
SPLINE
  5
4E3
100
AcDbEntity
  8
0
100
AcDbSpline
 62
7
  6
CONTINUOUS
 70
0
 71
3
 72
9
 73
5
 74
0
 42
0.0000001
 43
0.0000001
 44
0.0000000001
 40
0.0
 40
0.0
 40
0.0
 40
0.0
 40
0.2256595702
 40
1.0
 40
1.0
 40
1.0
 40
1.0
 10
334.302680365
 20
438.1351750407
 30
0.0
 10
334.3100843337
 20
438.1364514713
 30
0.0
 10
334.342405415
 20
438.1451660094
 30
0.0
 10
334.3706927763
 20
438.1650977149
 30
0.0
 10
334.3896823595
 20
438.1825351539
 30
0.0
  0
SPLINE
  5
4E4
100
AcDbEntity
  8
0
100
AcDbSpline
 62
7
  6
CONTINUOUS
 70
0
 71
3
 72
9
 73
5
 74
0
 42
0.0000001
 43
0.0000001
 44
0.0000000001
 40
0.0
 40
0.0
 40
0.0
 40
0.0
 40
0.5017004677
 40
1.0
 40
1.0
 40
1.0
 40
1.0
 10
336.2087488028
 20
446.0709343957
 30
0.0
 10
335.990438828
 20
445.0953261178
 30
0.0
 10
335.6076775328
 20
443.1381986358
 30
0.0
 10
335.3776852112
 20
441.1559539547
 30
0.0
 10
335.3081350293
 20
440.1654343942
 30
0.0
  0
SPLINE
  5
4E5
100
AcDbEntity
  8
0
100
AcDbSpline
 62
7
  6
CONTINUOUS
 70
0
 71
3
 72
9
 73
5
 74
0
 42
0.0000001
 43
0.0000001
 44
0.0000000001
 40
0.0
 40
0.0
 40
0.0
 40
0.0
 40
0.5017004685
 40
1.0
 40
1.0
 40
1.0
 40
1.0
 10
343.8618176532
 20
434.2599343957
 30
0.0
 10
344.0801276283
 20
435.2355426753
 30
0.0
 10
344.4628889939
 20
437.1926701451
 30
0.0
 10
344.6928812445
 20
439.1749148354
 30
0.0
 10
344.7624314265
 20
440.1654343942
 30
0.0
  0
SPLINE
  5
4E6
100
AcDbEntity
  8
0
100
AcDbSpline
 62
7
  6
CONTINUOUS
 70
0
 71
3
 72
9
 73
5
 74
0
 42
0.0000001
 43
0.0000001
 44
0.0000000001
 40
0.0
 40
0.0
 40
0.0
 40
0.0
 40
0.4990444117
 40
1.0
 40
1.0
 40
1.0
 40
1.0
 10
335.3794292896
 20
457.8819343957
 30
0.0
 10
335.2977776156
 20
456.9021497146
 30
0.0
 10
335.1898564145
 20
454.9333554438
 30
0.0
 10
335.2390059477
 20
452.9609567302
 30
0.0
 10
335.3081350295
 20
451.9764343931
 30
0.0
  0
SPLINE
  5
4E7
100
AcDbEntity
  8
0
100
AcDbSpline
 62
7
  6
CONTINUOUS
 70
0
 71
3
 72
14
 73
10
 74
0
 42
0.0000001
 43
0.0000001
 44
0.0000000001
 40
0.0
 40
0.0
 40
0.0
 40
0.0
 40
0.3856069825
 40
0.5425866513
 40
0.6756460211
 40
0.7853402096
 40
0.8731474946
 40
0.9423737859
 40
1.0
 40
1.0
 40
1.0
 40
1.0
 10
333.4073132331
 20
456.5747352946
 30
0.0
 10
333.4523443171
 20
456.7651171219
 30
0.0
 10
333.5227774567
 20
457.0317029458
 30
0.0
 10
333.6371140615
 20
457.3550605276
 30
0.0
 10
333.7181849979
 20
457.5411949604
 30
0.0
 10
333.8003020772
 20
457.6878984473
 30
0.0
 10
333.8837918397
 20
457.7952862358
 30
0.0
 10
333.9702281133
 20
457.864270703
 30
0.0
 10
334.0349195093
 20
457.8819343957
 30
0.0
 10
334.0641557596
 20
457.8819343957
 30
0.0
  0
SPLINE
  5
4E8
100
AcDbEntity
  8
0
100
AcDbSpline
 62
7
  6
CONTINUOUS
 70
0
 71
3
 72
19
 73
15
 74
0
 42
0.0000001
 43
0.0000001
 44
0.0000000001
 40
0.0
 40
0.0
 40
0.0
 40
0.0
 40
0.0157870922
 40
0.0353251176
 40
0.060705543
 40
0.0928298113
 40
0.1320613009
 40
0.1784953413
 40
0.2320985315
 40
0.292739646
 40
0.434333247
 40
0.6012411556
 40
0.790828242
 40
1.0
 40
1.0
 40
1.0
 40
1.0
 10
334.0641557596
 20
457.8819343957
 30
0.0
 10
334.096579896
 20
457.8819343957
 30
0.0
 10
334.1693551094
 20
457.8595980485
 30
0.0
 10
334.2639027492
 20
457.7753284242
 30
0.0
 10
334.355277725
 20
457.6452652175
 30
0.0
 10
334.4450886829
 20
457.467524278
 30
0.0
 10
334.5335889601
 20
457.2421353688
 30
0.0
 10
334.6203949974
 20
456.9694282725
 30
0.0
 10
334.7050734456
 20
456.6503697499
 30
0.0
 10
334.8206248608
 20
456.1376850457
 30
0.0
 10
334.9529477369
 20
455.390792785
 30
0.0
 10
335.0910338779
 20
454.3769941928
 30
0.0
 10
335.212486138
 20
453.2214199778
 30
0.0
 10
335.278044033
 20
452.4049842521
 30
0.0
 10
335.3081350295
 20
451.9764343936
 30
0.0
  0
SPLINE
  5
4E9
100
AcDbEntity
  8
0
100
AcDbSpline
 62
7
  6
CONTINUOUS
 70
0
 71
3
 72
11
 73
7
 74
0
 42
0.0000001
 43
0.0000001
 44
0.0000000001
 40
0.0
 40
0.0
 40
0.0
 40
0.0
 40
0.2413231836
 40
0.5
 40
0.7586768164
 40
1.0
 40
1.0
 40
1.0
 40
1.0
 10
335.3081350295
 20
451.9764343936
 30
0.0
 10
335.3747276437
 20
451.0280359132
 30
0.0
 10
335.4700218595
 20
449.059964957
 30
0.0
 10
335.5163875557
 20
446.0709343957
 30
0.0
 10
335.4700218594
 20
443.0819038345
 30
0.0
 10
335.3747276437
 20
441.1138328783
 30
0.0
 10
335.3081350295
 20
440.1654343979
 30
0.0
  0
SPLINE
  5
4EA
100
AcDbEntity
  8
0
100
AcDbSpline
 62
7
  6
CONTINUOUS
 70
0
 71
3
 72
19
 73
15
 74
0
 42
0.0000001
 43
0.0000001
 44
0.0000000001
 40
0.0
 40
0.0
 40
0.0
 40
0.0
 40
0.209171758
 40
0.3987588444
 40
0.565666753
 40
0.707260354
 40
0.7679014685
 40
0.8215046587
 40
0.8679386991
 40
0.9071701887
 40
0.939294457
 40
0.9646748824
 40
0.9842129078
 40
1.0
 40
1.0
 40
1.0
 40
1.0
 10
335.3081350295
 20
440.1654343979
 30
0.0
 10
335.278044033
 20
439.7368845394
 30
0.0
 10
335.212486138
 20
438.9204488137
 30
0.0
 10
335.0910338779
 20
437.7648745987
 30
0.0
 10
334.9529477369
 20
436.7510760065
 30
0.0
 10
334.8206248608
 20
436.0041837458
 30
0.0
 10
334.7050734456
 20
435.4914990416
 30
0.0
 10
334.6203949974
 20
435.172440519
 30
0.0
 10
334.5335889601
 20
434.8997334227
 30
0.0
 10
334.4450886829
 20
434.6743445135
 30
0.0
 10
334.355277725
 20
434.496603574
 30
0.0
 10
334.2639027492
 20
434.3665403673
 30
0.0
 10
334.1693551094
 20
434.282270743
 30
0.0
 10
334.096579896
 20
434.2599343957
 30
0.0
 10
334.0641557596
 20
434.2599343957
 30
0.0
  0
SPLINE
  5
4EB
100
AcDbEntity
  8
0
100
AcDbSpline
 62
7
  6
CONTINUOUS
 70
0
 71
3
 72
14
 73
10
 74
0
 42
0.0000001
 43
0.0000001
 44
0.0000000001
 40
0.0
 40
0.0
 40
0.0
 40
0.0
 40
0.0576262141
 40
0.1268525054
 40
0.2146597904
 40
0.3243539789
 40
0.4574133487
 40
0.6143930175
 40
1.0
 40
1.0
 40
1.0
 40
1.0
 10
334.0641557596
 20
434.2599343957
 30
0.0
 10
334.0349195093
 20
434.2599343957
 30
0.0
 10
333.9702281133
 20
434.2775980885
 30
0.0
 10
333.8837918397
 20
434.3465825557
 30
0.0
 10
333.8003020772
 20
434.4539703442
 30
0.0
 10
333.7181849979
 20
434.6006738311
 30
0.0
 10
333.6371140615
 20
434.7868082639
 30
0.0
 10
333.5227774567
 20
435.1101658457
 30
0.0
 10
333.4523443171
 20
435.3767516696
 30
0.0
 10
333.4073132331
 20
435.5671334969
 30
0.0
  0
SPLINE
  5
4EC
100
AcDbEntity
  8
0
100
AcDbSpline
 62
7
  6
CONTINUOUS
 70
0
 71
3
 72
9
 73
5
 74
0
 42
0.0000001
 43
0.0000001
 44
0.0000000001
 40
0.0
 40
0.0
 40
0.0
 40
0.0
 40
0.5009555901
 40
1.0
 40
1.0
 40
1.0
 40
1.0
 10
335.3081350293
 20
440.1654343942
 30
0.0
 10
335.2390059473
 20
439.1809120539
 30
0.0
 10
335.1898563491
 20
437.2085133413
 30
0.0
 10
335.2977776159
 20
435.2397190731
 30
0.0
 10
335.3794292896
 20
434.2599343957
 30
0.0
  0
SPLINE
  5
4ED
100
AcDbEntity
  8
0
100
AcDbSpline
 62
7
  6
CONTINUOUS
 70
0
 71
3
 72
11
 73
7
 74
0
 42
0.0000001
 43
0.0000001
 44
0.0000000001
 40
0.0
 40
0.0
 40
0.0
 40
0.0
 40
0.1573651771
 40
0.363353081
 40
0.641414323
 40
1.0
 40
1.0
 40
1.0
 40
1.0
 10
334.0641557596
 20
454.3894343957
 30
0.0
 10
334.037019338
 20
454.3894343957
 30
0.0
 10
333.9746212966
 20
454.3661178854
 30
0.0
 10
333.8980118899
 20
454.2840274543
 30
0.0
 10
333.8233891825
 20
454.1587764206
 30
0.0
 10
333.7802747235
 20
454.0575094551
 30
0.0
 10
333.7581484272
 20
453.9997683212
 30
0.0
  0
SPLINE
  5
4EE
100
AcDbEntity
  8
0
100
AcDbSpline
 62
7
  6
CONTINUOUS
 70
0
 71
3
 72
11
 73
7
 74
0
 42
0.0000001
 43
0.0000001
 44
0.0000000001
 40
0.0
 40
0.0
 40
0.0
 40
0.0
 40
0.35864374
 40
0.6367281297
 40
0.8426958897
 40
1.0
 40
1.0
 40
1.0
 40
1.0
 10
333.7579215372
 20
438.1426927632
 30
0.0
 10
333.7800626717
 20
438.0848658088
 30
0.0
 10
333.8232051542
 20
437.983449751
 30
0.0
 10
333.8978806681
 20
437.858011619
 30
0.0
 10
333.974539696
 20
437.7757953205
 30
0.0
 10
334.036996781
 20
437.7524343957
 30
0.0
 10
334.0641557596
 20
437.7524343957
 30
0.0
  0
SPLINE
  5
4EF
100
AcDbEntity
  8
0
100
AcDbSpline
 62
7
  6
CONTINUOUS
 70
0
 71
3
 72
9
 73
5
 74
0
 42
0.0000001
 43
0.0000001
 44
0.0000000001
 40
0.0
 40
0.0
 40
0.0
 40
0.0
 40
0.2496124743
 40
1.0
 40
1.0
 40
1.0
 40
1.0
 10
344.8039878072
 20
447.8013928345
 30
0.0
 10
344.8165177164
 20
448.0747370523
 30
0.0
 10
344.8560846059
 20
449.1702482495
 30
0.0
 10
344.848832047
 20
450.2676468346
 30
0.0
 10
344.8129208888
 20
451.0894555962
 30
0.0
  0
SPLINE
  5
4F0
100
AcDbEntity
  8
0
100
AcDbSpline
 62
7
  6
CONTINUOUS
 70
0
 71
3
 72
9
 73
5
 74
0
 42
0.0000001
 43
0.0000001
 44
0.0000000001
 40
0.0
 40
0.0
 40
0.0
 40
0.0
 40
0.2504996472
 40
1.0
 40
1.0
 40
1.0
 40
1.0
 10
344.8129209098
 20
441.0524134961
 30
0.0
 10
344.8249091965
 20
441.3267593985
 30
0.0
 10
344.859406533
 20
442.4225265428
 30
0.0
 10
344.841611343
 20
443.5197053809
 30
0.0
 10
344.8039878847
 20
444.3404757092
 30
0.0
  0
SPLINE
  5
4F1
100
AcDbEntity
  8
0
100
AcDbSpline
 62
7
  6
CONTINUOUS
 70
0
 71
3
 72
9
 73
5
 74
0
 42
0.0000001
 43
0.0000001
 44
0.0000000001
 40
0.0
 40
0.0
 40
0.0
 40
0.0
 40
0.4982995334
 40
1.0
 40
1.0
 40
1.0
 40
1.0
 10
335.3081350295
 20
451.9764343931
 30
0.0
 10
335.3776852118
 20
450.9859148308
 30
0.0
 10
335.6076774694
 20
449.0036701418
 30
0.0
 10
335.9904388285
 20
447.0465426714
 30
0.0
 10
336.2087488028
 20
446.0709343957
 30
0.0
  0
SPLINE
  5
4F2
100
AcDbEntity
  8
0
100
AcDbSpline
 62
7
  6
CONTINUOUS
 70
0
 71
3
 72
9
 73
5
 74
0
 42
0.0000001
 43
0.0000001
 44
0.0000000001
 40
0.0
 40
0.0
 40
0.0
 40
0.0
 40
0.4982995342
 40
1.0
 40
1.0
 40
1.0
 40
1.0
 10
344.7624314268
 20
451.9764343931
 30
0.0
 10
344.6928812446
 20
452.9669539575
 30
0.0
 10
344.4628889159
 20
454.9491986379
 30
0.0
 10
344.0801276271
 20
456.9063261213
 30
0.0
 10
343.8618176532
 20
457.8819343957
 30
0.0
  0
SPLINE
  5
4F3
100
AcDbEntity
  8
0
100
AcDbSpline
 62
7
  6
CONTINUOUS
 70
0
 71
3
 72
14
 73
10
 74
0
 42
0.0000001
 43
0.0000001
 44
0.0000000001
 40
0.0
 40
0.0
 40
0.0
 40
0.0
 40
0.2243430326
 40
0.327593774
 40
0.4308651861
 40
0.5426693633
 40
0.6736010487
 40
0.8289584752
 40
1.0
 40
1.0
 40
1.0
 40
1.0
 10
313.5877920359
 20
440.223489682
 30
0.0
 10
313.6195055044
 20
440.0919143858
 30
0.0
 10
313.6719188842
 20
439.9009152401
 30
0.0
 10
313.7642039913
 20
439.6576945714
 30
0.0
 10
313.8478722612
 20
439.4844556592
 30
0.0
 10
313.9625625278
 20
439.3090750764
 30
0.0
 10
314.1318349731
 20
439.135624271
 30
0.0
 10
314.3746377075
 20
438.9957651127
 30
0.0
 10
314.5733581207
 20
438.9589343957
 30
0.0
 10
314.676545281
 20
438.9589343957
 30
0.0
  0
SPLINE
  5
4F4
100
AcDbEntity
  8
0
100
AcDbSpline
 62
7
  6
CONTINUOUS
 70
0
 71
3
 72
21
 73
17
 74
0
 42
0.0000001
 43
0.0000001
 44
0.0000000001
 40
0.0
 40
0.0
 40
0.0
 40
0.0
 40
0.0059563729
 40
0.0127687045
 40
0.0210251819
 40
0.0310506414
 40
0.0569864421
 40
0.0911506975
 40
0.1335396901
 40
0.1839094684
 40
0.2418706548
 40
0.3069310989
 40
0.3785075519
 40
0.4559427184
 40
0.6254593865
 40
1.0
 40
1.0
 40
1.0
 40
1.0
 10
321.9878678282
 20
438.9589484486
 30
0.0
 10
322.0022996269
 20
438.9589483993
 30
0.0
 10
322.0334406434
 20
438.9657353339
 30
0.0
 10
322.0768138069
 20
438.9937730662
 30
0.0
 10
322.1189024855
 20
439.0381605121
 30
0.0
 10
322.1793736927
 20
439.1269655855
 30
0.0
 10
322.2500455134
 20
439.2824813196
 30
0.0
 10
322.3276358694
 20
439.5185003234
 30
0.0
 10
322.4025556952
 20
439.8170051188
 30
0.0
 10
322.4740408458
 20
440.1752032935
 30
0.0
 10
322.5411936656
 20
440.5899947943
 30
0.0
 10
322.6032797198
 20
441.0574328075
 30
0.0
 10
322.65964174
 20
441.5730798078
 30
0.0
 10
322.7284660967
 20
442.3418162629
 30
0.0
 10
322.8236044041
 20
443.8448447955
 30
0.0
 10
322.8528110306
 20
445.1634534793
 30
0.0
 10
322.8528110306
 20
446.0709343957
 30
0.0
  0
SPLINE
  5
4F5
100
AcDbEntity
  8
0
100
AcDbSpline
 62
7
  6
CONTINUOUS
 70
0
 71
3
 72
15
 73
11
 74
0
 42
0.0000001
 43
0.0000001
 44
0.0000000001
 40
0.0
 40
0.0
 40
0.0
 40
0.0
 40
0.2104779617
 40
0.396852402
 40
0.5582290639
 40
0.6940729679
 40
0.8042521702
 40
0.8895054217
 40
0.9523475585
 40
1.0
 40
1.0
 40
1.0
 40
1.0
 10
299.4209400806
 20
450.388943467
 30
0.0
 10
299.4339452791
 20
450.466494846
 30
0.0
 10
299.4603060038
 20
450.6124220175
 30
0.0
 10
299.5041388885
 20
450.8163620543
 30
0.0
 10
299.5496316636
 20
450.991293692
 30
0.0
 10
299.5964577072
 20
451.1362155147
 30
0.0
 10
299.6441829637
 20
451.2506865603
 30
0.0
 10
299.6929504135
 20
451.3343159609
 30
0.0
 10
299.7429254234
 20
451.3891973075
 30
0.0
 10
299.7839827266
 20
451.4049294371
 30
0.0
 10
299.8017856162
 20
451.4049300887
 30
0.0
  0
SPLINE
  5
4F6
100
AcDbEntity
  8
0
100
AcDbSpline
 62
7
  6
CONTINUOUS
 70
0
 71
3
 72
19
 73
15
 74
0
 42
0.0000001
 43
0.0000001
 44
0.0000000001
 40
0.0
 40
0.0
 40
0.0
 40
0.0
 40
0.3746106733
 40
0.5441610305
 40
0.6931956163
 40
0.7582692782
 40
0.8162447807
 40
0.8666229903
 40
0.9090216891
 40
0.9431928288
 40
0.9691329162
 40
0.97916063
 40
0.9874190835
 40
1.0
 40
1.0
 40
1.0
 40
1.0
 10
300.3269297033
 20
446.0709343957
 30
0.0
 10
300.3269297033
 20
446.6218989564
 30
0.0
 10
300.3092485007
 20
447.4224989699
 30
0.0
 10
300.2447096921
 20
448.4400808162
 30
0.0
 10
300.190397132
 20
449.0019084371
 30
0.0
 10
300.1377362651
 20
449.398639181
 30
0.0
 10
300.0969672607
 20
449.6504794678
 30
0.0
 10
300.053551043
 20
449.867960659
 30
0.0
 10
300.0080933056
 20
450.0491932521
 30
0.0
 10
299.9609140551
 20
450.1924997951
 30
0.0
 10
299.9181621656
 20
450.2869001682
 30
0.0
 10
299.8812104077
 20
450.3408442325
 30
0.0
 10
299.8504097008
 20
450.3739193634
 30
0.0
 10
299.8202891982
 20
450.3889220661
 30
0.0
 10
299.8017856167
 20
450.3889217964
 30
0.0
  0
SPLINE
  5
4F7
100
AcDbEntity
  8
0
100
AcDbSpline
 62
7
  6
CONTINUOUS
 70
0
 71
3
 72
15
 73
11
 74
0
 42
0.0000001
 43
0.0000001
 44
0.0000000001
 40
0.0
 40
0.0
 40
0.0
 40
0.0
 40
0.0874105102
 40
0.1715988849
 40
0.3268645057
 40
0.4576783488
 40
0.5693566197
 40
0.672533099
 40
0.7757361711
 40
1.0
 40
1.0
 40
1.0
 40
1.0
 10
314.676545281
 20
453.1829343957
 30
0.0
 10
314.6237332096
 20
453.1829343957
 30
0.0
 10
314.5197368758
 20
453.1734744619
 30
0.0
 10
314.3289500086
 20
453.1193189218
 30
0.0
 10
314.1313111782
 20
453.006092179
 30
0.0
 10
313.9622406731
 20
452.8323615095
 30
0.0
 10
313.8475657095
 20
452.656831643
 30
0.0
 10
313.7639036278
 20
452.483456486
 30
0.0
 10
313.6715835858
 20
452.2399775107
 30
0.0
 10
313.6191830316
 20
452.0487490123
 30
0.0
 10
313.5874665126
 20
451.9170166194
 30
0.0
  0
SPLINE
  5
4F8
100
AcDbEntity
  8
0
100
AcDbSpline
 62
7
  6
CONTINUOUS
 70
0
 71
3
 72
11
 73
7
 74
0
 42
0.0000001
 43
0.0000001
 44
0.0000000001
 40
0.0
 40
0.0
 40
0.0
 40
0.0
 40
0.2928129586
 40
0.565449854
 40
0.8009628393
 40
1.0
 40
1.0
 40
1.0
 40
1.0
 10
306.5656229732
 20
451.9129343957
 30
0.0
 10
306.4720774198
 20
451.9129343957
 30
0.0
 10
306.2899858646
 20
451.8818298693
 30
0.0
 10
306.0608993971
 20
451.7596783352
 30
0.0
 10
305.8957676058
 20
451.60233571
 30
0.0
 10
305.8164621506
 20
451.4875462243
 30
0.0
 10
305.7841101744
 20
451.4328047248
 30
0.0
  0
SPLINE
  5
4F9
100
AcDbEntity
  8
0
100
AcDbSpline
 62
7
  6
CONTINUOUS
 70
0
 71
3
 72
21
 73
17
 74
0
 42
0.0000001
 43
0.0000001
 44
0.0000000001
 40
0.0
 40
0.0
 40
0.0
 40
0.0
 40
0.3745393393
 40
0.54405581
 40
0.6214912329
 40
0.6930680093
 40
0.7581288299
 40
0.8160902307
 40
0.8664600991
 40
0.908849185
 40
0.9430134756
 40
0.9689492934
 40
0.9789747922
 40
0.9872312981
 40
0.9940436154
 40
1.0
 40
1.0
 40
1.0
 40
1.0
 10
322.8528110306
 20
446.0709343957
 30
0.0
 10
322.8528110306
 20
446.9784122254
 30
0.0
 10
322.8236046621
 20
448.2970173432
 30
0.0
 10
322.728466836
 20
449.8000429535
 30
0.0
 10
322.6596426845
 20
450.5687803583
 30
0.0
 10
322.6032804434
 20
451.0844296651
 30
0.0
 10
322.5411943595
 20
451.5518699083
 30
0.0
 10
322.4740413539
 20
451.9666630547
 30
0.0
 10
322.402555982
 20
452.324862165
 30
0.0
 10
322.327636242
 20
452.6233675277
 30
0.0
 10
322.2500458494
 20
452.8593868933
 30
0.0
 10
322.179373802
 20
453.0149027902
 30
0.0
 10
322.1189026186
 20
453.1037080628
 30
0.0
 10
322.0768140899
 20
453.148095919
 30
0.0
 10
322.0334405663
 20
453.1761331854
 30
0.0
 10
322.0022996553
 20
453.1829202936
 30
0.0
 10
321.9878678282
 20
453.1829203429
 30
0.0
  0
SPLINE
  5
4FA
100
AcDbEntity
  8
0
100
AcDbSpline
 62
7
  6
CONTINUOUS
 70
0
 71
3
 72
11
 73
7
 74
0
 42
0.0000001
 43
0.0000001
 44
0.0000000001
 40
0.0
 40
0.0
 40
0.0
 40
0.0
 40
0.1990360234
 40
0.434543996
 40
0.7071669236
 40
1.0
 40
1.0
 40
1.0
 40
1.0
 10
305.7841007417
 20
440.7090788167
 30
0.0
 10
305.8164523812
 20
440.6543360987
 30
0.0
 10
305.8957572219
 20
440.5395448063
 30
0.0
 10
306.0608874138
 20
440.3822053098
 30
0.0
 10
306.2899688994
 20
440.2600318975
 30
0.0
 10
306.4720691675
 20
440.2289343957
 30
0.0
 10
306.5656229738
 20
440.2289343957
 30
0.0
  0
SPLINE
  5
4FB
100
AcDbEntity
  8
0
100
AcDbSpline
 62
7
  6
CONTINUOUS
 70
0
 71
3
 72
15
 73
11
 74
0
 42
0.0000001
 43
0.0000001
 44
0.0000000001
 40
0.0
 40
0.0
 40
0.0
 40
0.0
 40
0.0476732242
 40
0.1105277296
 40
0.1957850922
 40
0.3059625431
 40
0.4417999264
 40
0.603167661
 40
0.7895315339
 40
1.0
 40
1.0
 40
1.0
 40
1.0
 10
299.801785616
 20
440.7369387028
 30
0.0
 10
299.7839947755
 20
440.7369380516
 30
0.0
 10
299.7429690361
 20
440.7526478839
 30
0.0
 10
299.6930200522
 20
440.8074599692
 30
0.0
 10
299.6442806398
 20
440.8909882767
 30
0.0
 10
299.596581997
 20
441.0053192092
 30
0.0
 10
299.549780973
 20
441.1500645095
 30
0.0
 10
299.5043110869
 20
441.3247843364
 30
0.0
 10
299.4604975579
 20
441.5284801622
 30
0.0
 10
299.4341473415
 20
441.6742340067
 30
0.0
 10
299.4211466422
 20
441.7516938485
 30
0.0
  0
SPLINE
  5
4FC
100
AcDbEntity
  8
0
100
AcDbSpline
 62
7
  6
CONTINUOUS
 70
0
 71
3
 72
19
 73
15
 74
0
 42
0.0000001
 43
0.0000001
 44
0.0000000001
 40
0.0
 40
0.0
 40
0.0
 40
0.0
 40
0.0125809252
 40
0.0208393911
 40
0.0308672174
 40
0.0568070377
 40
0.0909780371
 40
0.1333761296
 40
0.1837536733
 40
0.2417283073
 40
0.3068011111
 40
0.4558342874
 40
0.6253844818
 40
1.0
 40
1.0
 40
1.0
 40
1.0
 10
299.8017856155
 20
441.7529469951
 30
0.0
 10
299.8202892108
 20
441.7529472647
 30
0.0
 10
299.8504099032
 20
441.7679488617
 30
0.0
 10
299.8812107386
 20
441.8010244563
 30
0.0
 10
299.9181616258
 20
441.8549687504
 30
0.0
 10
299.9609144705
 20
441.9493681635
 30
0.0
 10
300.0080923979
 20
442.0926736645
 30
0.0
 10
300.0535503715
 20
442.2739040028
 30
0.0
 10
300.0969659063
 20
442.4913821608
 30
0.0
 10
300.1377347464
 20
442.7432189074
 30
0.0
 10
300.1903953327
 20
443.1399450616
 30
0.0
 10
300.2447081784
 20
443.7017690839
 30
0.0
 10
300.3092481336
 20
444.7193557348
 30
0.0
 10
300.3269297033
 20
445.5199626832
 30
0.0
 10
300.3269297033
 20
446.0709343957
 30
0.0
  0
SPLINE
  5
4FD
100
AcDbEntity
  8
0
100
AcDbSpline
 62
7
  6
CONTINUOUS
 70
0
 71
3
 72
20
 73
16
 74
0
 42
0.0000001
 43
0.0000001
 44
0.0000000001
 40
0.0
 40
0.0
 40
0.0
 40
0.0
 40
0.0059567897
 40
0.0127693722
 40
0.0210243797
 40
0.031051079
 40
0.0569859918
 40
0.0911523879
 40
0.1335402213
 40
0.1839104656
 40
0.2418732903
 40
0.3069331884
 40
0.4559392806
 40
0.6254563095
 40
1.0
 40
1.0
 40
1.0
 40
1.0
 10
299.8017856162
 20
451.4049300887
 30
0.0
 10
299.8126101415
 20
451.4049304849
 30
0.0
 10
299.8359644867
 20
451.3998247223
 30
0.0
 10
299.8684906872
 20
451.3788004726
 30
0.0
 10
299.9000686664
 20
451.3455195167
 30
0.0
 10
299.9454059628
 20
451.2789071432
 30
0.0
 10
299.9984270134
 20
451.1622769972
 30
0.0
 10
300.056605197
 20
450.9852570858
 30
0.0
 10
300.1128045613
 20
450.7613811369
 30
0.0
 10
300.1664143796
 20
450.4927316139
 30
0.0
 10
300.2167842335
 20
450.1816379761
 30
0.0
 10
300.2818340525
 20
449.6915644885
 30
0.0
 10
300.3489263929
 20
448.9975467101
 30
0.0
 10
300.4286510062
 20
447.7405280772
 30
0.0
 10
300.4504930179
 20
446.7515455783
 30
0.0
 10
300.4504930179
 20
446.0709343957
 30
0.0
  0
SPLINE
  5
4FE
100
AcDbEntity
  8
0
100
AcDbSpline
 62
7
  6
CONTINUOUS
 70
0
 71
3
 72
20
 73
16
 74
0
 42
0.0000001
 43
0.0000001
 44
0.0000000001
 40
0.0
 40
0.0
 40
0.0
 40
0.0
 40
0.3745406464
 40
0.544059471
 40
0.6930659123
 40
0.75812573
 40
0.8160887269
 40
0.8664591544
 40
0.9088472177
 40
0.9430138585
 40
0.9689488076
 40
0.9789756221
 40
0.9872306453
 40
0.9940431933
 40
1.0
 40
1.0
 40
1.0
 40
1.0
 10
306.501242685
 20
446.0709343957
 30
0.0
 10
306.501242685
 20
446.7515405596
 30
0.0
 10
306.4794011215
 20
447.7405215378
 30
0.0
 10
306.3996767466
 20
448.9975394991
 30
0.0
 10
306.3325844602
 20
449.6915615803
 30
0.0
 10
306.2675346059
 20
450.1816362484
 30
0.0
 10
306.217164933
 20
450.4927306563
 30
0.0
 10
306.1635550187
 20
450.7613814737
 30
0.0
 10
306.1073553509
 20
450.9852587144
 30
0.0
 10
306.0491775299
 20
451.1622799457
 30
0.0
 10
305.996155511
 20
451.2789104848
 30
0.0
 10
305.9508186464
 20
451.345523551
 30
0.0
 10
305.9192406121
 20
451.3788048377
 30
0.0
 10
305.8867139956
 20
451.3998285309
 30
0.0
 10
305.8633598476
 20
451.4049343847
 30
0.0
 10
305.8525352831
 20
451.4049343957
 30
0.0
  0
SPLINE
  5
4FF
100
AcDbEntity
  8
0
100
AcDbSpline
 62
7
  6
CONTINUOUS
 70
0
 71
3
 72
28
 73
24
 74
0
 42
0.0000001
 43
0.0000001
 44
0.0000000001
 40
0.0
 40
0.0
 40
0.0
 40
0.0
 40
0.0199160305
 40
0.0368890703
 40
0.0509647753
 40
0.062276983
 40
0.0780274489
 40
0.0847571516
 40
0.0926129322
 40
0.1026116072
 40
0.1152441708
 40
0.1307197814
 40
0.1491235995
 40
0.1704691128
 40
0.1947273848
 40
0.2517452515
 40
0.3195183817
 40
0.3971444749
 40
0.4835375051
 40
0.5774624733
 40
0.677565813
 40
0.78237845
 40
1.0
 40
1.0
 40
1.0
 40
1.0
 10
313.6324857369
 20
451.9637781589
 30
0.0
 10
313.6460592082
 20
452.0085851946
 30
0.0
 10
313.6730917853
 20
452.0910858988
 30
0.0
 10
313.7174312585
 20
452.2022948768
 30
0.0
 10
313.7630341488
 20
452.291648356
 30
0.0
 10
313.8165020163
 20
452.370464343
 30
0.0
 10
313.8851983771
 20
452.4271040144
 30
0.0
 10
313.9594384666
 20
452.4172700998
 30
0.0
 10
314.0080113446
 20
452.3836306014
 30
0.0
 10
314.0543136449
 20
452.3283827483
 30
0.0
 10
314.0997513825
 20
452.2508502136
 30
0.0
 10
314.1446012313
 20
452.1509930306
 30
0.0
 10
314.1887353373
 20
452.0288072915
 30
0.0
 10
314.2319986604
 20
451.8846368159
 30
0.0
 10
314.2915112439
 20
451.6507970072
 30
0.0
 10
314.3603551513
 20
451.3070385751
 30
0.0
 10
314.4333960551
 20
450.8367546109
 30
0.0
 10
314.499257301
 20
450.295777619
 30
0.0
 10
314.5568943082
 20
449.692104575
 30
0.0
 10
314.6053404845
 20
449.0346392728
 30
0.0
 10
314.6438335013
 20
448.3331522764
 30
0.0
 10
314.6815294648
 20
447.3405515643
 30
0.0
 10
314.692472286
 20
446.5825107141
 30
0.0
 10
314.692472286
 20
446.0709343957
 30
0.0
  0
SPLINE
  5
500
100
AcDbEntity
  8
0
100
AcDbSpline
 62
7
  6
CONTINUOUS
 70
0
 71
3
 72
28
 73
24
 74
0
 42
0.0000001
 43
0.0000001
 44
0.0000000001
 40
0.0
 40
0.0
 40
0.0
 40
0.0
 40
0.2176489623
 40
0.3224724269
 40
0.422581884
 40
0.5165067807
 40
0.602892044
 40
0.6805014696
 40
0.7482481446
 40
0.8052292134
 40
0.829465377
 40
0.8507863248
 40
0.8691638615
 40
0.8846113913
 40
0.8972155771
 40
0.907187876
 40
0.9150239999
 40
0.9217498784
 40
0.9375489665
 40
0.9488992257
 40
0.963017841
 40
0.9800364295
 40
1.0
 40
1.0
 40
1.0
 40
1.0
 10
314.692472286
 20
446.0709343957
 30
0.0
 10
314.692472286
 20
445.5591233964
 30
0.0
 10
314.6815197186
 20
444.8007403056
 30
0.0
 10
314.6437886756
 20
443.8077057508
 30
0.0
 10
314.6052604166
 20
443.1059467867
 30
0.0
 10
314.5567707108
 20
442.4482687282
 30
0.0
 10
314.4990831128
 20
441.8444556197
 30
0.0
 10
314.433166352
 20
441.303423073
 30
0.0
 10
314.3600674271
 20
440.833177873
 30
0.0
 10
314.2911680344
 20
440.4895155598
 30
0.0
 10
314.2316067864
 20
440.2558075679
 30
0.0
 10
314.1883124908
 20
440.1117729819
 30
0.0
 10
314.1441504838
 20
439.9897481532
 30
0.0
 10
314.0992726534
 20
439.8900760713
 30
0.0
 10
314.0538045725
 20
439.8127495979
 30
0.0
 10
314.0074713386
 20
439.7577218359
 30
0.0
 10
313.9588180862
 20
439.7243324967
 30
0.0
 10
313.8844239158
 20
439.7150062937
 30
0.0
 10
313.8158842255
 20
439.7721255838
 30
0.0
 10
313.7623838373
 20
439.8513143635
 30
0.0
 10
313.7167780596
 20
439.9410396377
 30
0.0
 10
313.6724249287
 20
440.0526280079
 30
0.0
 10
313.6453852699
 20
440.1353873087
 30
0.0
 10
313.631808972
 20
440.1803265602
 30
0.0
  0
SPLINE
  5
501
100
AcDbEntity
  8
0
100
AcDbSpline
 62
7
  6
CONTINUOUS
 70
0
 71
3
 72
20
 73
16
 74
0
 42
0.0000001
 43
0.0000001
 44
0.0000000001
 40
0.0
 40
0.0
 40
0.0
 40
0.0
 40
0.3745391494
 40
0.54405651
 40
0.6930644125
 40
0.7581250748
 40
0.8160886299
 40
0.8664593166
 40
0.9088475282
 40
0.9430142063
 40
0.9689489323
 40
0.9789757806
 40
0.9872307633
 40
0.994043216
 40
1.0
 40
1.0
 40
1.0
 40
1.0
 10
314.6306906284
 20
446.0709343957
 30
0.0
 10
314.6306906284
 20
446.8163566218
 30
0.0
 10
314.606768917
 20
447.8995194943
 30
0.0
 10
314.5194527978
 20
449.2762494226
 30
0.0
 10
314.4459708945
 20
450.0363699358
 30
0.0
 10
314.374725172
 20
450.5731236127
 30
0.0
 10
314.3195580591
 20
450.9138490754
 30
0.0
 10
314.260841898
 20
451.2080873157
 30
0.0
 10
314.1992894868
 20
451.4532867534
 30
0.0
 10
314.1355714644
 20
451.6471671737
 30
0.0
 10
314.0774986967
 20
451.7749043944
 30
0.0
 10
314.027844803
 20
451.84786138
 30
0.0
 10
313.993259604
 20
451.8843123353
 30
0.0
 10
313.9576349032
 20
451.9073372633
 30
0.0
 10
313.9320569899
 20
451.9129292035
 30
0.0
 10
313.9202015692
 20
451.9129296788
 30
0.0
  0
SPLINE
  5
502
100
AcDbEntity
  8
0
100
AcDbSpline
 62
7
  6
CONTINUOUS
 70
0
 71
3
 72
21
 73
17
 74
0
 42
0.0000001
 43
0.0000001
 44
0.0000000001
 40
0.0
 40
0.0
 40
0.0
 40
0.0
 40
0.0059682606
 40
0.0127881383
 40
0.0210459939
 40
0.0310668493
 40
0.0569778311
 40
0.0911002071
 40
0.1334345889
 40
0.1837416885
 40
0.2416368699
 40
0.3066332984
 40
0.3781533909
 40
0.4555461245
 40
0.6250451918
 40
1.0
 40
1.0
 40
1.0
 40
1.0
 10
314.676545281
 20
453.1829251734
 30
0.0
 10
314.6909174482
 20
453.1829255182
 30
0.0
 10
314.7219153217
 20
453.1762010972
 30
0.0
 10
314.7651188217
 20
453.1483934915
 30
0.0
 10
314.8070499766
 20
453.1043572196
 30
0.0
 10
314.8672838286
 20
453.0162664918
 30
0.0
 10
314.937702013
 20
452.8619684733
 30
0.0
 10
315.0150289809
 20
452.6277687426
 30
0.0
 10
315.0897190962
 20
452.3315413179
 30
0.0
 10
315.1610152272
 20
451.9760330506
 30
0.0
 10
315.2280302478
 20
451.5642923456
 30
0.0
 10
315.2900362261
 20
451.1002054957
 30
0.0
 10
315.3463820567
 20
450.5881422765
 30
0.0
 10
315.4152890578
 20
449.8244336689
 30
0.0
 10
315.5108858499
 20
448.3298076423
 30
0.0
 10
315.5407849854
 20
447.018329217
 30
0.0
 10
315.5414715773
 20
446.1154008821
 30
0.0
  0
LINE
  5
503
100
AcDbEntity
  8
0
100
AcDbLine
 62
7
  6
CONTINUOUS
 10
315.5414715773
 20
446.1154008821
 11
315.5414884834
 21
446.0709343957
  0
SPLINE
  5
504
100
AcDbEntity
  8
0
100
AcDbSpline
 62
7
  6
CONTINUOUS
 70
0
 71
3
 72
21
 73
17
 74
0
 42
0.0000001
 43
0.0000001
 44
0.0000000001
 40
0.0
 40
0.0
 40
0.0
 40
0.0
 40
0.3745385084
 40
0.5440555258
 40
0.6214909591
 40
0.6930674937
 40
0.7581282986
 40
0.8160897611
 40
0.8664596948
 40
0.9088490264
 40
0.9430134059
 40
0.9689492167
 40
0.9789747929
 40
0.9872313395
 40
0.9940435974
 40
1.0
 40
1.0
 40
1.0
 40
1.0
 10
315.5414884834
 20
446.0709343957
 30
0.0
 10
315.5414884834
 20
445.1634580007
 30
0.0
 10
315.5122824056
 20
443.8448527232
 30
0.0
 10
315.4171445264
 20
442.3418268225
 30
0.0
 10
315.3483205695
 20
441.5730881379
 30
0.0
 10
315.2919582257
 20
441.0574391123
 30
0.0
 10
315.2298724827
 20
440.5899990032
 30
0.0
 10
315.1627196135
 20
440.175205283
 30
0.0
 10
315.0912338484
 20
439.8170050982
 30
0.0
 10
315.0163143388
 20
439.5184984833
 30
0.0
 10
314.938723867
 20
439.2824781252
 30
0.0
 10
314.868051145
 20
439.1269619448
 30
0.0
 10
314.8075801787
 20
439.03815629
 30
0.0
 10
314.7654920718
 20
438.9937675317
 30
0.0
 10
314.7221176909
 20
438.9657316508
 30
0.0
 10
314.6909771609
 20
438.9589439643
 30
0.0
 10
314.676545281
 20
438.9589436181
 30
0.0
  0
SPLINE
  5
505
100
AcDbEntity
  8
0
100
AcDbSpline
 62
7
  6
CONTINUOUS
 70
0
 71
3
 72
20
 73
16
 74
0
 42
0.0000001
 43
0.0000001
 44
0.0000000001
 40
0.0
 40
0.0
 40
0.0
 40
0.0
 40
0.0059568067
 40
0.0127693547
 40
0.0210243779
 40
0.0310511924
 40
0.0569861415
 40
0.0911527823
 40
0.1335408456
 40
0.1839112731
 40
0.24187427
 40
0.3069340877
 40
0.455940529
 40
0.6254593536
 40
1.0
 40
1.0
 40
1.0
 40
1.0
 10
306.565624042
 20
451.9129343957
 30
0.0
 10
306.5774795174
 20
451.9129343836
 30
0.0
 10
306.60305787
 20
451.9073422581
 30
0.0
 10
306.6386822595
 20
451.8843163084
 30
0.0
 10
306.6732677256
 20
451.8478653753
 30
0.0
 10
306.7229223868
 20
451.7749082076
 30
0.0
 10
306.7809941218
 20
451.647169998
 30
0.0
 10
306.8447126877
 20
451.4532896019
 30
0.0
 10
306.9062647048
 20
451.2080907192
 30
0.0
 10
306.9649803253
 20
450.9138541097
 30
0.0
 10
307.0201471098
 20
450.573131663
 30
0.0
 10
307.0913921884
 20
450.0363832169
 30
0.0
 10
307.1648742163
 20
449.2762637947
 30
0.0
 10
307.2521913888
 20
447.899529837
 30
0.0
 10
307.2761131012
 20
446.8163601942
 30
0.0
 10
307.2761131012
 20
446.0709343957
 30
0.0
  0
SPLINE
  5
506
100
AcDbEntity
  8
0
100
AcDbSpline
 62
7
  6
CONTINUOUS
 70
0
 71
3
 72
20
 73
16
 74
0
 42
0.0000001
 43
0.0000001
 44
0.0000000001
 40
0.0
 40
0.0
 40
0.0
 40
0.0
 40
0.005956788
 40
0.0127693747
 40
0.0210243824
 40
0.0310510726
 40
0.0569859884
 40
0.0911523611
 40
0.1335401744
 40
0.1839103955
 40
0.2418731453
 40
0.3069330372
 40
0.455939426
 40
0.6254562686
 40
1.0
 40
1.0
 40
1.0
 40
1.0
 10
313.9202015694
 20
440.2289391127
 30
0.0
 10
313.9320569986
 20
440.2289386374
 30
0.0
 10
313.9576355927
 20
440.2345306478
 30
0.0
 10
313.9932594869
 20
440.2575572778
 30
0.0
 10
314.0278448912
 20
440.2940078258
 30
0.0
 10
314.0775000825
 20
440.3669641872
 30
0.0
 10
314.1355706494
 20
440.4947019577
 30
0.0
 10
314.1992896637
 20
440.6885807988
 30
0.0
 10
314.2608413013
 20
440.9337781479
 30
0.0
 10
314.3195567724
 20
441.2280131069
 30
0.0
 10
314.3747237826
 20
441.568734497
 30
0.0
 10
314.4459688622
 20
442.1054820793
 30
0.0
 10
314.51945102
 20
442.8655969931
 30
0.0
 10
314.606768413
 20
444.2423319956
 30
0.0
 10
314.6306906284
 20
445.3255030168
 30
0.0
 10
314.6306906284
 20
446.0709343957
 30
0.0
  0
SPLINE
  5
507
100
AcDbEntity
  8
0
100
AcDbSpline
 62
7
  6
CONTINUOUS
 70
0
 71
3
 72
20
 73
16
 74
0
 42
0.0000001
 43
0.0000001
 44
0.0000000001
 40
0.0
 40
0.0
 40
0.0
 40
0.0
 40
0.3745391615
 40
0.5440565912
 40
0.6930641278
 40
0.7581248005
 40
0.8160884312
 40
0.8664591826
 40
0.9088474323
 40
0.9430141493
 40
0.968948914
 40
0.9789757632
 40
0.987230751
 40
0.9940432134
 40
1.0
 40
1.0
 40
1.0
 40
1.0
 10
300.4504930179
 20
446.0709343957
 30
0.0
 10
300.4504930179
 20
445.3903314712
 30
0.0
 10
300.4286514618
 20
444.4013565257
 30
0.0
 10
300.3489280493
 20
443.1443427606
 30
0.0
 10
300.2818359619
 20
442.4503201989
 30
0.0
 10
300.2167856346
 20
441.9602412521
 30
0.0
 10
300.1664156429
 20
441.6491438162
 30
0.0
 10
300.11280525
 20
441.3804911769
 30
0.0
 10
300.0566051707
 20
441.1566131726
 30
0.0
 10
299.998427776
 20
440.9795917285
 30
0.0
 10
299.9454048609
 20
440.8629619084
 30
0.0
 10
299.9000686175
 20
440.796348958
 30
0.0
 10
299.8684907944
 20
440.7630676509
 30
0.0
 10
299.8359639194
 20
440.7420448023
 30
0.0
 10
299.8126101352
 20
440.736939099
 30
0.0
 10
299.801785616
 20
440.7369387028
 30
0.0
  0
SPLINE
  5
508
100
AcDbEntity
  8
0
100
AcDbSpline
 62
7
  6
CONTINUOUS
 70
0
 71
3
 72
20
 73
16
 74
0
 42
0.0000001
 43
0.0000001
 44
0.0000000001
 40
0.0
 40
0.0
 40
0.0
 40
0.0
 40
0.005956807
 40
0.0127693591
 40
0.021024384
 40
0.0310511967
 40
0.0569861589
 40
0.0911528066
 40
0.1335408799
 40
0.1839113275
 40
0.2418743365
 40
0.3069341743
 40
0.4559406554
 40
0.6254595122
 40
1.0
 40
1.0
 40
1.0
 40
1.0
 10
305.8525352837
 20
440.7369343958
 30
0.0
 10
305.8633598488
 20
440.736934385
 30
0.0
 10
305.8867140135
 20
440.742040244
 30
0.0
 10
305.9192406134
 20
440.7630639793
 30
0.0
 10
305.9508186562
 20
440.7963452634
 30
0.0
 10
305.9961555587
 20
440.8629583352
 30
0.0
 10
306.0491775388
 20
440.9795889319
 30
0.0
 10
306.1073553958
 20
441.1566102044
 30
0.0
 10
306.1635550705
 20
441.3804875154
 30
0.0
 10
306.2171649742
 20
441.6491384123
 30
0.0
 10
306.2675346676
 20
441.9602329133
 30
0.0
 10
306.3325845136
 20
442.4503077149
 30
0.0
 10
306.3996768058
 20
443.1443299638
 30
0.0
 10
306.4794011369
 20
444.4013477713
 30
0.0
 10
306.5012426855
 20
445.3903285198
 30
0.0
 10
306.5012426855
 20
446.0709343957
 30
0.0
  0
SPLINE
  5
509
100
AcDbEntity
  8
0
100
AcDbSpline
 62
7
  6
CONTINUOUS
 70
0
 71
3
 72
20
 73
16
 74
0
 42
0.0000001
 43
0.0000001
 44
0.0000000001
 40
0.0
 40
0.0
 40
0.0
 40
0.0
 40
0.3745404878
 40
0.5440593446
 40
0.6930658257
 40
0.7581256635
 40
0.8160886725
 40
0.8664591201
 40
0.9088471934
 40
0.9430138411
 40
0.9689488033
 40
0.978975616
 40
0.9872306409
 40
0.994043193
 40
1.0
 40
1.0
 40
1.0
 40
1.0
 10
307.2761131012
 20
446.0709343957
 30
0.0
 10
307.2761131012
 20
445.3255089125
 30
0.0
 10
307.252191405
 20
444.2423395214
 30
0.0
 10
307.1648742805
 20
442.8656057322
 30
0.0
 10
307.0913922462
 20
442.1054861263
 30
0.0
 10
307.0201471768
 20
441.568737534
 30
0.0
 10
306.9649803697
 20
441.2280149853
 30
0.0
 10
306.9062647608
 20
440.9337782887
 30
0.0
 10
306.8447127361
 20
440.688579329
 30
0.0
 10
306.7809941309
 20
440.4946988877
 30
0.0
 10
306.7229224384
 20
440.3669606151
 30
0.0
 10
306.6732677357
 20
440.2940034413
 30
0.0
 10
306.6386822603
 20
440.2575525111
 30
0.0
 10
306.6030578889
 20
440.2345265153
 30
0.0
 10
306.577479518
 20
440.2289343839
 30
0.0
 10
306.565624042
 20
440.2289343958
 30
0.0
  0
SPLINE
  5
50A
100
AcDbEntity
  8
0
100
AcDbSpline
 62
7
  6
CONTINUOUS
 70
0
 71
3
 72
9
 73
5
 74
0
 42
0.0000001
 43
0.0000001
 44
0.0000000001
 40
0.0
 40
0.0
 40
0.0
 40
0.0
 40
0.5085636684
 40
1.0
 40
1.0
 40
1.0
 40
1.0
 10
357.8316234337
 20
432.4327663369
 30
0.0
 10
358.0743673104
 20
432.9420821275
 30
0.0
 10
358.5161022981
 20
433.9613988686
 30
0.0
 10
358.8459755617
 20
435.024107964
 30
0.0
 10
358.9714710567
 20
435.5546717534
 30
0.0
  0
SPLINE
  5
50B
100
AcDbEntity
  8
0
100
AcDbSpline
 62
7
  6
CONTINUOUS
 70
0
 71
3
 72
13
 73
9
 74
0
 42
0.0000001
 43
0.0000001
 44
0.0000000001
 40
0.0
 40
0.0
 40
0.0
 40
0.0
 40
0.0849718839
 40
0.1851352439
 40
0.2989085977
 40
0.4244348179
 40
0.7022292328
 40
1.0
 40
1.0
 40
1.0
 40
1.0
 10
359.0357892166
 20
435.8423083504
 30
0.0
 10
359.0957323079
 20
436.1268741261
 30
0.0
 10
359.2063988909
 20
436.7510754374
 30
0.0
 10
359.3444426773
 20
437.7648728441
 30
0.0
 10
359.4659255945
 20
438.9204529943
 30
0.0
 10
359.6074710548
 20
440.6846389167
 30
0.0
 10
359.7234013907
 20
443.081880909
 30
0.0
 10
359.7540009831
 20
445.0518335241
 30
0.0
 10
359.7540009831
 20
446.0709343957
 30
0.0
  0
SPLINE
  5
50C
100
AcDbEntity
  8
0
100
AcDbSpline
 62
7
  6
CONTINUOUS
 70
0
 71
3
 72
13
 73
9
 74
0
 42
0.0000001
 43
0.0000001
 44
0.0000000001
 40
0.0
 40
0.0
 40
0.0
 40
0.0
 40
0.2977707672
 40
0.5755651821
 40
0.7010914023
 40
0.8148647561
 40
0.9150281161
 40
1.0
 40
1.0
 40
1.0
 40
1.0
 10
359.7540009831
 20
446.0709343957
 30
0.0
 10
359.7540009831
 20
447.0900352674
 30
0.0
 10
359.7234013907
 20
449.0599878825
 30
0.0
 10
359.6074710548
 20
451.4572298748
 30
0.0
 10
359.4659255945
 20
453.2214157972
 30
0.0
 10
359.3444426773
 20
454.3769959474
 30
0.0
 10
359.2063988909
 20
455.3907933541
 30
0.0
 10
359.0957323079
 20
456.0149946654
 30
0.0
 10
359.0357892166
 20
456.2995604411
 30
0.0
  0
SPLINE
  5
50D
100
AcDbEntity
  8
0
100
AcDbSpline
 62
7
  6
CONTINUOUS
 70
0
 71
3
 72
9
 73
5
 74
0
 42
0.0000001
 43
0.0000001
 44
0.0000000001
 40
0.0
 40
0.0
 40
0.0
 40
0.0
 40
0.4914363306
 40
1.0
 40
1.0
 40
1.0
 40
1.0
 10
358.9714710493
 20
456.587197038
 30
0.0
 10
358.8459755356
 20
457.1177608219
 30
0.0
 10
358.5161023506
 20
458.1804699404
 30
0.0
 10
358.0743673109
 20
459.199786663
 30
0.0
 10
357.8316234337
 20
459.7091024545
 30
0.0
  0
SPLINE
  5
50E
100
AcDbEntity
  8
0
100
AcDbSpline
 62
7
  6
CONTINUOUS
 70
0
 71
3
 72
9
 73
5
 74
0
 42
0.0000001
 43
0.0000001
 44
0.0000000001
 40
0.0
 40
0.0
 40
0.0
 40
0.0
 40
0.4999989549
 40
1.0
 40
1.0
 40
1.0
 40
1.0
 10
359.7540009831
 20
446.0709343953
 30
0.0
 10
359.7540009831
 20
447.2109661839
 30
0.0
 10
359.6640995249
 20
449.4917633524
 30
0.0
 10
359.4183262276
 20
451.7599301591
 30
0.0
 10
359.2680469663
 20
452.8900184251
 30
0.0
  0
SPLINE
  5
50F
100
AcDbEntity
  8
0
100
AcDbSpline
 62
7
  6
CONTINUOUS
 70
0
 71
3
 72
9
 73
5
 74
0
 42
0.0000001
 43
0.0000001
 44
0.0000000001
 40
0.0
 40
0.0
 40
0.0
 40
0.0
 40
0.4965432882
 40
1.0
 40
1.0
 40
1.0
 40
1.0
 10
359.2680469663
 20
452.8900184251
 30
0.0
 10
359.2993560124
 20
453.4560562324
 30
0.0
 10
359.3059514816
 20
454.6006424352
 30
0.0
 10
359.154268544
 20
455.7371076055
 30
0.0
 10
359.0357892165
 20
456.2995604414
 30
0.0
  0
SPLINE
  5
510
100
AcDbEntity
  8
0
100
AcDbSpline
 62
7
  6
CONTINUOUS
 70
0
 71
3
 72
8
 73
4
 74
0
 42
0.0000001
 43
0.0000001
 44
0.0000000001
 40
0.0
 40
0.0
 40
0.0
 40
0.0
 40
1.0
 40
1.0
 40
1.0
 40
1.0
 10
350.4250912975
 20
442.7006742453
 30
0.0
 10
350.5092239017
 20
441.5478665484
 30
0.0
 10
350.6332917012
 20
440.397637523
 30
0.0
 10
350.7856586027
 20
439.2518503663
 30
0.0
  0
SPLINE
  5
511
100
AcDbEntity
  8
0
100
AcDbSpline
 62
7
  6
CONTINUOUS
 70
0
 71
3
 72
9
 73
5
 74
0
 42
0.0000001
 43
0.0000001
 44
0.0000000001
 40
0.0
 40
0.0
 40
0.0
 40
0.0
 40
0.2529658556
 40
1.0
 40
1.0
 40
1.0
 40
1.0
 10
350.7856586027
 20
439.2518503663
 30
0.0
 10
350.7259222212
 20
439.1265138068
 30
0.0
 10
350.4942297162
 20
438.6289608706
 30
0.0
 10
350.2820534833
 20
438.1221250454
 30
0.0
 10
350.1386875642
 20
437.737985259
 30
0.0
  0
SPLINE
  5
512
100
AcDbEntity
  8
0
100
AcDbSpline
 62
7
  6
CONTINUOUS
 70
0
 71
3
 72
9
 73
5
 74
0
 42
0.0000001
 43
0.0000001
 44
0.0000000001
 40
0.0
 40
0.0
 40
0.0
 40
0.0
 40
0.2470227407
 40
1.0
 40
1.0
 40
1.0
 40
1.0
 10
350.1389561328
 20
454.4031640451
 30
0.0
 10
350.1863482348
 20
454.2761989345
 30
0.0
 10
350.3848915798
 20
453.7647165194
 30
0.0
 10
350.6079266842
 20
453.2629286457
 30
0.0
 10
350.7856586027
 20
452.8900184251
 30
0.0
  0
SPLINE
  5
513
100
AcDbEntity
  8
0
100
AcDbSpline
 62
7
  6
CONTINUOUS
 70
0
 71
3
 72
8
 73
4
 74
0
 42
0.0000001
 43
0.0000001
 44
0.0000000001
 40
0.0
 40
0.0
 40
0.0
 40
0.0
 40
1.0
 40
1.0
 40
1.0
 40
1.0
 10
350.7856586027
 20
452.8900184251
 30
0.0
 10
350.6333153856
 20
451.7444093732
 30
0.0
 10
350.5092621503
 20
450.5943600125
 30
0.0
 10
350.4251307167
 20
449.4417323808
 30
0.0
  0
SPLINE
  5
514
100
AcDbEntity
  8
0
100
AcDbSpline
 62
7
  6
CONTINUOUS
 70
0
 71
3
 72
9
 73
5
 74
0
 42
0.0000001
 43
0.0000001
 44
0.0000000001
 40
0.0
 40
0.0
 40
0.0
 40
0.0
 40
0.5034567143
 40
1.0
 40
1.0
 40
1.0
 40
1.0
 10
359.035789217
 20
435.8423083525
 30
0.0
 10
359.154268545
 20
436.4047611915
 30
0.0
 10
359.305951547
 20
437.5412263561
 30
0.0
 10
359.2993560123
 20
438.6858125616
 30
0.0
 10
359.2680469663
 20
439.2518503663
 30
0.0
  0
SPLINE
  5
515
100
AcDbEntity
  8
0
100
AcDbSpline
 62
7
  6
CONTINUOUS
 70
0
 71
3
 72
9
 73
5
 74
0
 42
0.0000001
 43
0.0000001
 44
0.0000000001
 40
0.0
 40
0.0
 40
0.0
 40
0.0
 40
0.5000010473
 40
1.0
 40
1.0
 40
1.0
 40
1.0
 10
359.2680469663
 20
439.2518503663
 30
0.0
 10
359.4183262284
 20
440.3819386389
 30
0.0
 10
359.6640998262
 20
442.6501054223
 30
0.0
 10
359.7540009831
 20
444.9309026103
 30
0.0
 10
359.7540009831
 20
446.0709343953
 30
0.0
  0
SPLINE
  5
516
100
AcDbEntity
  8
0
100
AcDbSpline
 62
7
  6
CONTINUOUS
 70
0
 71
3
 72
11
 73
7
 74
0
 42
0.0000001
 43
0.0000001
 44
0.0000000001
 40
0.0
 40
0.0
 40
0.0
 40
0.0
 40
0.2182109107
 40
0.468984957
 40
0.7323793841
 40
1.0
 40
1.0
 40
1.0
 40
1.0
 10
228.6930344332
 20
556.9349811753
 30
0.0
 10
228.7228150388
 20
556.9857108602
 30
0.0
 10
228.7987737254
 20
557.088241857
 30
0.0
 10
228.9528264276
 20
557.2153036099
 30
0.0
 10
229.1475260318
 20
557.3025498047
 30
0.0
 10
229.2915002211
 20
557.3229343957
 30
0.0
 10
229.3636450719
 20
557.3229343957
 30
0.0
  0
SPLINE
  5
517
100
AcDbEntity
  8
0
100
AcDbSpline
 62
7
  6
CONTINUOUS
 70
0
 71
3
 72
12
 73
8
 74
0
 42
0.0000001
 43
0.0000001
 44
0.0000000001
 40
0.0
 40
0.0
 40
0.0
 40
0.0
 40
0.0436904854
 40
0.1094220982
 40
0.3111672381
 40
0.6082557313
 40
1.0
 40
1.0
 40
1.0
 40
1.0
 10
236.7339515985
 20
557.3184694205
 30
0.0
 10
236.7377816316
 20
557.3145788205
 30
0.0
 10
236.7446142836
 20
557.3023937668
 30
0.0
 10
236.7578798744
 20
557.2659297898
 30
0.0
 10
236.7726331983
 20
557.1965972684
 30
0.0
 10
236.789449302
 20
557.086697411
 30
0.0
 10
236.7991695266
 20
557.0011129422
 30
0.0
 10
236.8042257076
 20
556.9524231474
 30
0.0
  0
SPLINE
  5
518
100
AcDbEntity
  8
0
100
AcDbSpline
 62
7
  6
CONTINUOUS
 70
0
 71
3
 72
9
 73
5
 74
0
 42
0.0000001
 43
0.0000001
 44
0.0000000001
 40
0.0
 40
0.0
 40
0.0
 40
0.0
 40
0.4527489676
 40
1.0
 40
1.0
 40
1.0
 40
1.0
 10
214.268047031
 20
554.319222797
 30
0.0
 10
214.2532458029
 20
553.9680427904
 30
0.0
 10
214.2299176434
 20
553.1919945592
 30
0.0
 10
214.2165394808
 20
552.4157478534
 30
0.0
 10
214.211291244
 20
551.990921784
 30
0.0
  0
SPLINE
  5
519
100
AcDbEntity
  8
0
100
AcDbSpline
 62
7
  6
CONTINUOUS
 70
0
 71
3
 72
12
 73
8
 74
0
 42
0.0000001
 43
0.0000001
 44
0.0000000001
 40
0.0
 40
0.0
 40
0.0
 40
0.0
 40
0.0311266234
 40
0.0839916294
 40
0.2730019216
 40
0.5783548419
 40
1.0
 40
1.0
 40
1.0
 40
1.0
 10
229.3636450719
 20
557.3229243309
 30
0.0
 10
229.3599675764
 20
557.3229183162
 30
0.0
 10
229.3510664222
 20
557.3160490718
 30
0.0
 10
229.3372545449
 20
557.2872117687
 30
0.0
 10
229.3210354278
 20
557.2238329241
 30
0.0
 10
229.3034527835
 20
557.1173521112
 30
0.0
 10
229.2931473755
 20
557.0319463513
 30
0.0
 10
229.2877650056
 20
556.9824220912
 30
0.0
  0
SPLINE
  5
51A
100
AcDbEntity
  8
0
100
AcDbSpline
 62
7
  6
CONTINUOUS
 70
0
 71
3
 72
12
 73
8
 74
0
 42
0.0000001
 43
0.0000001
 44
0.0000000001
 40
0.0
 40
0.0
 40
0.0
 40
0.0
 40
0.4216653518
 40
0.7270334573
 40
0.9160427751
 40
0.9688970962
 40
1.0
 40
1.0
 40
1.0
 40
1.0
 10
236.6491948627
 20
556.9816572584
 30
0.0
 10
236.6545826822
 20
557.0312919141
 30
0.0
 10
236.6648992994
 20
557.1168885462
 30
0.0
 10
236.682499236
 20
557.2236066217
 30
0.0
 10
236.6987382397
 20
557.2871285856
 30
0.0
 10
236.7125621607
 20
557.3160290991
 30
0.0
 10
236.7214752479
 20
557.3229180801
 30
0.0
 10
236.7251579037
 20
557.3229241996
 30
0.0
  0
LINE
  5
51B
100
AcDbEntity
  8
0
100
AcDbLine
 62
7
  6
CONTINUOUS
 10
256.0736161891
 20
548.7749324224
 11
255.811418752
 21
548.6855986639
  0
SPLINE
  5
51C
100
AcDbEntity
  8
0
100
AcDbSpline
 62
7
  6
CONTINUOUS
 70
0
 71
3
 72
9
 73
5
 74
0
 42
0.0000001
 43
0.0000001
 44
0.0000000001
 40
0.0
 40
0.0
 40
0.0
 40
0.0
 40
0.5653959312
 40
1.0
 40
1.0
 40
1.0
 40
1.0
 10
256.0908417953
 20
547.4890827106
 30
0.0
 10
256.0988037084
 20
547.055857265
 30
0.0
 10
256.1171114282
 20
546.2897082462
 30
0.0
 10
256.1474486481
 20
545.5238448371
 30
0.0
 10
256.1669371304
 20
545.1913509474
 30
0.0
  0
LINE
  5
51D
100
AcDbEntity
  8
0
100
AcDbLine
 62
7
  6
CONTINUOUS
 10
256.1669371304
 20
545.1913509474
 11
255.9093905355
 21
544.9589572521
  0
SPLINE
  5
51E
100
AcDbEntity
  8
0
100
AcDbSpline
 62
7
  6
CONTINUOUS
 70
0
 71
3
 72
9
 73
5
 74
0
 42
0.0000001
 43
0.0000001
 44
0.0000000001
 40
0.0
 40
0.0
 40
0.0
 40
0.0
 40
0.2922709878
 40
1.0
 40
1.0
 40
1.0
 40
1.0
 10
255.9093905355
 20
544.9589572521
 30
0.0
 10
255.9124365196
 20
544.9075266068
 30
0.0
 10
255.9235035255
 20
544.7316036001
 30
0.0
 10
255.9368079948
 20
544.5557718884
 30
0.0
 10
255.9497124208
 20
544.4316844591
 30
0.0
  0
SPLINE
  5
51F
100
AcDbEntity
  8
0
100
AcDbSpline
 62
7
  6
CONTINUOUS
 70
0
 71
3
 72
9
 73
5
 74
0
 42
0.0000001
 43
0.0000001
 44
0.0000000001
 40
0.0
 40
0.0
 40
0.0
 40
0.0
 40
0.6196723689
 40
1.0
 40
1.0
 40
1.0
 40
1.0
 10
256.2448069227
 20
544.4182545256
 30
0.0
 10
256.2474599687
 20
544.4083144893
 30
0.0
 10
256.2522924207
 20
544.3925914794
 30
0.0
 10
256.2595905686
 20
544.3771018421
 30
0.0
 10
256.2640203064
 20
544.372602054
 30
0.0
  0
SPLINE
  5
520
100
AcDbEntity
  8
0
100
AcDbSpline
 62
7
  6
CONTINUOUS
 70
0
 71
3
 72
11
 73
7
 74
0
 42
0.0000001
 43
0.0000001
 44
0.0000000001
 40
0.0
 40
0.0
 40
0.0
 40
0.0
 40
0.1684105211
 40
0.4001905332
 40
0.6825862632
 40
1.0
 40
1.0
 40
1.0
 40
1.0
 10
255.6762803006
 20
544.3740715316
 30
0.0
 10
255.6560575656
 20
544.6223675487
 30
0.0
 10
255.624040803
 20
545.2136208347
 30
0.0
 10
255.5885379303
 20
546.2226907051
 30
0.0
 10
255.5617838958
 20
547.4525572121
 30
0.0
 10
255.5511166438
 20
548.3397590133
 30
0.0
 10
255.5474081765
 20
548.80927284
 30
0.0
  0
SPLINE
  5
521
100
AcDbEntity
  8
0
100
AcDbSpline
 62
7
  6
CONTINUOUS
 70
0
 71
3
 72
14
 73
10
 74
0
 42
0.0000001
 43
0.0000001
 44
0.0000000001
 40
0.0
 40
0.0
 40
0.0
 40
0.0
 40
0.0436938502
 40
0.1156874082
 40
0.2152734074
 40
0.3397696278
 40
0.4853144756
 40
0.6473773826
 40
1.0
 40
1.0
 40
1.0
 40
1.0
 10
152.2788050217
 20
443.6761367867
 30
0.0
 10
152.2540179372
 20
443.7012822466
 30
0.0
 10
152.2155648496
 20
443.790187196
 30
0.0
 10
152.1700547483
 20
443.9565725722
 30
0.0
 10
152.1281386337
 20
444.1931180203
 30
0.0
 10
152.0910829656
 20
444.4892806403
 30
0.0
 10
152.0607328902
 20
444.8373079871
 30
0.0
 10
152.029885376
 20
445.3699462836
 30
0.0
 10
152.0212989474
 20
445.7859836921
 30
0.0
 10
152.0212989474
 20
446.0709343957
 30
0.0
  0
SPLINE
  5
522
100
AcDbEntity
  8
0
100
AcDbSpline
 62
7
  6
CONTINUOUS
 70
0
 71
3
 72
14
 73
10
 74
0
 42
0.0000001
 43
0.0000001
 44
0.0000000001
 40
0.0
 40
0.0
 40
0.0
 40
0.0
 40
0.3526239025
 40
0.514680736
 40
0.6602238772
 40
0.7847175743
 40
0.8843082035
 40
0.9563039064
 40
1.0
 40
1.0
 40
1.0
 40
1.0
 10
152.0212989474
 20
446.0709343957
 30
0.0
 10
152.0212989474
 20
446.3558860312
 30
0.0
 10
152.0298848499
 20
446.771919495
 30
0.0
 10
152.0607326373
 20
447.3045521708
 30
0.0
 10
152.0910793877
 20
447.6525716069
 30
0.0
 10
152.1281379829
 20
447.9487333421
 30
0.0
 10
152.1700476347
 20
448.18528499
 30
0.0
 10
152.2155659222
 20
448.3516725084
 30
0.0
 10
152.2540129773
 20
448.4405877433
 30
0.0
 10
152.2788050379
 20
448.4657308245
 30
0.0
  0
SPLINE
  5
523
100
AcDbEntity
  8
0
100
AcDbSpline
 62
7
  6
CONTINUOUS
 70
0
 71
3
 72
19
 73
15
 74
0
 42
0.0000001
 43
0.0000001
 44
0.0000000001
 40
0.0
 40
0.0
 40
0.0
 40
0.0
 40
0.2022735382
 40
0.3958457009
 40
0.5718699278
 40
0.722927212
 40
0.7870039777
 40
0.8425620462
 40
0.8890797791
 40
0.926200497
 40
0.9539228316
 40
0.9728356591
 40
0.9857452098
 40
1.0
 40
1.0
 40
1.0
 40
1.0
 10
152.6082246919
 20
446.0709343957
 30
0.0
 10
152.6082246919
 20
445.9019720624
 30
0.0
 10
152.6040257054
 20
445.5713009929
 30
0.0
 10
152.5854313525
 20
445.0939057311
 30
0.0
 10
152.5553680553
 20
444.6599740378
 30
0.0
 10
152.5206835578
 20
444.334933987
 30
0.0
 10
152.4869079155
 20
444.1113318882
 30
0.0
 10
152.4612327867
 20
443.9748711067
 30
0.0
 10
152.4340552803
 20
443.8618244109
 30
0.0
 10
152.4060962565
 20
443.7728040245
 30
0.0
 10
152.3768256311
 20
443.7093503346
 30
0.0
 10
152.3480559121
 20
443.6674630484
 30
0.0
 10
152.3079690031
 20
443.6524802021
 30
0.0
 10
152.2871640774
 20
443.6676568745
 30
0.0
 10
152.2788050217
 20
443.6761367867
 30
0.0
  0
SPLINE
  5
524
100
AcDbEntity
  8
0
100
AcDbSpline
 62
7
  6
CONTINUOUS
 70
0
 71
3
 72
15
 73
11
 74
0
 42
0.0000001
 43
0.0000001
 44
0.0000000001
 40
0.0
 40
0.0
 40
0.0
 40
0.0
 40
0.3750278573
 40
0.544713477
 40
0.6939148172
 40
0.8170722652
 40
0.9099068086
 40
0.9441233055
 40
0.9700862998
 40
1.0
 40
1.0
 40
1.0
 40
1.0
 10
153.4572408897
 20
446.0709343957
 30
0.0
 10
153.4572408897
 20
445.6657810203
 30
0.0
 10
153.4442739645
 20
445.0771487113
 30
0.0
 10
153.3967358881
 20
444.3288429117
 30
0.0
 10
153.3509371016
 20
443.8535535484
 30
0.0
 10
153.2948069617
 20
443.4623221169
 30
0.0
 10
153.2402546689
 20
443.1985282473
 30
0.0
 10
153.1874871596
 20
443.0392990169
 30
0.0
 10
153.1497183876
 20
442.9545560392
 30
0.0
 10
153.1034221617
 20
442.8959343957
 30
0.0
 10
153.0711055315
 20
442.8959343957
 30
0.0
  0
SPLINE
  5
525
100
AcDbEntity
  8
0
100
AcDbSpline
 62
7
  6
CONTINUOUS
 70
0
 71
3
 72
15
 73
11
 74
0
 42
0.0000001
 43
0.0000001
 44
0.0000000001
 40
0.0
 40
0.0
 40
0.0
 40
0.0
 40
0.0299137002
 40
0.0558766945
 40
0.0900931914
 40
0.1829277348
 40
0.3060851828
 40
0.455286523
 40
0.6249721427
 40
1.0
 40
1.0
 40
1.0
 40
1.0
 10
153.0711055315
 20
449.2459343957
 30
0.0
 10
153.1034221617
 20
449.2459343957
 30
0.0
 10
153.1497183876
 20
449.1873127523
 30
0.0
 10
153.1874871596
 20
449.1025697746
 30
0.0
 10
153.2402546689
 20
448.9433405442
 30
0.0
 10
153.2948069617
 20
448.6795466746
 30
0.0
 10
153.3509371016
 20
448.2883152431
 30
0.0
 10
153.3967358881
 20
447.8130258798
 30
0.0
 10
153.4442739645
 20
447.0647200802
 30
0.0
 10
153.4572408897
 20
446.4760877712
 30
0.0
 10
153.4572408897
 20
446.0709343957
 30
0.0
  0
SPLINE
  5
526
100
AcDbEntity
  8
0
100
AcDbSpline
 62
7
  6
CONTINUOUS
 70
0
 71
3
 72
19
 73
15
 74
0
 42
0.0000001
 43
0.0000001
 44
0.0000000001
 40
0.0
 40
0.0
 40
0.0
 40
0.0
 40
0.0142545253
 40
0.0271630293
 40
0.0460766536
 40
0.0737951226
 40
0.1109126378
 40
0.1574301798
 40
0.2129848217
 40
0.2770620919
 40
0.4281208349
 40
0.6041513272
 40
0.7977301189
 40
1.0
 40
1.0
 40
1.0
 40
1.0
 10
152.2788050379
 20
448.4657308245
 30
0.0
 10
152.2871651922
 20
448.4742093467
 30
0.0
 10
152.3079662844
 20
448.4893858161
 30
0.0
 10
152.3480569116
 20
448.4744120488
 30
0.0
 10
152.3768175934
 20
448.4325195808
 30
0.0
 10
152.4060942833
 20
448.3690767703
 30
0.0
 10
152.4340507442
 20
448.2800604803
 30
0.0
 10
152.4612256957
 20
448.1670196
 30
0.0
 10
152.486904473
 20
448.0305619498
 30
0.0
 10
152.520678238
 20
447.8069607711
 30
0.0
 10
152.5553674594
 20
447.4819142855
 30
0.0
 10
152.5854304414
 20
447.0479703751
 30
0.0
 10
152.6040256293
 20
446.5705673498
 30
0.0
 10
152.6082246919
 20
446.2398937126
 30
0.0
 10
152.6082246919
 20
446.0709343957
 30
0.0
  0
SPLINE
  5
527
100
AcDbEntity
  8
0
100
AcDbSpline
 62
7
  6
CONTINUOUS
 70
0
 71
3
 72
10
 73
6
 74
0
 42
0.0000001
 43
0.0000001
 44
0.0000000001
 40
0.0
 40
0.0
 40
0.0
 40
0.0
 40
0.187655451
 40
0.5309120712
 40
1.0
 40
1.0
 40
1.0
 40
1.0
 10
391.0672601705
 20
438.4509383786
 30
0.0
 10
391.0837524037
 20
438.4509383786
 30
0.0
 10
391.1306877202
 20
438.4620661912
 30
0.0
 10
391.1995130459
 20
438.5211100089
 30
0.0
 10
391.2389646129
 20
438.5809038092
 30
0.0
 10
391.2594746043
 20
438.6166659935
 30
0.0
  0
SPLINE
  5
528
100
AcDbEntity
  8
0
100
AcDbSpline
 62
7
  6
CONTINUOUS
 70
0
 71
3
 72
9
 73
5
 74
0
 42
0.0000001
 43
0.0000001
 44
0.0000000001
 40
0.0
 40
0.0
 40
0.0
 40
0.0
 40
0.2374512162
 40
1.0
 40
1.0
 40
1.0
 40
1.0
 10
391.2594746043
 20
438.6166659935
 30
0.0
 10
391.2626016977
 20
438.6221185404
 30
0.0
 10
391.2755183627
 20
438.645226128
 30
0.0
 10
391.2874782197
 20
438.6688622581
 30
0.0
 10
391.2961713746
 20
438.6870800114
 30
0.0
  0
SPLINE
  5
529
100
AcDbEntity
  8
0
100
AcDbSpline
 62
7
  6
CONTINUOUS
 70
0
 71
3
 72
10
 73
6
 74
0
 42
0.0000001
 43
0.0000001
 44
0.0000000001
 40
0.0
 40
0.0
 40
0.0
 40
0.0
 40
0.195228754
 40
0.5414441623
 40
1.0
 40
1.0
 40
1.0
 40
1.0
 10
365.8558031096
 20
438.1334706527
 30
0.0
 10
365.8711988212
 20
438.1334707552
 30
0.0
 10
365.9141698079
 20
438.1424375865
 30
0.0
 10
365.9788487949
 20
438.1914819985
 30
0.0
 10
366.0167237235
 20
438.2428357385
 30
0.0
 10
366.036202481
 20
438.2733028156
 30
0.0
  0
SPLINE
  5
52A
100
AcDbEntity
  8
0
100
AcDbSpline
 62
7
  6
CONTINUOUS
 70
0
 71
3
 72
9
 73
5
 74
0
 42
0.0000001
 43
0.0000001
 44
0.0000000001
 40
0.0
 40
0.0
 40
0.0
 40
0.0
 40
0.2089752326
 40
1.0
 40
1.0
 40
1.0
 40
1.0
 10
366.036202481
 20
438.2733028156
 30
0.0
 10
366.0484298356
 20
438.2924278422
 30
0.0
 10
366.1025597416
 20
438.3867454954
 30
0.0
 10
366.1428089549
 20
438.4883253019
 30
0.0
 10
366.1713108364
 20
438.5693844468
 30
0.0
  0
SPLINE
  5
52B
100
AcDbEntity
  8
0
100
AcDbSpline
 62
7
  6
CONTINUOUS
 70
0
 71
3
 72
11
 73
7
 74
0
 42
0.0000001
 43
0.0000001
 44
0.0000000001
 40
0.0
 40
0.0
 40
0.0
 40
0.0
 40
0.16647709
 40
0.3938494066
 40
0.6749109102
 40
1.0
 40
1.0
 40
1.0
 40
1.0
 10
366.1754299981
 20
438.5811849879
 30
0.0
 10
366.2471134609
 20
438.7880364088
 30
0.0
 10
366.3680744217
 20
439.2934199839
 30
0.0
 10
366.5098644511
 20
440.1695168578
 30
0.0
 10
366.6306212167
 20
441.2594525724
 30
0.0
 10
366.6904538658
 20
442.0543951813
 30
0.0
 10
366.7167673226
 20
442.4810821482
 30
0.0
  0
SPLINE
  5
52C
100
AcDbEntity
  8
0
100
AcDbSpline
 62
7
  6
CONTINUOUS
 70
0
 71
3
 72
9
 73
5
 74
0
 42
0.0000001
 43
0.0000001
 44
0.0000000001
 40
0.0
 40
0.0
 40
0.0
 40
0.0
 40
0.2379136879
 40
1.0
 40
1.0
 40
1.0
 40
1.0
 10
366.7167673226
 20
442.4810821482
 30
0.0
 10
366.7342997089
 20
442.7653792967
 30
0.0
 10
366.7970155764
 20
443.9610027268
 30
0.0
 10
366.8211415068
 20
445.1585423277
 30
0.0
 10
366.8211415068
 20
446.0709343957
 30
0.0
  0
SPLINE
  5
52D
100
AcDbEntity
  8
0
100
AcDbSpline
 62
7
  6
CONTINUOUS
 70
0
 71
3
 72
8
 73
4
 74
0
 42
0.0000001
 43
0.0000001
 44
0.0000000001
 40
0.0
 40
0.0
 40
0.0
 40
0.0
 40
1.0
 40
1.0
 40
1.0
 40
1.0
 10
365.0525620155
 20
453.9990375721
 30
0.0
 10
365.0673651484
 20
454.0049516794
 30
0.0
 10
365.0835185883
 20
454.0083982448
 30
0.0
 10
365.0994593978
 20
454.0083981387
 30
0.0
  0
SPLINE
  5
52E
100
AcDbEntity
  8
0
100
AcDbSpline
 62
7
  6
CONTINUOUS
 70
0
 71
3
 72
9
 73
5
 74
0
 42
0.0000001
 43
0.0000001
 44
0.0000000001
 40
0.0
 40
0.0
 40
0.0
 40
0.0
 40
0.2586318683
 40
1.0
 40
1.0
 40
1.0
 40
1.0
 10
366.8211415068
 20
446.0709343957
 30
0.0
 10
366.8211415068
 20
446.3806190746
 30
0.0
 10
366.8125023081
 20
447.5779763981
 30
0.0
 10
366.7713856735
 20
448.7752753813
 30
0.0
 10
366.7167356848
 20
449.6613025706
 30
0.0
  0
SPLINE
  5
52F
100
AcDbEntity
  8
0
100
AcDbSpline
 62
7
  6
CONTINUOUS
 70
0
 71
3
 72
11
 73
7
 74
0
 42
0.0000001
 43
0.0000001
 44
0.0000000001
 40
0.0
 40
0.0
 40
0.0
 40
0.0
 40
0.3251442148
 40
0.6062296318
 40
0.833585198
 40
1.0
 40
1.0
 40
1.0
 40
1.0
 10
366.7167356848
 20
449.6613025706
 30
0.0
 10
366.6904102612
 20
450.0881103643
 30
0.0
 10
366.6305495388
 20
450.8832462944
 30
0.0
 10
366.5097330047
 20
451.973385267
 30
0.0
 10
366.3678732739
 20
452.8494984701
 30
0.0
 10
366.2468484227
 20
453.3548267508
 30
0.0
 10
366.1751122112
 20
453.5615996471
 30
0.0
  0
SPLINE
  5
530
100
AcDbEntity
  8
0
100
AcDbSpline
 62
7
  6
CONTINUOUS
 70
0
 71
3
 72
9
 73
5
 74
0
 42
0.0000001
 43
0.0000001
 44
0.0000000001
 40
0.0
 40
0.0
 40
0.0
 40
0.0
 40
0.2920233666
 40
1.0
 40
1.0
 40
1.0
 40
1.0
 10
366.1710352881
 20
453.573266971
 30
0.0
 10
366.1605025792
 20
453.6031926904
 30
0.0
 10
366.1225612474
 20
453.7048796092
 30
0.0
 10
366.077201235
 20
453.8046315238
 30
0.0
 10
366.0356829119
 20
453.8693771054
 30
0.0
  0
SPLINE
  5
531
100
AcDbEntity
  8
0
100
AcDbSpline
 62
7
  6
CONTINUOUS
 70
0
 71
3
 72
9
 73
5
 74
0
 42
0.0000001
 43
0.0000001
 44
0.0000000001
 40
0.0
 40
0.0
 40
0.0
 40
0.0
 40
0.3253391308
 40
1.0
 40
1.0
 40
1.0
 40
1.0
 10
366.0356829119
 20
453.8693771054
 30
0.0
 10
366.0221226241
 20
453.8905236416
 30
0.0
 10
365.9789031868
 20
453.9522750369
 30
0.0
 10
365.9078966265
 20
454.0083984853
 30
0.0
 10
365.8558031129
 20
454.0083981387
 30
0.0
  0
SPLINE
  5
532
100
AcDbEntity
  8
0
100
AcDbSpline
 62
7
  6
CONTINUOUS
 70
0
 71
3
 72
9
 73
5
 74
0
 42
0.0000001
 43
0.0000001
 44
0.0000000001
 40
0.0
 40
0.0
 40
0.0
 40
0.0
 40
0.2163133913
 40
1.0
 40
1.0
 40
1.0
 40
1.0
 10
391.3552513628
 20
438.6947197852
 30
0.0
 10
391.3681952482
 20
438.7288877128
 30
0.0
 10
391.4241307117
 20
438.8883224608
 30
0.0
 10
391.4674673993
 20
439.0519122645
 30
0.0
 10
391.4979483845
 20
439.1807277443
 30
0.0
  0
SPLINE
  5
533
100
AcDbEntity
  8
0
100
AcDbSpline
 62
7
  6
CONTINUOUS
 70
0
 71
3
 72
10
 73
6
 74
0
 42
0.0000001
 43
0.0000001
 44
0.0000000001
 40
0.0
 40
0.0
 40
0.0
 40
0.0
 40
0.1910482711
 40
0.4249090511
 40
1.0
 40
1.0
 40
1.0
 40
1.0
 10
391.4920173895
 20
439.2984632362
 30
0.0
 10
391.5396058783
 20
439.5002551849
 30
0.0
 10
391.6255873946
 20
439.953696419
 30
0.0
 10
391.7751174151
 20
441.02873788
 30
0.0
 10
391.8478752614
 20
441.9043395309
 30
0.0
 10
391.8876694119
 20
442.5271637345
 30
0.0
  0
SPLINE
  5
534
100
AcDbEntity
  8
0
100
AcDbSpline
 62
7
  6
CONTINUOUS
 70
0
 71
3
 72
9
 73
5
 74
0
 42
0.0000001
 43
0.0000001
 44
0.0000000001
 40
0.0
 40
0.0
 40
0.0
 40
0.0
 40
0.2626495746
 40
1.0
 40
1.0
 40
1.0
 40
1.0
 10
391.2961713746
 20
453.4547887801
 30
0.0
 10
391.2931771622
 20
453.4610635817
 30
0.0
 10
391.281583254
 20
453.4848601142
 30
0.0
 10
391.2691849904
 20
453.5082713128
 30
0.0
 10
391.2594746043
 20
453.525202798
 30
0.0
  0
SPLINE
  5
535
100
AcDbEntity
  8
0
100
AcDbSpline
 62
7
  6
CONTINUOUS
 70
0
 71
3
 72
9
 73
5
 74
0
 42
0.0000001
 43
0.0000001
 44
0.0000000001
 40
0.0
 40
0.0
 40
0.0
 40
0.0
 40
0.3348190314
 40
1.0
 40
1.0
 40
1.0
 40
1.0
 10
391.2594746043
 20
453.525202798
 30
0.0
 10
391.2451074809
 20
453.5502539891
 30
0.0
 10
391.2008087019
 20
453.621114279
 30
0.0
 10
391.1246330386
 20
453.6909304129
 30
0.0
 10
391.0672601705
 20
453.6909304129
 30
0.0
  0
SPLINE
  5
536
100
AcDbEntity
  8
0
100
AcDbSpline
 62
7
  6
CONTINUOUS
 70
0
 71
3
 72
9
 73
5
 74
0
 42
0.0000001
 43
0.0000001
 44
0.0000000001
 40
0.0
 40
0.0
 40
0.0
 40
0.0
 40
0.2448007133
 40
1.0
 40
1.0
 40
1.0
 40
1.0
 10
391.9500177876
 20
443.7516929498
 30
0.0
 10
391.9573679898
 20
443.9408415416
 30
0.0
 10
391.9833407045
 20
444.7136587294
 30
0.0
 10
391.9939850302
 20
445.4869790196
 30
0.0
 10
391.9939850302
 20
446.0709343957
 30
0.0
  0
SPLINE
  5
537
100
AcDbEntity
  8
0
100
AcDbSpline
 62
7
  6
CONTINUOUS
 70
0
 71
3
 72
9
 73
5
 74
0
 42
0.0000001
 43
0.0000001
 44
0.0000000001
 40
0.0
 40
0.0
 40
0.0
 40
0.0
 40
0.2537143385
 40
1.0
 40
1.0
 40
1.0
 40
1.0
 10
391.9939850302
 20
446.0709343957
 30
0.0
 10
391.9939850302
 20
446.2671180137
 30
0.0
 10
391.9903380243
 20
447.0403573643
 30
0.0
 10
391.9724251812
 20
447.8135485836
 30
0.0
 10
391.9500177876
 20
448.3901758417
 30
0.0
  0
SPLINE
  5
538
100
AcDbEntity
  8
0
100
AcDbSpline
 62
7
  6
CONTINUOUS
 70
0
 71
3
 72
9
 73
5
 74
0
 42
0.0000001
 43
0.0000001
 44
0.0000000001
 40
0.0
 40
0.0
 40
0.0
 40
0.0
 40
0.2836385781
 40
1.0
 40
1.0
 40
1.0
 40
1.0
 10
391.4979483845
 20
452.9611410472
 30
0.0
 10
391.4869171921
 20
453.0077598926
 30
0.0
 10
391.4461703058
 20
453.1716299817
 30
0.0
 10
391.3981145073
 20
453.3340033186
 30
0.0
 10
391.3552513628
 20
453.4471490063
 30
0.0
  0
SPLINE
  5
539
100
AcDbEntity
  8
0
100
AcDbSpline
 62
7
  6
CONTINUOUS
 70
0
 71
3
 72
10
 73
6
 74
0
 42
0.0000001
 43
0.0000001
 44
0.0000000001
 40
0.0
 40
0.0
 40
0.0
 40
0.0
 40
0.5750909489
 40
0.8089517289
 40
1.0
 40
1.0
 40
1.0
 40
1.0
 10
391.8876694119
 20
449.614705057
 30
0.0
 10
391.8478752614
 20
450.2375292606
 30
0.0
 10
391.7751174151
 20
451.1131309115
 30
0.0
 10
391.6255873946
 20
452.1881723725
 30
0.0
 10
391.5396058783
 20
452.6416136066
 30
0.0
 10
391.4920173895
 20
452.8434055553
 30
0.0
  0
SPLINE
  5
53A
100
AcDbEntity
  8
0
100
AcDbSpline
 62
7
  6
CONTINUOUS
 70
0
 71
3
 72
17
 73
13
 74
0
 42
0.0000001
 43
0.0000001
 44
0.0000000001
 40
0.0
 40
0.0
 40
0.0
 40
0.0
 40
0.0299080969
 40
0.0558773684
 40
0.0900798072
 40
0.132522165
 40
0.1829482789
 40
0.2409825498
 40
0.3061169363
 40
0.4552989595
 40
0.6250154898
 40
1.0
 40
1.0
 40
1.0
 40
1.0
 10
327.2822738106
 20
439.7209343957
 30
0.0
 10
327.3468979277
 20
439.7209343957
 30
0.0
 10
327.4395518903
 20
439.8381517797
 30
0.0
 10
327.5149408199
 20
440.007610589
 30
0.0
 10
327.586179461
 20
440.2213845167
 30
0.0
 10
327.6523344171
 20
440.4867825669
 30
0.0
 10
327.7164287416
 20
440.8069965113
 30
0.0
 10
327.7762938898
 20
441.1772158239
 30
0.0
 10
327.8537803484
 20
441.7606893421
 30
0.0
 10
327.9336252968
 20
442.5868678744
 30
0.0
 10
328.0285510119
 20
444.0833313099
 30
0.0
 10
328.0545445271
 20
445.2606841494
 30
0.0
 10
328.0545445271
 20
446.0709343957
 30
0.0
  0
SPLINE
  5
53B
100
AcDbEntity
  8
0
100
AcDbSpline
 62
7
  6
CONTINUOUS
 70
0
 71
3
 72
19
 73
15
 74
0
 42
0.0000001
 43
0.0000001
 44
0.0000000001
 40
0.0
 40
0.0
 40
0.0
 40
0.0
 40
0.0127578061
 40
0.0211784567
 40
0.0313811582
 40
0.0576579021
 40
0.0921208259
 40
0.1347412745
 40
0.1852768184
 40
0.2433356121
 40
0.3084261512
 40
0.4573030844
 40
0.6264889847
 40
1.0
 40
1.0
 40
1.0
 40
1.0
 10
365.1052934921
 20
454.008253348
 30
0.0
 10
365.1397191226
 20
454.0065448044
 30
0.0
 10
365.1943908444
 20
453.9762750502
 30
0.0
 10
365.2506274639
 20
453.9134133227
 30
0.0
 10
365.3180786137
 20
453.8118446423
 30
0.0
 10
365.3962804866
 20
453.6359954825
 30
0.0
 10
365.4825451693
 20
453.3701873639
 30
0.0
 10
365.5656770881
 20
453.0353299524
 30
0.0
 10
365.6449937515
 20
452.6344667685
 30
0.0
 10
365.719475434
 20
452.1710825431
 30
0.0
 10
365.8155890994
 20
451.4423844452
 30
0.0
 10
365.9147399909
 20
450.4116548791
 30
0.0
 10
366.0325087606
 20
448.5467533636
 30
0.0
 10
366.064797795
 20
447.0800560521
 30
0.0
 10
366.064797795
 20
446.0709343957
 30
0.0
  0
SPLINE
  5
53C
100
AcDbEntity
  8
0
100
AcDbSpline
 62
7
  6
CONTINUOUS
 70
0
 71
3
 72
17
 73
13
 74
0
 42
0.0000001
 43
0.0000001
 44
0.0000000001
 40
0.0
 40
0.0
 40
0.0
 40
0.0
 40
0.3749833053
 40
0.5447023287
 40
0.6938833325
 40
0.7590214696
 40
0.8170519819
 40
0.867482609
 40
0.9099201443
 40
0.9441281616
 40
0.9700919646
 40
1.0
 40
1.0
 40
1.0
 40
1.0
 10
329.8035178944
 20
446.0709343957
 30
0.0
 10
329.8035178944
 20
445.0603961216
 30
0.0
 10
329.7710937245
 20
443.592002503
 30
0.0
 10
329.6527120823
 20
441.7256160864
 30
0.0
 10
329.5531124031
 20
440.6951972523
 30
0.0
 10
329.4564953834
 20
439.9674899114
 30
0.0
 10
329.3818046646
 20
439.5057464956
 30
0.0
 10
329.3019013649
 20
439.1063794614
 30
0.0
 10
329.2193482815
 20
438.7753745265
 30
0.0
 10
329.1305511589
 20
438.5087503937
 30
0.0
 10
329.0364786853
 20
438.2974218496
 30
0.0
 10
328.9209406837
 20
438.1512386729
 30
0.0
 10
328.8403418569
 20
438.1512386729
 30
0.0
  0
SPLINE
  5
53D
100
AcDbEntity
  8
0
100
AcDbSpline
 62
7
  6
CONTINUOUS
 70
0
 71
3
 72
9
 73
5
 74
0
 42
0.0000001
 43
0.0000001
 44
0.0000000001
 40
0.0
 40
0.0
 40
0.0
 40
0.0
 40
0.2323855278
 40
1.0
 40
1.0
 40
1.0
 40
1.0
 10
365.0994593978
 20
438.1512505718
 30
0.0
 10
365.1069429715
 20
438.151250621
 30
0.0
 10
365.1392018777
 20
438.1543366667
 30
0.0
 10
365.1691074809
 20
438.1702960104
 30
0.0
 10
365.188736789
 20
438.1853211093
 30
0.0
  0
SPLINE
  5
53E
100
AcDbEntity
  8
0
100
AcDbSpline
 62
7
  6
CONTINUOUS
 70
0
 71
3
 72
17
 73
13
 74
0
 42
0.0000001
 43
0.0000001
 44
0.0000000001
 40
0.0
 40
0.0
 40
0.0
 40
0.0
 40
0.3749845102
 40
0.5447010405
 40
0.6938830637
 40
0.7590174502
 40
0.8170517211
 40
0.867477835
 40
0.9099201928
 40
0.9441226316
 40
0.9700919031
 40
1.0
 40
1.0
 40
1.0
 40
1.0
 10
328.0545445271
 20
446.0709343957
 30
0.0
 10
328.0545445271
 20
446.8811846421
 30
0.0
 10
328.0285510119
 20
448.0585374816
 30
0.0
 10
327.9336252968
 20
449.5550009171
 30
0.0
 10
327.8537803484
 20
450.3811794494
 30
0.0
 10
327.7762938898
 20
450.9646529676
 30
0.0
 10
327.7164287416
 20
451.3348722802
 30
0.0
 10
327.6523344171
 20
451.6550862246
 30
0.0
 10
327.586179461
 20
451.9204842748
 30
0.0
 10
327.5149408199
 20
452.1342582025
 30
0.0
 10
327.4395518903
 20
452.3037170118
 30
0.0
 10
327.3468979277
 20
452.4209343957
 30
0.0
 10
327.2822738106
 20
452.4209343957
 30
0.0
  0
SPLINE
  5
53F
100
AcDbEntity
  8
0
100
AcDbSpline
 62
7
  6
CONTINUOUS
 70
0
 71
3
 72
19
 73
15
 74
0
 42
0.0000001
 43
0.0000001
 44
0.0000000001
 40
0.0
 40
0.0
 40
0.0
 40
0.0
 40
0.3735156434
 40
0.5427045389
 40
0.6915839933
 40
0.7566755099
 40
0.8147344717
 40
0.8652696608
 40
0.9078887952
 40
0.9423496161
 40
0.9686235543
 40
0.9788246762
 40
0.9872438862
 40
1.0
 40
1.0
 40
1.0
 40
1.0
 10
366.064797795
 20
446.0709343957
 30
0.0
 10
366.064797795
 20
445.0617937709
 30
0.0
 10
366.0325073851
 20
443.5950664511
 30
0.0
 10
365.9147336696
 20
441.7301257612
 30
0.0
 10
365.8155767835
 20
440.6993724522
 30
0.0
 10
365.7194577011
 20
439.9706603084
 30
0.0
 10
365.6449705477
 20
439.5072717252
 30
0.0
 10
365.5656492278
 20
439.1064109389
 30
0.0
 10
365.4825120151
 20
438.7715628851
 30
0.0
 10
365.3962423106
 20
438.5057723445
 30
0.0
 10
365.3180365672
 20
438.3299419245
 30
0.0
 10
365.2505801124
 20
438.2283945754
 30
0.0
 10
365.1943403952
 20
438.1655515077
 30
0.0
 10
365.1396620867
 20
438.1353049789
 30
0.0
 10
365.1052400081
 20
438.1336127245
 30
0.0
  0
SPLINE
  5
540
100
AcDbEntity
  8
0
100
AcDbSpline
 62
7
  6
CONTINUOUS
 70
0
 71
3
 72
9
 73
5
 74
0
 42
0.0000001
 43
0.0000001
 44
0.0000000001
 40
0.0
 40
0.0
 40
0.0
 40
0.0
 40
0.2772392609
 40
1.0
 40
1.0
 40
1.0
 40
1.0
 10
365.1876776026
 20
453.9573535149
 30
0.0
 10
365.1806615819
 20
453.9626596339
 30
0.0
 10
365.1544132709
 20
453.9803722827
 30
0.0
 10
365.1223919658
 20
453.9906183706
 30
0.0
 10
365.0994594011
 20
453.9906182197
 30
0.0
  0
SPLINE
  5
541
100
AcDbEntity
  8
0
100
AcDbSpline
 62
7
  6
CONTINUOUS
 70
0
 71
3
 72
17
 73
13
 74
0
 42
0.0000001
 43
0.0000001
 44
0.0000000001
 40
0.0
 40
0.0
 40
0.0
 40
0.0
 40
0.0299080354
 40
0.0558718384
 40
0.0900798557
 40
0.132517391
 40
0.1829480181
 40
0.2409785304
 40
0.3061166675
 40
0.4552976713
 40
0.6250166947
 40
1.0
 40
1.0
 40
1.0
 40
1.0
 10
328.8403418569
 20
453.9906301186
 30
0.0
 10
328.9209406837
 20
453.9906301186
 30
0.0
 10
329.0364786853
 20
453.8444469419
 30
0.0
 10
329.1305511589
 20
453.6331183978
 30
0.0
 10
329.2193482815
 20
453.366494265
 30
0.0
 10
329.3019013649
 20
453.0354893301
 30
0.0
 10
329.3818046646
 20
452.6361222959
 30
0.0
 10
329.4564953834
 20
452.17437888
 30
0.0
 10
329.5531124031
 20
451.4466715392
 30
0.0
 10
329.6527120823
 20
450.4162527051
 30
0.0
 10
329.7710937245
 20
448.5498662885
 30
0.0
 10
329.8035178944
 20
447.0814726699
 30
0.0
 10
329.8035178944
 20
446.0709343957
 30
0.0
  0
SPLINE
  5
542
100
AcDbEntity
  8
0
100
AcDbSpline
 62
7
  6
CONTINUOUS
 70
0
 71
3
 72
16
 73
12
 74
0
 42
0.0000001
 43
0.0000001
 44
0.0000000001
 40
0.0
 40
0.0
 40
0.0
 40
0.0
 40
0.3750034832
 40
0.5447058863
 40
0.6938904782
 40
0.8170421807
 40
0.8674760273
 40
0.9099146667
 40
0.9441210865
 40
0.9700902588
 40
1.0
 40
1.0
 40
1.0
 40
1.0
 10
495.0674961007
 20
446.0709343957
 30
0.0
 10
495.0674961007
 20
446.7353620621
 30
0.0
 10
495.0461269167
 20
447.7007833644
 30
0.0
 10
494.9684178892
 20
448.9278768817
 30
0.0
 10
494.892710993
 20
449.7076524062
 30
0.0
 10
494.812794264
 20
450.2740360011
 30
0.0
 10
494.7377129202
 20
450.6499018058
 30
0.0
 10
494.6834253276
 20
450.8675358795
 30
0.0
 10
494.6250282367
 20
451.0428334881
 30
0.0
 10
494.5631985884
 20
451.181789387
 30
0.0
 10
494.4872279129
 20
451.2779219882
 30
0.0
 10
494.4342341132
 20
451.2779176053
 30
0.0
  0
SPLINE
  5
543
100
AcDbEntity
  8
0
100
AcDbSpline
 62
7
  6
CONTINUOUS
 70
0
 71
3
 72
16
 73
12
 74
0
 42
0.0000001
 43
0.0000001
 44
0.0000000001
 40
0.0
 40
0.0
 40
0.0
 40
0.0
 40
0.0299088927
 40
0.0558777879
 40
0.0900821723
 40
0.1325202136
 40
0.182951927
 40
0.3061023651
 40
0.4552883827
 40
0.6249926331
 40
1.0
 40
1.0
 40
1.0
 40
1.0
 10
494.4342341133
 20
440.8639511862
 30
0.0
 10
494.4872264131
 20
440.863955569
 30
0.0
 10
494.5631980092
 20
440.9600712618
 30
0.0
 10
494.6250224259
 20
441.0990287616
 30
0.0
 10
494.6834230781
 20
441.2743176634
 30
0.0
 10
494.7377053735
 20
441.4919452518
 30
0.0
 10
494.8127911181
 20
441.8678024816
 30
0.0
 10
494.8927057936
 20
442.4341833626
 30
0.0
 10
494.9684151826
 20
443.2139620333
 30
0.0
 10
495.0461264755
 20
444.4410683141
 30
0.0
 10
495.0674961007
 20
445.4064998051
 30
0.0
 10
495.0674961007
 20
446.0709343957
 30
0.0
  0
SPLINE
  5
544
100
AcDbEntity
  8
0
100
AcDbSpline
 62
7
  6
CONTINUOUS
 70
0
 71
3
 72
30
 73
26
 74
0
 42
0.0000001
 43
0.0000001
 44
0.0000000001
 40
0.0
 40
0.0
 40
0.0
 40
0.0
 40
0.0043986468
 40
0.013274882
 40
0.0266722497
 40
0.0444885727
 40
0.0665692705
 40
0.0927170101
 40
0.1561897156
 40
0.2325413814
 40
0.3189161735
 40
0.4120748768
 40
0.5085215364
 40
0.6046363327
 40
0.6968128245
 40
0.7815938579
 40
0.855801256
 40
0.8880550594
 40
0.9166591796
 40
0.9413508851
 40
0.961902223
 40
0.9781212904
 40
0.9898803683
 40
0.9971024853
 40
1.0
 40
1.0
 40
1.0
 40
1.0
 10
380.4080190001
 20
555.414665396
 30
0.0
 10
380.4187488961
 20
555.403765821
 30
0.0
 10
380.429360401
 20
555.3555734851
 30
0.0
 10
380.4468993938
 20
555.2668602181
 30
0.0
 10
380.4619604906
 20
555.1269796359
 30
0.0
 10
380.4781876085
 20
554.9428911384
 30
0.0
 10
380.4933643353
 20
554.7135385374
 30
0.0
 10
380.514221495
 20
554.3257770894
 30
0.0
 10
380.5363519612
 20
553.7490057172
 30
0.0
 10
380.5571621129
 20
552.9627617718
 30
0.0
 10
380.5724697284
 20
552.0731200348
 30
0.0
 10
380.5816847359
 20
551.1135305215
 30
0.0
 10
380.5843910745
 20
550.1200298457
 30
0.0
 10
380.5804813981
 20
549.129950703
 30
0.0
 10
380.5701244982
 20
548.1804779216
 30
0.0
 10
380.5537388023
 20
547.3072908342
 30
0.0
 10
380.5349349744
 20
546.6425332067
 30
0.0
 10
380.5167735023
 20
546.1732810344
 30
0.0
 10
380.5027521173
 20
545.8760271496
 30
0.0
 10
380.4879123346
 20
545.6200024642
 30
0.0
 10
380.472290733
 20
545.4059090661
 30
0.0
 10
380.4565740169
 20
545.2403446958
 30
0.0
 10
380.4400741667
 20
545.1133006977
 30
0.0
 10
380.4259179043
 20
545.0489959641
 30
0.0
 10
380.4116557474
 20
545.0040074504
 30
0.0
 10
380.4015807514
 20
545.0039547407
 30
0.0
  0
SPLINE
  5
545
100
AcDbEntity
  8
0
100
AcDbSpline
 62
7
  6
CONTINUOUS
 70
0
 71
3
 72
29
 73
25
 74
0
 42
0.0000001
 43
0.0000001
 44
0.0000000001
 40
0.0
 40
0.0
 40
0.0
 40
0.0
 40
0.0029006115
 40
0.0101215718
 40
0.0218794026
 40
0.0381033181
 40
0.0586481338
 40
0.0833440818
 40
0.1441967461
 40
0.2184025835
 40
0.3031832187
 40
0.3953559692
 40
0.4914661793
 40
0.5879088554
 40
0.6810634332
 40
0.7674382839
 40
0.8437976415
 40
0.9072762757
 40
0.9334244751
 40
0.9555044412
 40
0.9733280917
 40
0.9867229551
 40
0.9956004028
 40
1.0
 40
1.0
 40
1.0
 40
1.0
 10
380.4015807821
 20
553.3859167756
 30
0.0
 10
380.3954310391
 20
553.3858695895
 30
0.0
 10
380.3867651279
 20
553.3584405054
 30
0.0
 10
380.3780983282
 20
553.3192205809
 30
0.0
 10
380.3680465583
 20
553.2417556746
 30
0.0
 10
380.3584645519
 20
553.1408047705
 30
0.0
 10
380.3489323226
 20
553.0102605683
 30
0.0
 10
380.3359583109
 20
552.7859497008
 30
0.0
 10
380.3220112452
 20
552.4473395574
 30
0.0
 10
380.3087909217
 20
551.9814810567
 30
0.0
 10
380.2988152943
 20
551.449033185
 30
0.0
 10
380.2924955431
 20
550.8701156128
 30
0.0
 10
380.2901115585
 20
550.2664338682
 30
0.0
 10
380.2917611509
 20
549.6606699943
 30
0.0
 10
380.2973805542
 20
549.0755728637
 30
0.0
 10
380.3067126976
 20
548.5331021643
 30
0.0
 10
380.3193988619
 20
548.0536572509
 30
0.0
 10
380.33289748
 20
547.7019386313
 30
0.0
 10
380.3456103698
 20
547.4654871122
 30
0.0
 10
380.3548693617
 20
547.3256235189
 30
0.0
 10
380.3647584449
 20
547.213366141
 30
0.0
 10
380.3739521415
 20
547.1280601635
 30
0.0
 10
380.3846542293
 20
547.0739716824
 30
0.0
 10
380.3911109867
 20
547.0445751891
 30
0.0
 10
380.3976550026
 20
547.0379276883
 30
0.0
  0
SPLINE
  5
546
100
AcDbEntity
  8
0
100
AcDbSpline
 62
7
  6
CONTINUOUS
 70
0
 71
3
 72
30
 73
26
 74
0
 42
0.0000001
 43
0.0000001
 44
0.0000000001
 40
0.0
 40
0.0
 40
0.0
 40
0.0
 40
0.0043986468
 40
0.013274882
 40
0.0266722497
 40
0.0444885727
 40
0.0665692705
 40
0.0927170101
 40
0.1561897156
 40
0.2325413814
 40
0.3189161735
 40
0.4120748768
 40
0.5085215364
 40
0.6046363327
 40
0.6968128245
 40
0.7815938579
 40
0.855801256
 40
0.8880550594
 40
0.9166591796
 40
0.9413508851
 40
0.961902223
 40
0.9781212904
 40
0.9898803683
 40
0.9971024853
 40
1.0
 40
1.0
 40
1.0
 40
1.0
 10
380.3951425184
 20
545.0072033955
 30
0.0
 10
380.3844126224
 20
545.0181029705
 30
0.0
 10
380.3738011176
 20
545.0662953064
 30
0.0
 10
380.3562621247
 20
545.1550085734
 30
0.0
 10
380.3412010279
 20
545.2948891556
 30
0.0
 10
380.32497391
 20
545.4789776531
 30
0.0
 10
380.3097971833
 20
545.7083302541
 30
0.0
 10
380.2889400235
 20
546.0960917021
 30
0.0
 10
380.2668095573
 20
546.6728630743
 30
0.0
 10
380.2459994056
 20
547.4591070197
 30
0.0
 10
380.2306917901
 20
548.3487487567
 30
0.0
 10
380.2214767826
 20
549.30833827
 30
0.0
 10
380.218770444
 20
550.3018389458
 30
0.0
 10
380.2226801204
 20
551.2919180885
 30
0.0
 10
380.2330370203
 20
552.2413908699
 30
0.0
 10
380.2494227162
 20
553.1145779573
 30
0.0
 10
380.2682265441
 20
553.7793355848
 30
0.0
 10
380.2863880162
 20
554.2485877571
 30
0.0
 10
380.3004094012
 20
554.5458416419
 30
0.0
 10
380.3152491839
 20
554.8018663273
 30
0.0
 10
380.3308707855
 20
555.0159597254
 30
0.0
 10
380.3465875016
 20
555.1815240957
 30
0.0
 10
380.3630873518
 20
555.3085680938
 30
0.0
 10
380.3772436142
 20
555.3728728274
 30
0.0
 10
380.3915057711
 20
555.4178613411
 30
0.0
 10
380.4015807671
 20
555.4179140508
 30
0.0
  0
SPLINE
  5
547
100
AcDbEntity
  8
0
100
AcDbSpline
 62
7
  6
CONTINUOUS
 70
0
 71
3
 72
29
 73
25
 74
0
 42
0.0000001
 43
0.0000001
 44
0.0000000001
 40
0.0
 40
0.0
 40
0.0
 40
0.0
 40
0.0029006115
 40
0.0101215718
 40
0.0218794026
 40
0.0381033181
 40
0.0586481338
 40
0.0833440818
 40
0.1441967461
 40
0.2184025835
 40
0.3031832187
 40
0.3953559692
 40
0.4914661793
 40
0.5879088554
 40
0.6810634332
 40
0.7674382839
 40
0.8437976415
 40
0.9072762757
 40
0.9334244751
 40
0.9555044412
 40
0.9733280917
 40
0.9867229551
 40
0.9956004028
 40
1.0
 40
1.0
 40
1.0
 40
1.0
 10
380.4015807364
 20
547.0359520159
 30
0.0
 10
380.4077304794
 20
547.035999202
 30
0.0
 10
380.4163963906
 20
547.0634282861
 30
0.0
 10
380.4250631903
 20
547.1026482106
 30
0.0
 10
380.4351149602
 20
547.1801131169
 30
0.0
 10
380.4446969666
 20
547.281064021
 30
0.0
 10
380.4542291959
 20
547.4116082232
 30
0.0
 10
380.4672032076
 20
547.6359190907
 30
0.0
 10
380.4811502733
 20
547.9745292341
 30
0.0
 10
380.4943705968
 20
548.4403877348
 30
0.0
 10
380.5043462242
 20
548.9728356065
 30
0.0
 10
380.5106659754
 20
549.5517531787
 30
0.0
 10
380.51304996
 20
550.1554349233
 30
0.0
 10
380.5114003676
 20
550.7611987972
 30
0.0
 10
380.5057809643
 20
551.3462959278
 30
0.0
 10
380.4964488209
 20
551.8887666272
 30
0.0
 10
380.4837626567
 20
552.3682115406
 30
0.0
 10
380.4702640385
 20
552.7199301602
 30
0.0
 10
380.4575511487
 20
552.9563816793
 30
0.0
 10
380.4482921568
 20
553.0962452725
 30
0.0
 10
380.4384030736
 20
553.2085026505
 30
0.0
 10
380.429209377
 20
553.293808628
 30
0.0
 10
380.4185072892
 20
553.3478971091
 30
0.0
 10
380.4120505318
 20
553.3772936024
 30
0.0
 10
380.4055065159
 20
553.3839411032
 30
0.0
  0
SPLINE
  5
548
100
AcDbEntity
  8
0
100
AcDbSpline
 62
7
  6
CONTINUOUS
 70
0
 71
3
 72
11
 73
7
 74
0
 42
0.0000001
 43
0.0000001
 44
0.0000000001
 40
0.0
 40
0.0
 40
0.0
 40
0.0
 40
0.250896428
 40
0.5012167456
 40
0.7508248901
 40
1.0
 40
1.0
 40
1.0
 40
1.0
 10
342.3613670322
 20
434.1329343958
 30
0.0
 10
342.3613670322
 20
433.934752063
 30
0.0
 10
342.2828798109
 20
433.5345232334
 30
0.0
 10
341.9465224582
 20
433.028158522
 30
0.0
 10
341.4438747133
 20
432.6884209201
 30
0.0
 10
341.0455022775
 20
432.6089343957
 30
0.0
 10
340.8486796086
 20
432.6089343957
 30
0.0
  0
SPLINE
  5
549
100
AcDbEntity
  8
0
100
AcDbSpline
 62
7
  6
CONTINUOUS
 70
0
 71
3
 72
9
 73
5
 74
0
 42
0.0000001
 43
0.0000001
 44
0.0000000001
 40
0.0
 40
0.0
 40
0.0
 40
0.0
 40
0.2754100563
 40
1.0
 40
1.0
 40
1.0
 40
1.0
 10
346.4094828544
 20
455.7229343957
 30
0.0
 10
346.4094828544
 20
455.8220176358
 30
0.0
 10
346.414076549
 20
456.1816849688
 30
0.0
 10
346.4322974336
 20
456.541788861
 30
0.0
 10
346.4637691399
 20
456.8005651303
 30
0.0
  0
SPLINE
  5
54A
100
AcDbEntity
  8
0
100
AcDbSpline
 62
7
  6
CONTINUOUS
 70
0
 71
3
 72
11
 73
7
 74
0
 42
0.0000001
 43
0.0000001
 44
0.0000000001
 40
0.0
 40
0.0
 40
0.0
 40
0.0
 40
0.4023676272
 40
0.7059908887
 40
0.9022356409
 40
1.0
 40
1.0
 40
1.0
 40
1.0
 10
346.4637691399
 20
456.8005651303
 30
0.0
 10
346.4714764315
 20
456.8639383762
 30
0.0
 10
346.4864418866
 20
456.9742418591
 30
0.0
 10
346.5186087723
 20
457.1165690985
 30
0.0
 10
346.5446527545
 20
457.2025149898
 30
0.0
 10
346.5793163999
 20
457.2469343957
 30
0.0
 10
346.5948278264
 20
457.2469343957
 30
0.0
  0
SPLINE
  5
54B
100
AcDbEntity
  8
0
100
AcDbSpline
 62
7
  6
CONTINUOUS
 70
0
 71
3
 72
9
 73
5
 74
0
 42
0.0000001
 43
0.0000001
 44
0.0000000001
 40
0.0
 40
0.0
 40
0.0
 40
0.0
 40
0.2754100563
 40
1.0
 40
1.0
 40
1.0
 40
1.0
 10
349.8783818879
 20
455.7229343957
 30
0.0
 10
349.8783818879
 20
455.8220176358
 30
0.0
 10
349.8737881934
 20
456.1816849688
 30
0.0
 10
349.8555673088
 20
456.541788861
 30
0.0
 10
349.8240956025
 20
456.8005651303
 30
0.0
  0
SPLINE
  5
54C
100
AcDbEntity
  8
0
100
AcDbSpline
 62
7
  6
CONTINUOUS
 70
0
 71
3
 72
11
 73
7
 74
0
 42
0.0000001
 43
0.0000001
 44
0.0000000001
 40
0.0
 40
0.0
 40
0.0
 40
0.0
 40
0.4023676272
 40
0.7059908887
 40
0.9022356409
 40
1.0
 40
1.0
 40
1.0
 40
1.0
 10
349.8240956025
 20
456.8005651303
 30
0.0
 10
349.8163883109
 20
456.8639383762
 30
0.0
 10
349.8014228558
 20
456.9742418591
 30
0.0
 10
349.76925597
 20
457.1165690985
 30
0.0
 10
349.7432119879
 20
457.2025149898
 30
0.0
 10
349.7085483425
 20
457.2469343957
 30
0.0
 10
349.693036916
 20
457.2469343957
 30
0.0
  0
SPLINE
  5
54D
100
AcDbEntity
  8
0
100
AcDbSpline
 62
7
  6
CONTINUOUS
 70
0
 71
3
 72
11
 73
7
 74
0
 42
0.0000001
 43
0.0000001
 44
0.0000000001
 40
0.0
 40
0.0
 40
0.0
 40
0.0
 40
0.2497717183
 40
0.49947747
 40
0.7495437199
 40
1.0
 40
1.0
 40
1.0
 40
1.0
 10
344.6938176069
 20
429.9419343957
 30
0.0
 10
345.237507136
 20
429.9419343957
 30
0.0
 10
346.3368646258
 20
430.1593564529
 30
0.0
 10
347.725276308
 20
431.0928555279
 30
0.0
 10
348.6528096555
 20
432.4865419204
 30
0.0
 10
348.8695239477
 20
433.5877548963
 30
0.0
 10
348.8699236056
 20
434.1329343957
 30
0.0
  0
SPLINE
  5
54E
100
AcDbEntity
  8
0
100
AcDbSpline
 62
7
  6
CONTINUOUS
 70
0
 71
3
 72
11
 73
7
 74
0
 42
0.0000001
 43
0.0000001
 44
0.0000000001
 40
0.0
 40
0.0
 40
0.0
 40
0.0
 40
0.0977643591
 40
0.2940091113
 40
0.5976323728
 40
1.0
 40
1.0
 40
1.0
 40
1.0
 10
347.0458339248
 20
457.2469343957
 30
0.0
 10
347.0613453512
 20
457.2469343957
 30
0.0
 10
347.0960089967
 20
457.2025149898
 30
0.0
 10
347.1220529788
 20
457.1165690985
 30
0.0
 10
347.1542198646
 20
456.9742418591
 30
0.0
 10
347.1691853196
 20
456.8639383762
 30
0.0
 10
347.1768926113
 20
456.8005651303
 30
0.0
  0
SPLINE
  5
54F
100
AcDbEntity
  8
0
100
AcDbSpline
 62
7
  6
CONTINUOUS
 70
0
 71
3
 72
9
 73
5
 74
0
 42
0.0000001
 43
0.0000001
 44
0.0000000001
 40
0.0
 40
0.0
 40
0.0
 40
0.0
 40
0.2149807601
 40
1.0
 40
1.0
 40
1.0
 40
1.0
 10
347.1768926113
 20
456.8005651303
 30
0.0
 10
347.1862305225
 20
456.7237841066
 30
0.0
 10
347.2206728266
 20
456.365562382
 30
0.0
 10
347.2311788967
 20
456.0053722253
 30
0.0
 10
347.2311788967
 20
455.7229343957
 30
0.0
  0
SPLINE
  5
550
100
AcDbEntity
  8
0
100
AcDbSpline
 62
7
  6
CONTINUOUS
 70
0
 71
3
 72
9
 73
5
 74
0
 42
0.0000001
 43
0.0000001
 44
0.0000000001
 40
0.0
 40
0.0
 40
0.0
 40
0.0
 40
0.5455693767
 40
1.0
 40
1.0
 40
1.0
 40
1.0
 10
346.7472100847
 20
450.7699343957
 30
0.0
 10
346.708629124
 20
451.3586646044
 30
0.0
 10
346.6212324823
 20
452.4367446301
 30
0.0
 10
346.4881444938
 20
453.5106375903
 30
0.0
 10
346.4094828544
 20
453.9957343957
 30
0.0
  0
SPLINE
  5
551
100
AcDbEntity
  8
0
100
AcDbSpline
 62
7
  6
CONTINUOUS
 70
0
 71
3
 72
11
 73
7
 74
0
 42
0.0000001
 43
0.0000001
 44
0.0000000001
 40
0.0
 40
0.0
 40
0.0
 40
0.0
 40
0.2501271684
 40
0.4999931287
 40
0.7498652188
 40
1.0
 40
1.0
 40
1.0
 40
1.0
 10
346.2227206144
 20
434.1329343957
 30
0.0
 10
346.2223200393
 20
433.9342323533
 30
0.0
 10
346.1428148804
 20
433.5327986969
 30
0.0
 10
345.8027590525
 20
433.0253843401
 30
0.0
 10
345.2942113353
 20
432.6868267307
 30
0.0
 10
344.8925261008
 20
432.6089343957
 30
0.0
 10
344.6938176069
 20
432.6089343957
 30
0.0
  0
SPLINE
  5
552
100
AcDbEntity
  8
0
100
AcDbSpline
 62
7
  6
CONTINUOUS
 70
0
 71
3
 72
9
 73
5
 74
0
 42
0.0000001
 43
0.0000001
 44
0.0000000001
 40
0.0
 40
0.0
 40
0.0
 40
0.0
 40
0.5047156686
 40
1.0
 40
1.0
 40
1.0
 40
1.0
 10
117.6839550486
 20
405.6367242701
 30
0.0
 10
118.627381439
 20
406.4322481984
 30
0.0
 10
120.7621597772
 20
407.7232030138
 30
0.0
 10
123.2096007965
 20
408.2308202676
 30
0.0
 10
124.4199649961
 20
408.2701441804
 30
0.0
  0
SPLINE
  5
553
100
AcDbEntity
  8
0
100
AcDbSpline
 62
7
  6
CONTINUOUS
 70
0
 71
3
 72
12
 73
8
 74
0
 42
0.0000001
 43
0.0000001
 44
0.0000000001
 40
0.0
 40
0.0
 40
0.0
 40
0.0
 40
0.2545792228
 40
0.507158739
 40
0.632288927
 40
0.7562619937
 40
1.0
 40
1.0
 40
1.0
 40
1.0
 10
99.471747538
 20
378.7449540485
 30
0.0
 10
99.4247638012
 20
380.47774661
 30
0.0
 10
99.70361214
 20
383.9507256488
 30
0.0
 10
100.9738103905
 20
388.1018773073
 30
0.0
 10
102.5052621463
 20
391.162968723
 30
0.0
 10
104.3370499919
 20
393.9804272411
 30
0.0
 10
106.0620669782
 20
395.8368181551
 30
0.0
 10
107.3308200956
 20
396.9066668198
 30
0.0
  0
SPLINE
  5
554
100
AcDbEntity
  8
0
100
AcDbSpline
 62
7
  6
CONTINUOUS
 70
0
 71
3
 72
15
 73
11
 74
0
 42
0.0000001
 43
0.0000001
 44
0.0000000001
 40
0.0
 40
0.0
 40
0.0
 40
0.0
 40
0.1204420477
 40
0.2443345672
 40
0.3716248187
 40
0.5008964231
 40
0.6299738957
 40
0.7567572363
 40
0.8800310062
 40
1.0
 40
1.0
 40
1.0
 40
1.0
 10
131.2242783278
 20
296.6550211036
 30
0.0
 10
131.6080922452
 20
296.7766822363
 30
0.0
 10
132.3474258513
 20
297.167900585
 30
0.0
 10
133.2035732609
 20
298.09740213
 30
0.0
 10
133.7390505995
 20
299.2738219723
 30
0.0
 10
133.900571388
 20
300.5723923592
 30
0.0
 10
133.6737109666
 20
301.8595329345
 30
0.0
 10
133.0790676958
 20
303.0025240052
 30
0.0
 10
132.1759197146
 20
303.8793485636
 30
0.0
 10
131.4177494835
 20
304.2245120811
 30
0.0
 10
131.0288352814
 20
304.3224372621
 30
0.0
  0
SPLINE
  5
555
100
AcDbEntity
  8
0
100
AcDbSpline
 62
7
  6
CONTINUOUS
 70
0
 71
3
 72
11
 73
7
 74
0
 42
0.0000001
 43
0.0000001
 44
0.0000000001
 40
0.0
 40
0.0
 40
0.0
 40
0.0
 40
0.2406192412
 40
0.487829072
 40
0.7417192264
 40
1.0
 40
1.0
 40
1.0
 40
1.0
 10
111.7358274312
 20
345.9720357357
 30
0.0
 10
111.4262463502
 20
346.0659255956
 30
0.0
 10
110.8276791733
 20
346.3683373092
 30
0.0
 10
110.1196562092
 20
347.0935384952
 30
0.0
 10
109.6543393748
 20
348.0191455405
 30
0.0
 10
109.5354549743
 20
348.7090807653
 30
0.0
 10
109.5260429147
 20
349.0562040041
 30
0.0
  0
SPLINE
  5
556
100
AcDbEntity
  8
0
100
AcDbSpline
 62
7
  6
CONTINUOUS
 70
0
 71
3
 72
13
 73
9
 74
0
 42
0.0000001
 43
0.0000001
 44
0.0000000001
 40
0.0
 40
0.0
 40
0.0
 40
0.0
 40
0.3318187435
 40
0.6236180397
 40
0.7445984284
 40
0.8460173316
 40
0.9292103414
 40
1.0
 40
1.0
 40
1.0
 40
1.0
 10
112.543192225
 20
325.1814284485
 30
0.0
 10
112.5484904533
 20
324.9860261389
 30
0.0
 10
112.5865683929
 20
324.6191692717
 30
0.0
 10
112.7045063211
 20
324.1928397331
 30
0.0
 10
112.8418234935
 20
323.9216036377
 30
0.0
 10
112.951143936
 20
323.7769366814
 30
0.0
 10
113.0714404239
 20
323.6825006973
 30
0.0
 10
113.1626609942
 20
323.6580992743
 30
0.0
 10
113.2043631189
 20
323.6580992743
 30
0.0
  0
SPLINE
  5
557
100
AcDbEntity
  8
0
100
AcDbSpline
 62
7
  6
CONTINUOUS
 70
0
 71
3
 72
13
 73
9
 74
0
 42
0.0000001
 43
0.0000001
 44
0.0000000001
 40
0.0
 40
0.0
 40
0.0
 40
0.0
 40
0.0710197717
 40
0.1537462207
 40
0.2544361116
 40
0.3747516521
 40
0.6662208058
 40
1.0
 40
1.0
 40
1.0
 40
1.0
 10
112.5903846235
 20
346.0001255493
 30
0.0
 10
112.5493290503
 20
345.9987716057
 30
0.0
 10
112.4606080507
 20
345.9722110663
 30
0.0
 10
112.3464446888
 20
345.8752796224
 30
0.0
 10
112.2463051546
 20
345.7293201716
 30
0.0
 10
112.1253901119
 20
345.457450754
 30
0.0
 10
112.0322937296
 20
345.0325428373
 30
0.0
 10
112.0147723155
 20
344.6699185445
 30
0.0
 10
112.0200050601
 20
344.4769313212
 30
0.0
  0
SPLINE
  5
558
100
AcDbEntity
  8
0
100
AcDbSpline
 62
7
  6
CONTINUOUS
 70
0
 71
3
 72
14
 73
10
 74
0
 42
0.0000001
 43
0.0000001
 44
0.0000000001
 40
0.0
 40
0.0
 40
0.0
 40
0.0
 40
0.0173970923
 40
0.0652837277
 40
0.1443795097
 40
0.2547071071
 40
0.3960216938
 40
0.5677501907
 40
1.0
 40
1.0
 40
1.0
 40
1.0
 10
117.7675263021
 20
346.0563624477
 30
0.0
 10
117.7674641591
 20
346.0586594675
 30
0.0
 10
117.754941025
 20
346.0593529355
 30
0.0
 10
117.7397053536
 20
346.0623887107
 30
0.0
 10
117.7063118813
 20
346.0636117737
 30
0.0
 10
117.6635743158
 20
346.0654251799
 30
0.0
 10
117.6073110144
 20
346.0665476229
 30
0.0
 10
117.5090488104
 20
346.0678673524
 30
0.0
 10
117.4291947703
 20
346.0680801909
 30
0.0
 10
117.3721019165
 20
346.0680801909
 30
0.0
  0
SPLINE
  5
559
100
AcDbEntity
  8
0
100
AcDbSpline
 62
7
  6
CONTINUOUS
 70
0
 71
3
 72
21
 73
17
 74
0
 42
0.0000001
 43
0.0000001
 44
0.0000000001
 40
0.0
 40
0.0
 40
0.0
 40
0.0
 40
0.0597767454
 40
0.1200440202
 40
0.1811482044
 40
0.2432931827
 40
0.306527217
 40
0.3707327235
 40
0.5004297724
 40
0.6300044609
 40
0.6940741033
 40
0.7571452271
 40
0.8191240969
 40
0.8800841282
 40
0.9402497244
 40
1.0
 40
1.0
 40
1.0
 40
1.0
 10
126.0381691265
 20
382.8813246111
 30
0.0
 10
126.7899604672
 20
382.9057498024
 30
0.0
 10
128.2992600845
 20
383.1171397961
 30
0.0
 10
130.454763196
 20
383.9060236241
 30
0.0
 10
132.4284779128
 20
385.135661889
 30
0.0
 10
134.1449316002
 20
386.7575895935
 30
0.0
 10
135.5411940021
 20
388.7100941762
 30
0.0
 10
136.9107773084
 20
391.658837335
 30
0.0
 10
137.5883574705
 20
395.7662833625
 30
0.0
 10
136.8007051575
 20
399.8527230887
 30
0.0
 10
135.3513007685
 20
402.7573083849
 30
0.0
 10
133.9026025465
 20
404.6640233983
 30
0.0
 10
132.1426321962
 20
406.2298852695
 30
0.0
 10
130.136038634
 20
407.3950342568
 30
0.0
 10
127.9596217896
 20
408.1137267563
 30
0.0
 10
126.4458218133
 20
408.2756270462
 30
0.0
 10
125.6939668808
 20
408.2757110632
 30
0.0
  0
SPLINE
  5
55A
100
AcDbEntity
  8
0
100
AcDbSpline
 62
7
  6
CONTINUOUS
 70
0
 71
3
 72
19
 73
15
 74
0
 42
0.0000001
 43
0.0000001
 44
0.0000000001
 40
0.0
 40
0.0
 40
0.0
 40
0.0
 40
0.0045840939
 40
0.0176081724
 40
0.0391281007
 40
0.0690819013
 40
0.1073517555
 40
0.1537382336
 40
0.2080320925
 40
0.2700025418
 40
0.4156941612
 40
0.5880918327
 40
0.7840988733
 40
1.0
 40
1.0
 40
1.0
 40
1.0
 10
118.3733219667
 20
323.7142012267
 30
0.0
 10
118.3734242118
 20
323.7104218911
 30
0.0
 10
118.3514814224
 20
323.710269969
 30
0.0
 10
118.3266833526
 20
323.7034457022
 30
0.0
 10
118.2696497579
 20
323.7000886192
 30
0.0
 10
118.1976193852
 20
323.6938882218
 30
0.0
 10
118.1026000205
 20
323.6880905737
 30
0.0
 10
117.9884338222
 20
323.6814495219
 30
0.0
 10
117.8543870299
 20
323.6744888389
 30
0.0
 10
117.6386261606
 20
323.6640412184
 30
0.0
 10
117.3254500655
 20
323.6503536808
 30
0.0
 10
116.9017933994
 20
323.6334925829
 30
0.0
 10
116.4202110246
 20
323.6157835734
 30
0.0
 10
116.0806915469
 20
323.6041209721
 30
0.0
 10
115.9027267061
 20
323.598184121
 30
0.0
  0
LINE
  5
55B
100
AcDbEntity
  8
0
100
AcDbLine
 62
7
  6
CONTINUOUS
 10
115.9027267061
 20
323.598184121
 11
115.6626061706
 21
323.5902795788
  0
SPLINE
  5
55C
100
AcDbEntity
  8
0
100
AcDbSpline
 62
7
  6
CONTINUOUS
 70
0
 71
3
 72
13
 73
9
 74
0
 42
0.0000001
 43
0.0000001
 44
0.0000000001
 40
0.0
 40
0.0
 40
0.0
 40
0.0
 40
0.1196888709
 40
0.2405988084
 40
0.3631907469
 40
0.4876883386
 40
0.7413208263
 40
1.0
 40
1.0
 40
1.0
 40
1.0
 10
117.2801201408
 20
309.7773347127
 30
0.0
 10
116.9490421576
 20
309.8347524455
 30
0.0
 10
116.292882228
 20
310.0138794598
 30
0.0
 10
115.370954278
 20
310.4619866998
 30
0.0
 10
114.5337214668
 20
311.0770140598
 30
0.0
 10
113.5592188476
 20
312.0987459594
 30
0.0
 10
112.6762131121
 20
313.6929386173
 30
0.0
 10
112.4097353388
 20
315.1346400161
 30
0.0
 10
112.390051301
 20
315.8606008821
 30
0.0
  0
SPLINE
  5
55D
100
AcDbEntity
  8
0
100
AcDbSpline
 62
7
  6
CONTINUOUS
 70
0
 71
3
 72
19
 73
15
 74
0
 42
0.0000001
 43
0.0000001
 44
0.0000000001
 40
0.0
 40
0.0
 40
0.0
 40
0.0
 40
0.059842066
 40
0.1201783522
 40
0.1813500768
 40
0.2435641499
 40
0.3705896297
 40
0.5004305986
 40
0.6301490716
 40
0.7568720599
 40
0.8189200104
 40
0.8799484169
 40
0.9401819029
 40
1.0
 40
1.0
 40
1.0
 40
1.0
 10
130.0168432855
 20
290.7679862031
 30
0.0
 10
130.5881928454
 20
290.7865489632
 30
0.0
 10
131.7352697097
 20
290.9472438385
 30
0.0
 10
133.3734354919
 20
291.5466529964
 30
0.0
 10
134.8735795138
 20
292.4816031084
 30
0.0
 10
136.6227010098
 20
294.1329720055
 30
0.0
 10
138.185621381
 20
296.840360794
 30
0.0
 10
138.7922239158
 20
300.5604876934
 30
0.0
 10
138.086303288
 20
304.2603723925
 30
0.0
 10
136.4499916443
 20
306.9181588071
 30
0.0
 10
134.6564026039
 20
308.512548527
 30
0.0
 10
133.1312561679
 20
309.3984776588
 30
0.0
 10
131.4771879899
 20
309.9445894433
 30
0.0
 10
130.3266716254
 20
310.0676425226
 30
0.0
 10
129.7552495713
 20
310.0677172001
 30
0.0
  0
SPLINE
  5
55E
100
AcDbEntity
  8
0
100
AcDbSpline
 62
7
  6
CONTINUOUS
 70
0
 71
3
 72
12
 73
8
 74
0
 42
0.0000001
 43
0.0000001
 44
0.0000000001
 40
0.0
 40
0.0
 40
0.0
 40
0.0
 40
0.2598079693
 40
0.5140283667
 40
0.6385493492
 40
0.7609296341
 40
1.0
 40
1.0
 40
1.0
 40
1.0
 10
112.2661385514
 20
320.4305884046
 30
0.0
 10
112.2554173165
 20
320.8259949325
 30
0.0
 10
112.3746938976
 20
321.6191215875
 30
0.0
 10
112.8653956166
 20
322.4863365548
 30
0.0
 10
113.4204347746
 20
323.016826457
 30
0.0
 10
114.0488295195
 20
323.4141327988
 30
0.0
 10
114.6030035834
 20
323.5558538087
 30
0.0
 10
114.9667909468
 20
323.5676730136
 30
0.0
  0
SPLINE
  5
55F
100
AcDbEntity
  8
0
100
AcDbSpline
 62
7
  6
CONTINUOUS
 70
0
 71
3
 72
15
 73
11
 74
0
 42
0.0000001
 43
0.0000001
 44
0.0000000001
 40
0.0
 40
0.0
 40
0.0
 40
0.0
 40
0.1195208536
 40
0.2398660402
 40
0.3617722669
 40
0.4856913852
 40
0.611773322
 40
0.7398523024
 40
0.8694737816
 40
1.0
 40
1.0
 40
1.0
 40
1.0
 10
116.8671282743
 20
290.3793821823
 30
0.0
 10
115.7501678432
 20
290.3794629602
 30
0.0
 10
113.5014618946
 20
290.6177334492
 30
0.0
 10
110.2656889485
 20
291.6752376845
 30
0.0
 10
107.2774110642
 20
293.390794984
 30
0.0
 10
104.6488589462
 20
295.6984676222
 30
0.0
 10
102.4750668899
 20
298.5105482685
 30
0.0
 10
100.8343299253
 20
301.7226009407
 30
0.0
 10
99.7848863439
 20
305.2148562669
 30
0.0
 10
99.5048098524
 20
307.644833403
 30
0.0
 10
99.471747538
 20
308.8641943244
 30
0.0
  0
SPLINE
  5
560
100
AcDbEntity
  8
0
100
AcDbSpline
 62
7
  6
CONTINUOUS
 70
0
 71
3
 72
13
 73
9
 74
0
 42
0.0000001
 43
0.0000001
 44
0.0000000001
 40
0.0
 40
0.0
 40
0.0
 40
0.0
 40
0.2594324451
 40
0.5133301832
 40
0.6376789365
 40
0.7599189751
 40
0.8804562368
 40
1.0
 40
1.0
 40
1.0
 40
1.0
 10
108.9271312918
 20
371.1444770294
 30
0.0
 10
108.8878234944
 20
372.5941756615
 30
0.0
 10
109.3248060984
 20
375.5023315407
 30
0.0
 10
111.1251198503
 20
378.6820436861
 30
0.0
 10
113.1582426498
 20
380.6275796715
 30
0.0
 10
114.9073074601
 20
381.7294179775
 30
0.0
 10
116.8206314792
 20
382.4361884949
 30
0.0
 10
118.1616243057
 20
382.6254210065
 30
0.0
 10
118.8295234082
 20
382.6471205959
 30
0.0
  0
SPLINE
  5
561
100
AcDbEntity
  8
0
100
AcDbSpline
 62
7
  6
CONTINUOUS
 70
0
 71
3
 72
11
 73
7
 74
0
 42
0.0000001
 43
0.0000001
 44
0.0000000001
 40
0.0
 40
0.0
 40
0.0
 40
0.0
 40
0.2469977943
 40
0.5013565266
 40
0.7548762693
 40
1.0
 40
1.0
 40
1.0
 40
1.0
 10
117.2944060607
 20
303.2151653657
 30
0.0
 10
116.8441735128
 20
302.8231921679
 30
0.0
 10
116.1187395696
 20
301.789969848
 30
0.0
 10
115.7997958281
 20
299.9386633098
 30
0.0
 10
116.2626285543
 20
298.1219004643
 30
0.0
 10
117.0699299315
 20
297.1581003521
 30
0.0
 10
117.5496322274
 20
296.8104640438
 30
0.0
  0
SPLINE
  5
562
100
AcDbEntity
  8
0
100
AcDbSpline
 62
7
  6
CONTINUOUS
 70
0
 71
3
 72
13
 73
9
 74
0
 42
0.0000001
 43
0.0000001
 44
0.0000000001
 40
0.0
 40
0.0
 40
0.0
 40
0.0
 40
0.2596746766
 40
0.513270926
 40
0.6374522254
 40
0.7596172505
 40
0.8802162157
 40
1.0
 40
1.0
 40
1.0
 40
1.0
 10
111.460251335
 20
315.8606008821
 30
0.0
 10
111.4821300074
 20
315.0537003793
 30
0.0
 10
111.8064082976
 20
313.4523077445
 30
0.0
 10
112.8871751534
 20
311.7337611507
 30
0.0
 10
114.0620281898
 20
310.7030069244
 30
0.0
 10
115.0581913024
 20
310.1309363568
 30
0.0
 10
116.1367680769
 20
309.7784469105
 30
0.0
 10
116.886364616
 20
309.6990509177
 30
0.0
 10
117.2587117363
 20
309.6990023501
 30
0.0
  0
SPLINE
  5
563
100
AcDbEntity
  8
0
100
AcDbSpline
 62
7
  6
CONTINUOUS
 70
0
 71
3
 72
13
 73
9
 74
0
 42
0.0000001
 43
0.0000001
 44
0.0000000001
 40
0.0
 40
0.0
 40
0.0
 40
0.0
 40
0.1195437558
 40
0.2400810115
 40
0.3623210465
 40
0.4866697984
 40
0.7405675407
 40
1.0
 40
1.0
 40
1.0
 40
1.0
 10
117.8997234421
 20
382.6471205959
 30
0.0
 10
117.2318243808
 20
382.6254210079
 30
0.0
 10
115.8908316292
 20
382.4361885186
 30
0.0
 10
113.9775076894
 20
381.7294180672
 30
0.0
 10
112.2284429039
 20
380.6275798409
 30
0.0
 10
110.1953200531
 20
378.6820439168
 30
0.0
 10
108.395006175
 20
375.502331728
 30
0.0
 10
107.9580235262
 20
372.5941757407
 30
0.0
 10
107.9973313257
 20
371.1444770294
 30
0.0
  0
SPLINE
  5
564
100
AcDbEntity
  8
0
100
AcDbSpline
 62
7
  6
CONTINUOUS
 70
0
 71
3
 72
12
 73
8
 74
0
 42
0.0000001
 43
0.0000001
 44
0.0000000001
 40
0.0
 40
0.0
 40
0.0
 40
0.0
 40
0.2600328465
 40
0.5139364588
 40
0.6382830876
 40
0.760582409
 40
1.0
 40
1.0
 40
1.0
 40
1.0
 10
108.5962429487
 20
349.0562040041
 30
0.0
 10
108.6076205225
 20
348.6365912478
 30
0.0
 10
108.7763478625
 20
347.8039025759
 30
0.0
 10
109.3380189713
 20
346.9102270981
 30
0.0
 10
109.9494881646
 20
346.3743913778
 30
0.0
 10
110.6325002243
 20
345.9806414144
 30
0.0
 10
111.2249550957
 20
345.8522822495
 30
0.0
 10
111.6114431724
 20
345.8521793131
 30
0.0
  0
SPLINE
  5
565
100
AcDbEntity
  8
0
100
AcDbSpline
 62
7
  6
CONTINUOUS
 70
0
 71
3
 72
19
 73
15
 74
0
 42
0.0000001
 43
0.0000001
 44
0.0000000001
 40
0.0
 40
0.0
 40
0.0
 40
0.0
 40
0.0597707166
 40
0.1200926436
 40
0.1812587561
 40
0.2434145832
 40
0.3701633303
 40
0.4995620396
 40
0.6290679302
 40
0.7560900625
 40
0.8184045178
 40
0.8797187277
 40
0.9401556682
 40
1.0
 40
1.0
 40
1.0
 40
1.0
 10
129.7313047618
 20
310.0165943092
 30
0.0
 10
130.2633775768
 20
309.9564911141
 30
0.0
 10
131.3232605826
 20
309.7282054836
 30
0.0
 10
132.8221840853
 20
309.0790188832
 30
0.0
 10
134.188299289
 20
308.1441696553
 30
0.0
 10
135.7801921907
 20
306.5525958711
 30
0.0
 10
137.2163748645
 20
304.0159137475
 30
0.0
 10
137.8347529201
 20
300.5532713357
 30
0.0
 10
137.3049254672
 20
297.0736769218
 30
0.0
 10
135.935152062
 20
294.4955949048
 30
0.0
 10
134.3853466817
 20
292.8559903154
 30
0.0
 10
133.0441063662
 20
291.8794906461
 30
0.0
 10
131.5627118904
 20
291.1842343247
 30
0.0
 10
130.5086953877
 20
290.923237851
 30
0.0
 10
129.9780785119
 20
290.8466461481
 30
0.0
  0
SPLINE
  5
566
100
AcDbEntity
  8
0
100
AcDbSpline
 62
7
  6
CONTINUOUS
 70
0
 71
3
 72
14
 73
10
 74
0
 42
0.0000001
 43
0.0000001
 44
0.0000000001
 40
0.0
 40
0.0
 40
0.0
 40
0.0
 40
0.4322498093
 40
0.6039783062
 40
0.7452928929
 40
0.8556204903
 40
0.9347162723
 40
0.9826029077
 40
1.0
 40
1.0
 40
1.0
 40
1.0
 10
117.9778975811
 20
323.7259189699
 30
0.0
 10
118.0349904349
 20
323.7259189699
 30
0.0
 10
118.114844475
 20
323.7257061314
 30
0.0
 10
118.213106679
 20
323.7243864019
 30
0.0
 10
118.2693699804
 20
323.7232639589
 30
0.0
 10
118.3121075459
 20
323.7214505527
 30
0.0
 10
118.3455010182
 20
323.7202274897
 30
0.0
 10
118.3607366896
 20
323.7171917145
 30
0.0
 10
118.3732598237
 20
323.7164982465
 30
0.0
 10
118.3733219667
 20
323.7142012267
 30
0.0
  0
SPLINE
  5
567
100
AcDbEntity
  8
0
100
AcDbSpline
 62
7
  6
CONTINUOUS
 70
0
 71
3
 72
9
 73
5
 74
0
 42
0.0000001
 43
0.0000001
 44
0.0000000001
 40
0.0
 40
0.0
 40
0.0
 40
0.0
 40
0.2875246972
 40
1.0
 40
1.0
 40
1.0
 40
1.0
 10
114.7328062045
 20
323.5902795788
 30
0.0
 10
114.8209861929
 20
323.5931444869
 30
0.0
 10
115.1276618794
 20
323.6034196322
 30
0.0
 10
115.4343105091
 20
323.6146651803
 30
0.0
 10
115.6527234429
 20
323.6242230362
 30
0.0
  0
SPLINE
  5
568
100
AcDbEntity
  8
0
100
AcDbSpline
 62
7
  6
CONTINUOUS
 70
0
 71
3
 72
14
 73
10
 74
0
 42
0.0000001
 43
0.0000001
 44
0.0000000001
 40
0.0
 40
0.0
 40
0.0
 40
0.0
 40
0.4287001512
 40
0.6007045274
 40
0.7428585583
 40
0.8543482822
 40
0.9346166233
 40
0.9831528481
 40
1.0
 40
1.0
 40
1.0
 40
1.0
 10
115.6527234429
 20
323.6242230362
 30
0.0
 10
115.7150641318
 20
323.626951095
 30
0.0
 10
115.8025095845
 20
323.6309179865
 30
0.0
 10
115.9102654861
 20
323.6367239844
 30
0.0
 10
115.9725808411
 20
323.6401729993
 30
0.0
 10
116.0198545
 20
323.6440306512
 30
0.0
 10
116.0574936954
 20
323.6457176251
 30
0.0
 10
116.0736200359
 20
323.6503148336
 30
0.0
 10
116.0882226741
 20
323.6497888663
 30
0.0
 10
116.0881567931
 20
323.6522402038
 30
0.0
  0
SPLINE
  5
569
100
AcDbEntity
  8
0
100
AcDbSpline
 62
7
  6
CONTINUOUS
 70
0
 71
3
 72
19
 73
15
 74
0
 42
0.0000001
 43
0.0000001
 44
0.0000000001
 40
0.0
 40
0.0
 40
0.0
 40
0.0
 40
0.0597737949
 40
0.1200706602
 40
0.181202493
 40
0.2433345014
 40
0.3700827003
 40
0.4995623679
 40
0.629152399
 40
0.7561803486
 40
0.8184726135
 40
0.8797521669
 40
0.9401609852
 40
1.0
 40
1.0
 40
1.0
 40
1.0
 10
125.6716362851
 20
408.2367401803
 30
0.0
 10
126.3847777026
 20
408.1755154271
 30
0.0
 10
127.8088666482
 20
407.9061456155
 30
0.0
 10
129.8304058336
 20
407.0815427242
 30
0.0
 10
131.6777625268
 20
405.864537889
 30
0.0
 10
133.8350487483
 20
403.7671689925
 30
0.0
 10
135.7863523542
 20
400.3900991449
 30
0.0
 10
136.6269665496
 20
395.7592899786
 30
0.0
 10
135.9063824919
 20
391.1051561968
 30
0.0
 10
134.0448101901
 20
387.6710799757
 30
0.0
 10
131.9438471753
 20
385.5076727257
 30
0.0
 10
130.1294060709
 20
384.2335340808
 30
0.0
 10
128.130557971
 20
383.3459105044
 30
0.0
 10
126.7135022807
 20
383.0319152035
 30
0.0
 10
126.0018533126
 20
382.9482880358
 30
0.0
  0
SPLINE
  5
56A
100
AcDbEntity
  8
0
100
AcDbSpline
 62
7
  6
CONTINUOUS
 70
0
 71
3
 72
8
 73
4
 74
0
 42
0.0000001
 43
0.0000001
 44
0.0000000001
 40
0.0
 40
0.0
 40
0.0
 40
0.0
 40
1.0
 40
1.0
 40
1.0
 40
1.0
 10
114.0369909808
 20
323.5676730136
 30
0.0
 10
113.7818611033
 20
323.5593840168
 30
0.0
 10
113.5253096145
 20
323.5116073284
 30
0.0
 10
113.2839470805
 20
323.4285164804
 30
0.0
  0
SPLINE
  5
56B
100
AcDbEntity
  8
0
100
AcDbSpline
 62
7
  6
CONTINUOUS
 70
0
 71
3
 72
11
 73
7
 74
0
 42
0.0000001
 43
0.0000001
 44
0.0000000001
 40
0.0
 40
0.0
 40
0.0
 40
0.0
 40
0.2405971348
 40
0.4880595819
 40
0.7420970417
 40
1.0
 40
1.0
 40
1.0
 40
1.0
 10
113.2839470805
 20
323.4285164804
 30
0.0
 10
112.995306458
 20
323.3291497988
 30
0.0
 10
112.4417207428
 20
323.021007788
 30
0.0
 10
111.8037290618
 20
322.307328155
 30
0.0
 10
111.4061737207
 20
321.4137476335
 30
0.0
 10
111.3274693686
 20
320.7576912276
 30
0.0
 10
111.3363385854
 20
320.4305884046
 30
0.0
  0
SPLINE
  5
56C
100
AcDbEntity
  8
0
100
AcDbSpline
 62
7
  6
CONTINUOUS
 70
0
 71
3
 72
13
 73
9
 74
0
 42
0.0000001
 43
0.0000001
 44
0.0000000001
 40
0.0
 40
0.0
 40
0.0
 40
0.0
 40
0.3337794983
 40
0.6252486676
 40
0.7455641603
 40
0.8462539487
 40
0.9289802864
 40
1.0
 40
1.0
 40
1.0
 40
1.0
 10
114.1074507314
 20
344.5447510167
 30
0.0
 10
114.102217982
 20
344.7377384184
 30
0.0
 10
114.1197394268
 20
345.1003629066
 30
0.0
 10
114.2128359375
 20
345.5252709588
 30
0.0
 10
114.3337510404
 20
345.7971402837
 30
0.0
 10
114.4338905968
 20
345.9430995171
 30
0.0
 10
114.5480538137
 20
346.0400309099
 30
0.0
 10
114.6367747522
 20
346.0665913089
 30
0.0
 10
114.6778302926
 20
346.0679452454
 30
0.0
  0
SPLINE
  5
56D
100
AcDbEntity
  8
0
100
AcDbSpline
 62
7
  6
CONTINUOUS
 70
0
 71
3
 72
13
 73
9
 74
0
 42
0.0000001
 43
0.0000001
 44
0.0000000001
 40
0.0
 40
0.0
 40
0.0
 40
0.0
 40
0.070789712
 40
0.1539828347
 40
0.2554018444
 40
0.3763822788
 40
0.668181561
 40
1.0
 40
1.0
 40
1.0
 40
1.0
 10
115.2918087902
 20
323.7259189699
 30
0.0
 10
115.2501066346
 20
323.7259189699
 30
0.0
 10
115.1588859982
 20
323.7503205374
 30
0.0
 10
115.0385893617
 20
323.844756567
 30
0.0
 10
114.9292689293
 20
323.9894237462
 30
0.0
 10
114.791951803
 20
324.260659936
 30
0.0
 10
114.6740140191
 20
324.6869893465
 30
0.0
 10
114.6359361197
 20
325.0538460162
 30
0.0
 10
114.6306378963
 20
325.249248144
 30
0.0
  0
SPLINE
  5
56E
100
AcDbEntity
  8
0
100
AcDbSpline
 62
7
  6
CONTINUOUS
 70
0
 71
3
 72
13
 73
9
 74
0
 42
0.0000001
 43
0.0000001
 44
0.0000000001
 40
0.0
 40
0.0
 40
0.0
 40
0.0
 40
0.1195437558
 40
0.2400810115
 40
0.3623210465
 40
0.4866697984
 40
0.7405675407
 40
1.0
 40
1.0
 40
1.0
 40
1.0
 10
134.4130972693
 20
287.7654481956
 30
0.0
 10
135.0809963306
 20
287.7871477836
 30
0.0
 10
136.4219890822
 20
287.9763802729
 30
0.0
 10
138.335313022
 20
288.6831507243
 30
0.0
 10
140.0843778075
 20
289.7849889506
 30
0.0
 10
142.1175006583
 20
291.7305248747
 30
0.0
 10
143.9178145364
 20
294.9102370635
 30
0.0
 10
144.3547971852
 20
297.8183930508
 30
0.0
 10
144.3154893857
 20
299.268091762
 30
0.0
  0
SPLINE
  5
56F
100
AcDbEntity
  8
0
100
AcDbSpline
 62
7
  6
CONTINUOUS
 70
0
 71
3
 72
12
 73
8
 74
0
 42
0.0000001
 43
0.0000001
 44
0.0000000001
 40
0.0
 40
0.0
 40
0.0
 40
0.0
 40
0.2600328465
 40
0.5139364588
 40
0.6382830876
 40
0.760582409
 40
1.0
 40
1.0
 40
1.0
 40
1.0
 10
143.7165777627
 20
321.3563647874
 30
0.0
 10
143.7052001889
 20
321.7759775437
 30
0.0
 10
143.5364728489
 20
322.6086662156
 30
0.0
 10
142.9748017401
 20
323.5023416934
 30
0.0
 10
142.3633325468
 20
324.0381774137
 30
0.0
 10
141.680320487
 20
324.4319273771
 30
0.0
 10
141.0878656156
 20
324.560286542
 30
0.0
 10
140.701377539
 20
324.5603894784
 30
0.0
  0
SPLINE
  5
570
100
AcDbEntity
  8
0
100
AcDbSpline
 62
7
  6
CONTINUOUS
 70
0
 71
3
 72
12
 73
8
 74
0
 42
0.0000001
 43
0.0000001
 44
0.0000000001
 40
0.0
 40
0.0
 40
0.0
 40
0.0
 40
0.2390702681
 40
0.361450532
 40
0.4859715054
 40
0.7401919258
 40
1.0
 40
1.0
 40
1.0
 40
1.0
 10
138.2758297306
 20
346.8448957779
 30
0.0
 10
138.6396169451
 20
346.856714978
 30
0.0
 10
139.1937908276
 20
346.9984358756
 30
0.0
 10
139.8221854698
 20
347.3957420126
 30
0.0
 10
140.3772247357
 20
347.9262317845
 30
0.0
 10
140.8679266884
 20
348.793446841
 30
0.0
 10
140.9872033653
 20
349.5865736994
 30
0.0
 10
140.976482126
 20
349.9819803869
 30
0.0
  0
SPLINE
  5
571
100
AcDbEntity
  8
0
100
AcDbSpline
 62
7
  6
CONTINUOUS
 70
0
 71
3
 72
13
 73
9
 74
0
 42
0.0000001
 43
0.0000001
 44
0.0000000001
 40
0.0
 40
0.0
 40
0.0
 40
0.0
 40
0.2596746766
 40
0.513270926
 40
0.6374522254
 40
0.7596172505
 40
0.8802162157
 40
1.0
 40
1.0
 40
1.0
 40
1.0
 10
140.8525693764
 20
354.5519679094
 30
0.0
 10
140.830690704
 20
355.3588684122
 30
0.0
 10
140.5064124138
 20
356.960261047
 30
0.0
 10
139.425645558
 20
358.6788076408
 30
0.0
 10
138.2507925215
 20
359.7095618671
 30
0.0
 10
137.254629409
 20
360.2816324347
 30
0.0
 10
136.1760526345
 20
360.6341218809
 30
0.0
 10
135.4264560954
 20
360.7135178738
 30
0.0
 10
135.0541089751
 20
360.7135664414
 30
0.0
  0
SPLINE
  5
572
100
AcDbEntity
  8
0
100
AcDbSpline
 62
7
  6
CONTINUOUS
 70
0
 71
3
 72
15
 73
11
 74
0
 42
0.0000001
 43
0.0000001
 44
0.0000000001
 40
0.0
 40
0.0
 40
0.0
 40
0.0
 40
0.1209132085
 40
0.2451837905
 40
0.3724881633
 40
0.5014390172
 40
0.6301011859
 40
0.7566360636
 40
0.8799253584
 40
1.0
 40
1.0
 40
1.0
 40
1.0
 10
134.1103816896
 20
366.6197411528
 30
0.0
 10
134.4586836008
 20
366.7724068616
 30
0.0
 10
135.1172342483
 20
367.2032544534
 30
0.0
 10
135.8626861635
 20
368.1292475383
 30
0.0
 10
136.3164461091
 20
369.2549588643
 30
0.0
 10
136.4383865277
 20
370.4754855751
 30
0.0
 10
136.2187650709
 20
371.6799305773
 30
0.0
 10
135.6755249861
 20
372.758501031
 30
0.0
 10
134.8568355061
 20
373.6098420403
 30
0.0
 10
134.1657203566
 20
373.9748451221
 30
0.0
 10
133.8069959847
 20
374.0929080138
 30
0.0
  0
SPLINE
  5
573
100
AcDbEntity
  8
0
100
AcDbSpline
 62
7
  6
CONTINUOUS
 70
0
 71
3
 72
9
 73
5
 74
0
 42
0.0000001
 43
0.0000001
 44
0.0000000001
 40
0.0
 40
0.0
 40
0.0
 40
0.0
 40
0.4985509786
 40
1.0
 40
1.0
 40
1.0
 40
1.0
 10
119.8611117624
 20
368.0276590987
 30
0.0
 10
119.6127126138
 20
368.5171775202
 30
0.0
 10
119.3106806264
 20
369.6090397215
 30
0.0
 10
119.4405626283
 20
370.7335302877
 30
0.0
 10
119.6085868777
 20
371.2594691455
 30
0.0
  0
SPLINE
  5
574
100
AcDbEntity
  8
0
100
AcDbSpline
 62
7
  6
CONTINUOUS
 70
0
 71
3
 72
13
 73
9
 74
0
 42
0.0000001
 43
0.0000001
 44
0.0000000001
 40
0.0
 40
0.0
 40
0.0
 40
0.0
 40
0.0710197717
 40
0.1537462207
 40
0.2544361116
 40
0.3747516521
 40
0.6662208058
 40
1.0
 40
1.0
 40
1.0
 40
1.0
 10
129.7810515765
 20
346.6865148756
 30
0.0
 10
129.7399960033
 20
346.685160932
 30
0.0
 10
129.6512750037
 20
346.6586003926
 30
0.0
 10
129.5371116418
 20
346.5616689487
 30
0.0
 10
129.4369721076
 20
346.4157094979
 30
0.0
 10
129.3160570649
 20
346.1438400803
 30
0.0
 10
129.2229606826
 20
345.7189321636
 30
0.0
 10
129.2054392685
 20
345.3563078708
 30
0.0
 10
129.2106720131
 20
345.1633206475
 30
0.0
  0
SPLINE
  5
575
100
AcDbEntity
  8
0
100
AcDbSpline
 62
7
  6
CONTINUOUS
 70
0
 71
3
 72
9
 73
5
 74
0
 42
0.0000001
 43
0.0000001
 44
0.0000000001
 40
0.0
 40
0.0
 40
0.0
 40
0.0
 40
0.5795223151
 40
1.0
 40
1.0
 40
1.0
 40
1.0
 10
137.5800145069
 20
346.8222892127
 30
0.0
 10
136.9973111817
 20
346.8033575765
 30
0.0
 10
135.9916615869
 20
346.7774932914
 30
0.0
 10
134.9857776434
 20
346.7544695172
 30
0.0
 10
134.5627688695
 20
346.7544695172
 30
0.0
  0
SPLINE
  5
576
100
AcDbEntity
  8
0
100
AcDbSpline
 62
7
  6
CONTINUOUS
 70
0
 71
3
 72
13
 73
9
 74
0
 42
0.0000001
 43
0.0000001
 44
0.0000000001
 40
0.0
 40
0.0
 40
0.0
 40
0.0
 40
0.3318187435
 40
0.6236180397
 40
0.7445984284
 40
0.8460173316
 40
0.9292103414
 40
1.0
 40
1.0
 40
1.0
 40
1.0
 10
129.733859178
 20
325.8678177748
 30
0.0
 10
129.7391574063
 20
325.6724154652
 30
0.0
 10
129.7772353459
 20
325.305558598
 30
0.0
 10
129.8951732741
 20
324.8792290593
 30
0.0
 10
130.0324904465
 20
324.607992964
 30
0.0
 10
130.1418108889
 20
324.4633260077
 30
0.0
 10
130.2621073769
 20
324.3688900236
 30
0.0
 10
130.3533279472
 20
324.3444886006
 30
0.0
 10
130.3950300719
 20
324.3444886006
 30
0.0
  0
SPLINE
  5
577
100
AcDbEntity
  8
0
100
AcDbSpline
 62
7
  6
CONTINUOUS
 70
0
 71
3
 72
19
 73
15
 74
0
 42
0.0000001
 43
0.0000001
 44
0.0000000001
 40
0.0
 40
0.0
 40
0.0
 40
0.0
 40
0.0598170168
 40
0.1200495235
 40
0.1810773634
 40
0.2431252259
 40
0.3698496761
 40
0.4995690923
 40
0.6294089778
 40
0.7564330695
 40
0.8186473405
 40
0.8798196398
 40
0.9401570739
 40
1.0
 40
1.0
 40
1.0
 40
1.0
 10
123.4873710785
 20
360.3448513373
 30
0.0
 10
122.9159593752
 20
360.344924995
 30
0.0
 10
121.7654628053
 20
360.4679747965
 30
0.0
 10
120.1114166498
 20
361.0140702248
 30
0.0
 10
118.5862759617
 20
361.8999775244
 30
0.0
 10
116.7926686927
 20
363.4943584134
 30
0.0
 10
115.1563283271
 20
366.1521557048
 30
0.0
 10
114.4503972614
 20
369.8520529144
 30
0.0
 10
115.0569896633
 20
373.572164508
 30
0.0
 10
116.6198816365
 20
376.2795419532
 30
0.0
 10
118.3689861701
 20
377.9309195476
 30
0.0
 10
119.8691365036
 20
378.865894865
 30
0.0
 10
121.5073241411
 20
379.4653178838
 30
0.0
 10
122.654419651
 20
379.6260195625
 30
0.0
 10
123.225777392
 20
379.6445825884
 30
0.0
  0
SPLINE
  5
578
100
AcDbEntity
  8
0
100
AcDbSpline
 62
7
  6
CONTINUOUS
 70
0
 71
3
 72
10
 73
6
 74
0
 42
0.0000001
 43
0.0000001
 44
0.0000000001
 40
0.0
 40
0.0
 40
0.0
 40
0.0
 40
0.579519116
 40
0.8294376818
 40
1.0
 40
1.0
 40
1.0
 40
1.0
 10
139.1156101375
 20
324.4801279917
 30
0.0
 10
137.9502046318
 20
324.4422647564
 30
0.0
 10
136.2819187318
 20
324.3962925552
 30
0.0
 10
134.2702912408
 20
324.3561617161
 30
0.0
 10
133.4242984753
 20
324.3444886006
 30
0.0
 10
133.0811188627
 20
324.3444886006
 30
0.0
  0
SPLINE
  5
579
100
AcDbEntity
  8
0
100
AcDbSpline
 62
7
  6
CONTINUOUS
 70
0
 71
3
 72
9
 73
5
 74
0
 42
0.0000001
 43
0.0000001
 44
0.0000000001
 40
0.0
 40
0.0
 40
0.0
 40
0.0
 40
0.4952843314
 40
1.0
 40
1.0
 40
1.0
 40
1.0
 10
128.8226556814
 20
262.1424246111
 30
0.0
 10
130.033019881
 20
262.1817485239
 30
0.0
 10
132.4804609003
 20
262.6893657777
 30
0.0
 10
134.6152392385
 20
263.9803205931
 30
0.0
 10
135.5586656289
 20
264.7758445214
 30
0.0
  0
SPLINE
  5
57A
100
AcDbEntity
  8
0
100
AcDbSpline
 62
7
  6
CONTINUOUS
 70
0
 71
3
 72
12
 73
8
 74
0
 42
0.0000001
 43
0.0000001
 44
0.0000000001
 40
0.0
 40
0.0
 40
0.0
 40
0.0
 40
0.2437380063
 40
0.367711073
 40
0.492841261
 40
0.7454207772
 40
1.0
 40
1.0
 40
1.0
 40
1.0
 10
145.9118005819
 20
273.5059019717
 30
0.0
 10
147.1805536992
 20
274.5757506364
 30
0.0
 10
148.9055706856
 20
276.4321415504
 30
0.0
 10
150.7373585312
 20
279.2496000685
 30
0.0
 10
152.268810287
 20
282.3106914842
 30
0.0
 10
153.5390085375
 20
286.4618431427
 30
0.0
 10
153.8178568763
 20
289.9348221815
 30
0.0
 10
153.7708731395
 20
291.667614743
 30
0.0
  0
SPLINE
  5
57B
100
AcDbEntity
  8
0
100
AcDbSpline
 62
7
  6
CONTINUOUS
 70
0
 71
3
 72
15
 73
11
 74
0
 42
0.0000001
 43
0.0000001
 44
0.0000000001
 40
0.0
 40
0.0
 40
0.0
 40
0.0
 40
0.1305262184
 40
0.2601476976
 40
0.388226678
 40
0.5143086148
 40
0.6382277331
 40
0.7601339598
 40
0.8804791464
 40
1.0
 40
1.0
 40
1.0
 40
1.0
 10
153.7708731395
 20
361.5483744671
 30
0.0
 10
153.7378108251
 20
362.7677353885
 30
0.0
 10
153.4577343336
 20
365.1977125246
 30
0.0
 10
152.4082907521
 20
368.6899678508
 30
0.0
 10
150.7675537876
 20
371.902020523
 30
0.0
 10
148.5937617313
 20
374.7141011693
 30
0.0
 10
145.9652096132
 20
377.0217738075
 30
0.0
 10
142.976931729
 20
378.737331107
 30
0.0
 10
139.7411587828
 20
379.7948353423
 30
0.0
 10
137.4924528342
 20
380.0331058312
 30
0.0
 10
136.3754924032
 20
380.0331866092
 30
0.0
  0
SPLINE
  5
57C
100
AcDbEntity
  8
0
100
AcDbSpline
 62
7
  6
CONTINUOUS
 70
0
 71
3
 72
21
 73
17
 74
0
 42
0.0000001
 43
0.0000001
 44
0.0000000001
 40
0.0
 40
0.0
 40
0.0
 40
0.0
 40
0.0597492412
 40
0.1199142518
 40
0.1808741135
 40
0.2428533428
 40
0.3059252954
 40
0.3699959175
 40
0.4995715236
 40
0.6292675037
 40
0.6934720178
 40
0.7567052702
 40
0.8188499802
 40
0.8799543713
 40
0.9402223971
 40
1.0
 40
1.0
 40
1.0
 40
1.0
 10
127.5486537035
 20
262.1368573854
 30
0.0
 10
126.7968117921
 20
262.1369400465
 30
0.0
 10
125.2830324994
 20
262.2988377801
 30
0.0
 10
123.1066341684
 20
263.017512032
 30
0.0
 10
121.1000380371
 20
264.1826467794
 30
0.0
 10
119.3400503031
 20
265.748508828
 30
0.0
 10
117.8913297167
 20
267.6552418165
 30
0.0
 10
116.4419091823
 20
270.5598580938
 30
0.0
 10
115.6542636107
 20
274.6463113344
 30
0.0
 10
116.3318489284
 20
278.7537399078
 30
0.0
 10
117.7014147272
 20
281.7024509435
 30
0.0
 10
119.097655038
 20
283.6549391487
 30
0.0
 10
120.8140931597
 20
285.2768672732
 30
0.0
 10
122.7878073022
 20
286.506523266
 30
0.0
 10
124.9433298958
 20
287.2954218363
 30
0.0
 10
126.4526494328
 20
287.506818639
 30
0.0
 10
127.204451551
 20
287.5312441804
 30
0.0
  0
SPLINE
  5
57D
100
AcDbEntity
  8
0
100
AcDbSpline
 62
7
  6
CONTINUOUS
 70
0
 71
3
 72
13
 73
9
 74
0
 42
0.0000001
 43
0.0000001
 44
0.0000000001
 40
0.0
 40
0.0
 40
0.0
 40
0.0
 40
0.1219694298
 40
0.2469180579
 40
0.5010996208
 40
0.7545334411
 40
0.8787526644
 40
1.0
 40
1.0
 40
1.0
 40
1.0
 10
120.3018144025
 20
373.3931955349
 30
0.0
 10
120.0147557585
 20
373.2138612391
 30
0.0
 10
119.4832866879
 20
372.7646079907
 30
0.0
 10
118.6912892197
 20
371.6053470603
 30
0.0
 10
118.298288062
 20
369.8135718228
 30
0.0
 10
118.8004322227
 20
368.0502597567
 30
0.0
 10
119.6640894382
 20
366.9506026639
 30
0.0
 10
120.2225289076
 20
366.5418300864
 30
0.0
 10
120.5198958813
 20
366.3844011955
 30
0.0
  0
SPLINE
  5
57E
100
AcDbEntity
  8
0
100
AcDbSpline
 62
7
  6
CONTINUOUS
 70
0
 71
3
 72
13
 73
9
 74
0
 42
0.0000001
 43
0.0000001
 44
0.0000000001
 40
0.0
 40
0.0
 40
0.0
 40
0.0
 40
0.070789712
 40
0.1539828347
 40
0.2554018444
 40
0.3763822788
 40
0.668181561
 40
1.0
 40
1.0
 40
1.0
 40
1.0
 10
132.4824757432
 20
324.4123082962
 30
0.0
 10
132.4407735876
 20
324.4123082962
 30
0.0
 10
132.3495529512
 20
324.4367098637
 30
0.0
 10
132.2292563147
 20
324.5311458933
 30
0.0
 10
132.1199358823
 20
324.6758130725
 30
0.0
 10
131.982618756
 20
324.9470492623
 30
0.0
 10
131.8646809721
 20
325.3733786728
 30
0.0
 10
131.8266030727
 20
325.7402353425
 30
0.0
 10
131.8213048493
 20
325.9356374703
 30
0.0
  0
SPLINE
  5
57F
100
AcDbEntity
  8
0
100
AcDbSpline
 62
7
  6
CONTINUOUS
 70
0
 71
3
 72
13
 73
9
 74
0
 42
0.0000001
 43
0.0000001
 44
0.0000000001
 40
0.0
 40
0.0
 40
0.0
 40
0.0
 40
0.3337794983
 40
0.6252486676
 40
0.7455641603
 40
0.8462539487
 40
0.9289802864
 40
1.0
 40
1.0
 40
1.0
 40
1.0
 10
131.2981176844
 20
345.231140343
 30
0.0
 10
131.292884935
 20
345.4241277447
 30
0.0
 10
131.3104063798
 20
345.7867522329
 30
0.0
 10
131.4035028905
 20
346.211660285
 30
0.0
 10
131.5244179934
 20
346.48352961
 30
0.0
 10
131.6245575498
 20
346.6294888434
 30
0.0
 10
131.7387207666
 20
346.7264202362
 30
0.0
 10
131.8274417052
 20
346.7529806352
 30
0.0
 10
131.8684972455
 20
346.7543345717
 30
0.0
  0
SPLINE
  5
580
100
AcDbEntity
  8
0
100
AcDbSpline
 62
7
  6
CONTINUOUS
 70
0
 71
3
 72
9
 73
5
 74
0
 42
0.0000001
 43
0.0000001
 44
0.0000000001
 40
0.0
 40
0.0
 40
0.0
 40
0.0
 40
0.4204775411
 40
1.0
 40
1.0
 40
1.0
 40
1.0
 10
135.1685645341
 20
324.4123082962
 30
0.0
 10
135.5915731633
 20
324.4123082962
 30
0.0
 10
136.5974571069
 20
324.4353320663
 30
0.0
 10
137.6031067016
 20
324.4611963508
 30
0.0
 10
138.1858101715
 20
324.4801279917
 30
0.0
  0
SPLINE
  5
581
100
AcDbEntity
  8
0
100
AcDbSpline
 62
7
  6
CONTINUOUS
 70
0
 71
3
 72
15
 73
11
 74
0
 42
0.0000001
 43
0.0000001
 44
0.0000000001
 40
0.0
 40
0.0
 40
0.0
 40
0.0
 40
0.1194707549
 40
0.2399172655
 40
0.3619799183
 40
0.4860318186
 40
0.6121656179
 40
0.7401938733
 40
0.8696726442
 40
1.0
 40
1.0
 40
1.0
 40
1.0
 10
136.3587175818
 20
380.0069048096
 30
0.0
 10
137.4372263872
 20
379.9448767345
 30
0.0
 10
139.5965711593
 20
379.5975967083
 30
0.0
 10
142.6773724437
 20
378.4319208796
 30
0.0
 10
145.5055516748
 20
376.663116219
 30
0.0
 10
147.9822462389
 20
374.3544798375
 30
0.0
 10
150.0240212922
 20
371.5874799189
 30
0.0
 10
151.5621414348
 20
368.4578157198
 30
0.0
 10
152.5455621205
 20
365.0743331048
 30
0.0
 10
152.809131612
 20
362.7264012442
 30
0.0
 10
152.8410731734
 20
361.5483744671
 30
0.0
  0
SPLINE
  5
582
100
AcDbEntity
  8
0
100
AcDbSpline
 62
7
  6
CONTINUOUS
 70
0
 71
3
 72
12
 73
8
 74
0
 42
0.0000001
 43
0.0000001
 44
0.0000000001
 40
0.0
 40
0.0
 40
0.0
 40
0.0
 40
0.2545792228
 40
0.507158739
 40
0.632288927
 40
0.7562619937
 40
1.0
 40
1.0
 40
1.0
 40
1.0
 10
152.8410731734
 20
291.667614743
 30
0.0
 10
152.8880569102
 20
289.9348221815
 30
0.0
 10
152.6092085714
 20
286.4618431427
 30
0.0
 10
151.3390103209
 20
282.3106914842
 30
0.0
 10
149.8075585651
 20
279.2496000685
 30
0.0
 10
147.9757707195
 20
276.4321415504
 30
0.0
 10
146.2507537332
 20
274.5757506364
 30
0.0
 10
144.9820006158
 20
273.5059019717
 30
0.0
  0
SPLINE
  5
583
100
AcDbEntity
  8
0
100
AcDbSpline
 62
7
  6
CONTINUOUS
 70
0
 71
3
 72
9
 73
5
 74
0
 42
0.0000001
 43
0.0000001
 44
0.0000000001
 40
0.0
 40
0.0
 40
0.0
 40
0.0
 40
0.5044950903
 40
1.0
 40
1.0
 40
1.0
 40
1.0
 10
134.6288656628
 20
264.7758445214
 30
0.0
 10
133.8008770613
 20
264.0776610154
 30
0.0
 10
131.957453361
 20
262.9141378672
 30
0.0
 10
129.8525138726
 20
262.3355775297
 30
0.0
 10
128.7961296401
 20
262.2105047393
 30
0.0
  0
SPLINE
  5
584
100
AcDbEntity
  8
0
100
AcDbSpline
 62
7
  6
CONTINUOUS
 70
0
 71
3
 72
14
 73
10
 74
0
 42
0.0000001
 43
0.0000001
 44
0.0000000001
 40
0.0
 40
0.0
 40
0.0
 40
0.0
 40
0.3331995405
 40
0.4866968947
 40
0.6253389174
 40
0.7457842715
 40
0.846540024
 40
0.9291697093
 40
1.0
 40
1.0
 40
1.0
 40
1.0
 10
157.4756474403
 20
240.3309343957
 30
0.0
 10
157.4756474403
 20
239.5182117258
 30
0.0
 10
157.5651102924
 20
238.3270685956
 30
0.0
 10
157.8833256834
 20
236.8334678747
 30
0.0
 10
158.195905889
 20
235.8744310169
 30
0.0
 10
158.5773813546
 20
235.0801663715
 30
0.0
 10
159.0166410135
 20
234.4764908586
 30
0.0
 10
159.508696856
 20
234.0812658815
 30
0.0
 10
159.8856596306
 20
233.9809343957
 30
0.0
 10
160.0584251238
 20
233.9809343957
 30
0.0
  0
SPLINE
  5
585
100
AcDbEntity
  8
0
100
AcDbSpline
 62
7
  6
CONTINUOUS
 70
0
 71
3
 72
14
 73
10
 74
0
 42
0.0000001
 43
0.0000001
 44
0.0000000001
 40
0.0
 40
0.0
 40
0.0
 40
0.0
 40
0.3331838794
 40
0.4867003469
 40
0.6253345939
 40
0.7457790053
 40
0.8465455058
 40
0.9291555812
 40
1.0
 40
1.0
 40
1.0
 40
1.0
 10
98.0811420416
 20
240.3309343957
 30
0.0
 10
98.0811420416
 20
239.0826440101
 30
0.0
 10
98.2185587938
 20
237.2530319137
 30
0.0
 10
98.7072889712
 20
234.9588445527
 30
0.0
 10
99.1875048466
 20
233.4857555646
 30
0.0
 10
99.7733704264
 20
232.2656891885
 30
0.0
 10
100.4481350867
 20
231.3385673101
 30
0.0
 10
101.2037998693
 20
230.7312454227
 30
0.0
 10
101.7828663378
 20
230.5773343957
 30
0.0
 10
102.0482885635
 20
230.5773343957
 30
0.0
  0
SPLINE
  5
586
100
AcDbEntity
  8
0
100
AcDbSpline
 62
7
  6
CONTINUOUS
 70
0
 71
3
 72
11
 73
7
 74
0
 42
0.0000001
 43
0.0000001
 44
0.0000000001
 40
0.0
 40
0.0
 40
0.0
 40
0.0
 40
0.2415010074
 40
0.4884439267
 40
0.7416442528
 40
1.0
 40
1.0
 40
1.0
 40
1.0
 10
122.6213256517
 20
317.8922649973
 30
0.0
 10
121.982461655
 20
318.0526027244
 30
0.0
 10
120.7333805748
 20
318.5805394892
 30
0.0
 10
119.1597288044
 20
319.8938383808
 30
0.0
 10
117.9838385941
 20
321.6261851526
 30
0.0
 10
117.5259372988
 20
322.9640266079
 30
0.0
 10
117.3848203676
 20
323.6543986625
 30
0.0
  0
SPLINE
  5
587
100
AcDbEntity
  8
0
100
AcDbSpline
 62
7
  6
CONTINUOUS
 70
0
 71
3
 72
11
 73
7
 74
0
 42
0.0000001
 43
0.0000001
 44
0.0000000001
 40
0.0
 40
0.0
 40
0.0
 40
0.0
 40
0.2585883372
 40
0.5120905983
 40
0.7589947074
 40
1.0
 40
1.0
 40
1.0
 40
1.0
 10
117.2901185202
 20
346.1080037639
 30
0.0
 10
117.3899751883
 20
346.8552411108
 30
0.0
 10
117.7923530558
 20
348.3163717083
 30
0.0
 10
118.9663375427
 20
350.227224658
 30
0.0
 10
120.6088875838
 20
351.6815099872
 30
0.0
 10
121.9398414946
 20
352.2603695501
 30
0.0
 10
122.6213256517
 20
352.4314037942
 30
0.0
  0
SPLINE
  5
588
100
AcDbEntity
  8
0
100
AcDbSpline
 62
7
  6
CONTINUOUS
 70
0
 71
3
 72
14
 73
10
 74
0
 42
0.0000001
 43
0.0000001
 44
0.0000000001
 40
0.0
 40
0.0
 40
0.0
 40
0.0
 40
0.0708302665
 40
0.1534599046
 40
0.2542156245
 40
0.3746609511
 40
0.5133029632
 40
0.6668003303
 40
1.0
 40
1.0
 40
1.0
 40
1.0
 10
160.0584251238
 20
436.4189343957
 30
0.0
 10
159.8856596889
 20
436.4189343957
 30
0.0
 10
159.5086970501
 20
436.3186031173
 30
0.0
 10
159.0166413968
 20
435.9233782793
 30
0.0
 10
158.5773817573
 20
435.3197030968
 30
0.0
 10
158.1959062382
 20
434.5254386535
 30
0.0
 10
157.8833259285
 20
433.5664018907
 30
0.0
 10
157.5651103629
 20
432.0728008695
 30
0.0
 10
157.4756474403
 20
430.8816573843
 30
0.0
 10
157.4756474403
 20
430.0689343957
 30
0.0
  0
SPLINE
  5
589
100
AcDbEntity
  8
0
100
AcDbSpline
 62
7
  6
CONTINUOUS
 70
0
 71
3
 72
9
 73
5
 74
0
 42
0.0000001
 43
0.0000001
 44
0.0000000001
 40
0.0
 40
0.0
 40
0.0
 40
0.0
 40
0.2414658781
 40
1.0
 40
1.0
 40
1.0
 40
1.0
 10
102.0482885635
 20
439.8225343957
 30
0.0
 10
101.9736947286
 20
439.8225343957
 30
0.0
 10
101.6647313894
 20
439.8011215846
 30
0.0
 10
101.3653779542
 20
439.6906499134
 30
0.0
 10
101.1612486099
 20
439.5755832257
 30
0.0
  0
SPLINE
  5
58A
100
AcDbEntity
  8
0
100
AcDbSpline
 62
7
  6
CONTINUOUS
 70
0
 71
3
 72
12
 73
8
 74
0
 42
0.0000001
 43
0.0000001
 44
0.0000000001
 40
0.0
 40
0.0
 40
0.0
 40
0.0
 40
0.1700936699
 40
0.2788222113
 40
0.4026376472
 40
0.686879842
 40
1.0
 40
1.0
 40
1.0
 40
1.0
 10
101.1612486099
 20
439.5755832257
 30
0.0
 10
100.6522624703
 20
439.2886702913
 30
0.0
 10
100.0013421603
 20
438.5204603669
 30
0.0
 10
99.3594451719
 20
437.3016151397
 30
0.0
 10
98.7315192693
 20
435.6338971492
 30
0.0
 10
98.2171917905
 20
433.19908566
 30
0.0
 10
98.0811420416
 20
431.1445217314
 30
0.0
 10
98.0811420416
 20
430.0689343957
 30
0.0
  0
SPLINE
  5
58B
100
AcDbEntity
  8
0
100
AcDbSpline
 62
7
  6
CONTINUOUS
 70
0
 71
3
 72
14
 73
10
 74
0
 42
0.0000001
 43
0.0000001
 44
0.0000000001
 40
0.0
 40
0.0
 40
0.0
 40
0.0
 40
0.3331838794
 40
0.4867003469
 40
0.6253345939
 40
0.7457790053
 40
0.8465455058
 40
0.9291555812
 40
1.0
 40
1.0
 40
1.0
 40
1.0
 10
156.0912786019
 20
430.0689343957
 30
0.0
 10
156.0912786019
 20
431.3172247814
 30
0.0
 10
156.2286953541
 20
433.1468368778
 30
0.0
 10
156.7174255315
 20
435.4410242388
 30
0.0
 10
157.1976414069
 20
436.9141132269
 30
0.0
 10
157.7835069867
 20
438.134179603
 30
0.0
 10
158.458271647
 20
439.0613014814
 30
0.0
 10
159.2139364296
 20
439.6686233688
 30
0.0
 10
159.7930028981
 20
439.8225343957
 30
0.0
 10
160.0584251238
 20
439.8225343957
 30
0.0
  0
SPLINE
  5
58C
100
AcDbEntity
  8
0
100
AcDbSpline
 62
7
  6
CONTINUOUS
 70
0
 71
3
 72
14
 73
10
 74
0
 42
0.0000001
 43
0.0000001
 44
0.0000000001
 40
0.0
 40
0.0
 40
0.0
 40
0.0
 40
0.0708444188
 40
0.1534544942
 40
0.2542209947
 40
0.3746654061
 40
0.5132996531
 40
0.6668161206
 40
1.0
 40
1.0
 40
1.0
 40
1.0
 10
160.0584251238
 20
230.5773343957
 30
0.0
 10
159.7930028981
 20
230.5773343957
 30
0.0
 10
159.2139364296
 20
230.7312454227
 30
0.0
 10
158.458271647
 20
231.3385673101
 30
0.0
 10
157.7835069867
 20
232.2656891885
 30
0.0
 10
157.1976414069
 20
233.4857555646
 30
0.0
 10
156.7174255315
 20
234.9588445527
 30
0.0
 10
156.2286953541
 20
237.2530319137
 30
0.0
 10
156.0912786019
 20
239.0826440101
 30
0.0
 10
156.0912786019
 20
240.3309343957
 30
0.0
  0
SPLINE
  5
58D
100
AcDbEntity
  8
0
100
AcDbSpline
 62
7
  6
CONTINUOUS
 70
0
 71
3
 72
11
 73
7
 74
0
 42
0.0000001
 43
0.0000001
 44
0.0000000001
 40
0.0
 40
0.0
 40
0.0
 40
0.0
 40
0.2404011944
 40
0.4861452825
 40
0.7397981448
 40
1.0
 40
1.0
 40
1.0
 40
1.0
 10
122.7934602163
 20
352.6243343957
 30
0.0
 10
121.9657884637
 20
352.6243343957
 30
0.0
 10
120.2748703779
 20
352.2869632089
 30
0.0
 10
118.1010342459
 20
350.8520813914
 30
0.0
 10
116.5331389929
 20
348.6947208441
 30
0.0
 10
116.0163841835
 20
346.9628588956
 30
0.0
 10
115.9013330877
 20
346.0744344962
 30
0.0
  0
SPLINE
  5
58E
100
AcDbEntity
  8
0
100
AcDbSpline
 62
7
  6
CONTINUOUS
 70
0
 71
3
 72
11
 73
7
 74
0
 42
0.0000001
 43
0.0000001
 44
0.0000000001
 40
0.0
 40
0.0
 40
0.0
 40
0.0
 40
0.2598758375
 40
0.5131151074
 40
0.7589592391
 40
1.0
 40
1.0
 40
1.0
 40
1.0
 10
116.0084947038
 20
323.6155293032
 30
0.0
 10
116.1806601918
 20
322.793554577
 30
0.0
 10
116.7745737845
 20
321.2109721594
 30
0.0
 10
118.3455673264
 20
319.2708230613
 30
0.0
 10
120.4266782745
 20
317.9967131863
 30
0.0
 10
122.0145158861
 20
317.6993343957
 30
0.0
 10
122.7934602163
 20
317.6993343957
 30
0.0
  0
ENDSEC
  0
SECTION
  2
OBJECTS
  0
DICTIONARY
  5
C
100
AcDbDictionary
280
0
281
1
  3
ACAD_GROUP
350
D
  3
ACAD_MLINESTYLE
350
17
  3
ACAD_LAYOUT
350
1A
  3
ACAD_PLOTSETTINGS
350
19
  3
ACAD_PLOTSTYLENAME
350
E
  0
DICTIONARY
  5
D
102
{ACAD_REACTORS
330
C
102
}
100
AcDbDictionary
280
0
281
1
  0
ACDBDICTIONARYWDFLT
  5
E
102
{ACAD_REACTORS
330
C
102
}
100
AcDbDictionary
281
1
  3
Normal
350
F
100
AcDbDictionaryWithDefault
340
F
  0
DICTIONARY
  5
17
102
{ACAD_REACTORS
330
C
102
}
100
AcDbDictionary
280
0
281
1
  3
Standard
350
18
  0
DICTIONARY
  5
19
102
{ACAD_REACTORS
330
C
102
}
100
AcDbDictionary
281
1
  0
DICTIONARY
  5
1A
102
{ACAD_REACTORS
330
C
102
}
100
AcDbDictionary
281
1
  3
Model
350
58F
  3
Layout1
350
590
  0
ACDBPLACEHOLDER
  5
F
102
{ACAD_REACTORS
330
E
102
}
  0
MLINESTYLE
  5
18
102
{ACAD_REACTORS
330
17
102
}
100
AcDbMlineStyle
  2
STANDARD
 70
0
  3

 62
256
 51
90.0
 52
90.0
 71
2
 49
0.5
 62
256
  6
BYLAYER
 49
-0.5
 62
256
  6
BYLAYER
  0
LAYOUT
  5
58F
102
{ACAD_REACTORS
330
1A
102
}
100
AcDbPlotSettings
  1

  2
none_device
  4

  6

 40
0.0
 41
0.0
 42
0.0
 43
0.0
 44
210.0
 45
297.0
 46
0.0
 47
0.0
 48
0.0
 49
0.0
140
0.0
141
0.0
142
1.0
143
1.0
 70
1024
 72
1
 73
0
 74
0
  7

 75
0
147
1.0
148
0.0
149
0.0
100
AcDbLayout
  1
Model
 70
0
 71
0
 10
0.0
 20
0.0
 11
210.0
 21
297.0
 12
0.0
 22
0.0
 32
0.0
 14
0.0
 24
0.0
 34
0.0
 15
0.0
 25
0.0
 35
0.0
146
0.0
 13
0.0
 23
0.0
 33
0.0
 16
1.0
 26
0.0
 36
0.0
 17
0.0
 27
1.0
 37
0.0
 76
0
330
210
345
0
346
0
  0
LAYOUT
  5
590
102
{ACAD_REACTORS
330
1A
102
}
100
AcDbPlotSettings
  1

  2
none_device
  4

  6

 40
0.0
 41
0.0
 42
0.0
 43
0.0
 44
210.0
 45
297.0
 46
0.0
 47
0.0
 48
0.0
 49
0.0
140
0.0
141
0.0
142
1.0
143
1.0
 70
0
 72
1
 73
0
 74
0
  7

 75
0
147
1.0
148
0.0
149
0.0
100
AcDbLayout
  1
Layout1
 70
0
 71
1
 10
0.0
 20
0.0
 11
210.0
 21
297.0
 12
0.0
 22
0.0
 32
0.0
 14
0.0
 24
0.0
 34
0.0
 15
0.0
 25
0.0
 35
0.0
146
0.0
 13
0.0
 23
0.0
 33
0.0
 16
1.0
 26
0.0
 36
0.0
 17
0.0
 27
1.0
 37
0.0
 76
0
330
211
345
0
346
0
  0
ENDSEC
  0
EOF
