999
DXF file: C:\Users\sesa63760\Dev\_Creo\CAD\MCADPE0010617_3D-CAD\drw0001_1.dxf
999
Pro/ENGINEER 2019471 by Parametric Technology Corporation
  0
SECTION
  2
HEADER
  9
$ACADVER
  1
AC1024
  9
$DWGCODEPAGE
  3
ANSI_1252
  9
$EXTMAX
 10
65.9490281945
 20
93.2707684465
 30
0.0
  9
$EXTMIN
 10
0.0
 20
0.0
 30
0.0
  9
$LIMMIN
 10
0.0
 20
0.0
  9
$LIMMAX
 10
65.9490281945
 20
93.2707684465
  9
$VIEWCTR
 10
32.9745140972
 20
46.6353842232
  9
$VIEWSIZE
 40
93.2707684465
  9
$CLAYER
  8
0
  9
$LTSCALE
 40
6.0798723135
  9
$CELTYPE
  6
BYLAYER
  9
$DIMSCALE
 40
1.0
  9
$DIMASZ
 40
0.7851074785
  9
$DIMEXO
 40
1.0
  9
$DIMDLI
 40
4.200639053
  9
$DIMEXE
 40
1.0
  9
$DIMCEN
 40
0.9948881968
  9
$DIMLFAC
 40
1.0
  9
$DIMBLK
  1
_FILLED
  9
$DIMALT
 70
0
  9
$DIMALTF
 40
0.0393700787
  9
$DIMTXT
 40
1.0991504699
  9
$DIMTOL
 70
1
  9
$DIMLIM
 70
0
  9
$DIMTFAC
 40
1.0
  9
$DIMTP
 40
0.01
  9
$DIMTM
 40
0.01
  9
$DIMGAP
 40
0.625
  9
$DIMDSEP
 70
46
  9
$AUNITS
 70
0
  9
$PDMODE
 70
3
  9
$PDSIZE
 40
0.3125
  9
$HANDSEED
  5
393
  9
$TILEMODE
 70
1
  9
$MEASUREMENT
 70
1
  9
$INSUNITS
 70
4
  0
ENDSEC
  0
SECTION
  2
CLASSES
  0
CLASS
  1
ACDBDICTIONARYWDFLT
  2
AcDbDictionaryWithDefault
  3
AutoCAD 2000
 90
0
 91
1
280
0
281
0
  0
CLASS
  1
ACDBPLACEHOLDER
  2
AcDbPlaceHolder
  3
AutoCAD 2000
 90
0
 91
1
280
0
281
0
  0
CLASS
  1
LAYOUT
  2
AcDbLayout
  3
AutoCAD 2000
 90
0
 91
0
280
0
281
0
  0
ENDSEC
  0
SECTION
  2
TABLES
  0
TABLE
  2
VPORT
  5
8
100
AcDbSymbolTable
 70
2
  0
VPORT
  5
1F4
100
AcDbSymbolTableRecord
100
AcDbViewportTableRecord
  2
*ACTIVE
 70
0
 10
0.0
 20
0.0
 11
1.0
 21
1.0
 12
32.9745140972
 22
46.6353842232
 13
0.0
 23
0.0
 14
1.0
 24
1.0
 15
0.0
 25
0.0
 16
0.0
 26
0.0
 36
1.0
 17
0.0
 27
0.0
 37
0.0
 40
93.2707684465
 41
0.7070707071
 42
50.0
 43
0.0
 44
0.0
 50
0.0
 51
0.0
 71
0
 72
100
 73
1
 74
1
 75
0
 76
0
 77
0
 78
0
  0
ENDTAB
  0
TABLE
  2
LTYPE
  5
5
100
AcDbSymbolTable
 70
6
  0
LTYPE
  5
14
100
AcDbSymbolTableRecord
100
AcDbLinetypeTableRecord
  2
BYBLOCK
 70
0
  3

 72
65
 73
0
 40
0.0
  0
LTYPE
  5
15
100
AcDbSymbolTableRecord
100
AcDbLinetypeTableRecord
  2
BYLAYER
 70
0
  3

 72
65
 73
0
 40
0.0
  0
LTYPE
  5
16
100
AcDbSymbolTableRecord
100
AcDbLinetypeTableRecord
  2
CONTINUOUS
 70
64
  3
Solid line
 72
65
 73
0
 40
0.0
  0
LTYPE
  5
1F5
100
AcDbSymbolTableRecord
100
AcDbLinetypeTableRecord
  2
CENTER
 70
64
  3
____ _ ____ _ ____ _ ____ _ ____ _ ____ _ ____
 72
65
 73
4
 40
0.6
 49
0.375
 74
0
 49
-0.075
 74
0
 49
0.075
 74
0
 49
-0.075
 74
0
  0
LTYPE
  5
1F6
100
AcDbSymbolTableRecord
100
AcDbLinetypeTableRecord
  2
HIDDEN
 70
64
  3
- - - - - - - - - - - - - - - - - - - -
 72
65
 73
2
 40
0.2
 49
0.1
 74
0
 49
-0.1
 74
0
  0
LTYPE
  5
1F7
100
AcDbSymbolTableRecord
100
AcDbLinetypeTableRecord
  2
PHANTOM
 70
64
  3
_____ _ _ _____ _ _ _____ _ _ _____
 72
65
 73
6
 40
0.8
 49
0.45
 74
0
 49
-0.05
 74
0
 49
0.1
 74
0
 49
-0.05
 74
0
 49
0.1
 74
0
 49
-0.05
 74
0
  0
LTYPE
  5
1F8
100
AcDbSymbolTableRecord
100
AcDbLinetypeTableRecord
  2
DOT
 70
64
  3
. . . . . . . . . . . . . . . . . . . .
 72
65
 73
2
 40
0.2
 49
0.1
 74
0
 49
-0.1
 74
0
  0
LTYPE
  5
1F9
100
AcDbSymbolTableRecord
100
AcDbLinetypeTableRecord
  2
DASHED
 70
64
  3
- - - - - - - - - - - - - - - - - - - -
 72
65
 73
2
 40
0.2
 49
0.1
 74
0
 49
-0.1
 74
0
  0
ENDTAB
  0
TABLE
  2
LAYER
  5
2
100
AcDbSymbolTable
 70
36
  0
LAYER
  5
10
100
AcDbSymbolTableRecord
100
AcDbLayerTableRecord
  2
0
 70
0
 62
7
  6
CONTINUOUS
370
-3
390
F
  0
LAYER
  5
1FA
100
AcDbSymbolTableRecord
100
AcDbLayerTableRecord
  2
DEFAULT_1
 70
0
 62
7
  6
CENTER
370
-3
390
F
  0
LAYER
  5
1FB
100
AcDbSymbolTableRecord
100
AcDbLayerTableRecord
  2
DEFAULT_2
 70
0
 62
7
  6
HIDDEN
370
-3
390
F
  0
LAYER
  5
1FC
100
AcDbSymbolTableRecord
100
AcDbLayerTableRecord
  2
DEFAULT_3
 70
0
 62
7
  6
PHANTOM
370
-3
390
F
  0
LAYER
  5
1FD
100
AcDbSymbolTableRecord
100
AcDbLayerTableRecord
  2
00_COMPONENTS
 70
0
 62
7
  6
CONTINUOUS
370
-3
390
F
  0
LAYER
  5
1FE
100
AcDbSymbolTableRecord
100
AcDbLayerTableRecord
  2
01_1_DEFAULT_DATUMS
 70
0
 62
7
  6
CONTINUOUS
370
-3
390
F
  0
LAYER
  5
1FF
100
AcDbSymbolTableRecord
100
AcDbLayerTableRecord
  2
01_PLANES
 70
0
 62
7
  6
CONTINUOUS
370
-3
390
F
  0
LAYER
  5
200
100
AcDbSymbolTableRecord
100
AcDbLayerTableRecord
  2
02_COORD_SYS
 70
0
 62
7
  6
CONTINUOUS
370
-3
390
F
  0
LAYER
  5
201
100
AcDbSymbolTableRecord
100
AcDbLayerTableRecord
  2
03_AXES
 70
0
 62
7
  6
CONTINUOUS
370
-3
390
F
  0
LAYER
  5
202
100
AcDbSymbolTableRecord
100
AcDbLayerTableRecord
  2
04_POINTS
 70
0
 62
7
  6
CONTINUOUS
370
-3
390
F
  0
LAYER
  5
203
100
AcDbSymbolTableRecord
100
AcDbLayerTableRecord
  2
05_CURVES
 70
0
 62
7
  6
CONTINUOUS
370
-3
390
F
  0
LAYER
  5
204
100
AcDbSymbolTableRecord
100
AcDbLayerTableRecord
  2
06_SURFS
 70
0
 62
7
  6
CONTINUOUS
370
-3
390
F
  0
LAYER
  5
205
100
AcDbSymbolTableRecord
100
AcDbLayerTableRecord
  2
07_COSMETICS
 70
0
 62
7
  6
CONTINUOUS
370
-3
390
F
  0
LAYER
  5
206
100
AcDbSymbolTableRecord
100
AcDbLayerTableRecord
  2
10_NOTES
 70
0
 62
7
  6
CONTINUOUS
370
-3
390
F
  0
LAYER
  5
207
100
AcDbSymbolTableRecord
100
AcDbLayerTableRecord
  2
11_NOTES_PUB
 70
0
 62
7
  6
CONTINUOUS
370
-3
390
F
  0
LAYER
  5
208
100
AcDbSymbolTableRecord
100
AcDbLayerTableRecord
  2
13_REF_GTOL
 70
0
 62
7
  6
CONTINUOUS
370
-3
390
F
  0
LAYER
  5
209
100
AcDbSymbolTableRecord
100
AcDbLayerTableRecord
  2
16_MISC
 70
0
 62
7
  6
CONTINUOUS
370
-3
390
F
  0
LAYER
  5
20A
100
AcDbSymbolTableRecord
100
AcDbLayerTableRecord
  2
17_NO_PRINT
 70
0
 62
7
  6
CONTINUOUS
370
-3
390
F
  0
LAYER
  5
20B
100
AcDbSymbolTableRecord
100
AcDbLayerTableRecord
  2
18_DATUM_CAMS_JOINTS
 70
0
 62
7
  6
CONTINUOUS
370
-3
390
F
  0
LAYER
  5
20C
100
AcDbSymbolTableRecord
100
AcDbLayerTableRecord
  2
19_DATUM_FUNCTIONAL
 70
0
 62
7
  6
CONTINUOUS
370
-3
390
F
  0
LAYER
  5
20D
100
AcDbSymbolTableRecord
100
AcDbLayerTableRecord
  2
20_DATUM_KINEMATIC_SCHEME
 70
0
 62
7
  6
CONTINUOUS
370
-3
390
F
  0
ENDTAB
  0
TABLE
  2
STYLE
  5
3
100
AcDbSymbolTable
 70
1
  0
STYLE
  5
11
100
AcDbSymbolTableRecord
100
AcDbTextStyleTableRecord
  2
STANDARD
 70
0
 40
0.0
 41
1.0
 50
0.0
 71
0
 42
0.2
  3
ARIAL.TTF
  4

  0
STYLE
  5
20E
100
AcDbSymbolTableRecord
100
AcDbTextStyleTableRecord
  2
TEXTSTYLE_1
 70
0
 40
0.0
 41
0.8
 50
0.0
 71
0
 42
0.2
  3
gdt
  4

  0
ENDTAB
  0
TABLE
  2
VIEW
  5
6
100
AcDbSymbolTable
 70
0
  0
ENDTAB
  0
TABLE
  2
UCS
  5
7
100
AcDbSymbolTable
 70
0
  0
ENDTAB
  0
TABLE
  2
APPID
  5
9
100
AcDbSymbolTable
 70
1
  0
APPID
  5
20F
100
AcDbSymbolTableRecord
100
AcDbRegAppTableRecord
  2
ACAD
 70
0
  0
ENDTAB
  0
TABLE
  2
BLOCK_RECORD
  5
1
100
AcDbSymbolTable
 70
0
  0
BLOCK_RECORD
  5
210
100
AcDbSymbolTableRecord
100
AcDbBlockTableRecord
  2
*Model_Space
  0
BLOCK_RECORD
  5
211
100
AcDbSymbolTableRecord
100
AcDbBlockTableRecord
  2
*Paper_Space
  0
BLOCK_RECORD
  5
212
100
AcDbSymbolTableRecord
100
AcDbBlockTableRecord
  2
_FILLED
  0
ENDTAB
  0
TABLE
  2
DIMSTYLE
  5
A
100
AcDbSymbolTable
 70
1
100
AcDbDimStyleTable
 71
0
  0
DIMSTYLE
105
213
100
AcDbSymbolTableRecord
100
AcDbDimStyleTableRecord
  2
STANDARD
 70
0
  3

  4

 40
1.0
 41
0.7851074785
 42
1.0
 43
0.38
 44
1.0
 45
0.0
 46
0.0
 47
0.01
 48
0.01
140
1.0991504699
141
0.09
142
0.0
143
25.4
144
1.0
145
0.0
146
1.0
147
0.625
 71
1
 72
0
 73
0
 74
0
 75
0
 76
0
 77
1
 78
8
 79
2
170
0
171
1
172
0
173
0
174
0
175
0
176
0
177
0
178
0
270
2
179
2
271
2
272
2
273
2
274
2
275
0
280
0
281
0
282
0
283
1
284
8
285
0
286
0
287
3
288
0
340
11
278
46
341
212
342
212
343
212
344
212
  0
ENDTAB
  0
ENDSEC
  0
SECTION
  2
BLOCKS
  0
BLOCK
  5
20
100
AcDbEntity
  8
0
100
AcDbBlockBegin
  2
*Model_Space
 70
0
 10
0.0
 20
0.0
 30
0.0
  3
*Model_Space
  1

  0
ENDBLK
  5
21
100
AcDbEntity
  8
0
100
AcDbBlockEnd
  0
BLOCK
  5
1C
100
AcDbEntity
  8
0
100
AcDbBlockBegin
  2
*Paper_Space
 70
0
 10
0.0
 20
0.0
 30
0.0
  3
*Paper_Space
  1

  0
ENDBLK
  5
1D
100
AcDbEntity
  8
0
100
AcDbBlockEnd
  0
BLOCK
  5
214
100
AcDbEntity
  8
0
100
AcDbBlockBegin
  2
_FILLED
 70
64
 10
0.0
 20
0.0
  3
_FILLED
  1

  0
SOLID
  5
215
100
AcDbEntity
  8
0
  6
BYBLOCK
 62
0
100
AcDbTrace
 10
0.0
 20
0.0
 11
-1.0
 21
0.25
 12
-1.0
 22
-0.25
 13
-1.0
 23
-0.25
  0
ENDBLK
  5
216
100
AcDbEntity
  8
0
  6
BYBLOCK
 62
0
100
AcDbBlockEnd
  0
ENDSEC
  0
SECTION
  2
ENTITIES
  0
LINE
  5
217
100
AcDbEntity
  8
0
100
AcDbLine
 62
7
  6
BYLAYER
 10
12.4078396843
 20
14.1812274723
 11
12.2066936317
 21
14.2277492111
  0
LINE
  5
218
100
AcDbEntity
  8
0
100
AcDbLine
 62
7
  6
BYLAYER
 10
7.8579583529
 20
16.7384117444
 11
12.2066831625
 21
14.2277311041
  0
LINE
  5
219
100
AcDbEntity
  8
0
100
AcDbLine
 62
7
  6
BYLAYER
 10
7.6508460322
 20
17.1961978922
 11
11.9995708418
 21
14.6855172519
  0
LINE
  5
21A
100
AcDbEntity
  8
0
100
AcDbLine
 62
7
  6
BYLAYER
 10
18.5184758019
 20
14.4189008379
 11
18.3173267015
 21
14.4654173054
  0
LINE
  5
21B
100
AcDbEntity
  8
0
100
AcDbLine
 62
7
  6
BYLAYER
 10
14.592655694
 20
16.1626230563
 11
14.6268351533
 21
16.1546875426
  0
LINE
  5
21C
100
AcDbEntity
  8
0
100
AcDbLine
 62
7
  6
BYLAYER
 10
14.5926556941
 20
16.1626230563
 11
14.4503213505
 21
16.2447979688
  0
LINE
  5
21D
100
AcDbEntity
  8
0
100
AcDbLine
 62
7
  6
BYLAYER
 10
14.4535814545
 20
16.2547531467
 11
14.6268523028
 21
16.1547174389
  0
LINE
  5
21E
100
AcDbEntity
  8
0
100
AcDbLine
 62
7
  6
BYLAYER
 10
18.3173192802
 20
14.4654044697
 11
14.5751275657
 21
16.6259109862
  0
LINE
  5
21F
100
AcDbEntity
  8
0
100
AcDbLine
 62
7
  6
BYLAYER
 10
14.6733400384
 20
16.9258163377
 11
18.110382488
 21
14.9414838457
  0
LINE
  5
220
100
AcDbEntity
  8
0
100
AcDbLine
 62
7
  6
BYLAYER
 10
18.132218936
 20
16.085522306
 11
16.2193903254
 21
17.1898694356
  0
LINE
  5
221
100
AcDbEntity
  8
0
100
AcDbLine
 62
7
  6
BYLAYER
 10
16.7388947997
 20
17.2100755769
 11
18.3031986975
 21
16.3069447319
  0
LINE
  5
222
100
AcDbEntity
  8
0
100
AcDbLine
 62
7
  6
BYLAYER
 10
18.474627066
 20
16.3136124432
 11
16.9103231683
 21
17.2167432881
  0
LINE
  5
223
100
AcDbEntity
  8
0
100
AcDbLine
 62
7
  6
BYLAYER
 10
11.9995708418
 20
20.4602681249
 11
7.6508460321
 21
22.9709487652
  0
LINE
  5
224
100
AcDbEntity
  8
0
100
AcDbLine
 62
7
  6
BYLAYER
 10
38.2261390852
 20
13.6765499732
 11
37.627972164
 21
13.6532842538
  0
LINE
  5
225
100
AcDbEntity
  8
0
100
AcDbLine
 62
7
  6
BYLAYER
 10
32.2287796248
 20
13.4432825064
 11
31.5173360464
 21
13.4156108882
  0
LINE
  5
226
100
AcDbEntity
  8
0
100
AcDbLine
 62
7
  6
BYLAYER
 10
19.116642723
 20
14.4421665573
 11
18.5184758019
 21
14.4189008379
  0
LINE
  5
227
100
AcDbEntity
  8
0
100
AcDbLine
 62
7
  6
BYLAYER
 10
13.1192832626
 20
14.2088990905
 11
12.4078396843
 21
14.1812274723
  0
LINE
  5
228
100
AcDbEntity
  8
0
100
AcDbLine
 62
7
  6
BYLAYER
 10
33.5307236877
 20
15.3903387609
 11
33.7021520562
 21
15.3970064721
  0
LINE
  5
229
100
AcDbEntity
  8
0
100
AcDbLine
 62
7
  6
BYLAYER
 10
37.4126950593
 20
15.5413281478
 11
37.5841234282
 21
15.5479958591
  0
LINE
  5
22A
100
AcDbEntity
  8
0
100
AcDbLine
 62
7
  6
BYLAYER
 10
31.5173360464
 20
13.4156108882
 11
31.3161899938
 21
13.4621326269
  0
LINE
  5
22B
100
AcDbEntity
  8
0
100
AcDbLine
 62
7
  6
BYLAYER
 10
37.627972164
 20
13.6532842538
 11
37.4268230637
 21
13.6998007213
  0
LINE
  5
22C
100
AcDbEntity
  8
0
100
AcDbLine
 62
7
  6
BYLAYER
 10
7.8834760729
 20
23.4888876282
 11
12.2322008825
 21
20.9782069879
  0
LINE
  5
22D
100
AcDbEntity
  8
0
100
AcDbLine
 62
7
  6
BYLAYER
 10
37.9038768724
 20
16.5244071679
 11
33.8504771319
 21
16.3667500697
  0
LINE
  5
22E
100
AcDbEntity
  8
0
100
AcDbLine
 62
7
  6
BYLAYER
 10
14.4212273256
 20
16.155955345
 11
14.592655694
 21
16.1626230563
  0
LINE
  5
22F
100
AcDbEntity
  8
0
100
AcDbLine
 62
7
  6
BYLAYER
 10
18.3031986972
 20
16.306944732
 11
18.4746270661
 21
16.3136124432
  0
LINE
  5
230
100
AcDbEntity
  8
0
100
AcDbLine
 62
7
  6
BYLAYER
 10
18.7943805102
 20
17.2900237521
 11
14.7409807697
 21
17.1323666538
  0
LINE
  5
231
100
AcDbEntity
  8
0
100
AcDbLine
 62
7
  6
BYLAYER
 10
33.7021520562
 20
15.3970064721
 11
33.7363315154
 21
15.3890709584
  0
LINE
  5
232
100
AcDbEntity
  8
0
100
AcDbLine
 62
7
  6
BYLAYER
 10
14.2137107619
 20
22.9550171266
 11
9.8649859522
 21
25.4656977669
  0
LINE
  5
233
100
AcDbEntity
  8
0
100
AcDbLine
 62
7
  6
BYLAYER
 10
10.106829708
 20
25.6545666118
 11
14.4555545176
 21
23.1438859715
  0
LINE
  5
234
100
AcDbEntity
  8
0
100
AcDbLine
 62
7
  6
BYLAYER
 10
26.967454715
 20
15.9727951602
 11
31.3161795247
 21
13.4621145199
  0
LINE
  5
235
100
AcDbEntity
  8
0
100
AcDbLine
 62
7
  6
BYLAYER
 10
26.7603423943
 20
16.4305813081
 11
31.1090672039
 21
13.9199006677
  0
LINE
  5
236
100
AcDbEntity
  8
0
100
AcDbLine
 62
7
  6
BYLAYER
 10
12.247020974
 20
26.8901992396
 11
12.7066422954
 21
26.6248427492
  0
LINE
  5
237
100
AcDbEntity
  8
0
100
AcDbLine
 62
7
  6
BYLAYER
 10
16.1361244623
 20
24.6448750898
 11
16.5957457837
 21
24.3795185993
  0
LINE
  5
238
100
AcDbEntity
  8
0
100
AcDbLine
 62
7
  6
BYLAYER
 10
7.6508460322
 20
17.1961978922
 11
7.6508460321
 21
22.9709487652
  0
LINE
  5
239
100
AcDbEntity
  8
0
100
AcDbLine
 62
7
  6
BYLAYER
 10
7.6508460321
 20
32.0342950508
 11
7.6508460321
 21
37.8090459238
  0
LINE
  5
23A
100
AcDbEntity
  8
0
100
AcDbLine
 62
7
  6
BYLAYER
 10
30.737822528
 20
21.1133678369
 11
34.379422451
 21
21.1133765903
  0
LINE
  5
23B
100
AcDbEntity
  8
0
100
AcDbLine
 62
7
  6
BYLAYER
 10
33.7021520562
 20
15.3970064721
 11
33.5598177126
 21
15.4791813847
  0
LINE
  5
23C
100
AcDbEntity
  8
0
100
AcDbLine
 62
7
  6
BYLAYER
 10
33.5630778166
 20
15.4891365625
 11
33.7363486649
 21
15.3891008547
  0
LINE
  5
23D
100
AcDbEntity
  8
0
100
AcDbLine
 62
7
  6
BYLAYER
 10
37.4268156423
 20
13.6997878855
 11
33.6846239278
 21
15.8602944021
  0
LINE
  5
23E
100
AcDbEntity
  8
0
100
AcDbLine
 62
7
  6
BYLAYER
 10
33.7828364006
 20
16.1601997535
 11
37.2198788501
 21
14.1758672616
  0
LINE
  5
23F
100
AcDbEntity
  8
0
100
AcDbLine
 62
7
  6
BYLAYER
 10
7.7544021925
 20
31.8054019769
 11
12.1031270022
 21
29.2947213366
  0
LINE
  5
240
100
AcDbEntity
  8
0
100
AcDbLine
 62
7
  6
BYLAYER
 10
7.6508460321
 20
32.0342950508
 11
11.9995708418
 21
29.5236144105
  0
LINE
  5
241
100
AcDbEntity
  8
0
100
AcDbLine
 62
7
  6
BYLAYER
 10
12.7066422954
 20
29.1968253632
 11
16.1361244623
 21
27.2168577038
  0
LINE
  5
242
100
AcDbEntity
  8
0
100
AcDbLine
 62
7
  6
BYLAYER
 10
37.2417152982
 20
15.3199057218
 11
35.3288866875
 21
16.4242528514
  0
LINE
  5
243
100
AcDbEntity
  8
0
100
AcDbLine
 62
7
  6
BYLAYER
 10
35.8483911619
 20
16.4444589927
 11
37.4126950596
 21
15.5413281478
  0
LINE
  5
244
100
AcDbEntity
  8
0
100
AcDbLine
 62
7
  6
BYLAYER
 10
31.1090672039
 20
19.2252473786
 11
29.2882596617
 21
20.2764673215
  0
LINE
  5
245
100
AcDbEntity
  8
0
100
AcDbLine
 62
7
  6
BYLAYER
 10
36.0198195304
 20
16.451126704
 11
37.5841234282
 21
15.5479958591
  0
LINE
  5
246
100
AcDbEntity
  8
0
100
AcDbLine
 62
7
  6
BYLAYER
 10
34.0268317726
 20
73.308765329
 11
45.5935997111
 21
79.9868020495
  0
LINE
  5
247
100
AcDbEntity
  8
0
100
AcDbLine
 62
7
  6
BYLAYER
 10
16.1361244623
 20
28.6049118128
 11
14.361403409
 21
29.6295243109
  0
LINE
  5
248
100
AcDbEntity
  8
0
100
AcDbLine
 62
7
  6
BYLAYER
 10
13.7616576783
 20
44.6091947084
 11
13.7834941264
 21
43.4903706559
  0
LINE
  5
249
100
AcDbEntity
  8
0
100
AcDbLine
 62
7
  6
BYLAYER
 10
11.9995708418
 20
35.2983652835
 11
11.9995708418
 21
29.5236144105
  0
LINE
  5
24A
100
AcDbEntity
  8
0
100
AcDbLine
 62
7
  6
BYLAYER
 10
11.9995708418
 20
20.4602681249
 11
11.9995708418
 21
14.6855172519
  0
LINE
  5
24B
100
AcDbEntity
  8
0
100
AcDbLine
 62
7
  6
BYLAYER
 10
12.247020974
 20
26.8901992396
 11
12.247020974
 21
29.2742919773
  0
LINE
  5
24C
100
AcDbEntity
  8
0
100
AcDbLine
 62
7
  6
BYLAYER
 10
12.7066422954
 20
26.6248427492
 11
12.7066422954
 21
29.1968253632
  0
LINE
  5
24D
100
AcDbEntity
  8
0
100
AcDbLine
 62
7
  6
BYLAYER
 10
37.6144205092
 20
73.9764559856
 11
46.285795927
 21
78.9828470332
  0
LINE
  5
24E
100
AcDbEntity
  8
0
100
AcDbLine
 62
7
  6
BYLAYER
 10
12.2322008826
 20
29.2742919773
 11
12.103153553
 21
29.2947672693
  0
LINE
  5
24F
100
AcDbEntity
  8
0
100
AcDbLine
 62
7
  6
BYLAYER
 10
11.9995708418
 20
35.2983652835
 11
7.6508460321
 21
37.8090459238
  0
LINE
  5
250
100
AcDbEntity
  8
0
100
AcDbLine
 62
7
  6
BYLAYER
 10
8.0591148748
 20
38.7847611418
 11
12.4078396845
 21
36.2740805015
  0
LINE
  5
251
100
AcDbEntity
  8
0
100
AcDbLine
 62
7
  6
BYLAYER
 10
14.4212273256
 20
36.6241985444
 11
14.7409807698
 21
36.0170045059
  0
LINE
  5
252
100
AcDbEntity
  8
0
100
AcDbLine
 62
7
  6
BYLAYER
 10
16.1361244623
 20
30.6461770268
 11
16.1361244623
 21
28.6049118128
  0
LINE
  5
253
100
AcDbEntity
  8
0
100
AcDbLine
 62
7
  6
BYLAYER
 10
16.1361244623
 20
27.2168577038
 11
16.1361244623
 21
24.6448750898
  0
LINE
  5
254
100
AcDbEntity
  8
0
100
AcDbLine
 62
7
  6
BYLAYER
 10
16.5957457837
 20
30.9115379364
 11
16.5957457837
 21
24.3795185993
  0
LINE
  5
255
100
AcDbEntity
  8
0
100
AcDbLine
 62
7
  6
BYLAYER
 10
33.8774142754
 20
73.1842496526
 11
33.2792473546
 21
72.5168158295
  0
LINE
  5
256
100
AcDbEntity
  8
0
100
AcDbLine
 62
7
  6
BYLAYER
 10
27.8800548149
 20
66.492404259
 11
27.1686112369
 21
65.6985764983
  0
LINE
  5
257
100
AcDbEntity
  8
0
100
AcDbLine
 62
7
  6
BYLAYER
 10
48.7118470436
 20
77.5821974549
 11
40.0404716258
 21
72.5758064073
  0
LINE
  5
258
100
AcDbEntity
  8
0
100
AcDbLine
 62
7
  6
BYLAYER
 10
49.9423245207
 20
77.4761214092
 11
38.3755565822
 21
70.7980846887
  0
LINE
  5
259
100
AcDbEntity
  8
0
100
AcDbLine
 62
7
  6
BYLAYER
 10
57.0581106788
 20
32.2880645057
 11
56.9581145448
 21
32.2781626862
  0
LINE
  5
25A
100
AcDbEntity
  8
0
100
AcDbLine
 62
7
  6
BYLAYER
 10
51.2060183895
 20
25.7373491795
 11
51.347216989
 21
25.7190578602
  0
LINE
  5
25B
100
AcDbEntity
  8
0
100
AcDbLine
 62
7
  6
BYLAYER
 10
14.6211542183
 20
37.0620488584
 11
14.6268515258
 21
37.0591719671
  0
LINE
  5
25C
100
AcDbEntity
  8
0
100
AcDbLine
 62
7
  6
BYLAYER
 10
10.2781267162
 20
39.5698526074
 11
10.2724294087
 21
39.5727294987
  0
LINE
  5
25D
100
AcDbEntity
  8
0
100
AcDbLine
 62
7
  6
BYLAYER
 10
13.1196725153
 20
37.0683425899
 11
8.7705584528
 21
39.5785889024
  0
LINE
  5
25E
100
AcDbEntity
  8
0
100
AcDbLine
 62
7
  6
BYLAYER
 10
9.536320986
 20
39.8938649772
 11
13.8853544826
 21
37.3830496688
  0
LINE
  5
25F
100
AcDbEntity
  8
0
100
AcDbLine
 62
7
  6
BYLAYER
 10
10.2724294087
 20
39.5727294987
 11
14.6268523028
 21
37.0591733131
  0
LINE
  5
260
100
AcDbEntity
  8
0
100
AcDbLine
 62
7
  6
BYLAYER
 10
13.7947268075
 20
43.4412867282
 11
13.8186906861
 21
43.4156521861
  0
LINE
  5
261
100
AcDbEntity
  8
0
100
AcDbLine
 62
7
  6
BYLAYER
 10
18.132218936
 20
40.9796900157
 11
18.110382488
 21
42.0985140681
  0
LINE
  5
262
100
AcDbEntity
  8
0
100
AcDbLine
 62
7
  6
BYLAYER
 10
18.110382488
 20
14.9414838457
 11
18.132218936
 21
16.0855223061
  0
LINE
  5
263
100
AcDbEntity
  8
0
100
AcDbLine
 62
7
  6
BYLAYER
 10
33.5551520627
 20
69.9642783287
 11
30.0783618193
 21
66.0848805823
  0
LINE
  5
264
100
AcDbEntity
  8
0
100
AcDbLine
 62
7
  6
BYLAYER
 10
14.2137107619
 20
29.5855187054
 11
12.2322008826
 21
29.2742919773
  0
LINE
  5
265
100
AcDbEntity
  8
0
100
AcDbLine
 62
7
  6
BYLAYER
 10
58.341126248
 20
32.957049447
 11
58.2169964533
 21
32.9553177002
  0
LINE
  5
266
100
AcDbEntity
  8
0
100
AcDbLine
 62
7
  6
BYLAYER
 10
13.8859949543
 20
37.3827701242
 11
14.6211542183
 21
37.0620488584
  0
LINE
  5
267
100
AcDbEntity
  8
0
100
AcDbLine
 62
7
  6
BYLAYER
 10
10.2724294087
 20
39.5727294987
 11
9.5363241059
 21
39.8938634843
  0
LINE
  5
268
100
AcDbEntity
  8
0
100
AcDbLine
 62
7
  6
BYLAYER
 10
18.1674154958
 20
40.9049715458
 11
18.1434516172
 21
40.9306060879
  0
LINE
  5
269
100
AcDbEntity
  8
0
100
AcDbLine
 62
7
  6
BYLAYER
 10
18.7943805102
 20
40.5397823318
 11
18.4746270661
 21
41.1469763704
  0
LINE
  5
26A
100
AcDbEntity
  8
0
100
AcDbLine
 62
7
  6
BYLAYER
 10
14.7679179132
 20
46.270434296
 11
14.1697509925
 21
45.603000473
  0
LINE
  5
26B
100
AcDbEntity
  8
0
100
AcDbLine
 62
7
  6
BYLAYER
 10
8.7705584528
 20
39.5785889024
 11
8.0591148748
 21
38.7847611418
  0
LINE
  5
26C
100
AcDbEntity
  8
0
100
AcDbLine
 62
7
  6
BYLAYER
 10
31.5173360467
 20
63.1878958581
 11
32.229947383
 21
63.9830266019
  0
LINE
  5
26D
100
AcDbEntity
  8
0
100
AcDbLine
 62
7
  6
BYLAYER
 10
37.6279721642
 20
70.0061351891
 11
38.2261390851
 21
70.6735690124
  0
LINE
  5
26E
100
AcDbEntity
  8
0
100
AcDbLine
 62
7
  6
BYLAYER
 10
14.4456557006
 20
43.0504629721
 11
10.9688654572
 21
39.1710652258
  0
LINE
  5
26F
100
AcDbEntity
  8
0
100
AcDbLine
 62
7
  6
BYLAYER
 10
37.5841234282
 20
68.060791727
 11
37.4126950597
 21
67.8695121904
  0
LINE
  5
270
100
AcDbEntity
  8
0
100
AcDbLine
 62
7
  6
BYLAYER
 10
33.7021520562
 20
63.7292934375
 11
33.5307236877
 21
63.538013901
  0
LINE
  5
271
100
AcDbEntity
  8
0
100
AcDbLine
 62
7
  6
BYLAYER
 10
56.8131081241
 20
35.6832305149
 11
56.606225133
 21
35.6803442702
  0
LINE
  5
272
100
AcDbEntity
  8
0
100
AcDbLine
 62
7
  6
BYLAYER
 10
13.8186733811
 20
43.4156224038
 11
18.7943805102
 21
40.5397823318
  0
LINE
  5
273
100
AcDbEntity
  8
0
100
AcDbLine
 62
7
  6
BYLAYER
 10
13.7834941264
 20
43.490370656
 11
18.132218936
 21
40.9796900157
  0
LINE
  5
274
100
AcDbEntity
  8
0
100
AcDbLine
 62
7
  6
BYLAYER
 10
18.110382488
 20
42.0985140681
 11
13.7616576783
 21
44.6091947084
  0
LINE
  5
275
100
AcDbEntity
  8
0
100
AcDbLine
 62
7
  6
BYLAYER
 10
14.7409807697
 20
17.1323666538
 11
14.4212273256
 21
16.155955345
  0
LINE
  5
276
100
AcDbEntity
  8
0
100
AcDbLine
 62
7
  6
BYLAYER
 10
33.8504771319
 20
62.9308198624
 11
37.9038768724
 21
67.4535976884
  0
LINE
  5
277
100
AcDbEntity
  8
0
100
AcDbLine
 62
7
  6
BYLAYER
 10
12.4078396845
 20
36.2740805015
 11
13.120451021
 21
37.0692112455
  0
LINE
  5
278
100
AcDbEntity
  8
0
100
AcDbLine
 62
7
  6
BYLAYER
 10
18.5184758022
 20
43.0923198327
 11
19.1166427228
 21
43.7597536556
  0
LINE
  5
279
100
AcDbEntity
  8
0
100
AcDbLine
 62
7
  6
BYLAYER
 10
14.9173354104
 20
46.3949499725
 11
26.2476769509
 21
52.9364866632
  0
LINE
  5
27A
100
AcDbEntity
  8
0
100
AcDbLine
 62
7
  6
BYLAYER
 10
35.7052421458
 20
58.2540170619
 11
33.5650508797
 21
57.018384434
  0
LINE
  5
27B
100
AcDbEntity
  8
0
100
AcDbLine
 62
7
  6
BYLAYER
 10
50.9038847035
 20
34.4355054126
 11
51.0401876347
 21
34.4162749523
  0
LINE
  5
27C
100
AcDbEntity
  8
0
100
AcDbLine
 62
7
  6
BYLAYER
 10
14.1697509925
 20
45.603000473
 11
18.5184758021
 21
43.0923198327
  0
LINE
  5
27D
100
AcDbEntity
  8
0
100
AcDbLine
 62
7
  6
BYLAYER
 10
19.1166427228
 20
43.7597536557
 11
14.7679179131
 21
46.270434296
  0
LINE
  5
27E
100
AcDbEntity
  8
0
100
AcDbLine
 62
7
  6
BYLAYER
 10
14.9173354104
 20
46.3949499725
 11
19.2660602201
 21
43.8842693322
  0
LINE
  5
27F
100
AcDbEntity
  8
0
100
AcDbLine
 62
7
  6
BYLAYER
 10
51.347216989
 20
25.7190578602
 11
51.1466110494
 21
25.8348751333
  0
LINE
  5
280
100
AcDbEntity
  8
0
100
AcDbLine
 62
7
  6
BYLAYER
 10
55.4759037083
 20
23.6930530665
 11
52.6092660399
 21
25.3480696546
  0
LINE
  5
281
100
AcDbEntity
  8
0
100
AcDbLine
 62
7
  6
BYLAYER
 10
53.1231447237
 20
25.5132718869
 11
55.4759011476
 21
24.1549380618
  0
LINE
  5
282
100
AcDbEntity
  8
0
100
AcDbLine
 62
7
  6
BYLAYER
 10
26.7603423942
 20
18.8169823186
 11
26.7603423942
 21
16.4305813081
  0
LINE
  5
283
100
AcDbEntity
  8
0
100
AcDbLine
 62
7
  6
BYLAYER
 10
26.7603423943
 20
59.0909136026
 11
26.7603423943
 21
64.7228612803
  0
LINE
  5
284
100
AcDbEntity
  8
0
100
AcDbLine
 62
7
  6
BYLAYER
 10
26.3537543023
 20
51.3647534695
 11
25.8450886356
 21
48.4991387934
  0
LINE
  5
285
100
AcDbEntity
  8
0
100
AcDbLine
 62
7
  6
BYLAYER
 10
18.4746270661
 20
41.1469763704
 11
18.3031986976
 21
40.9556968339
  0
LINE
  5
286
100
AcDbEntity
  8
0
100
AcDbLine
 62
7
  6
BYLAYER
 10
14.5926556941
 20
36.815478081
 11
14.4212273256
 21
36.6241985444
  0
LINE
  5
287
100
AcDbEntity
  8
0
100
AcDbLine
 62
7
  6
BYLAYER
 10
14.7409807698
 20
36.0170045059
 11
18.7943805102
 21
40.5397823318
  0
LINE
  5
288
100
AcDbEntity
  8
0
100
AcDbLine
 62
7
  6
BYLAYER
 10
18.7035796295
 20
46.9479494275
 11
26.3537543023
 21
51.3647534695
  0
LINE
  5
289
100
AcDbEntity
  8
0
100
AcDbLine
 62
7
  6
BYLAYER
 10
31.3565173361
 20
53.7427769149
 11
29.8892768739
 21
52.8956702956
  0
LINE
  5
28A
100
AcDbEntity
  8
0
100
AcDbLine
 62
7
  6
BYLAYER
 10
34.4678459489
 20
55.0083752044
 11
31.8161386575
 21
53.4774204245
  0
LINE
  5
28B
100
AcDbEntity
  8
0
100
AcDbLine
 62
7
  6
BYLAYER
 10
55.1859528611
 20
66.0718333491
 11
54.150725157
 21
65.4741479232
  0
LINE
  5
28C
100
AcDbEntity
  8
0
100
AcDbLine
 62
7
  6
BYLAYER
 10
20.9309752637
 20
45.6619910508
 11
28.5811499365
 21
50.0787950927
  0
LINE
  5
28D
100
AcDbEntity
  8
0
100
AcDbLine
 62
7
  6
BYLAYER
 10
18.7035796295
 20
46.9479494275
 11
20.9309752637
 21
45.6619910508
  0
LINE
  5
28E
100
AcDbEntity
  8
0
100
AcDbLine
 62
7
  6
BYLAYER
 10
56.4443601358
 20
25.8323675461
 11
55.465137704
 21
26.3977090909
  0
LINE
  5
28F
100
AcDbEntity
  8
0
100
AcDbLine
 62
7
  6
BYLAYER
 10
30.737822528
 20
21.1133678369
 11
30.737822528
 21
50.5074548536
  0
LINE
  5
290
100
AcDbEntity
  8
0
100
AcDbLine
 62
7
  6
BYLAYER
 10
18.4746270661
 20
16.3136124432
 11
18.7943805102
 21
17.2900237521
  0
LINE
  5
291
100
AcDbEntity
  8
0
100
AcDbLine
 62
7
  6
BYLAYER
 10
19.2660602201
 20
43.8842693322
 11
30.737822528
 21
50.5074548536
  0
LINE
  5
292
100
AcDbEntity
  8
0
100
AcDbLine
 62
7
  6
BYLAYER
 10
56.6051857677
 20
64.7274915533
 11
57.1795631325
 21
65.0591065
  0
LINE
  5
293
100
AcDbEntity
  8
0
100
AcDbLine
 62
7
  6
BYLAYER
 10
34.379422451
 20
50.4666384861
 11
35.7052421458
 21
51.2320962746
  0
LINE
  5
294
100
AcDbEntity
  8
0
100
AcDbLine
 62
7
  6
BYLAYER
 10
51.8601421154
 20
36.6790524208
 11
51.9446070021
 21
36.6556034186
  0
LINE
  5
295
100
AcDbEntity
  8
0
100
AcDbLine
 62
7
  6
BYLAYER
 10
21.3580184051
 20
45.9085430517
 11
18.7035796295
 21
46.9479494275
  0
LINE
  5
296
100
AcDbEntity
  8
0
100
AcDbLine
 62
7
  6
BYLAYER
 10
58.0480015581
 20
28.348702084
 11
53.6992767484
 21
30.8593827243
  0
LINE
  5
297
100
AcDbEntity
  8
0
100
AcDbLine
 62
7
  6
BYLAYER
 10
54.0545505107
 20
31.4727452692
 11
58.4032753204
 21
28.9620646289
  0
LINE
  5
298
100
AcDbEntity
  8
0
100
AcDbLine
 62
7
  6
BYLAYER
 10
32.8711540404
 20
71.523010065
 11
32.8929904885
 21
70.4041860126
  0
LINE
  5
299
100
AcDbEntity
  8
0
100
AcDbLine
 62
7
  6
BYLAYER
 10
31.1090672039
 20
62.21218064
 11
31.1090672039
 21
56.5802329623
  0
LINE
  5
29A
100
AcDbEntity
  8
0
100
AcDbLine
 62
7
  6
BYLAYER
 10
31.1090672039
 20
13.9199006677
 11
31.1090672039
 21
19.2252473786
  0
LINE
  5
29B
100
AcDbEntity
  8
0
100
AcDbLine
 62
7
  6
BYLAYER
 10
31.3565173362
 20
53.7427769149
 11
31.3565173362
 21
56.6190988271
  0
LINE
  5
29C
100
AcDbEntity
  8
0
100
AcDbLine
 62
7
  6
BYLAYER
 10
31.8161386575
 20
53.4774204245
 11
31.8161386575
 21
56.5393044887
  0
LINE
  5
29D
100
AcDbEntity
  8
0
100
AcDbLine
 62
7
  6
BYLAYER
 10
46.285795927
 20
78.9828470332
 11
44.8851505289
 21
75.3728663799
  0
LINE
  5
29E
100
AcDbEntity
  8
0
100
AcDbLine
 62
7
  6
BYLAYER
 10
9.8649859522
 20
25.4656977669
 11
7.8834760729
 21
23.4888876282
  0
LINE
  5
29F
100
AcDbEntity
  8
0
100
AcDbLine
 62
7
  6
BYLAYER
 10
51.0401876345
 20
34.4162749522
 11
50.8273496547
 21
34.5391542373
  0
LINE
  5
2A0
100
AcDbEntity
  8
0
100
AcDbLine
 62
7
  6
BYLAYER
 10
53.3674201701
 20
34.3511991418
 11
56.9581123755
 21
32.2781589288
  0
LINE
  5
2A1
100
AcDbEntity
  8
0
100
AcDbLine
 62
7
  6
BYLAYER
 10
53.4425899992
 20
34.3754433022
 11
56.9166899114
 21
32.3697161584
  0
LINE
  5
2A2
100
AcDbEntity
  8
0
100
AcDbLine
 62
7
  6
BYLAYER
 10
34.379422451
 20
21.1133765903
 11
34.379422451
 21
50.4666384861
  0
LINE
  5
2A3
100
AcDbEntity
  8
0
100
AcDbLine
 62
7
  6
BYLAYER
 10
35.2456208245
 20
57.9886561523
 11
35.2456208245
 21
55.9473909384
  0
LINE
  5
2A4
100
AcDbEntity
  8
0
100
AcDbLine
 62
7
  6
BYLAYER
 10
35.2456208245
 20
54.5593368293
 11
35.2456208245
 21
51.4974527651
  0
LINE
  5
2A5
100
AcDbEntity
  8
0
100
AcDbLine
 62
7
  6
BYLAYER
 10
35.7052421458
 20
58.2540170619
 11
35.7052421458
 21
51.2320962746
  0
LINE
  5
2A6
100
AcDbEntity
  8
0
100
AcDbLine
 62
7
  6
BYLAYER
 10
14.6211542188
 20
15.9489593444
 11
13.8850489155
 21
14.7778492423
  0
LINE
  5
2A7
100
AcDbEntity
  8
0
100
AcDbLine
 62
7
  6
BYLAYER
 10
58.1960771768
 20
38.5131889641
 11
58.0780075555
 21
38.5549811668
  0
LINE
  5
2A8
100
AcDbEntity
  8
0
100
AcDbLine
 62
7
  6
BYLAYER
 10
58.7285430853
 20
39.4079779071
 11
58.9082526898
 21
39.3361454698
  0
LINE
  5
2A9
100
AcDbEntity
  8
0
100
AcDbLine
 62
7
  6
BYLAYER
 10
58.4032753204
 20
32.8197403127
 11
58.1911414532
 21
32.9422130873
  0
LINE
  5
2AA
100
AcDbEntity
  8
0
100
AcDbLine
 62
7
  6
BYLAYER
 10
26.3537543023
 20
51.3647534695
 11
28.5811499365
 21
50.0787950927
  0
LINE
  5
2AB
100
AcDbEntity
  8
0
100
AcDbLine
 62
7
  6
BYLAYER
 10
51.9446070021
 20
36.6556034186
 11
51.8293766942
 21
36.7221301629
  0
LINE
  5
2AC
100
AcDbEntity
  8
0
100
AcDbLine
 62
7
  6
BYLAYER
 10
30.737822528
 20
50.5074548536
 11
26.5305196633
 21
52.936487343
  0
LINE
  5
2AD
100
AcDbEntity
  8
0
100
AcDbLine
 62
7
  6
BYLAYER
 10
56.9166899114
 20
35.4543819578
 11
56.561379288
 21
35.6595160011
  0
LINE
  5
2AE
100
AcDbEntity
  8
0
100
AcDbLine
 62
7
  6
BYLAYER
 10
53.9179724172
 20
37.899714708
 11
54.6909801751
 21
37.453428567
  0
LINE
  5
2AF
100
AcDbEntity
  8
0
100
AcDbLine
 62
7
  6
BYLAYER
 10
55.2994275392
 20
37.8047137196
 11
54.3939830994
 21
38.3274604846
  0
LINE
  5
2B0
100
AcDbEntity
  8
0
100
AcDbLine
 62
7
  6
BYLAYER
 10
37.2417152982
 20
67.8935053723
 11
37.2198788501
 21
69.0123294247
  0
LINE
  5
2B1
100
AcDbEntity
  8
0
100
AcDbLine
 62
7
  6
BYLAYER
 10
37.2198788501
 20
14.1758672616
 11
37.2417152982
 21
15.3199057218
  0
LINE
  5
2B2
100
AcDbEntity
  8
0
100
AcDbLine
 62
7
  6
BYLAYER
 10
12.2322008825
 20
20.9782069879
 11
14.2137107618
 21
22.9550171265
  0
LINE
  5
2B3
100
AcDbEntity
  8
0
100
AcDbLine
 62
7
  6
BYLAYER
 10
16.5957457837
 20
30.9115379364
 11
14.4555545176
 21
29.6759053085
  0
LINE
  5
2B4
100
AcDbEntity
  8
0
100
AcDbLine
 62
7
  6
BYLAYER
 10
34.379422451
 20
50.4666384861
 11
30.737822528
 21
50.4666297328
  0
LINE
  5
2B5
100
AcDbEntity
  8
0
100
AcDbLine
 62
7
  6
BYLAYER
 10
54.4894168931
 20
38.612570973
 11
55.4403101579
 21
38.0635849103
  0
LINE
  5
2B6
100
AcDbEntity
  8
0
100
AcDbLine
 62
7
  6
BYLAYER
 10
55.4081723125
 20
38.4691995507
 11
54.4788490239
 21
39.0057324635
  0
LINE
  5
2B7
100
AcDbEntity
  8
0
100
AcDbLine
 62
7
  6
BYLAYER
 10
58.0494111943
 20
37.1064996743
 11
56.3260015752
 21
38.1014881722
  0
LINE
  5
2B8
100
AcDbEntity
  8
0
100
AcDbLine
 62
7
  6
BYLAYER
 10
54.4788490239
 20
39.2608884398
 11
55.5138342765
 21
38.6633529437
  0
LINE
  5
2B9
100
AcDbEntity
  8
0
100
AcDbLine
 62
7
  6
BYLAYER
 10
55.7915632537
 20
38.8236988862
 11
54.4788490239
 21
39.5815776547
  0
LINE
  5
2BA
100
AcDbEntity
  8
0
100
AcDbLine
 62
7
  6
BYLAYER
 10
56.9619725831
 20
38.551170751
 11
58.4032753204
 21
37.7190530527
  0
LINE
  5
2BB
100
AcDbEntity
  8
0
100
AcDbLine
 62
7
  6
BYLAYER
 10
58.4032753204
 20
38.0555519573
 11
57.4692195557
 21
38.5948171047
  0
LINE
  5
2BC
100
AcDbEntity
  8
0
100
AcDbLine
 62
7
  6
BYLAYER
 10
31.3565173362
 20
53.7427769149
 11
31.8161386575
 21
53.4774204245
  0
LINE
  5
2BD
100
AcDbEntity
  8
0
100
AcDbLine
 62
7
  6
BYLAYER
 10
35.2456208245
 20
51.4974527651
 11
35.7052421458
 21
51.2320962746
  0
LINE
  5
2BE
100
AcDbEntity
  8
0
100
AcDbLine
 62
7
  6
BYLAYER
 10
59.0209845706
 20
67.2505807017
 11
57.9907193307
 21
65.82275054
  0
LINE
  5
2BF
100
AcDbEntity
  8
0
100
AcDbLine
 62
7
  6
BYLAYER
 10
12.247020974
 20
26.8901992396
 11
10.106829708
 21
25.6545666118
  0
LINE
  5
2C0
100
AcDbEntity
  8
0
100
AcDbLine
 62
7
  6
BYLAYER
 10
14.9340764202
 20
27.9108447644
 11
12.7066422954
 21
26.6248427492
  0
LINE
  5
2C1
100
AcDbEntity
  8
0
100
AcDbLine
 62
7
  6
BYLAYER
 10
26.6012321522
 20
52.8956623921
 11
29.8892768739
 21
52.8956702956
  0
LINE
  5
2C2
100
AcDbEntity
  8
0
100
AcDbLine
 62
7
  6
BYLAYER
 10
26.2476769509
 20
52.9364866632
 11
26.5305196633
 21
52.936487343
  0
LINE
  5
2C3
100
AcDbEntity
  8
0
100
AcDbLine
 62
7
  6
BYLAYER
 10
58.4772177253
 20
39.4597702556
 11
54.4788490239
 21
41.7681772785
  0
LINE
  5
2C4
100
AcDbEntity
  8
0
100
AcDbLine
 62
7
  6
BYLAYER
 10
58.7285430855
 20
39.407977907
 11
54.4788490239
 21
41.8614844117
  0
LINE
  5
2C5
100
AcDbEntity
  8
0
100
AcDbLine
 62
7
  6
BYLAYER
 10
54.5595608577
 20
41.8468832918
 11
58.9082856673
 21
39.3362026515
  0
LINE
  5
2C6
100
AcDbEntity
  8
0
100
AcDbLine
 62
7
  6
BYLAYER
 10
31.1090672039
 20
56.5802329623
 11
26.7603423943
 21
59.0909136026
  0
LINE
  5
2C7
100
AcDbEntity
  8
0
100
AcDbLine
 62
7
  6
BYLAYER
 10
31.8161386575
 20
56.5393044887
 11
35.2456208245
 21
54.5593368293
  0
LINE
  5
2C8
100
AcDbEntity
  8
0
100
AcDbLine
 62
7
  6
BYLAYER
 10
33.5307236877
 20
63.538013901
 11
33.8504771319
 21
62.9308198624
  0
LINE
  5
2C9
100
AcDbEntity
  8
0
100
AcDbLine
 62
7
  6
BYLAYER
 10
33.8504771319
 20
16.3667500697
 11
33.5307236877
 21
15.3903387609
  0
LINE
  5
2CA
100
AcDbEntity
  8
0
100
AcDbLine
 62
7
  6
BYLAYER
 10
14.4555545176
 20
23.1438859715
 11
16.5957457837
 21
24.3795185993
  0
LINE
  5
2CB
100
AcDbEntity
  8
0
100
AcDbLine
 62
7
  6
BYLAYER
 10
33.323207124
 20
56.9279978309
 11
31.1090672039
 21
56.5802329623
  0
LINE
  5
2CC
100
AcDbEntity
  8
0
100
AcDbLine
 62
7
  6
BYLAYER
 10
35.2456208245
 20
55.9473909384
 11
33.4708997711
 21
56.9720034364
  0
LINE
  5
2CD
100
AcDbEntity
  8
0
100
AcDbLine
 62
7
  6
BYLAYER
 10
37.5841234282
 20
15.5479958591
 11
37.9038768724
 21
16.5244071679
  0
LINE
  5
2CE
100
AcDbEntity
  8
0
100
AcDbLine
 62
7
  6
BYLAYER
 10
31.1090672039
 20
62.21218064
 11
26.7603423943
 21
64.7228612803
  0
LINE
  5
2CF
100
AcDbEntity
  8
0
100
AcDbLine
 62
7
  6
BYLAYER
 10
27.1686112369
 20
65.6985764983
 11
31.5173360466
 21
63.187895858
  0
LINE
  5
2D0
100
AcDbEntity
  8
0
100
AcDbLine
 62
7
  6
BYLAYER
 10
32.2291688774
 20
63.9821579464
 11
27.8800548149
 21
66.4924042589
  0
LINE
  5
2D1
100
AcDbEntity
  8
0
100
AcDbLine
 62
7
  6
BYLAYER
 10
37.9038768724
 20
67.4535976884
 11
37.5841234282
 21
68.060791727
  0
LINE
  5
2D2
100
AcDbEntity
  8
0
100
AcDbLine
 62
7
  6
BYLAYER
 10
50.2362260006
 20
23.6950036732
 11
50.2362260006
 21
20.980536746
  0
LINE
  5
2D3
100
AcDbEntity
  8
0
100
AcDbLine
 62
7
  6
BYLAYER
 10
33.7306505809
 20
15.1833427602
 11
32.9945452777
 21
14.0122326582
  0
LINE
  5
2D4
100
AcDbEntity
  8
0
100
AcDbLine
 62
7
  6
BYLAYER
 10
32.9954913164
 20
64.2965854808
 11
33.7306505805
 21
63.9758642149
  0
LINE
  5
2D5
100
AcDbEntity
  8
0
100
AcDbLine
 62
7
  6
BYLAYER
 10
29.3819257709
 20
66.4865448552
 11
28.645820468
 21
66.8076788409
  0
LINE
  5
2D6
100
AcDbEntity
  8
0
100
AcDbLine
 62
7
  6
BYLAYER
 10
33.7306505805
 20
63.9758642149
 11
33.7363478879
 21
63.9729873236
  0
LINE
  5
2D7
100
AcDbEntity
  8
0
100
AcDbLine
 62
7
  6
BYLAYER
 10
29.3876230783
 20
66.483667964
 11
29.3819257709
 21
66.4865448552
  0
LINE
  5
2D8
100
AcDbEntity
  8
0
100
AcDbLine
 62
7
  6
BYLAYER
 10
28.6458173481
 20
66.8076803338
 11
32.9948508447
 21
64.2968650254
  0
LINE
  5
2D9
100
AcDbEntity
  8
0
100
AcDbLine
 62
7
  6
BYLAYER
 10
29.3819257709
 20
66.4865448552
 11
33.7363486649
 21
63.9729886697
  0
LINE
  5
2DA
100
AcDbEntity
  8
0
100
AcDbLine
 62
7
  6
BYLAYER
 10
32.9042231696
 20
70.3551020847
 11
32.9281870483
 21
70.3294675427
  0
LINE
  5
2DB
100
AcDbEntity
  8
0
100
AcDbLine
 62
7
  6
BYLAYER
 10
37.2769118579
 20
67.8187869023
 11
37.2529479793
 21
67.8444214444
  0
LINE
  5
2DC
100
AcDbEntity
  8
0
100
AcDbLine
 62
7
  6
BYLAYER
 10
56.9166899114
 20
35.4543819578
 11
56.8131081241
 21
35.6832305149
  0
LINE
  5
2DD
100
AcDbEntity
  8
0
100
AcDbLine
 62
7
  6
BYLAYER
 10
58.4032753204
 20
32.8197403127
 11
58.341126248
 21
32.957049447
  0
LINE
  5
2DE
100
AcDbEntity
  8
0
100
AcDbLine
 62
7
  6
BYLAYER
 10
56.9581145448
 20
32.2781626862
 11
56.9166899114
 21
32.3697161584
  0
LINE
  5
2DF
100
AcDbEntity
  8
0
100
AcDbLine
 62
7
  6
BYLAYER
 10
51.1024282012
 20
25.9661833476
 11
51.1024282012
 21
33.4170732027
  0
LINE
  5
2E0
100
AcDbEntity
  8
0
100
AcDbLine
 62
7
  6
BYLAYER
 10
55.5138342765
 20
38.6633529437
 11
55.7915632535
 21
38.8236988861
  0
LINE
  5
2E1
100
AcDbEntity
  8
0
100
AcDbLine
 62
7
  6
BYLAYER
 10
55.2994275392
 20
37.8047137196
 11
54.6909801751
 21
37.453428567
  0
LINE
  5
2E2
100
AcDbEntity
  8
0
100
AcDbLine
 62
7
  6
BYLAYER
 10
55.4403101579
 20
38.0635849103
 11
55.4081723125
 21
38.4691995507
  0
LINE
  5
2E3
100
AcDbEntity
  8
0
100
AcDbLine
 62
7
  6
BYLAYER
 10
54.0545505107
 20
31.4727452692
 11
54.0545505107
 21
33.9544932293
  0
LINE
  5
2E4
100
AcDbEntity
  8
0
100
AcDbLine
 62
7
  6
BYLAYER
 10
54.150725157
 20
65.4741479232
 11
54.150725157
 21
65.1491280367
  0
LINE
  5
2E5
100
AcDbEntity
  8
0
100
AcDbLine
 62
7
  6
BYLAYER
 10
54.4788490239
 20
64.5566653156
 11
54.4788490239
 21
38.5942664725
  0
LINE
  5
2E6
100
AcDbEntity
  8
0
100
AcDbLine
 62
7
  6
BYLAYER
 10
19.26606022
 20
14.4901823154
 11
30.737822528
 21
21.1133678369
  0
LINE
  5
2E7
100
AcDbEntity
  8
0
100
AcDbLine
 62
7
  6
BYLAYER
 10
31.1090672039
 20
19.2252473786
 11
34.379422451
 21
21.1133765903
  0
LINE
  5
2E8
100
AcDbEntity
  8
0
100
AcDbLine
 62
7
  6
BYLAYER
 10
32.9281697432
 20
70.3294377603
 11
37.9038768724
 21
67.4535976884
  0
LINE
  5
2E9
100
AcDbEntity
  8
0
100
AcDbLine
 62
7
  6
BYLAYER
 10
32.8929904885
 20
70.4041860126
 11
37.2417152982
 21
67.8935053723
  0
LINE
  5
2EA
100
AcDbEntity
  8
0
100
AcDbLine
 62
7
  6
BYLAYER
 10
37.2198788501
 20
69.0123294246
 11
32.8711540405
 21
71.5230100649
  0
LINE
  5
2EB
100
AcDbEntity
  8
0
100
AcDbLine
 62
7
  6
BYLAYER
 10
33.2792473546
 20
72.5168158295
 11
37.6279721643
 21
70.0061351892
  0
LINE
  5
2EC
100
AcDbEntity
  8
0
100
AcDbLine
 62
7
  6
BYLAYER
 10
56.9166899114
 20
35.4543819578
 11
56.9166899114
 21
32.3697161584
  0
LINE
  5
2ED
100
AcDbEntity
  8
0
100
AcDbLine
 62
7
  6
BYLAYER
 10
58.4032753204
 20
38.0555519573
 11
58.4032753204
 21
37.7190530527
  0
LINE
  5
2EE
100
AcDbEntity
  8
0
100
AcDbLine
 62
7
  6
BYLAYER
 10
58.4032753204
 20
32.8197403127
 11
58.4032753204
 21
28.9620646289
  0
LINE
  5
2EF
100
AcDbEntity
  8
0
100
AcDbLine
 62
7
  6
BYLAYER
 10
56.2159322462
 20
37.9404143324
 11
55.7963460588
 21
37.2136657032
  0
LINE
  5
2F0
100
AcDbEntity
  8
0
100
AcDbLine
 62
7
  6
BYLAYER
 10
57.0581106788
 20
32.2880645057
 11
58.1911441692
 21
32.9422177916
  0
LINE
  5
2F1
100
AcDbEntity
  8
0
100
AcDbLine
 62
7
  6
BYLAYER
 10
38.226139085
 20
70.6735690122
 11
33.8774142753
 21
73.1842496525
  0
LINE
  5
2F2
100
AcDbEntity
  8
0
100
AcDbLine
 62
7
  6
BYLAYER
 10
34.0268317726
 20
73.308765329
 11
38.3755565822
 21
70.7980846887
  0
LINE
  5
2F3
100
AcDbEntity
  8
0
100
AcDbLine
 62
7
  6
BYLAYER
 10
40.0404716258
 20
72.5758064073
 11
37.6144205092
 21
73.9764559856
  0
LINE
  5
2F4
100
AcDbEntity
  8
0
100
AcDbLine
 62
7
  6
BYLAYER
 10
59.3225103088
 20
27.0429765404
 11
59.3225103088
 21
38.4206303559
  0
LINE
  5
2F5
100
AcDbEntity
  8
0
100
AcDbLine
 62
7
  6
BYLAYER
 10
59.3225103088
 20
68.0935052528
 11
59.3225103088
 21
68.2035055161
  0
LINE
  5
2F6
100
AcDbEntity
  8
0
100
AcDbLine
 62
7
  6
BYLAYER
 10
40.5056016073
 20
72.8443477243
 11
37.6144205092
 21
73.9764559856
  0
LINE
  5
2F7
100
AcDbEntity
  8
0
100
AcDbLine
 62
7
  6
BYLAYER
 10
56.3551868086
 20
64.7027294591
 11
54.5848893859
 21
65.7248112614
  0
LINE
  5
2F8
100
AcDbEntity
  8
0
100
AcDbLine
 62
7
  6
BYLAYER
 10
54.6518804638
 20
65.7634883474
 11
55.4780213632
 21
65.286526467
  0
LINE
  5
2F9
100
AcDbEntity
  8
0
100
AcDbLine
 62
7
  6
BYLAYER
 10
55.0893548283
 20
66.0160627818
 11
55.3179002334
 21
65.8841150157
  0
LINE
  5
2FA
100
AcDbEntity
  8
0
100
AcDbLine
 62
7
  6
BYLAYER
 10
54.1604052822
 20
65.1118999238
 11
54.4304483978
 21
64.7349004779
  0
LINE
  5
2FB
100
AcDbEntity
  8
0
100
AcDbLine
 62
7
  6
BYLAYER
 10
55.4780213632
 20
65.286526467
 11
55.3179002334
 21
65.8841150157
  0
LINE
  5
2FC
100
AcDbEntity
  8
0
100
AcDbLine
 62
7
  6
BYLAYER
 10
55.4759011476
 20
24.1549380619
 11
56.4443601357
 21
25.832367546
  0
LINE
  5
2FD
100
AcDbEntity
  8
0
100
AcDbLine
 62
7
  6
BYLAYER
 10
38.3755565822
 20
13.7245657313
 11
49.882674082
 21
20.3681634605
  0
LINE
  5
2FE
100
AcDbEntity
  8
0
100
AcDbLine
 62
7
  6
BYLAYER
 10
55.6759003149
 20
23.7128642204
 11
58.2618545529
 21
25.2058566839
  0
LINE
  5
2FF
100
AcDbEntity
  8
0
100
AcDbLine
 62
7
  6
BYLAYER
 10
55.3179002334
 20
65.8841150157
 11
55.1859528611
 21
66.0718333491
  0
LINE
  5
300
100
AcDbEntity
  8
0
100
AcDbLine
 62
7
  6
BYLAYER
 10
54.7872563873
 20
71.160216829
 11
59.1154043899
 21
68.6612879678
  0
LINE
  5
301
100
AcDbEntity
  8
0
100
AcDbLine
 62
7
  6
BYLAYER
 10
50.4423050672
 20
77.5256303148
 11
50.5588957863
 21
77.4153250661
  0
LINE
  5
302
100
AcDbEntity
  8
0
100
AcDbLine
 62
7
  6
BYLAYER
 10
50.5588957863
 20
77.4153250661
 11
54.7872563873
 21
71.160216829
  0
LINE
  5
303
100
AcDbEntity
  8
0
100
AcDbLine
 62
7
  6
BYLAYER
 10
46.285795927
 20
78.9828470332
 11
48.7118470436
 21
77.5821974549
  0
LINE
  5
304
100
AcDbEntity
  8
0
100
AcDbLine
 62
7
  6
BYLAYER
 10
49.9423245207
 20
77.4761214092
 11
45.5935997111
 21
79.9868020495
  0
LINE
  5
305
100
AcDbEntity
  8
0
100
AcDbLine
 62
7
  6
BYLAYER
 10
46.0935912276
 20
80.036329934
 11
50.4423160372
 21
77.5256492937
  0
ARC
  5
306
100
AcDbEntity
  8
0
100
AcDbCircle
 62
7
  6
BYLAYER
 10
38.8838766111
 20
41.4372386407
 40
13.6286901264
100
AcDbArc
 50
331.7644632077
 51
332.4064684367
  0
ARC
  5
307
100
AcDbEntity
  8
0
100
AcDbCircle
 62
7
  6
BYLAYER
 10
54.9393934983
 20
27.2677248575
 40
7.2482265254
100
AcDbArc
 50
120.0047038471
 51
121.9626337291
  0
ARC
  5
308
100
AcDbEntity
  8
0
100
AcDbCircle
 62
7
  6
BYLAYER
 10
57.8922095991
 20
35.9853029818
 40
3.5233730067
100
AcDbArc
 50
76.2687926561
 51
80.4425543852
  0
ARC
  5
309
100
AcDbEntity
  8
0
100
AcDbCircle
 62
7
  6
BYLAYER
 10
54.2229169821
 20
41.263071445
 40
0.6738872313
100
AcDbArc
 50
60.0309268133
 51
67.3880100043
  0
ARC
  5
30A
100
AcDbEntity
  8
0
100
AcDbCircle
 62
7
  6
BYLAYER
 10
56.768394593
 20
35.308400186
 40
0.4057601947
100
AcDbArc
 50
113.5574397709
 51
116.4653122573
  0
SPLINE
  5
30B
100
AcDbEntity
  8
0
100
AcDbSpline
 62
7
  6
BYLAYER
 70
0
 71
3
 72
11
 73
7
 74
0
 42
0.0000001
 43
0.0000001
 44
0.0000000001
 40
0.0
 40
0.0
 40
0.0
 40
0.0
 40
0.2896605528
 40
0.5491323137
 40
0.7822499447
 40
1.0
 40
1.0
 40
1.0
 40
1.0
 10
26.7603423942
 20
16.4305813081
 30
0.0
 10
26.7603423942
 20
16.3799206321
 30
0.0
 10
26.7680377692
 20
16.2835537274
 30
0.0
 10
26.8070577355
 20
16.1511560783
 30
0.0
 10
26.8727517691
 20
16.0437047336
 30
0.0
 10
26.9344785391
 20
15.9918462565
 30
0.0
 10
26.9674563849
 20
15.9727980285
 30
0.0
  0
SPLINE
  5
30C
100
AcDbEntity
  8
0
100
AcDbSpline
 62
7
  6
BYLAYER
 70
0
 71
3
 72
19
 73
15
 74
0
 42
0.0000001
 43
0.0000001
 44
0.0000000001
 40
0.0
 40
0.0
 40
0.0
 40
0.0
 40
0.0428394255
 40
0.0874449451
 40
0.1352572414
 40
0.1871952896
 40
0.2436739818
 40
0.3046663063
 40
0.4382699252
 40
0.5825447095
 40
0.7296404699
 40
0.8711673685
 40
0.9376093032
 40
1.0
 40
1.0
 40
1.0
 40
1.0
 10
11.2485769839
 20
16.7191810328
 30
0.0
 10
11.3022005882
 20
16.7501350351
 30
0.0
 10
11.4038159694
 20
16.8279666
 30
0.0
 10
11.5261708391
 20
16.9826093154
 30
0.0
 10
11.6175483625
 20
17.1717854463
 30
0.0
 10
11.6767455367
 20
17.3908030461
 30
0.0
 10
11.7031210315
 20
17.6350890573
 30
0.0
 10
11.6937732154
 20
17.9987091144
 30
0.0
 10
11.5951215447
 20
18.4824228917
 30
0.0
 10
11.3638808227
 20
19.0545528736
 30
0.0
 10
11.0347621889
 20
19.5899506503
 30
0.0
 10
10.6938831047
 20
19.9778685431
 30
0.0
 10
10.3944048495
 20
20.229783921
 30
0.0
 10
10.2391790798
 20
20.3335891336
 30
0.0
 10
10.1610855564
 20
20.3786754304
 30
0.0
  0
SPLINE
  5
30D
100
AcDbEntity
  8
0
100
AcDbSpline
 62
7
  6
BYLAYER
 70
0
 71
3
 72
19
 73
15
 74
0
 42
0.0000001
 43
0.0000001
 44
0.0000000001
 40
0.0
 40
0.0
 40
0.0
 40
0.0
 40
0.0428394255
 40
0.0874449451
 40
0.1352572414
 40
0.1871952896
 40
0.2436739818
 40
0.3046663063
 40
0.4382699252
 40
0.5825447095
 40
0.7296404699
 40
0.8711673685
 40
0.9376093032
 40
1.0
 40
1.0
 40
1.0
 40
1.0
 10
30.358073346
 20
58.534165502
 30
0.0
 10
30.4116969503
 20
58.5651195043
 30
0.0
 10
30.5133123316
 20
58.6429510692
 30
0.0
 10
30.6356672012
 20
58.7975937846
 30
0.0
 10
30.7270447246
 20
58.9867699155
 30
0.0
 10
30.7862418989
 20
59.2057875153
 30
0.0
 10
30.8126173936
 20
59.4500735264
 30
0.0
 10
30.8032695775
 20
59.8136935836
 30
0.0
 10
30.7046179069
 20
60.2974073609
 30
0.0
 10
30.4733771848
 20
60.8695373428
 30
0.0
 10
30.144258551
 20
61.4049351195
 30
0.0
 10
29.8033794668
 20
61.7928530123
 30
0.0
 10
29.5039012116
 20
62.0447683901
 30
0.0
 10
29.3486754419
 20
62.1485736028
 30
0.0
 10
29.2705819185
 20
62.1936598996
 30
0.0
  0
SPLINE
  5
30E
100
AcDbEntity
  8
0
100
AcDbSpline
 62
7
  6
BYLAYER
 70
0
 71
3
 72
9
 73
5
 74
0
 42
0.0000001
 43
0.0000001
 44
0.0000000001
 40
0.0
 40
0.0
 40
0.0
 40
0.0
 40
0.2439822202
 40
1.0
 40
1.0
 40
1.0
 40
1.0
 10
45.6797739914
 20
80.0304684113
 30
0.0
 10
45.6725687029
 20
80.0273300338
 30
0.0
 10
45.6432327443
 20
80.014019157
 30
0.0
 10
45.6146898009
 20
79.9989783458
 30
0.0
 10
45.5935997111
 20
79.9868020495
 30
0.0
  0
SPLINE
  5
30F
100
AcDbEntity
  8
0
100
AcDbSpline
 62
7
  6
BYLAYER
 70
0
 71
3
 72
9
 73
5
 74
0
 42
0.0000001
 43
0.0000001
 44
0.0000000001
 40
0.0
 40
0.0
 40
0.0
 40
0.0
 40
0.2344130631
 40
1.0
 40
1.0
 40
1.0
 40
1.0
 10
34.0268317726
 20
73.308765329
 30
0.0
 10
34.0136386155
 20
73.3011483017
 30
0.0
 10
33.9589403225
 20
73.2659249324
 30
0.0
 10
33.9106206414
 20
73.2213012699
 30
0.0
 10
33.8774142754
 20
73.1842496526
 30
0.0
  0
SPLINE
  5
310
100
AcDbEntity
  8
0
100
AcDbSpline
 62
7
  6
BYLAYER
 70
0
 71
3
 72
11
 73
7
 74
0
 42
0.0000001
 43
0.0000001
 44
0.0000000001
 40
0.0
 40
0.0
 40
0.0
 40
0.0
 40
0.2593318881
 40
0.5216603468
 40
0.7726529676
 40
1.0
 40
1.0
 40
1.0
 40
1.0
 10
33.2792473546
 20
72.5168158295
 30
0.0
 10
33.2160219017
 20
72.4462689565
 30
0.0
 10
33.1016420231
 20
72.29248614
 30
0.0
 10
32.9717911828
 20
72.0404903047
 30
0.0
 10
32.889520543
 20
71.7813920001
 30
0.0
 10
32.8695334562
 20
71.6060431974
 30
0.0
 10
32.8711540404
 20
71.523010065
 30
0.0
  0
SPLINE
  5
311
100
AcDbEntity
  8
0
100
AcDbSpline
 62
7
  6
BYLAYER
 70
0
 71
3
 72
9
 73
5
 74
0
 42
0.0000001
 43
0.0000001
 44
0.0000000001
 40
0.0
 40
0.0
 40
0.0
 40
0.0
 40
0.2731871285
 40
1.0
 40
1.0
 40
1.0
 40
1.0
 10
32.8929904885
 20
70.4041860126
 30
0.0
 10
32.8930803853
 20
70.3995800116
 30
0.0
 10
32.8941501521
 20
70.3827739445
 30
0.0
 10
32.8985122294
 20
70.365946843
 30
0.0
 10
32.9042231696
 20
70.3551020847
 30
0.0
  0
SPLINE
  5
312
100
AcDbEntity
  8
0
100
AcDbSpline
 62
7
  6
BYLAYER
 70
0
 71
3
 72
10
 73
6
 74
0
 42
0.0000001
 43
0.0000001
 44
0.0000000001
 40
0.0
 40
0.0
 40
0.0
 40
0.0
 40
0.2308085701
 40
0.4716130126
 40
1.0
 40
1.0
 40
1.0
 40
1.0
 10
28.645820468
 20
66.8076788409
 30
0.0
 10
28.6236402782
 20
66.8173939791
 30
0.0
 10
28.5760144401
 20
66.8323382077
 30
0.0
 10
28.4711165756
 20
66.8431098851
 30
0.0
 10
28.3898590867
 20
66.8285154348
 30
0.0
 10
28.3369254278
 20
66.8120544847
 30
0.0
  0
SPLINE
  5
313
100
AcDbEntity
  8
0
100
AcDbSpline
 62
7
  6
BYLAYER
 70
0
 71
3
 72
10
 73
6
 74
0
 42
0.0000001
 43
0.0000001
 44
0.0000000001
 40
0.0
 40
0.0
 40
0.0
 40
0.0
 40
0.2220510499
 40
0.4644369897
 40
1.0
 40
1.0
 40
1.0
 40
1.0
 10
28.3369254278
 20
66.8120544847
 30
0.0
 10
28.2971244663
 20
66.7996774518
 30
0.0
 10
28.2163249067
 20
66.7656068793
 30
0.0
 10
28.0558191991
 20
66.6674400417
 30
0.0
 10
27.9471493706
 20
66.5672682714
 30
0.0
 10
27.8800548149
 20
66.492404259
 30
0.0
  0
SPLINE
  5
314
100
AcDbEntity
  8
0
100
AcDbSpline
 62
7
  6
BYLAYER
 70
0
 71
3
 72
11
 73
7
 74
0
 42
0.0000001
 43
0.0000001
 44
0.0000000001
 40
0.0
 40
0.0
 40
0.0
 40
0.0
 40
0.2585151974
 40
0.5202359893
 40
0.7713874563
 40
1.0
 40
1.0
 40
1.0
 40
1.0
 10
27.1686112369
 20
65.6985764983
 30
0.0
 10
27.1066192395
 20
65.6294059133
 30
0.0
 10
26.9941863301
 20
65.4787848523
 30
0.0
 10
26.8655413809
 20
65.2319731237
 30
0.0
 10
26.7824432335
 20
64.9775755303
 30
0.0
 10
26.7603423942
 20
64.805001983
 30
0.0
 10
26.7603423942
 20
64.7228612803
 30
0.0
  0
SPLINE
  5
315
100
AcDbEntity
  8
0
100
AcDbSpline
 62
7
  6
BYLAYER
 70
0
 71
3
 72
19
 73
15
 74
0
 42
0.0000001
 43
0.0000001
 44
0.0000000001
 40
0.0
 40
0.0
 40
0.0
 40
0.0
 40
0.0428394255
 40
0.0874449451
 40
0.1352572414
 40
0.1871952896
 40
0.2436739818
 40
0.3046663063
 40
0.4382699252
 40
0.5825447095
 40
0.7296404699
 40
0.8711673685
 40
0.9376093032
 40
1.0
 40
1.0
 40
1.0
 40
1.0
 10
30.358073346
 20
15.6269634818
 30
0.0
 10
30.4116969503
 20
15.6579174841
 30
0.0
 10
30.5133123316
 20
15.735749049
 30
0.0
 10
30.6356672012
 20
15.8903917644
 30
0.0
 10
30.7270447246
 20
16.0795678953
 30
0.0
 10
30.7862418989
 20
16.2985854951
 30
0.0
 10
30.8126173936
 20
16.5428715063
 30
0.0
 10
30.8032695775
 20
16.9064915634
 30
0.0
 10
30.7046179069
 20
17.3902053407
 30
0.0
 10
30.4733771848
 20
17.9623353226
 30
0.0
 10
30.1442585511
 20
18.4977330993
 30
0.0
 10
29.8033794668
 20
18.8856509921
 30
0.0
 10
29.5039012116
 20
19.1375663699
 30
0.0
 10
29.3486754419
 20
19.2413715826
 30
0.0
 10
29.2705819185
 20
19.2864578794
 30
0.0
  0
SPLINE
  5
316
100
AcDbEntity
  8
0
100
AcDbSpline
 62
7
  6
BYLAYER
 70
0
 71
3
 72
11
 73
7
 74
0
 42
0.0000001
 43
0.0000001
 44
0.0000000001
 40
0.0
 40
0.0
 40
0.0
 40
0.0
 40
0.1970285858
 40
0.4239523595
 40
0.6934937346
 40
1.0
 40
1.0
 40
1.0
 40
1.0
 10
33.7363442945
 20
15.3890931229
 30
0.0
 10
33.7451745197
 20
15.3840156962
 30
0.0
 10
33.7610925678
 20
15.3673591999
 30
0.0
 10
33.7720420516
 20
15.3323700771
 30
0.0
 10
33.7719824562
 20
15.2904233991
 30
0.0
 10
33.7652266573
 20
15.2611718961
 30
0.0
 10
33.7602952385
 20
15.2461131274
 30
0.0
  0
SPLINE
  5
317
100
AcDbEntity
  8
0
100
AcDbSpline
 62
7
  6
BYLAYER
 70
0
 71
3
 72
9
 73
5
 74
0
 42
0.0000001
 43
0.0000001
 44
0.0000000001
 40
0.0
 40
0.0
 40
0.0
 40
0.0
 40
0.2446437089
 40
1.0
 40
1.0
 40
1.0
 40
1.0
 10
54.0545505108
 20
31.4727452692
 30
0.0
 10
54.0545505108
 20
31.468557407
 30
0.0
 10
54.0543223605
 20
31.4514396281
 30
0.0
 10
54.053204137
 20
31.4343364106
 30
0.0
 10
54.0519151884
 20
31.4214704675
 30
0.0
  0
SPLINE
  5
318
100
AcDbEntity
  8
0
100
AcDbSpline
 62
7
  6
BYLAYER
 70
0
 71
3
 72
11
 73
7
 74
0
 42
0.0000001
 43
0.0000001
 44
0.0000000001
 40
0.0
 40
0.0
 40
0.0
 40
0.0
 40
0.2445609889
 40
0.5074732721
 40
0.7663711486
 40
1.0
 40
1.0
 40
1.0
 40
1.0
 10
54.0519151884
 20
31.4214704675
 30
0.0
 10
54.0463566808
 20
31.3659869216
 30
0.0
 10
54.0180505315
 20
31.2523747396
 30
0.0
 10
53.9402267484
 20
31.0946622188
 30
0.0
 10
53.8338634494
 20
30.9577487134
 30
0.0
 10
53.745521059
 20
30.8858216672
 30
0.0
 10
53.6992767485
 20
30.8593827243
 30
0.0
  0
SPLINE
  5
319
100
AcDbEntity
  8
0
100
AcDbSpline
 62
7
  6
BYLAYER
 70
0
 71
3
 72
9
 73
5
 74
0
 42
0.0000001
 43
0.0000001
 44
0.0000000001
 40
0.0
 40
0.0
 40
0.0
 40
0.0
 40
0.2558063672
 40
1.0
 40
1.0
 40
1.0
 40
1.0
 10
53.6992767485
 20
30.8593827243
 30
0.0
 10
53.4838335369
 20
30.7362088525
 30
0.0
 10
52.6355464546
 20
30.2654547107
 30
0.0
 10
51.7626648764
 20
29.8385960224
 30
0.0
 10
51.1006379649
 20
29.5505580145
 30
0.0
  0
SPLINE
  5
31A
100
AcDbEntity
  8
0
100
AcDbSpline
 62
7
  6
BYLAYER
 70
0
 71
3
 72
11
 73
7
 74
0
 42
0.0000001
 43
0.0000001
 44
0.0000000001
 40
0.0
 40
0.0
 40
0.0
 40
0.0
 40
0.2227488494
 40
0.4581709234
 40
0.7159778018
 40
1.0
 40
1.0
 40
1.0
 40
1.0
 10
56.4443437497
 20
26.6983819568
 30
0.0
 10
56.4224926385
 20
26.7110202065
 30
0.0
 10
56.3732154695
 20
26.7300967205
 30
0.0
 10
56.2914076413
 20
26.7366609268
 30
0.0
 10
56.2038382611
 20
26.7219991083
 30
0.0
 10
56.1460905349
 20
26.7000499972
 30
0.0
 10
56.1169970231
 20
26.6862827521
 30
0.0
  0
SPLINE
  5
31B
100
AcDbEntity
  8
0
100
AcDbSpline
 62
7
  6
BYLAYER
 70
0
 71
3
 72
11
 73
7
 74
0
 42
0.0000001
 43
0.0000001
 44
0.0000000001
 40
0.0
 40
0.0
 40
0.0
 40
0.0
 40
0.2585151974
 40
0.5202359893
 40
0.7713874563
 40
1.0
 40
1.0
 40
1.0
 40
1.0
 10
8.0591148748
 20
38.7847611418
 30
0.0
 10
7.9971228774
 20
38.7155905567
 30
0.0
 10
7.884689968
 20
38.5649694958
 30
0.0
 10
7.7560450188
 20
38.3181577671
 30
0.0
 10
7.6729468714
 20
38.0637601738
 30
0.0
 10
7.6508460321
 20
37.8911866264
 30
0.0
 10
7.6508460321
 20
37.8090459238
 30
0.0
  0
SPLINE
  5
31C
100
AcDbEntity
  8
0
100
AcDbSpline
 62
7
  6
BYLAYER
 70
0
 71
3
 72
11
 73
7
 74
0
 42
0.0000001
 43
0.0000001
 44
0.0000000001
 40
0.0
 40
0.0
 40
0.0
 40
0.0
 40
0.2895971525
 40
0.5491569214
 40
0.7822931309
 40
1.0
 40
1.0
 40
1.0
 40
1.0
 10
7.6508460321
 20
32.0342950508
 30
0.0
 10
7.6508460321
 20
32.0089704781
 30
0.0
 10
7.6547049595
 20
31.9607871721
 30
0.0
 10
7.6741988533
 20
31.8945805235
 30
0.0
 10
7.707055305
 20
31.8408519924
 30
0.0
 10
7.7379204088
 20
31.8149305221
 30
0.0
 10
7.7544056887
 20
31.8054079838
 30
0.0
  0
SPLINE
  5
31D
100
AcDbEntity
  8
0
100
AcDbSpline
 62
7
  6
BYLAYER
 70
0
 71
3
 72
12
 73
8
 74
0
 42
0.0000001
 43
0.0000001
 44
0.0000000001
 40
0.0
 40
0.0
 40
0.0
 40
0.0
 40
0.108231117
 40
0.2184440409
 40
0.4513767155
 40
0.7104895129
 40
1.0
 40
1.0
 40
1.0
 40
1.0
 10
58.9082703439
 20
39.3361760549
 30
0.0
 10
58.941087436
 20
39.3172418499
 30
0.0
 10
59.0041728403
 20
39.273244524
 30
0.0
 10
59.1172358984
 20
39.1619617579
 30
0.0
 10
59.229236444
 20
38.9793640836
 30
0.0
 10
59.3071316002
 20
38.7147117767
 30
0.0
 10
59.3225103088
 20
38.5219768107
 30
0.0
 10
59.3225103088
 20
38.4206303559
 30
0.0
  0
SPLINE
  5
31E
100
AcDbEntity
  8
0
100
AcDbSpline
 62
7
  6
BYLAYER
 70
0
 71
3
 72
9
 73
5
 74
0
 42
0.0000001
 43
0.0000001
 44
0.0000000001
 40
0.0
 40
0.0
 40
0.0
 40
0.0
 40
0.2367348574
 40
1.0
 40
1.0
 40
1.0
 40
1.0
 10
10.106829708
 20
25.6545666118
 30
0.0
 10
10.0858252602
 20
25.6424397606
 30
0.0
 10
9.9990858083
 20
25.5877902493
 30
0.0
 10
9.9203455899
 20
25.5209261027
 30
0.0
 10
9.8649859522
 20
25.4656977669
 30
0.0
  0
SPLINE
  5
31F
100
AcDbEntity
  8
0
100
AcDbSpline
 62
7
  6
BYLAYER
 70
0
 71
3
 72
11
 73
7
 74
0
 42
0.0000001
 43
0.0000001
 44
0.0000000001
 40
0.0
 40
0.0
 40
0.0
 40
0.0
 40
0.255260279
 40
0.5173962588
 40
0.7703845626
 40
1.0
 40
1.0
 40
1.0
 40
1.0
 10
7.8834760729
 20
23.4888876282
 30
0.0
 10
7.8485261794
 20
23.4540206288
 30
0.0
 10
7.7847766007
 20
23.376010941
 30
0.0
 10
7.7115343238
 20
23.2454448701
 30
0.0
 10
7.6637477617
 20
23.1087965269
 30
0.0
 10
7.6508460321
 20
23.0153570162
 30
0.0
 10
7.6508460321
 20
22.9709487652
 30
0.0
  0
SPLINE
  5
320
100
AcDbEntity
  8
0
100
AcDbSpline
 62
7
  6
BYLAYER
 70
0
 71
3
 72
11
 73
7
 74
0
 42
0.0000001
 43
0.0000001
 44
0.0000000001
 40
0.0
 40
0.0
 40
0.0
 40
0.0
 40
0.2896605528
 40
0.5491323137
 40
0.7822499447
 40
1.0
 40
1.0
 40
1.0
 40
1.0
 10
7.6508460322
 20
17.1961978922
 30
0.0
 10
7.6508460322
 20
17.1455372163
 30
0.0
 10
7.6585414071
 20
17.0491703115
 30
0.0
 10
7.6975613734
 20
16.9167726624
 30
0.0
 10
7.763255407
 20
16.8093213177
 30
0.0
 10
7.824982177
 20
16.7574628407
 30
0.0
 10
7.8579600228
 20
16.7384146126
 30
0.0
  0
SPLINE
  5
321
100
AcDbEntity
  8
0
100
AcDbSpline
 62
7
  6
BYLAYER
 70
0
 71
3
 72
11
 73
7
 74
0
 42
0.0000001
 43
0.0000001
 44
0.0000000001
 40
0.0
 40
0.0
 40
0.0
 40
0.0
 40
0.2246925831
 40
0.4609177691
 40
0.7180402912
 40
1.0
 40
1.0
 40
1.0
 40
1.0
 10
46.0935773442
 20
80.036305913
 30
0.0
 10
46.0657980912
 20
80.0523834199
 30
0.0
 10
46.0035907728
 20
80.0770152118
 30
0.0
 10
45.9004368769
 20
80.0873065158
 30
0.0
 10
45.7899181817
 20
80.0718502568
 30
0.0
 10
45.716699925
 20
80.0465520858
 30
0.0
 10
45.6797739914
 20
80.0304684113
 30
0.0
  0
SPLINE
  5
322
100
AcDbEntity
  8
0
100
AcDbSpline
 62
7
  6
BYLAYER
 70
0
 71
3
 72
9
 73
5
 74
0
 42
0.0000001
 43
0.0000001
 44
0.0000000001
 40
0.0
 40
0.0
 40
0.0
 40
0.0
 40
0.2425510796
 40
1.0
 40
1.0
 40
1.0
 40
1.0
 10
33.7363484617
 20
63.9729883174
 30
0.0
 10
33.7388253921
 20
63.9715581919
 30
0.0
 10
33.7485991614
 20
63.9648983388
 30
0.0
 10
33.7561334782
 20
63.9552272971
 30
0.0
 10
33.7602952385
 20
63.9473243453
 30
0.0
  0
SPLINE
  5
323
100
AcDbEntity
  8
0
100
AcDbSpline
 62
7
  6
BYLAYER
 70
0
 71
3
 72
9
 73
5
 74
0
 42
0.0000001
 43
0.0000001
 44
0.0000000001
 40
0.0
 40
0.0
 40
0.0
 40
0.0
 40
0.2344130631
 40
1.0
 40
1.0
 40
1.0
 40
1.0
 10
14.9173354104
 20
46.3949499725
 30
0.0
 10
14.9041422534
 20
46.3873329452
 30
0.0
 10
14.8494439603
 20
46.3521095758
 30
0.0
 10
14.8011242792
 20
46.3074859133
 30
0.0
 10
14.7679179132
 20
46.270434296
 30
0.0
  0
SPLINE
  5
324
100
AcDbEntity
  8
0
100
AcDbSpline
 62
7
  6
BYLAYER
 70
0
 71
3
 72
11
 73
7
 74
0
 42
0.0000001
 43
0.0000001
 44
0.0000000001
 40
0.0
 40
0.0
 40
0.0
 40
0.0
 40
0.2593318881
 40
0.5216603468
 40
0.7726529676
 40
1.0
 40
1.0
 40
1.0
 40
1.0
 10
14.1697509925
 20
45.603000473
 30
0.0
 10
14.1065255396
 20
45.5324536
 30
0.0
 10
13.992145661
 20
45.3786707835
 30
0.0
 10
13.8622948207
 20
45.1266749482
 30
0.0
 10
13.7800241809
 20
44.8675766436
 30
0.0
 10
13.760037094
 20
44.6922278409
 30
0.0
 10
13.7616576783
 20
44.6091947084
 30
0.0
  0
SPLINE
  5
325
100
AcDbEntity
  8
0
100
AcDbSpline
 62
7
  6
BYLAYER
 70
0
 71
3
 72
9
 73
5
 74
0
 42
0.0000001
 43
0.0000001
 44
0.0000000001
 40
0.0
 40
0.0
 40
0.0
 40
0.0
 40
0.2731871285
 40
1.0
 40
1.0
 40
1.0
 40
1.0
 10
13.7834941264
 20
43.4903706559
 30
0.0
 10
13.7835840232
 20
43.4857646548
 30
0.0
 10
13.78465379
 20
43.4689585879
 30
0.0
 10
13.7890158674
 20
43.4521314864
 30
0.0
 10
13.7947268075
 20
43.4412867282
 30
0.0
  0
SPLINE
  5
326
100
AcDbEntity
  8
0
100
AcDbSpline
 62
7
  6
BYLAYER
 70
0
 71
3
 72
9
 73
5
 74
0
 42
0.0000001
 43
0.0000001
 44
0.0000000001
 40
0.0
 40
0.0
 40
0.0
 40
0.0
 40
0.2425510796
 40
1.0
 40
1.0
 40
1.0
 40
1.0
 10
14.6268520996
 20
37.0591729609
 30
0.0
 10
14.62932903
 20
37.0577428353
 30
0.0
 10
14.6391027993
 20
37.0510829822
 30
0.0
 10
14.6466371161
 20
37.0414119405
 30
0.0
 10
14.6507988763
 20
37.0335089888
 30
0.0
  0
SPLINE
  5
327
100
AcDbEntity
  8
0
100
AcDbSpline
 62
7
  6
BYLAYER
 70
0
 71
3
 72
10
 73
6
 74
0
 42
0.0000001
 43
0.0000001
 44
0.0000000001
 40
0.0
 40
0.0
 40
0.0
 40
0.0
 40
0.2308085701
 40
0.4716130126
 40
1.0
 40
1.0
 40
1.0
 40
1.0
 10
9.5363241059
 20
39.8938634843
 30
0.0
 10
9.5141439161
 20
39.9035786226
 30
0.0
 10
9.466518078
 20
39.9185228511
 30
0.0
 10
9.3616202135
 20
39.9292945285
 30
0.0
 10
9.2803627246
 20
39.9147000783
 30
0.0
 10
9.2274290657
 20
39.8982391282
 30
0.0
  0
SPLINE
  5
328
100
AcDbEntity
  8
0
100
AcDbSpline
 62
7
  6
BYLAYER
 70
0
 71
3
 72
10
 73
6
 74
0
 42
0.0000001
 43
0.0000001
 44
0.0000000001
 40
0.0
 40
0.0
 40
0.0
 40
0.0
 40
0.2220510499
 40
0.4644369897
 40
1.0
 40
1.0
 40
1.0
 40
1.0
 10
9.2274290657
 20
39.8982391282
 30
0.0
 10
9.1876281042
 20
39.8858620952
 30
0.0
 10
9.1068285446
 20
39.8517915228
 30
0.0
 10
8.9463228371
 20
39.7536246852
 30
0.0
 10
8.8376530085
 20
39.6534529148
 30
0.0
 10
8.7705584528
 20
39.5785889024
 30
0.0
  0
SPLINE
  5
329
100
AcDbEntity
  8
0
100
AcDbSpline
 62
7
  6
BYLAYER
 70
0
 71
3
 72
11
 73
7
 74
0
 42
0.0000001
 43
0.0000001
 44
0.0000000001
 40
0.0
 40
0.0
 40
0.0
 40
0.0
 40
0.2008825542
 40
0.4465061419
 40
0.7216461787
 40
1.0
 40
1.0
 40
1.0
 40
1.0
 10
14.6507988763
 20
37.0335089888
 30
0.0
 10
14.6581768465
 20
37.0194986331
 30
0.0
 10
14.6651113569
 20
36.9835765473
 30
0.0
 10
14.6565870727
 20
36.9267676592
 30
0.0
 10
14.6324816206
 20
36.8679876656
 30
0.0
 10
14.6072991827
 20
36.8318172654
 30
0.0
 10
14.5926556941
 20
36.815478081
 30
0.0
  0
SPLINE
  5
32A
100
AcDbEntity
  8
0
100
AcDbSpline
 62
7
  6
BYLAYER
 70
0
 71
3
 72
11
 73
7
 74
0
 42
0.0000001
 43
0.0000001
 44
0.0000000001
 40
0.0
 40
0.0
 40
0.0
 40
0.0
 40
0.3065057823
 40
0.5760465806
 40
0.8029704574
 40
1.0
 40
1.0
 40
1.0
 40
1.0
 10
18.3031986976
 20
40.9556968339
 30
0.0
 10
18.2926234718
 20
40.9438970116
 30
0.0
 10
18.2706695459
 20
40.9234210574
 30
0.0
 10
18.23437358
 20
40.9023964982
 30
0.0
 10
18.1985983626
 20
40.8943844596
 30
0.0
 10
18.1762149006
 20
40.8998412103
 30
0.0
 10
18.1674026991
 20
40.9049494106
 30
0.0
  0
SPLINE
  5
32B
100
AcDbEntity
  8
0
100
AcDbSpline
 62
7
  6
BYLAYER
 70
0
 71
3
 72
9
 73
5
 74
0
 42
0.0000001
 43
0.0000001
 44
0.0000000001
 40
0.0
 40
0.0
 40
0.0
 40
0.0
 40
0.2743582661
 40
1.0
 40
1.0
 40
1.0
 40
1.0
 10
19.26606022
 20
14.4901823154
 30
0.0
 10
19.2535669105
 20
14.4829693429
 30
0.0
 10
19.2069624872
 20
14.458807893
 30
0.0
 10
19.1547688038
 20
14.4436494723
 30
0.0
 10
19.116642723
 20
14.4421665573
 30
0.0
  0
SPLINE
  5
32C
100
AcDbEntity
  8
0
100
AcDbSpline
 62
7
  6
BYLAYER
 70
0
 71
3
 72
9
 73
5
 74
0
 42
0.0000001
 43
0.0000001
 44
0.0000000001
 40
0.0
 40
0.0
 40
0.0
 40
0.0
 40
0.2456632248
 40
1.0
 40
1.0
 40
1.0
 40
1.0
 10
14.6507988763
 20
16.0117297116
 30
0.0
 10
14.6490272892
 20
16.0063199257
 30
0.0
 10
14.6410955347
 20
15.9845396902
 30
0.0
 10
14.6304560659
 20
15.9637581624
 30
0.0
 10
14.6211542188
 20
15.9489593444
 30
0.0
  0
SPLINE
  5
32D
100
AcDbEntity
  8
0
100
AcDbSpline
 62
7
  6
BYLAYER
 70
0
 71
3
 72
9
 73
5
 74
0
 42
0.0000001
 43
0.0000001
 44
0.0000000001
 40
0.0
 40
0.0
 40
0.0
 40
0.0
 40
0.2587699372
 40
1.0
 40
1.0
 40
1.0
 40
1.0
 10
13.8850489155
 20
14.7778492423
 30
0.0
 10
13.8632082212
 20
14.7430634954
 30
0.0
 10
13.7740628532
 20
14.611743638
 30
0.0
 10
13.6660767845
 20
14.4926642541
 30
0.0
 10
13.5761538754
 20
14.4167944585
 30
0.0
  0
SPLINE
  5
32E
100
AcDbEntity
  8
0
100
AcDbSpline
 62
7
  6
BYLAYER
 70
0
 71
3
 72
10
 73
6
 74
0
 42
0.0000001
 43
0.0000001
 44
0.0000000001
 40
0.0
 40
0.0
 40
0.0
 40
0.0
 40
0.2829639715
 40
0.5449762022
 40
1.0
 40
1.0
 40
1.0
 40
1.0
 10
13.5761538754
 20
14.4167944585
 30
0.0
 10
13.5394504035
 20
14.3858269894
 30
0.0
 10
13.465085041
 20
14.3301782897
 30
0.0
 10
13.317022617
 20
14.2472903568
 30
0.0
 10
13.1964475783
 20
14.2119003988
 30
0.0
 10
13.1192832626
 20
14.2088990905
 30
0.0
  0
SPLINE
  5
32F
100
AcDbEntity
  8
0
100
AcDbSpline
 62
7
  6
BYLAYER
 70
0
 71
3
 72
9
 73
5
 74
0
 42
0.0000001
 43
0.0000001
 44
0.0000000001
 40
0.0
 40
0.0
 40
0.0
 40
0.0
 40
0.268992057
 40
1.0
 40
1.0
 40
1.0
 40
1.0
 10
14.4555545176
 20
29.6759053085
 30
0.0
 10
14.4354464826
 20
29.6642959984
 30
0.0
 10
14.3592067049
 20
29.6239412504
 30
0.0
 10
14.2760453476
 20
29.5953093148
 30
0.0
 10
14.2137107619
 20
29.5855187054
 30
0.0
  0
SPLINE
  5
330
100
AcDbEntity
  8
0
100
AcDbSpline
 62
7
  6
BYLAYER
 70
0
 71
3
 72
11
 73
7
 74
0
 42
0.0000001
 43
0.0000001
 44
0.0000000001
 40
0.0
 40
0.0
 40
0.0
 40
0.0
 40
0.28970066
 40
0.5490882258
 40
0.7822179595
 40
1.0
 40
1.0
 40
1.0
 40
1.0
 10
10.1610855564
 20
35.279844543
 30
0.0
 10
10.0656494503
 20
35.3349433581
 30
0.0
 10
9.8757953886
 20
35.4252608822
 30
0.0
 10
9.583986143
 20
35.4957325851
 30
0.0
 10
9.3101805587
 20
35.488798167
 30
0.0
 10
9.1453409183
 20
35.4289689615
 30
0.0
 10
9.0735941289
 20
35.3875534261
 30
0.0
  0
SPLINE
  5
331
100
AcDbEntity
  8
0
100
AcDbSpline
 62
7
  6
BYLAYER
 70
0
 71
3
 72
11
 73
7
 74
0
 42
0.0000001
 43
0.0000001
 44
0.0000000001
 40
0.0
 40
0.0
 40
0.0
 40
0.0
 40
0.1970285858
 40
0.4239523595
 40
0.6934937346
 40
1.0
 40
1.0
 40
1.0
 40
1.0
 10
14.6268479324
 20
16.154709707
 30
0.0
 10
14.6356781575
 20
16.1496322804
 30
0.0
 10
14.6515962056
 20
16.1329757841
 30
0.0
 10
14.6625456895
 20
16.0979866613
 30
0.0
 10
14.662486094
 20
16.0560399833
 30
0.0
 10
14.6557302952
 20
16.0267884802
 30
0.0
 10
14.6507988763
 20
16.0117297116
 30
0.0
  0
SPLINE
  5
332
100
AcDbEntity
  8
0
100
AcDbSpline
 62
7
  6
BYLAYER
 70
0
 71
3
 72
19
 73
15
 74
0
 42
0.0000001
 43
0.0000001
 44
0.0000000001
 40
0.0
 40
0.0
 40
0.0
 40
0.0
 40
0.0428394255
 40
0.0874449451
 40
0.1352572414
 40
0.1871952896
 40
0.2436739818
 40
0.3046663063
 40
0.4382699252
 40
0.5825447095
 40
0.7296404699
 40
0.8711673685
 40
0.9376093032
 40
1.0
 40
1.0
 40
1.0
 40
1.0
 10
11.2485769839
 20
31.6203501454
 30
0.0
 10
11.3022005882
 20
31.6513041478
 30
0.0
 10
11.4038159694
 20
31.7291357127
 30
0.0
 10
11.5261708391
 20
31.883778428
 30
0.0
 10
11.6175483625
 20
32.0729545589
 30
0.0
 10
11.6767455367
 20
32.2919721587
 30
0.0
 10
11.7031210315
 20
32.5362581699
 30
0.0
 10
11.6937732154
 20
32.899878227
 30
0.0
 10
11.5951215447
 20
33.3835920043
 30
0.0
 10
11.3638808227
 20
33.9557219862
 30
0.0
 10
11.0347621889
 20
34.491119763
 30
0.0
 10
10.6938831047
 20
34.8790376557
 30
0.0
 10
10.3944048495
 20
35.1309530336
 30
0.0
 10
10.2391790798
 20
35.2347582463
 30
0.0
 10
10.1610855564
 20
35.279844543
 30
0.0
  0
SPLINE
  5
333
100
AcDbEntity
  8
0
100
AcDbSpline
 62
7
  6
BYLAYER
 70
0
 71
3
 72
11
 73
7
 74
0
 42
0.0000001
 43
0.0000001
 44
0.0000000001
 40
0.0
 40
0.0
 40
0.0
 40
0.0
 40
0.28970066
 40
0.5490882258
 40
0.7822179595
 40
1.0
 40
1.0
 40
1.0
 40
1.0
 10
10.1610855564
 20
20.3786754304
 30
0.0
 10
10.0656494503
 20
20.4337742455
 30
0.0
 10
9.8757953886
 20
20.5240917696
 30
0.0
 10
9.583986143
 20
20.5945634725
 30
0.0
 10
9.3101805587
 20
20.5876290544
 30
0.0
 10
9.1453409183
 20
20.5277998489
 30
0.0
 10
9.0735941289
 20
20.4863843135
 30
0.0
  0
SPLINE
  5
334
100
AcDbEntity
  8
0
100
AcDbSpline
 62
7
  6
BYLAYER
 70
0
 71
3
 72
11
 73
7
 74
0
 42
0.0000001
 43
0.0000001
 44
0.0000000001
 40
0.0
 40
0.0
 40
0.0
 40
0.0
 40
0.28970066
 40
0.5490882258
 40
0.7822179595
 40
1.0
 40
1.0
 40
1.0
 40
1.0
 10
29.2705819185
 20
19.2864578794
 30
0.0
 10
29.1751458124
 20
19.3415566944
 30
0.0
 10
28.9852917507
 20
19.4318742185
 30
0.0
 10
28.6934825052
 20
19.5023459214
 30
0.0
 10
28.4196769208
 20
19.4954115034
 30
0.0
 10
28.2548372805
 20
19.4355822979
 30
0.0
 10
28.1830904911
 20
19.3941667624
 30
0.0
  0
SPLINE
  5
335
100
AcDbEntity
  8
0
100
AcDbSpline
 62
7
  6
BYLAYER
 70
0
 71
3
 72
11
 73
7
 74
0
 42
0.0000001
 43
0.0000001
 44
0.0000000001
 40
0.0
 40
0.0
 40
0.0
 40
0.0
 40
0.28970066
 40
0.5490882258
 40
0.7822179595
 40
1.0
 40
1.0
 40
1.0
 40
1.0
 10
29.2705819185
 20
62.1936598996
 30
0.0
 10
29.1751458124
 20
62.2487587146
 30
0.0
 10
28.9852917507
 20
62.3390762387
 30
0.0
 10
28.6934825051
 20
62.4095479416
 30
0.0
 10
28.4196769208
 20
62.4026135235
 30
0.0
 10
28.2548372805
 20
62.3427843181
 30
0.0
 10
28.1830904911
 20
62.3013687826
 30
0.0
  0
SPLINE
  5
336
100
AcDbEntity
  8
0
100
AcDbSpline
 62
7
  6
BYLAYER
 70
0
 71
3
 72
9
 73
5
 74
0
 42
0.0000001
 43
0.0000001
 44
0.0000000001
 40
0.0
 40
0.0
 40
0.0
 40
0.0
 40
0.268992057
 40
1.0
 40
1.0
 40
1.0
 40
1.0
 10
33.5650508797
 20
57.018384434
 30
0.0
 10
33.5449428447
 20
57.0067751239
 30
0.0
 10
33.468703067
 20
56.9664203759
 30
0.0
 10
33.3855417098
 20
56.9377884403
 30
0.0
 10
33.323207124
 20
56.9279978309
 30
0.0
  0
SPLINE
  5
337
100
AcDbEntity
  8
0
100
AcDbSpline
 62
7
  6
BYLAYER
 70
0
 71
3
 72
11
 73
7
 74
0
 42
0.0000001
 43
0.0000001
 44
0.0000000001
 40
0.0
 40
0.0
 40
0.0
 40
0.0
 40
0.2008825543
 40
0.4465061419
 40
0.7216461787
 40
1.0
 40
1.0
 40
1.0
 40
1.0
 10
33.7602952385
 20
63.9473243453
 30
0.0
 10
33.7676732086
 20
63.9333139896
 30
0.0
 10
33.7746077191
 20
63.8973919039
 30
0.0
 10
33.7660834349
 20
63.8405830157
 30
0.0
 10
33.7419779827
 20
63.7818030221
 30
0.0
 10
33.7167955448
 20
63.7456326219
 30
0.0
 10
33.7021520562
 20
63.7292934375
 30
0.0
  0
SPLINE
  5
338
100
AcDbEntity
  8
0
100
AcDbSpline
 62
7
  6
BYLAYER
 70
0
 71
3
 72
11
 73
7
 74
0
 42
0.0000001
 43
0.0000001
 44
0.0000000001
 40
0.0
 40
0.0
 40
0.0
 40
0.0
 40
0.3065057823
 40
0.5760465806
 40
0.8029704574
 40
1.0
 40
1.0
 40
1.0
 40
1.0
 10
37.4126950597
 20
67.8695121904
 30
0.0
 10
37.4021198339
 20
67.8577123681
 30
0.0
 10
37.380165908
 20
67.8372364139
 30
0.0
 10
37.3438699422
 20
67.8162118547
 30
0.0
 10
37.3080947247
 20
67.8081998161
 30
0.0
 10
37.2857112627
 20
67.8136565669
 30
0.0
 10
37.2768990612
 20
67.8187647671
 30
0.0
  0
SPLINE
  5
339
100
AcDbEntity
  8
0
100
AcDbSpline
 62
7
  6
BYLAYER
 70
0
 71
3
 72
11
 73
7
 74
0
 42
0.0000001
 43
0.0000001
 44
0.0000000001
 40
0.0
 40
0.0
 40
0.0
 40
0.0
 40
0.2177167293
 40
0.4509418166
 40
0.7102950539
 40
1.0
 40
1.0
 40
1.0
 40
1.0
 10
59.1154043899
 20
68.6612879678
 30
0.0
 10
59.1483801622
 20
68.6422488525
 30
0.0
 10
59.2100802346
 20
68.5903431039
 30
0.0
 10
59.2758261799
 20
68.4829408475
 30
0.0
 10
59.3148152695
 20
68.3505223713
 30
0.0
 10
59.3225103088
 20
68.2541732588
 30
0.0
 10
59.3225103088
 20
68.2035055161
 30
0.0
  0
SPLINE
  5
33A
100
AcDbEntity
  8
0
100
AcDbSpline
 62
7
  6
BYLAYER
 70
0
 71
3
 72
11
 73
7
 74
0
 42
0.0000001
 43
0.0000001
 44
0.0000000001
 40
0.0
 40
0.0
 40
0.0
 40
0.0
 40
0.2276310801
 40
0.47594496
 40
0.736713944
 40
1.0
 40
1.0
 40
1.0
 40
1.0
 10
59.3225103088
 20
68.0935052528
 30
0.0
 10
59.3225103088
 20
68.0246079889
 30
0.0
 10
59.3068656451
 20
67.8804093037
 30
0.0
 10
59.2466430896
 20
67.6648897191
 30
0.0
 10
59.1513902439
 20
67.4505815225
 30
0.0
 10
59.0676135906
 20
67.3152032072
 30
0.0
 10
59.0209845706
 20
67.2505807017
 30
0.0
  0
SPLINE
  5
33B
100
AcDbEntity
  8
0
100
AcDbSpline
 62
7
  6
BYLAYER
 70
0
 71
3
 72
10
 73
6
 74
0
 42
0.0000001
 43
0.0000001
 44
0.0000000001
 40
0.0
 40
0.0
 40
0.0
 40
0.0
 40
0.5238236662
 40
0.7694718111
 40
1.0
 40
1.0
 40
1.0
 40
1.0
 10
57.9907193307
 20
65.82275054
 30
0.0
 10
57.876195623
 20
65.6640337379
 30
0.0
 10
57.6871260094
 20
65.4443254147
 30
0.0
 10
57.4022935037
 20
65.2017230166
 30
0.0
 10
57.2541577667
 20
65.1021734751
 30
0.0
 10
57.1795631325
 20
65.0591065
 30
0.0
  0
SPLINE
  5
33C
100
AcDbEntity
  8
0
100
AcDbSpline
 62
7
  6
BYLAYER
 70
0
 71
3
 72
11
 73
7
 74
0
 42
0.0000001
 43
0.0000001
 44
0.0000000001
 40
0.0
 40
0.0
 40
0.0
 40
0.0
 40
0.2897043219
 40
0.5490567864
 40
0.7822817783
 40
1.0
 40
1.0
 40
1.0
 40
1.0
 10
56.6051857677
 20
64.7274915533
 30
0.0
 10
56.5832462641
 20
64.7148248506
 30
0.0
 10
56.5396026296
 20
64.6940701089
 30
0.0
 10
56.4725171817
 20
64.6778491917
 30
0.0
 10
56.4095748201
 20
64.6794686206
 30
0.0
 10
56.3716746138
 20
64.6932099481
 30
0.0
 10
56.3551868086
 20
64.7027294591
 30
0.0
  0
SPLINE
  5
33D
100
AcDbEntity
  8
0
100
AcDbSpline
 62
7
  6
BYLAYER
 70
0
 71
3
 72
9
 73
5
 74
0
 42
0.0000001
 43
0.0000001
 44
0.0000000001
 40
0.0
 40
0.0
 40
0.0
 40
0.0
 40
0.2810763874
 40
1.0
 40
1.0
 40
1.0
 40
1.0
 10
54.150725157
 20
65.1491280367
 30
0.0
 10
54.1506647921
 20
65.1454935216
 30
0.0
 10
54.1511740031
 20
65.1326200047
 30
0.0
 10
54.1549911824
 20
65.1194583932
 30
0.0
 10
54.1604052822
 20
65.1118999238
 30
0.0
  0
SPLINE
  5
33E
100
AcDbEntity
  8
0
100
AcDbSpline
 62
7
  6
BYLAYER
 70
0
 71
3
 72
9
 73
5
 74
0
 42
0.0000001
 43
0.0000001
 44
0.0000000001
 40
0.0
 40
0.0
 40
0.0
 40
0.0
 40
0.2243176743
 40
1.0
 40
1.0
 40
1.0
 40
1.0
 10
54.4304483978
 20
64.7349004779
 30
0.0
 10
54.4385674091
 20
64.7235657592
 30
0.0
 10
54.4694430207
 20
64.6691682359
 30
0.0
 10
54.4788490239
 20
64.6048780816
 30
0.0
 10
54.4788490239
 20
64.5566653156
 30
0.0
  0
SPLINE
  5
33F
100
AcDbEntity
  8
0
100
AcDbSpline
 62
7
  6
BYLAYER
 70
0
 71
3
 72
9
 73
5
 74
0
 42
0.0000001
 43
0.0000001
 44
0.0000000001
 40
0.0
 40
0.0
 40
0.0
 40
0.0
 40
0.2446442191
 40
1.0
 40
1.0
 40
1.0
 40
1.0
 10
54.4788490239
 20
38.5942664725
 30
0.0
 10
54.4788490239
 20
38.5900786992
 30
0.0
 10
54.4786208777
 20
38.5729613202
 30
0.0
 10
54.4775028181
 20
38.5558584961
 30
0.0
 10
54.4762139925
 20
38.5429928526
 30
0.0
  0
SPLINE
  5
340
100
AcDbEntity
  8
0
100
AcDbSpline
 62
7
  6
BYLAYER
 70
0
 71
3
 72
12
 73
8
 74
0
 42
0.0000001
 43
0.0000001
 44
0.0000000001
 40
0.0
 40
0.0
 40
0.0
 40
0.0
 40
0.2483606722
 40
0.5148786886
 40
0.7731044513
 40
0.8918208622
 40
1.0
 40
1.0
 40
1.0
 40
1.0
 10
54.4762139925
 20
38.5429928526
 30
0.0
 10
54.4701947043
 20
38.4829055791
 30
0.0
 10
54.4381205265
 20
38.3600912325
 30
0.0
 10
54.3503135784
 20
38.1925219912
 30
0.0
 10
54.248357703
 20
38.0715279397
 30
0.0
 10
54.1554617836
 20
37.9983142777
 30
0.0
 10
54.1071432478
 20
37.9710030854
 30
0.0
 10
54.0830583499
 20
37.9604302379
 30
0.0
  0
SPLINE
  5
341
100
AcDbEntity
  8
0
100
AcDbSpline
 62
7
  6
BYLAYER
 70
0
 71
3
 72
10
 73
6
 74
0
 42
0.0000001
 43
0.0000001
 44
0.0000000001
 40
0.0
 40
0.0
 40
0.0
 40
0.0
 40
0.2702128088
 40
0.5265612868
 40
1.0
 40
1.0
 40
1.0
 40
1.0
 10
54.0830583499
 20
37.9604302379
 30
0.0
 10
53.9295375243
 20
37.8928133821
 30
0.0
 10
53.6242001471
 20
37.7741189226
 30
0.0
 10
53.0256784803
 20
37.6077552555
 30
0.0
 10
52.5692421609
 20
37.5582201653
 30
0.0
 10
52.2754953363
 20
37.5682293476
 30
0.0
  0
SPLINE
  5
342
100
AcDbEntity
  8
0
100
AcDbSpline
 62
7
  6
BYLAYER
 70
0
 71
3
 72
9
 73
5
 74
0
 42
0.0000001
 43
0.0000001
 44
0.0000000001
 40
0.0
 40
0.0
 40
0.0
 40
0.0
 40
0.2259155088
 40
1.0
 40
1.0
 40
1.0
 40
1.0
 10
52.2754953363
 20
37.5682293476
 30
0.0
 10
52.2624292706
 20
37.5686745631
 30
0.0
 10
52.2043820289
 20
37.5652487591
 30
0.0
 10
52.1488456915
 20
37.5425654859
 30
0.0
 10
52.1100511692
 20
37.5201675917
 30
0.0
  0
SPLINE
  5
343
100
AcDbEntity
  8
0
100
AcDbSpline
 62
7
  6
BYLAYER
 70
0
 71
3
 72
16
 73
12
 74
0
 42
0.0000001
 43
0.0000001
 44
0.0000000001
 40
0.0
 40
0.0
 40
0.0
 40
0.0
 40
0.1286889576
 40
0.2704501193
 40
0.4176040136
 40
0.5620035862
 40
0.6957160185
 40
0.8130137394
 40
0.9123986452
 40
0.9570591288
 40
1.0
 40
1.0
 40
1.0
 40
1.0
 10
52.1100511692
 20
37.5201675917
 30
0.0
 10
52.0730559823
 20
37.4988085381
 30
0.0
 10
52.0012304605
 20
37.4434753684
 30
0.0
 10
51.9092257246
 20
37.3389135313
 30
0.0
 10
51.8335848387
 20
37.2157540371
 30
0.0
 10
51.7803757894
 20
37.0842574724
 30
0.0
 10
51.7540320001
 20
36.9547455931
 30
0.0
 10
51.7566367219
 20
36.8373236417
 30
0.0
 10
51.7855169938
 20
36.7530751246
 30
0.0
 10
51.8243107557
 20
36.7039247287
 30
0.0
 10
51.8477204236
 20
36.6860456813
 30
0.0
 10
51.8600765304
 20
36.67893868
 30
0.0
  0
SPLINE
  5
344
100
AcDbEntity
  8
0
100
AcDbSpline
 62
7
  6
BYLAYER
 70
0
 71
3
 72
9
 73
5
 74
0
 42
0.0000001
 43
0.0000001
 44
0.0000000001
 40
0.0
 40
0.0
 40
0.0
 40
0.0
 40
0.2446437134
 40
1.0
 40
1.0
 40
1.0
 40
1.0
 10
59.3225103088
 20
27.0429765404
 30
0.0
 10
59.3225103088
 20
27.0304129533
 30
0.0
 10
59.3218258546
 20
26.9790596169
 30
0.0
 10
59.3184711875
 20
26.9277499642
 30
0.0
 10
59.3146043416
 20
26.8891521351
 30
0.0
  0
SPLINE
  5
345
100
AcDbEntity
  8
0
100
AcDbSpline
 62
7
  6
BYLAYER
 70
0
 71
3
 72
13
 73
9
 74
0
 42
0.0000001
 43
0.0000001
 44
0.0000000001
 40
0.0
 40
0.0
 40
0.0
 40
0.0
 40
0.1186927686
 40
0.2446341807
 40
0.5071250796
 40
0.7657755634
 40
0.8871738096
 40
1.0
 40
1.0
 40
1.0
 40
1.0
 10
59.3146043416
 20
26.8891521351
 30
0.0
 10
59.3065266199
 20
26.8085224627
 30
0.0
 10
59.277849836
 20
26.6434067008
 30
0.0
 10
59.1779798898
 20
26.3112466085
 30
0.0
 10
58.9813300622
 20
25.9118654112
 30
0.0
 10
58.7106092288
 20
25.5620197263
 30
0.0
 10
58.4606551878
 20
25.3356780763
 30
0.0
 10
58.3285629342
 20
25.2443705558
 30
0.0
 10
58.261854553
 20
25.2058566839
 30
0.0
  0
SPLINE
  5
346
100
AcDbEntity
  8
0
100
AcDbSpline
 62
7
  6
BYLAYER
 70
0
 71
3
 72
11
 73
7
 74
0
 42
0.0000001
 43
0.0000001
 44
0.0000000001
 40
0.0
 40
0.0
 40
0.0
 40
0.0
 40
0.2894400737
 40
0.5491220187
 40
0.7822878054
 40
1.0
 40
1.0
 40
1.0
 40
1.0
 10
55.6759003149
 20
23.7128642204
 30
0.0
 10
55.6583654765
 20
23.7027405371
 30
0.0
 10
55.6234372906
 20
23.6861613141
 30
0.0
 10
55.5697826632
 20
23.673150324
 30
0.0
 10
55.5194059079
 20
23.6744282079
 30
0.0
 10
55.489100627
 20
23.6854510092
 30
0.0
 10
55.475916279
 20
23.6930746688
 30
0.0
  0
SPLINE
  5
347
100
AcDbEntity
  8
0
100
AcDbSpline
 62
7
  6
BYLAYER
 70
0
 71
3
 72
9
 73
5
 74
0
 42
0.0000001
 43
0.0000001
 44
0.0000000001
 40
0.0
 40
0.0
 40
0.0
 40
0.0
 40
0.2584151021
 40
1.0
 40
1.0
 40
1.0
 40
1.0
 10
56.1169970231
 20
26.6862827521
 30
0.0
 10
55.8246426359
 20
26.5479386933
 30
0.0
 10
54.6836267465
 20
26.0335372053
 30
0.0
 10
53.5027090646
 20
25.6056299836
 30
0.0
 10
52.610413407
 20
25.3500569976
 30
0.0
  0
SPLINE
  5
348
100
AcDbEntity
  8
0
100
AcDbSpline
 62
7
  6
BYLAYER
 70
0
 71
3
 72
9
 73
5
 74
0
 42
0.0000001
 43
0.0000001
 44
0.0000000001
 40
0.0
 40
0.0
 40
0.0
 40
0.0
 40
0.2374828383
 40
1.0
 40
1.0
 40
1.0
 40
1.0
 10
52.610413407
 20
25.3500569976
 30
0.0
 10
52.5027680162
 20
25.3192250041
 30
0.0
 10
52.0541453245
 20
25.1732395484
 30
0.0
 10
51.6261266616
 20
24.9673509036
 30
0.0
 10
51.3147649089
 20
24.7875871849
 30
0.0
  0
SPLINE
  5
349
100
AcDbEntity
  8
0
100
AcDbSpline
 62
7
  6
BYLAYER
 70
0
 71
3
 72
9
 73
5
 74
0
 42
0.0000001
 43
0.0000001
 44
0.0000000001
 40
0.0
 40
0.0
 40
0.0
 40
0.0
 40
0.2436475627
 40
1.0
 40
1.0
 40
1.0
 40
1.0
 10
51.3147649089
 20
24.7875871849
 30
0.0
 10
51.2492105233
 20
24.7497395686
 30
0.0
 10
50.9826601879
 20
24.5900854472
 30
0.0
 10
50.7261293181
 20
24.4138626338
 30
0.0
 10
50.5379931343
 20
24.2730762283
 30
0.0
  0
SPLINE
  5
34A
100
AcDbEntity
  8
0
100
AcDbSpline
 62
7
  6
BYLAYER
 70
0
 71
3
 72
11
 73
7
 74
0
 42
0.0000001
 43
0.0000001
 44
0.0000000001
 40
0.0
 40
0.0
 40
0.0
 40
0.0
 40
0.2421782329
 40
0.501315749
 40
0.759757229
 40
1.0
 40
1.0
 40
1.0
 40
1.0
 10
50.5379931343
 20
24.2730762283
 30
0.0
 10
50.4978962926
 20
24.2430708881
 30
0.0
 10
50.4226877218
 20
24.170300154
 30
0.0
 10
50.3325165424
 20
24.040620692
 30
0.0
 10
50.2674793019
 20
23.8971223625
 30
0.0
 10
50.2438136703
 20
23.7957114907
 30
0.0
 10
50.238861323
 20
23.746278475
 30
0.0
  0
SPLINE
  5
34B
100
AcDbEntity
  8
0
100
AcDbSpline
 62
7
  6
BYLAYER
 70
0
 71
3
 72
9
 73
5
 74
0
 42
0.0000001
 43
0.0000001
 44
0.0000000001
 40
0.0
 40
0.0
 40
0.0
 40
0.0
 40
0.2553529242
 40
1.0
 40
1.0
 40
1.0
 40
1.0
 10
50.238861323
 20
23.746278475
 30
0.0
 10
50.2384255887
 20
23.7419290913
 30
0.0
 10
50.2369189287
 20
23.7248771956
 30
0.0
 10
50.2362260006
 20
23.7077506129
 30
0.0
 10
50.2362260006
 20
23.6950036732
 30
0.0
  0
SPLINE
  5
34C
100
AcDbEntity
  8
0
100
AcDbSpline
 62
7
  6
BYLAYER
 70
0
 71
3
 72
9
 73
5
 74
0
 42
0.0000001
 43
0.0000001
 44
0.0000000001
 40
0.0
 40
0.0
 40
0.0
 40
0.0
 40
0.2446437089
 40
1.0
 40
1.0
 40
1.0
 40
1.0
 10
50.2362260006
 20
20.980536746
 30
0.0
 10
50.2362260006
 20
20.9763488837
 30
0.0
 10
50.2359978503
 20
20.9592311049
 30
0.0
 10
50.2348796268
 20
20.9421278874
 30
0.0
 10
50.2335906782
 20
20.9292619442
 30
0.0
  0
SPLINE
  5
34D
100
AcDbEntity
  8
0
100
AcDbSpline
 62
7
  6
BYLAYER
 70
0
 71
3
 72
11
 73
7
 74
0
 42
0.0000001
 43
0.0000001
 44
0.0000000001
 40
0.0
 40
0.0
 40
0.0
 40
0.0
 40
0.2444057894
 40
0.5071647571
 40
0.7660771074
 40
1.0
 40
1.0
 40
1.0
 40
1.0
 10
50.2335906782
 20
20.9292619442
 30
0.0
 10
50.2280516734
 20
20.87397307
 30
0.0
 10
50.1998998847
 20
20.7607509012
 30
0.0
 10
50.1224966103
 20
20.6034775963
 30
0.0
 10
50.0166536282
 20
20.466755523
 30
0.0
 10
49.9287314192
 20
20.3947545178
 30
0.0
 10
49.882674082
 20
20.3681634605
 30
0.0
  0
SPLINE
  5
34E
100
AcDbEntity
  8
0
100
AcDbSpline
 62
7
  6
BYLAYER
 70
0
 71
3
 72
9
 73
5
 74
0
 42
0.0000001
 43
0.0000001
 44
0.0000000001
 40
0.0
 40
0.0
 40
0.0
 40
0.0
 40
0.2743582661
 40
1.0
 40
1.0
 40
1.0
 40
1.0
 10
38.3755565822
 20
13.7245657313
 30
0.0
 10
38.3630632727
 20
13.7173527588
 30
0.0
 10
38.3164588493
 20
13.6931913089
 30
0.0
 10
38.264265166
 20
13.6780328882
 30
0.0
 10
38.2261390852
 20
13.6765499732
 30
0.0
  0
SPLINE
  5
34F
100
AcDbEntity
  8
0
100
AcDbSpline
 62
7
  6
BYLAYER
 70
0
 71
3
 72
9
 73
5
 74
0
 42
0.0000001
 43
0.0000001
 44
0.0000000001
 40
0.0
 40
0.0
 40
0.0
 40
0.0
 40
0.2456632248
 40
1.0
 40
1.0
 40
1.0
 40
1.0
 10
33.7602952385
 20
15.2461131274
 30
0.0
 10
33.7585236514
 20
15.2407033415
 30
0.0
 10
33.7505918968
 20
15.218923106
 30
0.0
 10
33.739952428
 20
15.1981415782
 30
0.0
 10
33.7306505809
 20
15.1833427602
 30
0.0
  0
SPLINE
  5
350
100
AcDbEntity
  8
0
100
AcDbSpline
 62
7
  6
BYLAYER
 70
0
 71
3
 72
9
 73
5
 74
0
 42
0.0000001
 43
0.0000001
 44
0.0000000001
 40
0.0
 40
0.0
 40
0.0
 40
0.0
 40
0.2587699372
 40
1.0
 40
1.0
 40
1.0
 40
1.0
 10
32.9945452777
 20
14.0122326582
 30
0.0
 10
32.9727045833
 20
13.9774469113
 30
0.0
 10
32.8835592153
 20
13.8461270538
 30
0.0
 10
32.7755731467
 20
13.7270476699
 30
0.0
 10
32.6856502376
 20
13.6511778743
 30
0.0
  0
SPLINE
  5
351
100
AcDbEntity
  8
0
100
AcDbSpline
 62
7
  6
BYLAYER
 70
0
 71
3
 72
10
 73
6
 74
0
 42
0.0000001
 43
0.0000001
 44
0.0000000001
 40
0.0
 40
0.0
 40
0.0
 40
0.0
 40
0.2829639715
 40
0.5449762022
 40
1.0
 40
1.0
 40
1.0
 40
1.0
 10
32.6856502376
 20
13.6511778743
 30
0.0
 10
32.6489467657
 20
13.6202104052
 30
0.0
 10
32.5745814032
 20
13.5645617056
 30
0.0
 10
32.4265189792
 20
13.4816737726
 30
0.0
 10
32.3059439405
 20
13.4462838147
 30
0.0
 10
32.2287796248
 20
13.4432825064
 30
0.0
  0
SPLINE
  5
352
100
AcDbEntity
  8
0
100
AcDbSpline
 62
7
  6
BYLAYER
 70
0
 71
3
 72
9
 73
5
 74
0
 42
0.0000001
 43
0.0000001
 44
0.0000000001
 40
0.0
 40
0.0
 40
0.0
 40
0.0
 40
0.2594911873
 40
1.0
 40
1.0
 40
1.0
 40
1.0
 10
56.5875651584
 20
35.6716384703
 30
0.0
 10
56.2563201655
 20
35.5068852568
 30
0.0
 10
54.9671404242
 20
34.898157036
 30
0.0
 10
53.6253423266
 20
34.3977432549
 30
0.0
 10
52.610413407
 20
34.1070454213
 30
0.0
  0
SPLINE
  5
353
100
AcDbEntity
  8
0
100
AcDbSpline
 62
7
  6
BYLAYER
 70
0
 71
3
 72
9
 73
5
 74
0
 42
0.0000001
 43
0.0000001
 44
0.0000000001
 40
0.0
 40
0.0
 40
0.0
 40
0.0
 40
0.2374828383
 40
1.0
 40
1.0
 40
1.0
 40
1.0
 10
52.610413407
 20
34.1070454213
 30
0.0
 10
52.5027680162
 20
34.0762134278
 30
0.0
 10
52.0541453245
 20
33.9302279721
 30
0.0
 10
51.6261266616
 20
33.7243393273
 30
0.0
 10
51.3147649089
 20
33.5445756086
 30
0.0
  0
SPLINE
  5
354
100
AcDbEntity
  8
0
100
AcDbSpline
 62
7
  6
BYLAYER
 70
0
 71
3
 72
11
 73
7
 74
0
 42
0.0000001
 43
0.0000001
 44
0.0000000001
 40
0.0
 40
0.0
 40
0.0
 40
0.0
 40
0.2895655597
 40
0.5491634114
 40
0.7823084562
 40
1.0
 40
1.0
 40
1.0
 40
1.0
 10
51.1024282012
 20
25.9661833476
 30
0.0
 10
51.1024282012
 20
25.9408616653
 30
0.0
 10
51.106292702
 20
25.8926791544
 30
0.0
 10
51.1257775001
 20
25.8264683647
 30
0.0
 10
51.1586407917
 20
25.7727407791
 30
0.0
 10
51.189504189
 20
25.7468187586
 30
0.0
 10
51.2059889511
 20
25.7372981953
 30
0.0
  0
SPLINE
  5
355
100
AcDbEntity
  8
0
100
AcDbSpline
 62
7
  6
BYLAYER
 70
0
 71
3
 72
9
 73
5
 74
0
 42
0.0000001
 43
0.0000001
 44
0.0000000001
 40
0.0
 40
0.0
 40
0.0
 40
0.0
 40
0.2439822152
 40
1.0
 40
1.0
 40
1.0
 40
1.0
 10
58.2169964533
 20
32.9553177002
 30
0.0
 10
58.2148348668
 20
32.954376187
 30
0.0
 10
58.2060340789
 20
32.9503829246
 30
0.0
 10
58.1974711962
 20
32.9458706806
 30
0.0
 10
58.1911441692
 20
32.9422177916
 30
0.0
  0
SPLINE
  5
356
100
AcDbEntity
  8
0
100
AcDbSpline
 62
7
  6
BYLAYER
 70
0
 71
3
 72
13
 73
9
 74
0
 42
0.0000001
 43
0.0000001
 44
0.0000000001
 40
0.0
 40
0.0
 40
0.0
 40
0.0
 40
0.3069690041
 40
0.5823274405
 40
0.7026737535
 40
0.8107651052
 40
0.9083999464
 40
1.0
 40
1.0
 40
1.0
 40
1.0
 10
50.8908914957
 20
34.9895422983
 30
0.0
 10
50.8617358834
 20
34.9352479075
 30
0.0
 10
50.8171168576
 20
34.8261388154
 30
0.0
 10
50.7953253335
 20
34.6846182992
 30
0.0
 10
50.8057738248
 20
34.5834701016
 30
0.0
 10
50.8257324669
 20
34.5205129835
 30
0.0
 10
50.8580883177
 20
34.4694308984
 30
0.0
 10
50.8879318851
 20
34.4446537252
 30
0.0
 10
50.9038579645
 20
34.4354590981
 30
0.0
  0
SPLINE
  5
357
100
AcDbEntity
  8
0
100
AcDbSpline
 62
7
  6
BYLAYER
 70
0
 71
3
 72
9
 73
5
 74
0
 42
0.0000001
 43
0.0000001
 44
0.0000000001
 40
0.0
 40
0.0
 40
0.0
 40
0.0
 40
0.4871698059
 40
1.0
 40
1.0
 40
1.0
 40
1.0
 10
58.0780075555
 20
38.5549811668
 30
0.0
 10
57.8994622849
 20
38.5841734226
 30
0.0
 10
57.5274492512
 20
38.613212014
 30
0.0
 10
57.1557085488
 20
38.5861472815
 30
0.0
 10
56.9670673937
 20
38.5599954213
 30
0.0
  0
SPLINE
  5
358
100
AcDbEntity
  8
0
100
AcDbSpline
 62
7
  6
BYLAYER
 70
0
 71
3
 72
9
 73
5
 74
0
 42
0.0000001
 43
0.0000001
 44
0.0000000001
 40
0.0
 40
0.0
 40
0.0
 40
0.0
 40
0.2315207563
 40
1.0
 40
1.0
 40
1.0
 40
1.0
 10
56.9670673937
 20
38.5599954213
 30
0.0
 10
56.9465543265
 20
38.5571516364
 30
0.0
 10
56.8586919995
 20
38.5395076648
 30
0.0
 10
56.7754604354
 20
38.5026041756
 30
0.0
 10
56.7159301643
 20
38.4682345627
 30
0.0
  0
SPLINE
  5
359
100
AcDbEntity
  8
0
100
AcDbSpline
 62
7
  6
BYLAYER
 70
0
 71
3
 72
10
 73
6
 74
0
 42
0.0000001
 43
0.0000001
 44
0.0000000001
 40
0.0
 40
0.0
 40
0.0
 40
0.0
 40
0.2284562192
 40
0.4750701915
 40
1.0
 40
1.0
 40
1.0
 40
1.0
 10
56.7159301643
 20
38.4682345627
 30
0.0
 10
56.667535376
 20
38.4402939855
 30
0.0
 10
56.5719210383
 20
38.3732352155
 30
0.0
 10
56.3929303224
 20
38.2058239899
 30
0.0
 10
56.2801320589
 20
38.051612287
 30
0.0
 10
56.2159322462
 20
37.9404143324
 30
0.0
  0
SPLINE
  5
35A
100
AcDbEntity
  8
0
100
AcDbSpline
 62
7
  6
BYLAYER
 70
0
 71
3
 72
10
 73
6
 74
0
 42
0.0000001
 43
0.0000001
 44
0.0000000001
 40
0.0
 40
0.0
 40
0.0
 40
0.0
 40
0.5249298085
 40
0.7715437808
 40
1.0
 40
1.0
 40
1.0
 40
1.0
 10
55.7963460588
 20
37.2136657032
 30
0.0
 10
55.732146246
 20
37.1024677485
 30
0.0
 10
55.6193479825
 20
36.9482560454
 30
0.0
 10
55.4403572665
 20
36.7808448197
 30
0.0
 10
55.3447429287
 20
36.7137860497
 30
0.0
 10
55.2963481404
 20
36.6858454724
 30
0.0
  0
SPLINE
  5
35B
100
AcDbEntity
  8
0
100
AcDbSpline
 62
7
  6
BYLAYER
 70
0
 71
3
 72
9
 73
5
 74
0
 42
0.0000001
 43
0.0000001
 44
0.0000000001
 40
0.0
 40
0.0
 40
0.0
 40
0.0
 40
0.2569784598
 40
1.0
 40
1.0
 40
1.0
 40
1.0
 10
55.2963481404
 20
36.6858454724
 30
0.0
 10
55.2882193089
 20
36.6811523173
 30
0.0
 10
55.2563174283
 20
36.6633637214
 30
0.0
 10
55.2233154824
 20
36.6475215167
 30
0.0
 10
55.1982541159
 20
36.6371061773
 30
0.0
  0
SPLINE
  5
35C
100
AcDbEntity
  8
0
100
AcDbSpline
 62
7
  6
BYLAYER
 70
0
 71
3
 72
9
 73
5
 74
0
 42
0.0000001
 43
0.0000001
 44
0.0000000001
 40
0.0
 40
0.0
 40
0.0
 40
0.0
 40
0.2602532606
 40
1.0
 40
1.0
 40
1.0
 40
1.0
 10
55.1982541159
 20
36.6371061773
 30
0.0
 10
54.8751060492
 20
36.5028079623
 30
0.0
 10
53.6219351369
 20
36.0155100514
 30
0.0
 10
52.3204296061
 20
35.6477368376
 30
0.0
 10
51.342856014
 20
35.4640345475
 30
0.0
  0
SPLINE
  5
35D
100
AcDbEntity
  8
0
100
AcDbSpline
 62
7
  6
BYLAYER
 70
0
 71
3
 72
9
 73
5
 74
0
 42
0.0000001
 43
0.0000001
 44
0.0000000001
 40
0.0
 40
0.0
 40
0.0
 40
0.0
 40
0.2393487994
 40
1.0
 40
1.0
 40
1.0
 40
1.0
 10
51.342856014
 20
35.4640345475
 30
0.0
 10
51.33710353
 20
35.4629535604
 30
0.0
 10
51.3132155643
 20
35.4576684098
 30
0.0
 10
51.2900130655
 20
35.4494722455
 30
0.0
 10
51.2729591723
 20
35.4420441525
 30
0.0
  0
SPLINE
  5
35E
100
AcDbEntity
  8
0
100
AcDbSpline
 62
7
  6
BYLAYER
 70
0
 71
3
 72
10
 73
6
 74
0
 42
0.0000001
 43
0.0000001
 44
0.0000000001
 40
0.0
 40
0.0
 40
0.0
 40
0.0
 40
0.221250838
 40
0.467308131
 40
1.0
 40
1.0
 40
1.0
 40
1.0
 10
51.2729591723
 20
35.4420441525
 30
0.0
 10
51.2424674626
 20
35.4287630059
 30
0.0
 10
51.1815461562
 20
35.3924889137
 30
0.0
 10
51.0683089602
 20
35.2929183343
 30
0.0
 10
50.9994734155
 20
35.1954507947
 30
0.0
 10
50.96238334
 20
35.1244841103
 30
0.0
  0
SPLINE
  5
35F
100
AcDbEntity
  8
0
100
AcDbSpline
 62
7
  6
BYLAYER
 70
0
 71
3
 72
11
 73
7
 74
0
 42
0.0000001
 43
0.0000001
 44
0.0000000001
 40
0.0
 40
0.0
 40
0.0
 40
0.0
 40
0.28970066
 40
0.5490882258
 40
0.7822179595
 40
1.0
 40
1.0
 40
1.0
 40
1.0
 10
10.1610855564
 20
16.8268899159
 30
0.0
 10
10.2565216625
 20
16.7717911008
 30
0.0
 10
10.4463757242
 20
16.6814735767
 30
0.0
 10
10.7381849698
 20
16.6110018738
 30
0.0
 10
11.0119905542
 20
16.6179362919
 30
0.0
 10
11.1768301945
 20
16.6777654974
 30
0.0
 10
11.2485769839
 20
16.7191810328
 30
0.0
  0
SPLINE
  5
360
100
AcDbEntity
  8
0
100
AcDbSpline
 62
7
  6
BYLAYER
 70
0
 71
3
 72
11
 73
7
 74
0
 42
0.0000001
 43
0.0000001
 44
0.0000000001
 40
0.0
 40
0.0
 40
0.0
 40
0.0
 40
0.2165278457
 40
0.4491318241
 40
0.7090831003
 40
1.0
 40
1.0
 40
1.0
 40
1.0
 10
37.4268170352
 20
13.699790281
 30
0.0
 10
37.3928875471
 20
13.719387627
 30
0.0
 10
37.3294755258
 20
13.7732400552
 30
0.0
 10
37.2630757175
 20
13.885174122
 30
0.0
 10
37.2249888673
 20
14.0230713624
 30
0.0
 10
37.2188742128
 20
14.1232330727
 30
0.0
 10
37.2198788501
 20
14.1758672616
 30
0.0
  0
SPLINE
  5
361
100
AcDbEntity
  8
0
100
AcDbSpline
 62
7
  6
BYLAYER
 70
0
 71
3
 72
11
 73
7
 74
0
 42
0.0000001
 43
0.0000001
 44
0.0000000001
 40
0.0
 40
0.0
 40
0.0
 40
0.0
 40
0.28970066
 40
0.5490882258
 40
0.7822179595
 40
1.0
 40
1.0
 40
1.0
 40
1.0
 10
10.1610855564
 20
31.7280590285
 30
0.0
 10
10.2565216625
 20
31.6729602134
 30
0.0
 10
10.4463757242
 20
31.5826426893
 30
0.0
 10
10.7381849698
 20
31.5121709864
 30
0.0
 10
11.0119905542
 20
31.5191054045
 30
0.0
 10
11.1768301945
 20
31.57893461
 30
0.0
 10
11.2485769839
 20
31.6203501454
 30
0.0
  0
SPLINE
  5
362
100
AcDbEntity
  8
0
100
AcDbSpline
 62
7
  6
BYLAYER
 70
0
 71
3
 72
11
 73
7
 74
0
 42
0.0000001
 43
0.0000001
 44
0.0000000001
 40
0.0
 40
0.0
 40
0.0
 40
0.0
 40
0.2165278457
 40
0.4491318241
 40
0.7090831003
 40
1.0
 40
1.0
 40
1.0
 40
1.0
 10
18.3173206731
 20
14.4654068652
 30
0.0
 10
18.283391185
 20
14.4850042111
 30
0.0
 10
18.2199791636
 20
14.5388566393
 30
0.0
 10
18.1535793553
 20
14.6507907061
 30
0.0
 10
18.1154925051
 20
14.7886879466
 30
0.0
 10
18.1093778507
 20
14.8888496569
 30
0.0
 10
18.110382488
 20
14.9414838457
 30
0.0
  0
SPLINE
  5
363
100
AcDbEntity
  8
0
100
AcDbSpline
 62
7
  6
BYLAYER
 70
0
 71
3
 72
11
 73
7
 74
0
 42
0.0000001
 43
0.0000001
 44
0.0000000001
 40
0.0
 40
0.0
 40
0.0
 40
0.0
 40
0.28970066
 40
0.5490882258
 40
0.7822179595
 40
1.0
 40
1.0
 40
1.0
 40
1.0
 10
29.2705819185
 20
15.7346723649
 30
0.0
 10
29.3660180247
 20
15.6795735498
 30
0.0
 10
29.5558720864
 20
15.5892560257
 30
0.0
 10
29.8476813319
 20
15.5187843228
 30
0.0
 10
30.1214869163
 20
15.5257187409
 30
0.0
 10
30.2863265566
 20
15.5855479463
 30
0.0
 10
30.358073346
 20
15.6269634818
 30
0.0
  0
SPLINE
  5
364
100
AcDbEntity
  8
0
100
AcDbSpline
 62
7
  6
BYLAYER
 70
0
 71
3
 72
19
 73
15
 74
0
 42
0.0000001
 43
0.0000001
 44
0.0000000001
 40
0.0
 40
0.0
 40
0.0
 40
0.0
 40
0.0428394255
 40
0.0874449451
 40
0.1352572414
 40
0.1871952896
 40
0.2436739818
 40
0.3046663063
 40
0.4382699252
 40
0.5825447095
 40
0.7296404699
 40
0.8711673685
 40
0.9376093032
 40
1.0
 40
1.0
 40
1.0
 40
1.0
 10
9.0735941289
 20
20.4863843135
 30
0.0
 10
9.0199705246
 20
20.4554303111
 30
0.0
 10
8.9183551434
 20
20.3775987462
 30
0.0
 10
8.7960002738
 20
20.2229560309
 30
0.0
 10
8.7046227504
 20
20.0337799
 30
0.0
 10
8.6454255761
 20
19.8147623002
 30
0.0
 10
8.6190500814
 20
19.570476289
 30
0.0
 10
8.6283978974
 20
19.2068562318
 30
0.0
 10
8.7270495681
 20
18.7231424546
 30
0.0
 10
8.9582902901
 20
18.1510124727
 30
0.0
 10
9.2874089239
 20
17.6156146959
 30
0.0
 10
9.6282880081
 20
17.2276968032
 30
0.0
 10
9.9277662633
 20
16.9757814253
 30
0.0
 10
10.082992033
 20
16.8719762126
 30
0.0
 10
10.1610855564
 20
16.8268899159
 30
0.0
  0
SPLINE
  5
365
100
AcDbEntity
  8
0
100
AcDbSpline
 62
7
  6
BYLAYER
 70
0
 71
3
 72
11
 73
7
 74
0
 42
0.0000001
 43
0.0000001
 44
0.0000000001
 40
0.0
 40
0.0
 40
0.0
 40
0.0
 40
0.2112044429
 40
0.4417609176
 40
0.7040236085
 40
1.0
 40
1.0
 40
1.0
 40
1.0
 10
55.475916279
 20
23.6930746688
 30
0.0
 10
55.460637126
 20
23.7019096192
 30
0.0
 10
55.4322424473
 20
23.7271659146
 30
0.0
 10
55.4048058928
 20
23.7803264852
 30
0.0
 10
55.3918649735
 20
23.8456093893
 30
0.0
 10
55.3927014831
 20
23.8925768542
 30
0.0
 10
55.3951670379
 20
23.9171873671
 30
0.0
  0
SPLINE
  5
366
100
AcDbEntity
  8
0
100
AcDbSpline
 62
7
  6
BYLAYER
 70
0
 71
3
 72
11
 73
7
 74
0
 42
0.0000001
 43
0.0000001
 44
0.0000000001
 40
0.0
 40
0.0
 40
0.0
 40
0.0
 40
0.28970066
 40
0.5490882258
 40
0.7822179595
 40
1.0
 40
1.0
 40
1.0
 40
1.0
 10
29.2705819185
 20
58.641874385
 30
0.0
 10
29.3660180247
 20
58.58677557
 30
0.0
 10
29.5558720863
 20
58.4964580459
 30
0.0
 10
29.8476813319
 20
58.425986343
 30
0.0
 10
30.1214869163
 20
58.4329207611
 30
0.0
 10
30.2863265566
 20
58.4927499665
 30
0.0
 10
30.358073346
 20
58.534165502
 30
0.0
  0
SPLINE
  5
367
100
AcDbEntity
  8
0
100
AcDbSpline
 62
7
  6
BYLAYER
 70
0
 71
3
 72
11
 73
7
 74
0
 42
0.0000001
 43
0.0000001
 44
0.0000000001
 40
0.0
 40
0.0
 40
0.0
 40
0.0
 40
0.2177500553
 40
0.4508676863
 40
0.7103394472
 40
1.0
 40
1.0
 40
1.0
 40
1.0
 10
12.2066848325
 20
14.2277339723
 30
0.0
 10
12.1737069867
 20
14.2467822004
 30
0.0
 10
12.1119802166
 20
14.2986406774
 30
0.0
 10
12.0462861831
 20
14.4060920221
 30
0.0
 10
12.0072662168
 20
14.5384896712
 30
0.0
 10
11.9995708418
 20
14.634856576
 30
0.0
 10
11.9995708418
 20
14.6855172519
 30
0.0
  0
SPLINE
  5
368
100
AcDbEntity
  8
0
100
AcDbSpline
 62
7
  6
BYLAYER
 70
0
 71
3
 72
11
 73
7
 74
0
 42
0.0000001
 43
0.0000001
 44
0.0000000001
 40
0.0
 40
0.0
 40
0.0
 40
0.0
 40
0.2286125437
 40
0.4797640107
 40
0.7414848026
 40
1.0
 40
1.0
 40
1.0
 40
1.0
 10
31.1090672039
 20
62.21218064
 30
0.0
 10
31.1090672039
 20
62.2943213427
 30
0.0
 10
31.1311680432
 20
62.46689489
 30
0.0
 10
31.2142661906
 20
62.7212924834
 30
0.0
 10
31.3429111398
 20
62.9681042121
 30
0.0
 10
31.4553440492
 20
63.118725273
 30
0.0
 10
31.5173360467
 20
63.1878958581
 30
0.0
  0
SPLINE
  5
369
100
AcDbEntity
  8
0
100
AcDbSpline
 62
7
  6
BYLAYER
 70
0
 71
3
 72
9
 73
5
 74
0
 42
0.0000001
 43
0.0000001
 44
0.0000000001
 40
0.0
 40
0.0
 40
0.0
 40
0.0
 40
0.5363836315
 40
1.0
 40
1.0
 40
1.0
 40
1.0
 10
32.229947383
 20
63.9830266019
 30
0.0
 10
32.2970003579
 20
64.0577869798
 30
0.0
 10
32.435894775
 20
64.1854994097
 30
0.0
 10
32.6037923969
 20
64.275887702
 30
0.0
 10
32.6866783728
 20
64.3016630204
 30
0.0
  0
SPLINE
  5
36A
100
AcDbEntity
  8
0
100
AcDbSpline
 62
7
  6
BYLAYER
 70
0
 71
3
 72
10
 73
6
 74
0
 42
0.0000001
 43
0.0000001
 44
0.0000000001
 40
0.0
 40
0.0
 40
0.0
 40
0.0
 40
0.5283395256
 40
0.7691147435
 40
1.0
 40
1.0
 40
1.0
 40
1.0
 10
32.6866783728
 20
64.3016630204
 30
0.0
 10
32.7395995624
 20
64.3181200929
 30
0.0
 10
32.8208978879
 20
64.3324914146
 30
0.0
 10
32.9257567001
 20
64.3214491377
 30
0.0
 10
32.9733166996
 20
64.3063245653
 30
0.0
 10
32.9954913164
 20
64.2965854808
 30
0.0
  0
SPLINE
  5
36B
100
AcDbEntity
  8
0
100
AcDbSpline
 62
7
  6
BYLAYER
 70
0
 71
3
 72
9
 73
5
 74
0
 42
0.0000001
 43
0.0000001
 44
0.0000000001
 40
0.0
 40
0.0
 40
0.0
 40
0.0
 40
0.2358774754
 40
1.0
 40
1.0
 40
1.0
 40
1.0
 10
37.2529479793
 20
67.8444214444
 30
0.0
 10
37.2517582452
 20
67.8466806834
 30
0.0
 10
37.2471877707
 20
67.8565076374
 30
0.0
 10
37.2444719025
 20
67.8671380534
 30
0.0
 10
37.2432265651
 20
67.8753153392
 30
0.0
  0
SPLINE
  5
36C
100
AcDbEntity
  8
0
100
AcDbSpline
 62
7
  6
BYLAYER
 70
0
 71
3
 72
9
 73
5
 74
0
 42
0.0000001
 43
0.0000001
 44
0.0000000001
 40
0.0
 40
0.0
 40
0.0
 40
0.0
 40
0.243129207
 40
1.0
 40
1.0
 40
1.0
 40
1.0
 10
37.2432265651
 20
67.8753153392
 30
0.0
 10
37.243003762
 20
67.8767783359
 30
0.0
 10
37.2421953727
 20
67.8828119142
 30
0.0
 10
37.241805195
 20
67.8888993712
 30
0.0
 10
37.2417152982
 20
67.8935053723
 30
0.0
  0
SPLINE
  5
36D
100
AcDbEntity
  8
0
100
AcDbSpline
 62
7
  6
BYLAYER
 70
0
 71
3
 72
11
 73
7
 74
0
 42
0.0000001
 43
0.0000001
 44
0.0000000001
 40
0.0
 40
0.0
 40
0.0
 40
0.0
 40
0.2273470324
 40
0.4783396532
 40
0.7406681119
 40
1.0
 40
1.0
 40
1.0
 40
1.0
 10
37.2198788501
 20
69.0123294247
 30
0.0
 10
37.2182582658
 20
69.0953625571
 30
0.0
 10
37.2382453527
 20
69.2707113598
 30
0.0
 10
37.3205159925
 20
69.5298096644
 30
0.0
 10
37.4503668327
 20
69.7818054996
 30
0.0
 10
37.5647467113
 20
69.9355883162
 30
0.0
 10
37.6279721642
 20
70.0061351891
 30
0.0
  0
SPLINE
  5
36E
100
AcDbEntity
  8
0
100
AcDbSpline
 62
7
  6
BYLAYER
 70
0
 71
3
 72
9
 73
5
 74
0
 42
0.0000001
 43
0.0000001
 44
0.0000000001
 40
0.0
 40
0.0
 40
0.0
 40
0.0
 40
0.2648699734
 40
1.0
 40
1.0
 40
1.0
 40
1.0
 10
38.2261390851
 20
70.6735690124
 30
0.0
 10
38.2376253193
 20
70.6863853366
 30
0.0
 10
38.2825841014
 20
70.733264085
 30
0.0
 10
38.334190043
 20
70.7742018488
 30
0.0
 10
38.3755565822
 20
70.7980846887
 30
0.0
  0
SPLINE
  5
36F
100
AcDbEntity
  8
0
100
AcDbSpline
 62
7
  6
BYLAYER
 70
0
 71
3
 72
9
 73
5
 74
0
 42
0.0000001
 43
0.0000001
 44
0.0000000001
 40
0.0
 40
0.0
 40
0.0
 40
0.0
 40
0.2560789398
 40
1.0
 40
1.0
 40
1.0
 40
1.0
 10
49.9423245207
 20
77.4761214092
 30
0.0
 10
49.949468104
 20
77.4802457343
 30
0.0
 10
49.9775734644
 20
77.4959841274
 30
0.0
 10
50.0065295183
 20
77.5102187023
 30
0.0
 10
50.0284988011
 20
77.519787771
 30
0.0
  0
SPLINE
  5
370
100
AcDbEntity
  8
0
100
AcDbSpline
 62
7
  6
BYLAYER
 70
0
 71
3
 72
11
 73
7
 74
0
 42
0.0000001
 43
0.0000001
 44
0.0000000001
 40
0.0
 40
0.0
 40
0.0
 40
0.0
 40
0.2819597088
 40
0.5390822309
 40
0.7753074169
 40
1.0
 40
1.0
 40
1.0
 40
1.0
 10
50.0284988011
 20
77.519787771
 30
0.0
 10
50.0654247347
 20
77.5358714455
 30
0.0
 10
50.1386429914
 20
77.5611696165
 30
0.0
 10
50.2491616865
 20
77.5766258755
 30
0.0
 10
50.3523155825
 20
77.5663345715
 30
0.0
 10
50.4145229009
 20
77.5417027796
 30
0.0
 10
50.4423021539
 20
77.5256252727
 30
0.0
  0
SPLINE
  5
371
100
AcDbEntity
  8
0
100
AcDbSpline
 62
7
  6
BYLAYER
 70
0
 71
3
 72
11
 73
7
 74
0
 42
0.0000001
 43
0.0000001
 44
0.0000000001
 40
0.0
 40
0.0
 40
0.0
 40
0.0
 40
0.2286125437
 40
0.4797640107
 40
0.7414848026
 40
1.0
 40
1.0
 40
1.0
 40
1.0
 10
11.9995708418
 20
35.2983652835
 30
0.0
 10
11.9995708418
 20
35.3805059861
 30
0.0
 10
12.0216716811
 20
35.5530795335
 30
0.0
 10
12.1047698285
 20
35.8074771268
 30
0.0
 10
12.2334147777
 20
36.0542888555
 30
0.0
 10
12.345847687
 20
36.2049099164
 30
0.0
 10
12.4078396845
 20
36.2740805015
 30
0.0
  0
SPLINE
  5
372
100
AcDbEntity
  8
0
100
AcDbSpline
 62
7
  6
BYLAYER
 70
0
 71
3
 72
9
 73
5
 74
0
 42
0.0000001
 43
0.0000001
 44
0.0000000001
 40
0.0
 40
0.0
 40
0.0
 40
0.0
 40
0.4721050527
 40
1.0
 40
1.0
 40
1.0
 40
1.0
 10
55.5695273331
 20
65.156343138
 30
0.0
 10
55.5474054817
 20
65.1691155601
 30
0.0
 10
55.506783565
 20
65.2078764591
 30
0.0
 10
55.4854138978
 20
65.2589367666
 30
0.0
 10
55.4780213632
 20
65.286526467
 30
0.0
  0
SPLINE
  5
373
100
AcDbEntity
  8
0
100
AcDbSpline
 62
7
  6
BYLAYER
 70
0
 71
3
 72
9
 73
5
 74
0
 42
0.0000001
 43
0.0000001
 44
0.0000000001
 40
0.0
 40
0.0
 40
0.0
 40
0.0
 40
0.5363836315
 40
1.0
 40
1.0
 40
1.0
 40
1.0
 10
13.120451021
 20
37.0692112455
 30
0.0
 10
13.1875039959
 20
37.1439716233
 30
0.0
 10
13.3263984129
 20
37.2716840532
 30
0.0
 10
13.4942960348
 20
37.3620723455
 30
0.0
 10
13.5771820107
 20
37.3878476639
 30
0.0
  0
SPLINE
  5
374
100
AcDbEntity
  8
0
100
AcDbSpline
 62
7
  6
BYLAYER
 70
0
 71
3
 72
10
 73
6
 74
0
 42
0.0000001
 43
0.0000001
 44
0.0000000001
 40
0.0
 40
0.0
 40
0.0
 40
0.0
 40
0.5283395256
 40
0.7691147435
 40
1.0
 40
1.0
 40
1.0
 40
1.0
 10
13.5771820107
 20
37.3878476639
 30
0.0
 10
13.6301032003
 20
37.4043047364
 30
0.0
 10
13.7114015258
 20
37.418676058
 30
0.0
 10
13.816260338
 20
37.4076337811
 30
0.0
 10
13.8638203376
 20
37.3925092087
 30
0.0
 10
13.8859949543
 20
37.3827701242
 30
0.0
  0
SPLINE
  5
375
100
AcDbEntity
  8
0
100
AcDbSpline
 62
7
  6
BYLAYER
 70
0
 71
3
 72
11
 73
7
 74
0
 42
0.0000001
 43
0.0000001
 44
0.0000000001
 40
0.0
 40
0.0
 40
0.0
 40
0.0
 40
0.2249512849
 40
0.465707562
 40
0.7239368207
 40
1.0
 40
1.0
 40
1.0
 40
1.0
 10
51.9446070021
 20
36.6556034186
 30
0.0
 10
52.1615036919
 20
36.6482128417
 30
0.0
 10
52.6125841483
 20
36.6746995734
 30
0.0
 10
53.2969808547
 20
36.8252877939
 30
0.0
 10
54.0003072895
 20
37.0849906343
 30
0.0
 10
54.4603287283
 20
37.3202626871
 30
0.0
 10
54.6909801753
 20
37.4534285672
 30
0.0
  0
SPLINE
  5
376
100
AcDbEntity
  8
0
100
AcDbSpline
 62
7
  6
BYLAYER
 70
0
 71
3
 72
11
 73
7
 74
0
 42
0.0000001
 43
0.0000001
 44
0.0000000001
 40
0.0
 40
0.0
 40
0.0
 40
0.0
 40
0.2400279563
 40
0.5057854911
 40
0.7683599935
 40
1.0
 40
1.0
 40
1.0
 40
1.0
 10
55.2994275391
 20
37.8047137196
 30
0.0
 10
55.3206948449
 20
37.816992331
 30
0.0
 10
55.3606680651
 20
37.8512952957
 30
0.0
 10
55.4062457605
 20
37.9161248515
 30
0.0
 10
55.4357289204
 20
37.9887501421
 30
0.0
 10
55.4421820342
 20
38.0399597919
 30
0.0
 10
55.4403101579
 20
38.0635849103
 30
0.0
  0
SPLINE
  5
377
100
AcDbEntity
  8
0
100
AcDbSpline
 62
7
  6
BYLAYER
 70
0
 71
3
 72
11
 73
7
 74
0
 42
0.0000001
 43
0.0000001
 44
0.0000000001
 40
0.0
 40
0.0
 40
0.0
 40
0.0
 40
0.2316400065
 40
0.4942145089
 40
0.7599720437
 40
1.0
 40
1.0
 40
1.0
 40
1.0
 10
55.4081723125
 20
38.4691995507
 30
0.0
 10
55.4067684053
 20
38.4869183895
 30
0.0
 10
55.4116082406
 20
38.5253256268
 30
0.0
 10
55.4337206105
 20
38.5797945948
 30
0.0
 10
55.4679038821
 20
38.6284167616
 30
0.0
 10
55.4978837972
 20
38.6541439851
 30
0.0
 10
55.5138342765
 20
38.6633529437
 30
0.0
  0
SPLINE
  5
378
100
AcDbEntity
  8
0
100
AcDbSpline
 62
7
  6
BYLAYER
 70
0
 71
3
 72
11
 73
7
 74
0
 42
0.0000001
 43
0.0000001
 44
0.0000000001
 40
0.0
 40
0.0
 40
0.0
 40
0.0
 40
0.2806305681
 40
0.5398193925
 40
0.7785280933
 40
1.0
 40
1.0
 40
1.0
 40
1.0
 10
55.7915632535
 20
38.8236988861
 30
0.0
 10
56.019282335
 20
38.9551717743
 30
0.0
 10
56.4730888746
 20
39.1823795352
 30
0.0
 10
57.1680869186
 20
39.4134229311
 30
0.0
 10
57.8379496129
 20
39.5155262995
 30
0.0
 10
58.2725870803
 20
39.4942555284
 30
0.0
 10
58.4772177253
 20
39.4597702556
 30
0.0
  0
SPLINE
  5
379
100
AcDbEntity
  8
0
100
AcDbSpline
 62
7
  6
BYLAYER
 70
0
 71
3
 72
9
 73
5
 74
0
 42
0.0000001
 43
0.0000001
 44
0.0000000001
 40
0.0
 40
0.0
 40
0.0
 40
0.0
 40
0.4817205971
 40
1.0
 40
1.0
 40
1.0
 40
1.0
 10
55.3951670379
 20
23.9171873671
 30
0.0
 10
55.3992077412
 20
23.9575205947
 30
0.0
 10
55.4187104221
 20
24.0402287177
 30
0.0
 10
55.4540955261
 20
24.1171694079
 30
0.0
 10
55.4759011476
 20
24.1549380619
 30
0.0
  0
SPLINE
  5
37A
100
AcDbEntity
  8
0
100
AcDbSpline
 62
7
  6
BYLAYER
 70
0
 71
3
 72
9
 73
5
 74
0
 42
0.0000001
 43
0.0000001
 44
0.0000000001
 40
0.0
 40
0.0
 40
0.0
 40
0.0
 40
0.5182794029
 40
1.0
 40
1.0
 40
1.0
 40
1.0
 10
56.4443601357
 20
25.832367546
 30
0.0
 10
56.4852456761
 20
25.9031837723
 30
0.0
 10
56.551592746
 20
26.0474475663
 30
0.0
 10
56.5881602726
 20
26.2025252968
 30
0.0
 10
56.5957365914
 20
26.2781500987
 30
0.0
  0
SPLINE
  5
37B
100
AcDbEntity
  8
0
100
AcDbSpline
 62
7
  6
BYLAYER
 70
0
 71
3
 72
11
 73
7
 74
0
 42
0.0000001
 43
0.0000001
 44
0.0000000001
 40
0.0
 40
0.0
 40
0.0
 40
0.0
 40
0.2960411087
 40
0.5582273653
 40
0.788779593
 40
1.0
 40
1.0
 40
1.0
 40
1.0
 10
56.5957365914
 20
26.2781500987
 30
0.0
 10
56.600360554
 20
26.3243052656
 30
0.0
 10
56.6019460077
 20
26.4123680909
 30
0.0
 10
56.5776598065
 20
26.5347723142
 30
0.0
 10
56.5262053693
 20
26.6344225954
 30
0.0
 10
56.472992759
 20
26.6818119376
 30
0.0
 10
56.4443437497
 20
26.6983819568
 30
0.0
  0
SPLINE
  5
37C
100
AcDbEntity
  8
0
100
AcDbSpline
 62
7
  6
BYLAYER
 70
0
 71
3
 72
9
 73
5
 74
0
 42
0.0000001
 43
0.0000001
 44
0.0000000001
 40
0.0
 40
0.0
 40
0.0
 40
0.0
 40
0.2358774754
 40
1.0
 40
1.0
 40
1.0
 40
1.0
 10
18.1434516172
 20
40.9306060879
 30
0.0
 10
18.1422618831
 20
40.9328653269
 30
0.0
 10
18.1376914085
 20
40.9426922809
 30
0.0
 10
18.1349755404
 20
40.9533226969
 30
0.0
 10
18.133730203
 20
40.9614999827
 30
0.0
  0
SPLINE
  5
37D
100
AcDbEntity
  8
0
100
AcDbSpline
 62
7
  6
BYLAYER
 70
0
 71
3
 72
9
 73
5
 74
0
 42
0.0000001
 43
0.0000001
 44
0.0000000001
 40
0.0
 40
0.0
 40
0.0
 40
0.0
 40
0.243129207
 40
1.0
 40
1.0
 40
1.0
 40
1.0
 10
18.133730203
 20
40.9614999827
 30
0.0
 10
18.1335073999
 20
40.9629629794
 30
0.0
 10
18.1326990105
 20
40.9689965577
 30
0.0
 10
18.1323088328
 20
40.9750840147
 30
0.0
 10
18.132218936
 20
40.9796900157
 30
0.0
  0
SPLINE
  5
37E
100
AcDbEntity
  8
0
100
AcDbSpline
 62
7
  6
BYLAYER
 70
0
 71
3
 72
19
 73
15
 74
0
 42
0.0000001
 43
0.0000001
 44
0.0000000001
 40
0.0
 40
0.0
 40
0.0
 40
0.0
 40
0.0428394255
 40
0.0874449451
 40
0.1352572414
 40
0.1871952896
 40
0.2436739818
 40
0.3046663063
 40
0.4382699252
 40
0.5825447095
 40
0.7296404699
 40
0.8711673685
 40
0.9376093032
 40
1.0
 40
1.0
 40
1.0
 40
1.0
 10
9.0735941289
 20
35.3875534261
 30
0.0
 10
9.0199705246
 20
35.3565994237
 30
0.0
 10
8.9183551434
 20
35.2787678588
 30
0.0
 10
8.7960002738
 20
35.1241251435
 30
0.0
 10
8.7046227504
 20
34.9349490126
 30
0.0
 10
8.6454255761
 20
34.7159314128
 30
0.0
 10
8.6190500814
 20
34.4716454016
 30
0.0
 10
8.6283978974
 20
34.1080253445
 30
0.0
 10
8.7270495681
 20
33.6243115672
 30
0.0
 10
8.9582902901
 20
33.0521815853
 30
0.0
 10
9.2874089239
 20
32.5167838085
 30
0.0
 10
9.6282880081
 20
32.1288659158
 30
0.0
 10
9.9277662633
 20
31.8769505379
 30
0.0
 10
10.082992033
 20
31.7731453253
 30
0.0
 10
10.1610855564
 20
31.7280590285
 30
0.0
  0
SPLINE
  5
37F
100
AcDbEntity
  8
0
100
AcDbSpline
 62
7
  6
BYLAYER
 70
0
 71
3
 72
9
 73
5
 74
0
 42
0.0000001
 43
0.0000001
 44
0.0000000001
 40
0.0
 40
0.0
 40
0.0
 40
0.0
 40
0.2354714172
 40
1.0
 40
1.0
 40
1.0
 40
1.0
 10
37.2417152982
 20
15.3199057218
 30
0.0
 10
37.2418099588
 20
15.3248651112
 30
0.0
 10
37.2431591587
 20
15.3459064536
 30
0.0
 10
37.24793583
 20
15.3666546652
 30
0.0
 10
37.2529479793
 20
15.3819599552
 30
0.0
  0
SPLINE
  5
380
100
AcDbEntity
  8
0
100
AcDbSpline
 62
7
  6
BYLAYER
 70
0
 71
3
 72
11
 73
7
 74
0
 42
0.0000001
 43
0.0000001
 44
0.0000000001
 40
0.0
 40
0.0
 40
0.0
 40
0.0
 40
0.2783562097
 40
0.5534967634
 40
0.7991192115
 40
1.0
 40
1.0
 40
1.0
 40
1.0
 10
37.2529479793
 20
15.3819599552
 30
0.0
 10
37.2597763273
 20
15.4028112592
 30
0.0
 10
37.2785093633
 20
15.442705157
 30
0.0
 10
37.3173612156
 20
15.4929710967
 30
0.0
 10
37.3622965428
 20
15.5287575606
 30
0.0
 10
37.3968729739
 20
15.5407127473
 30
0.0
 10
37.4126950593
 20
15.5413281478
 30
0.0
  0
SPLINE
  5
381
100
AcDbEntity
  8
0
100
AcDbSpline
 62
7
  6
BYLAYER
 70
0
 71
3
 72
11
 73
7
 74
0
 42
0.0000001
 43
0.0000001
 44
0.0000000001
 40
0.0
 40
0.0
 40
0.0
 40
0.0
 40
0.2273470324
 40
0.4783396532
 40
0.7406681119
 40
1.0
 40
1.0
 40
1.0
 40
1.0
 10
18.110382488
 20
42.0985140681
 30
0.0
 10
18.1087619037
 20
42.1815472005
 30
0.0
 10
18.1287489905
 20
42.3568960032
 30
0.0
 10
18.2110196304
 20
42.6159943079
 30
0.0
 10
18.3408704707
 20
42.8679901432
 30
0.0
 10
18.4552503493
 20
43.0217729598
 30
0.0
 10
18.5184758022
 20
43.0923198327
 30
0.0
  0
SPLINE
  5
382
100
AcDbEntity
  8
0
100
AcDbSpline
 62
7
  6
BYLAYER
 70
0
 71
3
 72
11
 73
7
 74
0
 42
0.0000001
 43
0.0000001
 44
0.0000000001
 40
0.0
 40
0.0
 40
0.0
 40
0.0
 40
0.2177068691
 40
0.4508430786
 40
0.7104028475
 40
1.0
 40
1.0
 40
1.0
 40
1.0
 10
12.1031304984
 20
29.2947273435
 30
0.0
 10
12.0866452185
 20
29.3042498818
 30
0.0
 10
12.0557801146
 20
29.3301713521
 30
0.0
 10
12.0229236629
 20
29.3838998832
 30
0.0
 10
12.0034297691
 20
29.4501065318
 30
0.0
 10
11.9995708418
 20
29.4982898378
 30
0.0
 10
11.9995708418
 20
29.5236144105
 30
0.0
  0
SPLINE
  5
383
100
AcDbEntity
  8
0
100
AcDbSpline
 62
7
  6
BYLAYER
 70
0
 71
3
 72
9
 73
5
 74
0
 42
0.0000001
 43
0.0000001
 44
0.0000000001
 40
0.0
 40
0.0
 40
0.0
 40
0.0
 40
0.2648699734
 40
1.0
 40
1.0
 40
1.0
 40
1.0
 10
19.1166427228
 20
43.7597536556
 30
0.0
 10
19.128128957
 20
43.7725699799
 30
0.0
 10
19.1730877392
 20
43.8194487284
 30
0.0
 10
19.2246936808
 20
43.8603864922
 30
0.0
 10
19.2660602201
 20
43.8842693322
 30
0.0
  0
SPLINE
  5
384
100
AcDbEntity
  8
0
100
AcDbSpline
 62
7
  6
BYLAYER
 70
0
 71
3
 72
10
 73
6
 74
0
 42
0.0000001
 43
0.0000001
 44
0.0000000001
 40
0.0
 40
0.0
 40
0.0
 40
0.0
 40
0.4782687943
 40
0.7337604819
 40
1.0
 40
1.0
 40
1.0
 40
1.0
 10
51.347216989
 20
25.7190578602
 30
0.0
 10
52.4755383013
 20
25.9492560243
 30
0.0
 10
54.1749205985
 20
26.4729124826
 30
0.0
 10
56.3798176928
 20
27.4424640608
 30
0.0
 10
57.4914891084
 20
28.0305310327
 30
0.0
 10
58.0480015582
 20
28.348702084
 30
0.0
  0
SPLINE
  5
385
100
AcDbEntity
  8
0
100
AcDbSpline
 62
7
  6
BYLAYER
 70
0
 71
3
 72
11
 73
7
 74
0
 42
0.0000001
 43
0.0000001
 44
0.0000000001
 40
0.0
 40
0.0
 40
0.0
 40
0.0
 40
0.2336288514
 40
0.4925267279
 40
0.7554390111
 40
1.0
 40
1.0
 40
1.0
 40
1.0
 10
58.0480015582
 20
28.348702084
 30
0.0
 10
58.0942458686
 20
28.3751410269
 30
0.0
 10
58.182588259
 20
28.4470680731
 30
0.0
 10
58.2889515581
 20
28.5839815785
 30
0.0
 10
58.3667753411
 20
28.7416940993
 30
0.0
 10
58.3950814905
 20
28.8553062813
 30
0.0
 10
58.400639998
 20
28.9107898272
 30
0.0
  0
SPLINE
  5
386
100
AcDbEntity
  8
0
100
AcDbSpline
 62
7
  6
BYLAYER
 70
0
 71
3
 72
9
 73
5
 74
0
 42
0.0000001
 43
0.0000001
 44
0.0000000001
 40
0.0
 40
0.0
 40
0.0
 40
0.0
 40
0.2553529242
 40
1.0
 40
1.0
 40
1.0
 40
1.0
 10
58.400639998
 20
28.9107898272
 30
0.0
 10
58.4010757323
 20
28.9151392108
 30
0.0
 10
58.4025823922
 20
28.9321911066
 30
0.0
 10
58.4032753204
 20
28.9493176892
 30
0.0
 10
58.4032753204
 20
28.9620646289
 30
0.0
  0
SPLINE
  5
387
100
AcDbEntity
  8
0
100
AcDbSpline
 62
7
  6
BYLAYER
 70
0
 71
3
 72
10
 73
6
 74
0
 42
0.0000001
 43
0.0000001
 44
0.0000000001
 40
0.0
 40
0.0
 40
0.0
 40
0.0
 40
0.4771595493
 40
0.7329238734
 40
1.0
 40
1.0
 40
1.0
 40
1.0
 10
51.0401876347
 20
34.4162749523
 30
0.0
 10
52.2189393771
 20
34.6346845974
 30
0.0
 10
53.997746973
 20
35.1604781958
 30
0.0
 10
56.303708653
 20
36.1602793214
 30
0.0
 10
57.4671876742
 20
36.7735793902
 30
0.0
 10
58.0496881113
 20
37.1066512172
 30
0.0
  0
SPLINE
  5
388
100
AcDbEntity
  8
0
100
AcDbSpline
 62
7
  6
BYLAYER
 70
0
 71
3
 72
12
 73
8
 74
0
 42
0.0000001
 43
0.0000001
 44
0.0000000001
 40
0.0
 40
0.0
 40
0.0
 40
0.0
 40
0.1141119983
 40
0.2376993363
 40
0.5002959642
 40
0.7628965116
 40
1.0
 40
1.0
 40
1.0
 40
1.0
 10
58.0496881113
 20
37.1066512172
 30
0.0
 10
58.0738582629
 20
37.1205811315
 30
0.0
 10
58.1216356472
 20
37.1541596197
 30
0.0
 10
58.2112078207
 20
37.2378416608
 30
0.0
 10
58.3058117973
 20
37.3671850916
 30
0.0
 10
58.3815111977
 20
37.5388213682
 30
0.0
 10
58.4032753204
 20
37.6610884244
 30
0.0
 10
58.4032753204
 20
37.7190530527
 30
0.0
  0
SPLINE
  5
389
100
AcDbEntity
  8
0
100
AcDbSpline
 62
7
  6
BYLAYER
 70
0
 71
3
 72
11
 73
7
 74
0
 42
0.0000001
 43
0.0000001
 44
0.0000000001
 40
0.0
 40
0.0
 40
0.0
 40
0.0
 40
0.2894033425
 40
0.5489862731
 40
0.782080182
 40
1.0
 40
1.0
 40
1.0
 40
1.0
 10
58.4032753204
 20
38.0555519573
 30
0.0
 10
58.4032753204
 20
38.1061671727
 30
0.0
 10
58.3955095666
 20
38.2024958184
 30
0.0
 10
58.3566399363
 20
38.3348954736
 30
0.0
 10
58.2909527797
 20
38.4424251766
 30
0.0
 10
58.2291429691
 20
38.49423445
 30
0.0
 10
58.1961244806
 20
38.5132709362
 30
0.0
  0
SPLINE
  5
38A
100
AcDbEntity
  8
0
100
AcDbSpline
 62
7
  6
BYLAYER
 70
0
 71
3
 72
19
 73
15
 74
0
 42
0.0000001
 43
0.0000001
 44
0.0000000001
 40
0.0
 40
0.0
 40
0.0
 40
0.0
 40
0.0428394255
 40
0.0874449451
 40
0.1352572414
 40
0.1871952896
 40
0.2436739818
 40
0.3046663063
 40
0.4382699252
 40
0.5825447095
 40
0.7296404699
 40
0.8711673685
 40
0.9376093032
 40
1.0
 40
1.0
 40
1.0
 40
1.0
 10
28.1830904911
 20
62.3013687826
 30
0.0
 10
28.1294668867
 20
62.2704147803
 30
0.0
 10
28.0278515055
 20
62.1925832154
 30
0.0
 10
27.9054966359
 20
62.0379405
 30
0.0
 10
27.8141191125
 20
61.8487643691
 30
0.0
 10
27.7549219382
 20
61.6297467693
 30
0.0
 10
27.7285464435
 20
61.3854607582
 30
0.0
 10
27.7378942596
 20
61.021840701
 30
0.0
 10
27.8365459302
 20
60.5381269237
 30
0.0
 10
28.0677866523
 20
59.9659969418
 30
0.0
 10
28.396905286
 20
59.4305991651
 30
0.0
 10
28.7377843702
 20
59.0426812723
 30
0.0
 10
29.0372626254
 20
58.7907658945
 30
0.0
 10
29.1924883952
 20
58.6869606818
 30
0.0
 10
29.2705819185
 20
58.641874385
 30
0.0
  0
SPLINE
  5
38B
100
AcDbEntity
  8
0
100
AcDbSpline
 62
7
  6
BYLAYER
 70
0
 71
3
 72
9
 73
5
 74
0
 42
0.0000001
 43
0.0000001
 44
0.0000000001
 40
0.0
 40
0.0
 40
0.0
 40
0.0
 40
0.2354714172
 40
1.0
 40
1.0
 40
1.0
 40
1.0
 10
18.132218936
 20
16.0855223061
 30
0.0
 10
18.1323135967
 20
16.0904816955
 30
0.0
 10
18.1336627966
 20
16.1115230379
 30
0.0
 10
18.1384394679
 20
16.1322712493
 30
0.0
 10
18.1434516172
 20
16.1475765393
 30
0.0
  0
SPLINE
  5
38C
100
AcDbEntity
  8
0
100
AcDbSpline
 62
7
  6
BYLAYER
 70
0
 71
3
 72
11
 73
7
 74
0
 42
0.0000001
 43
0.0000001
 44
0.0000000001
 40
0.0
 40
0.0
 40
0.0
 40
0.0
 40
0.2783562097
 40
0.5534967634
 40
0.7991192115
 40
1.0
 40
1.0
 40
1.0
 40
1.0
 10
18.1434516172
 20
16.1475765393
 30
0.0
 10
18.1502799652
 20
16.1684278433
 30
0.0
 10
18.1690130012
 20
16.2083217412
 30
0.0
 10
18.2078648534
 20
16.2585876809
 30
0.0
 10
18.2528001807
 20
16.2943741447
 30
0.0
 10
18.2873766117
 20
16.3063293315
 30
0.0
 10
18.3031986972
 20
16.306944732
 30
0.0
  0
SPLINE
  5
38D
100
AcDbEntity
  8
0
100
AcDbSpline
 62
7
  6
BYLAYER
 70
0
 71
3
 72
19
 73
15
 74
0
 42
0.0000001
 43
0.0000001
 44
0.0000000001
 40
0.0
 40
0.0
 40
0.0
 40
0.0
 40
0.0428394255
 40
0.0874449451
 40
0.1352572414
 40
0.1871952896
 40
0.2436739818
 40
0.3046663063
 40
0.4382699252
 40
0.5825447095
 40
0.7296404699
 40
0.8711673685
 40
0.9376093032
 40
1.0
 40
1.0
 40
1.0
 40
1.0
 10
28.1830904911
 20
19.3941667624
 30
0.0
 10
28.1294668867
 20
19.3632127601
 30
0.0
 10
28.0278515055
 20
19.2853811952
 30
0.0
 10
27.9054966359
 20
19.1307384799
 30
0.0
 10
27.8141191125
 20
18.9415623489
 30
0.0
 10
27.7549219382
 20
18.7225447492
 30
0.0
 10
27.7285464435
 20
18.478258738
 30
0.0
 10
27.7378942596
 20
18.1146386808
 30
0.0
 10
27.8365459302
 20
17.6309249035
 30
0.0
 10
28.0677866523
 20
17.0587949216
 30
0.0
 10
28.396905286
 20
16.5233971449
 30
0.0
 10
28.7377843702
 20
16.1354792521
 30
0.0
 10
29.0372626254
 20
15.8835638743
 30
0.0
 10
29.1924883952
 20
15.7797586616
 30
0.0
 10
29.2705819185
 20
15.7346723649
 30
0.0
  0
SPLINE
  5
38E
100
AcDbEntity
  8
0
100
AcDbSpline
 62
7
  6
BYLAYER
 70
0
 71
3
 72
11
 73
7
 74
0
 42
0.0000001
 43
0.0000001
 44
0.0000000001
 40
0.0
 40
0.0
 40
0.0
 40
0.0
 40
0.2177500553
 40
0.4508676863
 40
0.7103394472
 40
1.0
 40
1.0
 40
1.0
 40
1.0
 10
31.3161811946
 20
13.4621173882
 30
0.0
 10
31.2832033488
 20
13.4811656162
 30
0.0
 10
31.2214765788
 20
13.5330240933
 30
0.0
 10
31.1557825452
 20
13.6404754379
 30
0.0
 10
31.1167625789
 20
13.7728730871
 30
0.0
 10
31.1090672039
 20
13.8692399918
 30
0.0
 10
31.1090672039
 20
13.9199006677
 30
0.0
  0
SPLINE
  5
38F
100
AcDbEntity
  8
0
100
AcDbSpline
 62
7
  6
BYLAYER
 70
0
 71
3
 72
11
 73
7
 74
0
 42
0.0000001
 43
0.0000001
 44
0.0000000001
 40
0.0
 40
0.0
 40
0.0
 40
0.0
 40
0.2296154374
 40
0.4826037412
 40
0.744739721
 40
1.0
 40
1.0
 40
1.0
 40
1.0
 10
11.9995708418
 20
20.4602681249
 30
0.0
 10
11.9995708418
 20
20.5046763759
 30
0.0
 10
12.0124725713
 20
20.5981158866
 30
0.0
 10
12.0602591335
 20
20.7347642298
 30
0.0
 10
12.1335014104
 20
20.8653303007
 30
0.0
 10
12.197250989
 20
20.9433399885
 30
0.0
 10
12.2322008825
 20
20.9782069879
 30
0.0
  0
SPLINE
  5
390
100
AcDbEntity
  8
0
100
AcDbSpline
 62
7
  6
BYLAYER
 70
0
 71
3
 72
9
 73
5
 74
0
 42
0.0000001
 43
0.0000001
 44
0.0000000001
 40
0.0
 40
0.0
 40
0.0
 40
0.0
 40
0.2629049963
 40
1.0
 40
1.0
 40
1.0
 40
1.0
 10
14.2137107618
 20
22.9550171265
 30
0.0
 10
14.2327771646
 20
22.9740383076
 30
0.0
 10
14.3073024902
 20
23.0442983409
 30
0.0
 10
14.3901625149
 20
23.1061321065
 30
0.0
 10
14.4555545176
 20
23.1438859715
 30
0.0
  0
ENDSEC
  0
SECTION
  2
OBJECTS
  0
DICTIONARY
  5
C
100
AcDbDictionary
280
0
281
1
  3
ACAD_GROUP
350
D
  3
ACAD_MLINESTYLE
350
17
  3
ACAD_LAYOUT
350
1A
  3
ACAD_PLOTSETTINGS
350
19
  3
ACAD_PLOTSTYLENAME
350
E
  0
DICTIONARY
  5
D
102
{ACAD_REACTORS
330
C
102
}
100
AcDbDictionary
280
0
281
1
  0
ACDBDICTIONARYWDFLT
  5
E
102
{ACAD_REACTORS
330
C
102
}
100
AcDbDictionary
281
1
  3
Normal
350
F
100
AcDbDictionaryWithDefault
340
F
  0
DICTIONARY
  5
17
102
{ACAD_REACTORS
330
C
102
}
100
AcDbDictionary
280
0
281
1
  3
Standard
350
18
  0
DICTIONARY
  5
19
102
{ACAD_REACTORS
330
C
102
}
100
AcDbDictionary
281
1
  0
DICTIONARY
  5
1A
102
{ACAD_REACTORS
330
C
102
}
100
AcDbDictionary
281
1
  3
Model
350
391
  3
Layout1
350
392
  0
ACDBPLACEHOLDER
  5
F
102
{ACAD_REACTORS
330
E
102
}
  0
MLINESTYLE
  5
18
102
{ACAD_REACTORS
330
17
102
}
100
AcDbMlineStyle
  2
STANDARD
 70
0
  3

 62
256
 51
90.0
 52
90.0
 71
2
 49
0.5
 62
256
  6
BYLAYER
 49
-0.5
 62
256
  6
BYLAYER
  0
LAYOUT
  5
391
102
{ACAD_REACTORS
330
1A
102
}
100
AcDbPlotSettings
  1

  2
none_device
  4

  6

 40
0.0
 41
0.0
 42
0.0
 43
0.0
 44
210.0
 45
297.0
 46
0.0
 47
0.0
 48
0.0
 49
0.0
140
0.0
141
0.0
142
1.0
143
1.0
 70
1024
 72
1
 73
0
 74
0
  7

 75
0
147
1.0
148
0.0
149
0.0
100
AcDbLayout
  1
Model
 70
0
 71
0
 10
0.0
 20
0.0
 11
210.0
 21
297.0
 12
0.0
 22
0.0
 32
0.0
 14
0.0
 24
0.0
 34
0.0
 15
0.0
 25
0.0
 35
0.0
146
0.0
 13
0.0
 23
0.0
 33
0.0
 16
1.0
 26
0.0
 36
0.0
 17
0.0
 27
1.0
 37
0.0
 76
0
330
210
345
0
346
0
  0
LAYOUT
  5
392
102
{ACAD_REACTORS
330
1A
102
}
100
AcDbPlotSettings
  1

  2
none_device
  4

  6

 40
0.0
 41
0.0
 42
0.0
 43
0.0
 44
210.0
 45
297.0
 46
0.0
 47
0.0
 48
0.0
 49
0.0
140
0.0
141
0.0
142
1.0
143
1.0
 70
0
 72
1
 73
0
 74
0
  7

 75
0
147
1.0
148
0.0
149
0.0
100
AcDbLayout
  1
Layout1
 70
0
 71
1
 10
0.0
 20
0.0
 11
210.0
 21
297.0
 12
0.0
 22
0.0
 32
0.0
 14
0.0
 24
0.0
 34
0.0
 15
0.0
 25
0.0
 35
0.0
146
0.0
 13
0.0
 23
0.0
 33
0.0
 16
1.0
 26
0.0
 36
0.0
 17
0.0
 27
1.0
 37
0.0
 76
0
330
211
345
0
346
0
  0
ENDSEC
  0
EOF
