999
DXF file: Y:\001_SCHNEIDER_PARIS\maxime fuentes - génération CAD 2D\TRAVAIL\RE17LHBM_2D-Views\re17lhbm_2d-views_2.dxf
999
Pro/ENGINEER 2018260 by Parametric Technology Corporation
  0
SECTION
  2
HEADER
  9
$ACADVER
  1
AC1027
  9
$DWGCODEPAGE
  3
ANSI_1252
  9
$EXTMAX
 10
558.8
 20
431.8
 30
0.0
  9
$EXTMIN
 10
0.0
 20
0.0
 30
0.0
  9
$LIMMIN
 10
0.0
 20
0.0
  9
$LIMMAX
 10
558.8
 20
431.8
  9
$VIEWCTR
 10
279.4
 20
215.9
  9
$VIEWSIZE
 40
431.8
  9
$CLAYER
  8
0
  9
$LTSCALE
 40
30.734
  9
$CELTYPE
  6
BYLAYER
  9
$DIMSCALE
 40
1.0
  9
$DIMASZ
 40
3.5
  9
$DIMEXO
 40
1.0
  9
$DIMDLI
 40
21.2344
  9
$DIMEXE
 40
3.0
  9
$DIMCEN
 40
5.0292
  9
$DIMLFAC
 40
1.0
  9
$DIMBLK
  1
_FILLED
  9
$DIMALT
 70
0
  9
$DIMALTF
 40
0.0393700787
  9
$DIMTXT
 40
4.0
  9
$DIMTOL
 70
1
  9
$DIMLIM
 70
0
  9
$DIMTFAC
 40
1.0
  9
$DIMTP
 40
0.0001
  9
$DIMTM
 40
0.0001
  9
$DIMGAP
 40
0.625
  9
$DIMDSEP
 70
46
  9
$AUNITS
 70
0
  9
$PDMODE
 70
0
  9
$PDSIZE
 40
0.01
  9
$HANDSEED
  5
332
  9
$TILEMODE
 70
1
  9
$MEASUREMENT
 70
1
  9
$INSUNITS
 70
4
  0
ENDSEC
  0
SECTION
  2
CLASSES
  0
CLASS
  1
ACDBDICTIONARYWDFLT
  2
AcDbDictionaryWithDefault
  3
AutoCAD 2000
 90
0
 91
1
280
0
281
0
  0
CLASS
  1
ACDBPLACEHOLDER
  2
AcDbPlaceHolder
  3
AutoCAD 2000
 90
0
 91
1
280
0
281
0
  0
CLASS
  1
LAYOUT
  2
AcDbLayout
  3
AutoCAD 2000
 90
0
 91
0
280
0
281
0
  0
ENDSEC
  0
SECTION
  2
TABLES
  0
TABLE
  2
VPORT
  5
8
100
AcDbSymbolTable
 70
2
  0
VPORT
  5
1F4
100
AcDbSymbolTableRecord
100
AcDbViewportTableRecord
  2
*ACTIVE
 70
0
 10
0.0
 20
0.0
 11
1.0
 21
1.0
 12
279.4
 22
215.9
 13
0.0
 23
0.0
 14
1.0
 24
1.0
 15
0.0
 25
0.0
 16
0.0
 26
0.0
 36
1.0
 17
0.0
 27
0.0
 37
0.0
 40
431.8
 41
1.2941176471
 42
50.0
 43
0.0
 44
0.0
 50
0.0
 51
0.0
 71
0
 72
100
 73
1
 74
1
 75
0
 76
0
 77
0
 78
0
  0
ENDTAB
  0
TABLE
  2
LTYPE
  5
5
100
AcDbSymbolTable
 70
6
  0
LTYPE
  5
14
100
AcDbSymbolTableRecord
100
AcDbLinetypeTableRecord
  2
BYBLOCK
 70
0
  3

 72
65
 73
0
 40
0.0
  0
LTYPE
  5
15
100
AcDbSymbolTableRecord
100
AcDbLinetypeTableRecord
  2
BYLAYER
 70
0
  3

 72
65
 73
0
 40
0.0
  0
LTYPE
  5
16
100
AcDbSymbolTableRecord
100
AcDbLinetypeTableRecord
  2
CONTINUOUS
 70
64
  3
Solid line
 72
65
 73
0
 40
0.0
  0
LTYPE
  5
1F5
100
AcDbSymbolTableRecord
100
AcDbLinetypeTableRecord
  2
CENTER
 70
64
  3
____ _ ____ _ ____ _ ____ _ ____ _ ____ _ ____
 72
65
 73
4
 40
0.6
 49
0.375
 74
0
 49
-0.075
 74
0
 49
0.075
 74
0
 49
-0.075
 74
0
  0
LTYPE
  5
1F6
100
AcDbSymbolTableRecord
100
AcDbLinetypeTableRecord
  2
HIDDEN
 70
64
  3
- - - - - - - - - - - - - - - - - - - -
 72
65
 73
2
 40
0.2
 49
0.1
 74
0
 49
-0.1
 74
0
  0
LTYPE
  5
1F7
100
AcDbSymbolTableRecord
100
AcDbLinetypeTableRecord
  2
PHANTOM
 70
64
  3
_____ _ _ _____ _ _ _____ _ _ _____
 72
65
 73
6
 40
0.8
 49
0.45
 74
0
 49
-0.05
 74
0
 49
0.1
 74
0
 49
-0.05
 74
0
 49
0.1
 74
0
 49
-0.05
 74
0
  0
LTYPE
  5
1F8
100
AcDbSymbolTableRecord
100
AcDbLinetypeTableRecord
  2
DOT
 70
64
  3
. . . . . . . . . . . . . . . . . . . .
 72
65
 73
2
 40
0.2
 49
0.1
 74
0
 49
-0.1
 74
0
  0
LTYPE
  5
1F9
100
AcDbSymbolTableRecord
100
AcDbLinetypeTableRecord
  2
DASHED
 70
64
  3
- - - - - - - - - - - - - - - - - - - -
 72
65
 73
2
 40
0.2
 49
0.1
 74
0
 49
-0.1
 74
0
  0
ENDTAB
  0
TABLE
  2
LAYER
  5
2
100
AcDbSymbolTable
 70
36
  0
LAYER
  5
10
100
AcDbSymbolTableRecord
100
AcDbLayerTableRecord
  2
0
 70
0
 62
7
  6
CONTINUOUS
370
-3
390
F
  0
LAYER
  5
1FA
100
AcDbSymbolTableRecord
100
AcDbLayerTableRecord
  2
DEFAULT_1
 70
0
 62
7
  6
CENTER
370
-3
390
F
  0
LAYER
  5
1FB
100
AcDbSymbolTableRecord
100
AcDbLayerTableRecord
  2
DEFAULT_2
 70
0
 62
8
  6
HIDDEN
370
-3
390
F
  0
LAYER
  5
1FC
100
AcDbSymbolTableRecord
100
AcDbLayerTableRecord
  2
DEFAULT_3
 70
0
 62
7
  6
PHANTOM
370
-3
390
F
  0
LAYER
  5
1FD
100
AcDbSymbolTableRecord
100
AcDbLayerTableRecord
  2
01_ALL_DTM_PLN
 70
0
 62
7
  6
CONTINUOUS
370
-3
390
F
  0
LAYER
  5
1FE
100
AcDbSymbolTableRecord
100
AcDbLayerTableRecord
  2
01__ASM_ALL_DTM_PLN
 70
0
 62
7
  6
CONTINUOUS
370
-3
390
F
  0
LAYER
  5
1FF
100
AcDbSymbolTableRecord
100
AcDbLayerTableRecord
  2
01__ASM_DEF_DTM_PLN
 70
0
 62
7
  6
CONTINUOUS
370
-3
390
F
  0
LAYER
  5
200
100
AcDbSymbolTableRecord
100
AcDbLayerTableRecord
  2
01___PRT_ALL_DTM_PLN
 70
0
 62
7
  6
CONTINUOUS
370
-3
390
F
  0
LAYER
  5
201
100
AcDbSymbolTableRecord
100
AcDbLayerTableRecord
  2
01___PRT_DEF_DTM_PLN
 70
0
 62
7
  6
CONTINUOUS
370
-3
390
F
  0
LAYER
  5
202
100
AcDbSymbolTableRecord
100
AcDbLayerTableRecord
  2
02_ALL_AXES
 70
0
 62
7
  6
CONTINUOUS
370
-3
390
F
  0
LAYER
  5
203
100
AcDbSymbolTableRecord
100
AcDbLayerTableRecord
  2
02__ASM_ALL_AXES
 70
0
 62
7
  6
CONTINUOUS
370
-3
390
F
  0
LAYER
  5
204
100
AcDbSymbolTableRecord
100
AcDbLayerTableRecord
  2
02___PRT_ALL_AXES
 70
0
 62
7
  6
CONTINUOUS
370
-3
390
F
  0
LAYER
  5
205
100
AcDbSymbolTableRecord
100
AcDbLayerTableRecord
  2
03_ALL_CURVES
 70
0
 62
7
  6
CONTINUOUS
370
-3
390
F
  0
LAYER
  5
206
100
AcDbSymbolTableRecord
100
AcDbLayerTableRecord
  2
03__ASM_ALL_CURVES
 70
0
 62
7
  6
CONTINUOUS
370
-3
390
F
  0
LAYER
  5
207
100
AcDbSymbolTableRecord
100
AcDbLayerTableRecord
  2
03___PRT_ALL_CURVES
 70
0
 62
7
  6
CONTINUOUS
370
-3
390
F
  0
LAYER
  5
208
100
AcDbSymbolTableRecord
100
AcDbLayerTableRecord
  2
04_ALL_DTM_PNT
 70
0
 62
7
  6
CONTINUOUS
370
-3
390
F
  0
LAYER
  5
209
100
AcDbSymbolTableRecord
100
AcDbLayerTableRecord
  2
04__ASM_ALL_DTM_PNT
 70
0
 62
7
  6
CONTINUOUS
370
-3
390
F
  0
LAYER
  5
20A
100
AcDbSymbolTableRecord
100
AcDbLayerTableRecord
  2
04___PRT_ALL_DTM_PNT
 70
0
 62
7
  6
CONTINUOUS
370
-3
390
F
  0
LAYER
  5
20B
100
AcDbSymbolTableRecord
100
AcDbLayerTableRecord
  2
05_ALL_DTM_CSYS
 70
0
 62
7
  6
CONTINUOUS
370
-3
390
F
  0
LAYER
  5
20C
100
AcDbSymbolTableRecord
100
AcDbLayerTableRecord
  2
05__ASM_ALL_DTM_CSYS
 70
0
 62
7
  6
CONTINUOUS
370
-3
390
F
  0
LAYER
  5
20D
100
AcDbSymbolTableRecord
100
AcDbLayerTableRecord
  2
05__ASM_DEF_DTM_CSYS
 70
0
 62
7
  6
CONTINUOUS
370
-3
390
F
  0
LAYER
  5
20E
100
AcDbSymbolTableRecord
100
AcDbLayerTableRecord
  2
05___PRT_ALL_DTM_CSYS
 70
0
 62
7
  6
CONTINUOUS
370
-3
390
F
  0
LAYER
  5
20F
100
AcDbSymbolTableRecord
100
AcDbLayerTableRecord
  2
05___PRT_DEF_DTM_CSYS
 70
0
 62
7
  6
CONTINUOUS
370
-3
390
F
  0
LAYER
  5
210
100
AcDbSymbolTableRecord
100
AcDbLayerTableRecord
  2
06_ALL_SURFS
 70
0
 62
7
  6
CONTINUOUS
370
-3
390
F
  0
LAYER
  5
211
100
AcDbSymbolTableRecord
100
AcDbLayerTableRecord
  2
06__ASM_ALL_SURFS
 70
0
 62
7
  6
CONTINUOUS
370
-3
390
F
  0
LAYER
  5
212
100
AcDbSymbolTableRecord
100
AcDbLayerTableRecord
  2
06___PRT_ALL_SURFS
 70
0
 62
7
  6
CONTINUOUS
370
-3
390
F
  0
LAYER
  5
213
100
AcDbSymbolTableRecord
100
AcDbLayerTableRecord
  2
07__ASM_ALL_SKELETONS
 70
0
 62
7
  6
CONTINUOUS
370
-3
390
F
  0
LAYER
  5
214
100
AcDbSymbolTableRecord
100
AcDbLayerTableRecord
  2
CLOSED_SHELL
 70
0
 62
7
  6
CONTINUOUS
370
-3
390
F
  0
LAYER
  5
215
100
AcDbSymbolTableRecord
100
AcDbLayerTableRecord
  2
ORIENTED_CLOSED_SHE
 70
0
 62
7
  6
CONTINUOUS
370
-3
390
F
  0
ENDTAB
  0
TABLE
  2
STYLE
  5
3
100
AcDbSymbolTable
 70
1
  0
STYLE
  5
11
100
AcDbSymbolTableRecord
100
AcDbTextStyleTableRecord
  2
STANDARD
 70
0
 40
0.0
 41
0.6
 50
0.0
 71
0
 42
0.2
  3
txt
  4

  0
STYLE
  5
216
100
AcDbSymbolTableRecord
100
AcDbTextStyleTableRecord
  2
TEXTSTYLE_1
 70
0
 40
0.0
 41
0.8
 50
0.0
 71
0
 42
0.2
  3
gdt
  4

  0
ENDTAB
  0
TABLE
  2
VIEW
  5
6
100
AcDbSymbolTable
 70
0
  0
ENDTAB
  0
TABLE
  2
UCS
  5
7
100
AcDbSymbolTable
 70
0
  0
ENDTAB
  0
TABLE
  2
APPID
  5
9
100
AcDbSymbolTable
 70
1
  0
APPID
  5
217
100
AcDbSymbolTableRecord
100
AcDbRegAppTableRecord
  2
ACAD
 70
0
  0
ENDTAB
  0
TABLE
  2
BLOCK_RECORD
  5
1
100
AcDbSymbolTable
 70
0
  0
BLOCK_RECORD
  5
218
100
AcDbSymbolTableRecord
100
AcDbBlockTableRecord
  2
*Model_Space
  0
BLOCK_RECORD
  5
219
100
AcDbSymbolTableRecord
100
AcDbBlockTableRecord
  2
*Paper_Space
  0
BLOCK_RECORD
  5
21A
100
AcDbSymbolTableRecord
100
AcDbBlockTableRecord
  2
_FILLED
  0
ENDTAB
  0
TABLE
  2
DIMSTYLE
  5
A
100
AcDbSymbolTable
 70
1
100
AcDbDimStyleTable
 71
0
  0
DIMSTYLE
105
21B
100
AcDbSymbolTableRecord
100
AcDbDimStyleTableRecord
  2
STANDARD
 70
0
  3

  4

 40
1.0
 41
3.5
 42
1.0
 43
0.38
 44
3.0
 45
0.0
 46
0.0
 47
0.0001
 48
0.0001
140
4.0
141
0.09
142
0.0
143
25.4
144
1.0
145
0.0
146
1.0
147
0.625
 71
1.0
 72
0.0
 73
0
 74
0
 75
0
 76
0
 77
1
 78
8
 79
2
170
0
171
3
172
0
173
0
174
0
175
0
176
0
177
0
178
0
270
2
179
4
271
4
272
4
273
2
274
2
275
0
280
0
281
0
282
0
283
1
284
8
285
0
286
0
287
3
288
0
340
11
278
46
341
21A
342
21A
343
21A
344
21A
  0
ENDTAB
  0
ENDSEC
  0
SECTION
  2
BLOCKS
  0
BLOCK
  5
20
100
AcDbEntity
  8
0
100
AcDbBlockBegin
  2
*Model_Space
 70
0
 10
0.0
 20
0.0
 30
0.0
  3
*Model_Space
  1

  0
ENDBLK
  5
21
100
AcDbEntity
  8
0
100
AcDbBlockEnd
  0
BLOCK
  5
1C
100
AcDbEntity
  8
0
100
AcDbBlockBegin
  2
*Paper_Space
 70
0
 10
0.0
 20
0.0
 30
0.0
  3
*Paper_Space
  1

  0
ENDBLK
  5
1D
100
AcDbEntity
  8
0
100
AcDbBlockEnd
  0
BLOCK
  5
21C
100
AcDbEntity
  8
0
100
AcDbBlockBegin
  2
_FILLED
 70
64
 10
0.0
 20
0.0
  3
_FILLED
  1

  0
SOLID
  5
21D
100
AcDbEntity
  8
0
  6
BYBLOCK
 62
0
100
AcDbTrace
 10
0.0
 20
0.0
 11
-1.0
 21
0.2857142857
 12
-1.0
 22
-0.2857142857
 13
-1.0
 23
-0.2857142857
  0
ENDBLK
  5
21E
100
AcDbEntity
  8
0
  6
BYBLOCK
 62
0
100
AcDbBlockEnd
  0
ENDSEC
  0
SECTION
  2
ENTITIES
  0
LINE
  5
21F
100
AcDbEntity
  8
0
100
AcDbLine
 62
7
  6
CONTINUOUS
 10
133.3882699129
 20
200.6518515499
 11
139.7302973304
 21
200.6518515499
  0
LINE
  5
220
100
AcDbEntity
  8
0
100
AcDbLine
 62
7
  6
CONTINUOUS
 10
133.5592836216
 20
202.1518515499
 11
139.5592836216
 21
202.1518515499
  0
LINE
  5
221
100
AcDbEntity
  8
0
100
AcDbLine
 62
7
  6
CONTINUOUS
 10
145.0092836216
 20
203.4518515499
 11
128.1092836216
 21
203.4518515499
  0
LINE
  5
222
100
AcDbEntity
  8
0
100
AcDbLine
 62
7
  6
CONTINUOUS
 10
145.0092836216
 20
214.7018515499
 11
128.1092836216
 21
214.7018515499
  0
LINE
  5
223
100
AcDbEntity
  8
0
100
AcDbLine
 62
7
  6
CONTINUOUS
 10
127.8092836216
 20
217.9518515499
 11
128.1092836216
 21
217.9518515499
  0
LINE
  5
224
100
AcDbEntity
  8
0
100
AcDbLine
 62
7
  6
CONTINUOUS
 10
133.6592836216
 20
217.9518515499
 11
133.9592836213
 21
217.9518515499
  0
LINE
  5
225
100
AcDbEntity
  8
0
100
AcDbLine
 62
7
  6
CONTINUOUS
 10
139.1592836216
 20
217.9518515499
 11
139.4592836212
 21
217.9518515499
  0
LINE
  5
226
100
AcDbEntity
  8
0
100
AcDbLine
 62
7
  6
CONTINUOUS
 10
145.0092836201
 20
217.9518515499
 11
145.3092836216
 21
217.9518515499
  0
LINE
  5
227
100
AcDbEntity
  8
0
100
AcDbLine
 62
9
  6
CONTINUOUS
 10
145.5092836216
 20
220.3518515502
 11
144.8092836216
 21
220.3518515505
  0
LINE
  5
228
100
AcDbEntity
  8
0
100
AcDbLine
 62
9
  6
CONTINUOUS
 10
139.6592836216
 20
220.3518515502
 11
138.9592836216
 21
220.3518554994
  0
LINE
  5
229
100
AcDbEntity
  8
0
100
AcDbLine
 62
9
  6
CONTINUOUS
 10
134.1592836216
 20
220.3518515502
 11
133.4592836216
 21
220.3518554994
  0
LINE
  5
22A
100
AcDbEntity
  8
0
100
AcDbLine
 62
9
  6
CONTINUOUS
 10
128.3092836216
 20
220.3518515499
 11
127.6092836216
 21
220.3518555001
  0
LINE
  5
22B
100
AcDbEntity
  8
0
100
AcDbLine
 62
7
  6
CONTINUOUS
 10
142.459283622
 20
220.6818515499
 11
141.6592836212
 21
220.6818515499
  0
LINE
  5
22C
100
AcDbEntity
  8
0
100
AcDbLine
 62
7
  6
CONTINUOUS
 10
136.959283622
 20
220.6818515499
 11
136.1592836213
 21
220.6818515499
  0
LINE
  5
22D
100
AcDbEntity
  8
0
100
AcDbLine
 62
7
  6
CONTINUOUS
 10
131.459283622
 20
220.6818515499
 11
130.6592836213
 21
220.6818515499
  0
LINE
  5
22E
100
AcDbEntity
  8
0
100
AcDbLine
 62
7
  6
CONTINUOUS
 10
141.6592836212
 20
221.7818515499
 11
139.794333291
 21
221.7818515499
  0
LINE
  5
22F
100
AcDbEntity
  8
0
100
AcDbLine
 62
7
  6
CONTINUOUS
 10
136.1592836213
 20
221.7818515499
 11
134.2943332911
 21
221.7818515499
  0
LINE
  5
230
100
AcDbEntity
  8
0
100
AcDbLine
 62
7
  6
CONTINUOUS
 10
130.6592836213
 20
221.7818515499
 11
128.7943332911
 21
221.7818515499
  0
LINE
  5
231
100
AcDbEntity
  8
0
100
AcDbLine
 62
7
  6
CONTINUOUS
 10
131.4592836216
 20
221.7818515499
 11
133.3242339522
 21
221.7818515499
  0
LINE
  5
232
100
AcDbEntity
  8
0
100
AcDbLine
 62
7
  6
CONTINUOUS
 10
136.9592836216
 20
221.7818515499
 11
138.8242339522
 21
221.7818515499
  0
LINE
  5
233
100
AcDbEntity
  8
0
100
AcDbLine
 62
7
  6
CONTINUOUS
 10
142.4592836216
 20
221.7818515499
 11
144.3242339522
 21
221.7818515499
  0
LINE
  5
234
100
AcDbEntity
  8
0
100
AcDbLine
 62
7
  6
CONTINUOUS
 10
128.7943332911
 20
222.5818515499
 11
130.6592836213
 21
222.5818515499
  0
LINE
  5
235
100
AcDbEntity
  8
0
100
AcDbLine
 62
7
  6
CONTINUOUS
 10
131.459283622
 20
222.5818515499
 11
133.3242339522
 21
222.5818515499
  0
LINE
  5
236
100
AcDbEntity
  8
0
100
AcDbLine
 62
7
  6
CONTINUOUS
 10
134.2943332911
 20
222.5818515499
 11
136.1592836213
 21
222.5818515499
  0
LINE
  5
237
100
AcDbEntity
  8
0
100
AcDbLine
 62
7
  6
CONTINUOUS
 10
136.959283622
 20
222.5818515499
 11
138.8242339522
 21
222.5818515499
  0
LINE
  5
238
100
AcDbEntity
  8
0
100
AcDbLine
 62
7
  6
CONTINUOUS
 10
139.794333291
 20
222.5818515499
 11
141.6592836212
 21
222.5818515499
  0
LINE
  5
239
100
AcDbEntity
  8
0
100
AcDbLine
 62
7
  6
CONTINUOUS
 10
142.459283622
 20
222.5818515499
 11
144.3242339522
 21
222.5818515499
  0
LINE
  5
23A
100
AcDbEntity
  8
0
100
AcDbLine
 62
7
  6
CONTINUOUS
 10
130.6592836216
 20
223.6818515499
 11
131.459283622
 21
223.6818515499
  0
LINE
  5
23B
100
AcDbEntity
  8
0
100
AcDbLine
 62
7
  6
CONTINUOUS
 10
136.1592836216
 20
223.6818515499
 11
136.959283622
 21
223.6818515499
  0
LINE
  5
23C
100
AcDbEntity
  8
0
100
AcDbLine
 62
7
  6
CONTINUOUS
 10
141.6592836216
 20
223.6818515499
 11
142.459283622
 21
223.6818515499
  0
LINE
  5
23D
100
AcDbEntity
  8
0
100
AcDbLine
 62
7
  6
CONTINUOUS
 10
127.6092836216
 20
225.9518515499
 11
145.5092836216
 21
225.9518515499
  0
LINE
  5
23E
100
AcDbEntity
  8
0
100
AcDbLine
 62
7
  6
CONTINUOUS
 10
128.1942836216
 20
226.1518515499
 11
144.8942836216
 21
226.1518515499
  0
LINE
  5
23F
100
AcDbEntity
  8
0
100
AcDbLine
 62
9
  6
CONTINUOUS
 10
145.5092836216
 20
226.4518515499
 11
145.3504381076
 21
226.4518515499
  0
LINE
  5
240
100
AcDbEntity
  8
0
100
AcDbLine
 62
9
  6
CONTINUOUS
 10
127.7381291357
 20
226.4518515499
 11
127.6092836216
 21
226.4518515499
  0
LINE
  5
241
100
AcDbEntity
  8
0
100
AcDbLine
 62
9
  6
CONTINUOUS
 10
145.3942836216
 20
226.6518515499
 11
132.4942836216
 21
226.6518515499
  0
LINE
  5
242
100
AcDbEntity
  8
0
100
AcDbLine
 62
9
  6
CONTINUOUS
 10
130.6942836217
 20
226.6518515499
 11
127.6942836216
 21
226.6518515506
  0
LINE
  5
243
100
AcDbEntity
  8
0
100
AcDbLine
 62
7
  6
CONTINUOUS
 10
130.6942836216
 20
227.4518515499
 11
132.4942836209
 21
227.4518515499
  0
LINE
  5
244
100
AcDbEntity
  8
0
100
AcDbLine
 62
7
  6
CONTINUOUS
 10
132.4942836216
 20
227.8518515499
 11
130.6942836216
 21
227.8518515499
  0
LINE
  5
245
100
AcDbEntity
  8
0
100
AcDbLine
 62
7
  6
CONTINUOUS
 10
132.4942836216
 20
228.1518515499
 11
130.6942836216
 21
228.1518515499
  0
LINE
  5
246
100
AcDbEntity
  8
0
100
AcDbLine
 62
7
  6
CONTINUOUS
 10
131.3188419496
 20
203.4518515499
 11
131.9787309815
 21
201.6388213354
  0
LINE
  5
247
100
AcDbEntity
  8
0
100
AcDbLine
 62
7
  6
CONTINUOUS
 10
132.4942836216
 20
228.6518515505
 11
130.6942836216
 21
228.6518515505
  0
LINE
  5
248
100
AcDbEntity
  8
0
100
AcDbLine
 62
7
  6
CONTINUOUS
 10
132.4942836216
 20
229.3518515499
 11
130.6942836216
 21
229.3518515499
  0
LINE
  5
249
100
AcDbEntity
  8
0
100
AcDbLine
 62
7
  6
CONTINUOUS
 10
132.4942836216
 20
229.8518515492
 11
130.6942836216
 21
229.8518515492
  0
LINE
  5
24A
100
AcDbEntity
  8
0
100
AcDbLine
 62
7
  6
CONTINUOUS
 10
132.4942836224
 20
230.3018515499
 11
130.6942836216
 21
230.3018515499
  0
LINE
  5
24B
100
AcDbEntity
  8
0
100
AcDbLine
 62
7
  6
CONTINUOUS
 10
130.6942836216
 20
230.7671727982
 11
132.4942836216
 21
230.7671727982
  0
LINE
  5
24C
100
AcDbEntity
  8
0
100
AcDbLine
 62
7
  6
CONTINUOUS
 10
127.6092836216
 20
203.9517547027
 11
127.6092836216
 21
292.9518381146
  0
LINE
  5
24D
100
AcDbEntity
  8
0
100
AcDbLine
 62
7
  6
CONTINUOUS
 10
127.6942836216
 20
267.0893657345
 11
127.6942836216
 21
226.6518515499
  0
LINE
  5
24E
100
AcDbEntity
  8
0
100
AcDbLine
 62
9
  6
CONTINUOUS
 10
127.8092836216
 20
217.9518515499
 11
127.8092836216
 21
225.9518515499
  0
LINE
  5
24F
100
AcDbEntity
  8
0
100
AcDbLine
 62
9
  6
CONTINUOUS
 10
127.8092836216
 20
282.1018515499
 11
127.8092836225
 21
290.2018515499
  0
LINE
  5
250
100
AcDbEntity
  8
0
100
AcDbLine
 62
9
  6
CONTINUOUS
 10
128.0527581979
 20
267.2178614278
 11
128.0527581979
 21
226.6518515499
  0
LINE
  5
251
100
AcDbEntity
  8
0
100
AcDbLine
 62
9
  6
CONTINUOUS
 10
128.1092836216
 20
290.2018515499
 11
128.1092836216
 21
282.2018515499
  0
LINE
  5
252
100
AcDbEntity
  8
0
100
AcDbLine
 62
9
  6
CONTINUOUS
 10
128.1092836216
 20
267.2222892435
 11
128.1092836216
 21
270.9518515499
  0
LINE
  5
253
100
AcDbEntity
  8
0
100
AcDbLine
 62
9
  6
CONTINUOUS
 10
128.1092836216
 20
217.9518515499
 11
128.1092877417
 21
226.1687582816
  0
LINE
  5
254
100
AcDbEntity
  8
0
100
AcDbLine
 62
7
  6
CONTINUOUS
 10
128.3092836216
 20
290.0018512563
 11
128.3092836216
 21
282.2018515499
  0
LINE
  5
255
100
AcDbEntity
  8
0
100
AcDbLine
 62
7
  6
CONTINUOUS
 10
128.3092836216
 20
218.1518516367
 11
128.3092836216
 21
225.9518515499
  0
LINE
  5
256
100
AcDbEntity
  8
0
100
AcDbLine
 62
7
  6
CONTINUOUS
 10
129.6092836216
 20
270.9518515499
 11
129.6092836216
 21
267.2518515499
  0
LINE
  5
257
100
AcDbEntity
  8
0
100
AcDbLine
 62
7
  6
CONTINUOUS
 10
129.6842836216
 20
270.8518515499
 11
129.6842836216
 21
267.2518515499
  0
LINE
  5
258
100
AcDbEntity
  8
0
100
AcDbLine
 62
7
  6
CONTINUOUS
 10
130.6592836213
 20
220.6818515499
 11
130.6592836213
 21
221.7818515499
  0
LINE
  5
259
100
AcDbEntity
  8
0
100
AcDbLine
 62
7
  6
CONTINUOUS
 10
130.6592836216
 20
222.5818515499
 11
130.6592836216
 21
223.6818515499
  0
LINE
  5
25A
100
AcDbEntity
  8
0
100
AcDbLine
 62
7
  6
CONTINUOUS
 10
130.6592836213
 20
284.4718515499
 11
130.6592836213
 21
285.5718515499
  0
LINE
  5
25B
100
AcDbEntity
  8
0
100
AcDbLine
 62
7
  6
CONTINUOUS
 10
130.6592836216
 20
286.3718515499
 11
130.6592836216
 21
287.4718515499
  0
LINE
  5
25C
100
AcDbEntity
  8
0
100
AcDbLine
 62
7
  6
CONTINUOUS
 10
130.6942836216
 20
226.1518515492
 11
130.6942836216
 21
233.1193539512
  0
LINE
  5
25D
100
AcDbEntity
  8
0
100
AcDbLine
 62
7
  6
CONTINUOUS
 10
130.8092836216
 20
270.9518515499
 11
130.8092836216
 21
270.8518515499
  0
LINE
  5
25E
100
AcDbEntity
  8
0
100
AcDbLine
 62
7
  6
CONTINUOUS
 10
131.459283622
 20
287.4718515499
 11
131.459283622
 21
286.3718515499
  0
LINE
  5
25F
100
AcDbEntity
  8
0
100
AcDbLine
 62
7
  6
CONTINUOUS
 10
131.459283622
 20
285.5718515499
 11
131.459283622
 21
284.4718515499
  0
LINE
  5
260
100
AcDbEntity
  8
0
100
AcDbLine
 62
7
  6
CONTINUOUS
 10
131.459283622
 20
223.6818515499
 11
131.459283622
 21
222.5818515499
  0
LINE
  5
261
100
AcDbEntity
  8
0
100
AcDbLine
 62
7
  6
CONTINUOUS
 10
131.459283622
 20
221.7818515499
 11
131.459283622
 21
220.6818515499
  0
LINE
  5
262
100
AcDbEntity
  8
0
100
AcDbLine
 62
7
  6
CONTINUOUS
 10
132.4942836216
 20
233.2932926642
 11
132.4942836216
 21
226.1518515506
  0
LINE
  5
263
100
AcDbEntity
  8
0
100
AcDbLine
 62
7
  6
CONTINUOUS
 10
133.4592836216
 20
218.1518518207
 11
133.4592836216
 21
225.9518515495
  0
LINE
  5
264
100
AcDbEntity
  8
0
100
AcDbLine
 62
7
  6
CONTINUOUS
 10
133.4592836216
 20
282.2018515499
 11
133.4592836216
 21
290.0018514575
  0
LINE
  5
265
100
AcDbEntity
  8
0
100
AcDbLine
 62
7
  6
CONTINUOUS
 10
133.5592836216
 20
203.4518515499
 11
133.5592836216
 21
202.1518515499
  0
LINE
  5
266
100
AcDbEntity
  8
0
100
AcDbLine
 62
9
  6
CONTINUOUS
 10
133.6592836216
 20
217.9518515499
 11
133.6592836216
 21
225.9518515495
  0
LINE
  5
267
100
AcDbEntity
  8
0
100
AcDbLine
 62
9
  6
CONTINUOUS
 10
133.6592836213
 20
282.2018515499
 11
133.6592836216
 21
290.2018515499
  0
LINE
  5
268
100
AcDbEntity
  8
0
100
AcDbLine
 62
9
  6
CONTINUOUS
 10
133.9592836216
 20
290.2018515499
 11
133.9592836216
 21
282.2018515499
  0
LINE
  5
269
100
AcDbEntity
  8
0
100
AcDbLine
 62
9
  6
CONTINUOUS
 10
133.9592836216
 20
225.9518515495
 11
133.9592836216
 21
217.9518515499
  0
LINE
  5
26A
100
AcDbEntity
  8
0
100
AcDbLine
 62
7
  6
CONTINUOUS
 10
134.1592836216
 20
290.0018512567
 11
134.1592836216
 21
282.2018515499
  0
LINE
  5
26B
100
AcDbEntity
  8
0
100
AcDbLine
 62
7
  6
CONTINUOUS
 10
134.1592836216
 20
218.1518518207
 11
134.1592836216
 21
225.9518515495
  0
LINE
  5
26C
100
AcDbEntity
  8
0
100
AcDbLine
 62
7
  6
CONTINUOUS
 10
136.1592836213
 20
220.6818515499
 11
136.1592836213
 21
221.7818515499
  0
LINE
  5
26D
100
AcDbEntity
  8
0
100
AcDbLine
 62
7
  6
CONTINUOUS
 10
136.1592836216
 20
222.5818515499
 11
136.1592836216
 21
223.6818515499
  0
LINE
  5
26E
100
AcDbEntity
  8
0
100
AcDbLine
 62
7
  6
CONTINUOUS
 10
136.1592836213
 20
284.4718515499
 11
136.1592836213
 21
285.5718515499
  0
LINE
  5
26F
100
AcDbEntity
  8
0
100
AcDbLine
 62
7
  6
CONTINUOUS
 10
136.1592836216
 20
286.3718515499
 11
136.1592836216
 21
287.4718515499
  0
LINE
  5
270
100
AcDbEntity
  8
0
100
AcDbLine
 62
7
  6
CONTINUOUS
 10
136.959283622
 20
287.4718515499
 11
136.959283622
 21
286.3718515499
  0
LINE
  5
271
100
AcDbEntity
  8
0
100
AcDbLine
 62
7
  6
CONTINUOUS
 10
136.959283622
 20
285.5718515499
 11
136.959283622
 21
284.4718515499
  0
LINE
  5
272
100
AcDbEntity
  8
0
100
AcDbLine
 62
7
  6
CONTINUOUS
 10
136.959283622
 20
223.6818515499
 11
136.959283622
 21
222.5818515499
  0
LINE
  5
273
100
AcDbEntity
  8
0
100
AcDbLine
 62
7
  6
CONTINUOUS
 10
136.959283622
 20
221.7818515499
 11
136.959283622
 21
220.6818515499
  0
LINE
  5
274
100
AcDbEntity
  8
0
100
AcDbLine
 62
7
  6
CONTINUOUS
 10
138.9592836216
 20
218.1518518211
 11
138.9592836216
 21
225.9518515495
  0
LINE
  5
275
100
AcDbEntity
  8
0
100
AcDbLine
 62
7
  6
CONTINUOUS
 10
138.9592836216
 20
282.2018515499
 11
138.9592836216
 21
290.0018514575
  0
LINE
  5
276
100
AcDbEntity
  8
0
100
AcDbLine
 62
9
  6
CONTINUOUS
 10
139.1592836223
 20
217.9518515499
 11
139.1592836216
 21
225.9518515495
  0
LINE
  5
277
100
AcDbEntity
  8
0
100
AcDbLine
 62
9
  6
CONTINUOUS
 10
139.1592836216
 20
282.2018515499
 11
139.1592836221
 21
290.2018515499
  0
LINE
  5
278
100
AcDbEntity
  8
0
100
AcDbLine
 62
9
  6
CONTINUOUS
 10
139.4592836216
 20
290.2018515499
 11
139.4592836216
 21
282.2018515499
  0
LINE
  5
279
100
AcDbEntity
  8
0
100
AcDbLine
 62
9
  6
CONTINUOUS
 10
139.4592836216
 20
225.9518515495
 11
139.4592836216
 21
217.9518515499
  0
LINE
  5
27A
100
AcDbEntity
  8
0
100
AcDbLine
 62
7
  6
CONTINUOUS
 10
139.5592836216
 20
202.1518515499
 11
139.5592836216
 21
203.4518515499
  0
LINE
  5
27B
100
AcDbEntity
  8
0
100
AcDbLine
 62
7
  6
CONTINUOUS
 10
139.6592836216
 20
290.0018512567
 11
139.6592836216
 21
282.2018515499
  0
LINE
  5
27C
100
AcDbEntity
  8
0
100
AcDbLine
 62
7
  6
CONTINUOUS
 10
139.6592836216
 20
218.1518518207
 11
139.6592836216
 21
225.9518515495
  0
LINE
  5
27D
100
AcDbEntity
  8
0
100
AcDbLine
 62
7
  6
CONTINUOUS
 10
141.6592836212
 20
220.6818515499
 11
141.6592836212
 21
221.7818515499
  0
LINE
  5
27E
100
AcDbEntity
  8
0
100
AcDbLine
 62
7
  6
CONTINUOUS
 10
141.6592836216
 20
222.5818515499
 11
141.6592836216
 21
223.6818515499
  0
LINE
  5
27F
100
AcDbEntity
  8
0
100
AcDbLine
 62
7
  6
CONTINUOUS
 10
141.6592836212
 20
284.4718515499
 11
141.6592836212
 21
285.5718515499
  0
LINE
  5
280
100
AcDbEntity
  8
0
100
AcDbLine
 62
7
  6
CONTINUOUS
 10
141.6592836216
 20
286.3718515499
 11
141.6592836216
 21
287.4718515499
  0
LINE
  5
281
100
AcDbEntity
  8
0
100
AcDbLine
 62
7
  6
CONTINUOUS
 10
142.3092836216
 20
270.9518515499
 11
142.3092836216
 21
270.8518515499
  0
LINE
  5
282
100
AcDbEntity
  8
0
100
AcDbLine
 62
7
  6
CONTINUOUS
 10
142.459283622
 20
287.4718515499
 11
142.459283622
 21
286.3718515499
  0
LINE
  5
283
100
AcDbEntity
  8
0
100
AcDbLine
 62
7
  6
CONTINUOUS
 10
142.459283622
 20
285.5718515499
 11
142.459283622
 21
284.4718515499
  0
LINE
  5
284
100
AcDbEntity
  8
0
100
AcDbLine
 62
7
  6
CONTINUOUS
 10
142.459283622
 20
223.6818515499
 11
142.459283622
 21
222.5818515499
  0
LINE
  5
285
100
AcDbEntity
  8
0
100
AcDbLine
 62
7
  6
CONTINUOUS
 10
142.459283622
 20
221.7818515499
 11
142.459283622
 21
220.6818515499
  0
LINE
  5
286
100
AcDbEntity
  8
0
100
AcDbLine
 62
7
  6
CONTINUOUS
 10
143.4042836216
 20
267.2518515499
 11
143.4042836216
 21
270.8518515499
  0
LINE
  5
287
100
AcDbEntity
  8
0
100
AcDbLine
 62
7
  6
CONTINUOUS
 10
143.5092836216
 20
267.2518515499
 11
143.5092836216
 21
270.9518515499
  0
LINE
  5
288
100
AcDbEntity
  8
0
100
AcDbLine
 62
7
  6
CONTINUOUS
 10
144.8092836216
 20
218.1518518211
 11
144.8092836216
 21
225.9518515499
  0
LINE
  5
289
100
AcDbEntity
  8
0
100
AcDbLine
 62
7
  6
CONTINUOUS
 10
144.8092836216
 20
282.2018515499
 11
144.8092836216
 21
290.0018514575
  0
LINE
  5
28A
100
AcDbEntity
  8
0
100
AcDbLine
 62
9
  6
CONTINUOUS
 10
145.0092836216
 20
270.9518515499
 11
145.0092836216
 21
267.217861427
  0
LINE
  5
28B
100
AcDbEntity
  8
0
100
AcDbLine
 62
9
  6
CONTINUOUS
 10
145.0092836219
 20
217.9518515499
 11
145.0092836208
 21
226.1747264719
  0
LINE
  5
28C
100
AcDbEntity
  8
0
100
AcDbLine
 62
9
  6
CONTINUOUS
 10
145.0092836216
 20
282.2018515499
 11
145.0092836217
 21
290.2018515499
  0
LINE
  5
28D
100
AcDbEntity
  8
0
100
AcDbLine
 62
9
  6
CONTINUOUS
 10
145.0358090453
 20
226.6518515499
 11
145.0358090453
 21
267.2178614269
  0
LINE
  5
28E
100
AcDbEntity
  8
0
100
AcDbLine
 62
9
  6
CONTINUOUS
 10
145.3092836216
 20
290.2018515499
 11
145.3092836216
 21
282.1018515499
  0
LINE
  5
28F
100
AcDbEntity
  8
0
100
AcDbLine
 62
9
  6
CONTINUOUS
 10
145.3092836216
 20
225.9518515499
 11
145.3092836216
 21
217.9518515499
  0
LINE
  5
290
100
AcDbEntity
  8
0
100
AcDbLine
 62
7
  6
CONTINUOUS
 10
145.3942836216
 20
226.6518515499
 11
145.3942836216
 21
267.0893657343
  0
LINE
  5
291
100
AcDbEntity
  8
0
100
AcDbLine
 62
7
  6
CONTINUOUS
 10
145.5092836216
 20
203.9517487021
 11
145.5092836216
 21
292.951827179
  0
LINE
  5
292
100
AcDbEntity
  8
0
100
AcDbLine
 62
9
  6
CONTINUOUS
 10
145.1414275618
 20
214.7197263945
 11
145.1413228691
 21
214.7009081184
  0
LINE
  5
293
100
AcDbEntity
  8
0
100
AcDbLine
 62
7
  6
CONTINUOUS
 10
141.1398362616
 20
201.6388213351
 11
141.7997252936
 21
203.4518515499
  0
LINE
  5
294
100
AcDbEntity
  8
0
100
AcDbLine
 62
7
  6
CONTINUOUS
 10
128.4950600574
 20
267.2518515499
 11
129.6842836207
 21
267.2518515499
  0
LINE
  5
295
100
AcDbEntity
  8
0
100
AcDbLine
 62
7
  6
CONTINUOUS
 10
143.4042836214
 20
267.2518515499
 11
144.5935071879
 21
267.2518515499
  0
LINE
  5
296
100
AcDbEntity
  8
0
100
AcDbLine
 62
9
  6
CONTINUOUS
 10
128.1092836216
 20
267.4131850626
 11
129.6092836213
 21
267.4131850626
  0
LINE
  5
297
100
AcDbEntity
  8
0
100
AcDbLine
 62
9
  6
CONTINUOUS
 10
143.5092836216
 20
267.4131850626
 11
145.0092836216
 21
267.4131850626
  0
LINE
  5
298
100
AcDbEntity
  8
0
100
AcDbLine
 62
7
  6
CONTINUOUS
 10
143.5092836216
 20
268.2918515499
 11
143.404283622
 21
268.2918515499
  0
LINE
  5
299
100
AcDbEntity
  8
0
100
AcDbLine
 62
7
  6
CONTINUOUS
 10
129.6092836216
 20
268.2918515499
 11
129.6842836215
 21
268.2918515499
  0
LINE
  5
29A
100
AcDbEntity
  8
0
100
AcDbLine
 62
9
  6
CONTINUOUS
 10
129.6842836217
 20
269.0518515499
 11
143.4042836216
 21
269.0518515499
  0
LINE
  5
29B
100
AcDbEntity
  8
0
100
AcDbLine
 62
7
  6
CONTINUOUS
 10
143.509283622
 20
270.0118515499
 11
143.4042836223
 21
270.0118515499
  0
LINE
  5
29C
100
AcDbEntity
  8
0
100
AcDbLine
 62
7
  6
CONTINUOUS
 10
129.6092836216
 20
270.0118515499
 11
129.6842836214
 21
270.0118515499
  0
LINE
  5
29D
100
AcDbEntity
  8
0
100
AcDbLine
 62
7
  6
CONTINUOUS
 10
129.6842836222
 20
270.8518515499
 11
143.404283621
 21
270.8518515499
  0
LINE
  5
29E
100
AcDbEntity
  8
0
100
AcDbLine
 62
7
  6
CONTINUOUS
 10
127.6092836216
 20
270.9518515499
 11
145.5092836216
 21
270.9518515499
  0
LINE
  5
29F
100
AcDbEntity
  8
0
100
AcDbLine
 62
7
  6
CONTINUOUS
 10
128.1092836216
 20
282.2018515499
 11
145.009283622
 21
282.2018515499
  0
LINE
  5
2A0
100
AcDbEntity
  8
0
100
AcDbLine
 62
7
  6
CONTINUOUS
 10
142.459283622
 20
284.4718515499
 11
141.6592836212
 21
284.4718515499
  0
LINE
  5
2A1
100
AcDbEntity
  8
0
100
AcDbLine
 62
7
  6
CONTINUOUS
 10
136.959283622
 20
284.4718515499
 11
136.1592836213
 21
284.4718515499
  0
LINE
  5
2A2
100
AcDbEntity
  8
0
100
AcDbLine
 62
7
  6
CONTINUOUS
 10
131.459283622
 20
284.4718515499
 11
130.6592836213
 21
284.4718515499
  0
LINE
  5
2A3
100
AcDbEntity
  8
0
100
AcDbLine
 62
7
  6
CONTINUOUS
 10
141.6592836212
 20
285.5718515499
 11
139.794333291
 21
285.5718515499
  0
LINE
  5
2A4
100
AcDbEntity
  8
0
100
AcDbLine
 62
7
  6
CONTINUOUS
 10
136.1592836213
 20
285.5718515499
 11
134.2943332911
 21
285.5718515499
  0
LINE
  5
2A5
100
AcDbEntity
  8
0
100
AcDbLine
 62
7
  6
CONTINUOUS
 10
130.6592836213
 20
285.5718515499
 11
128.7943332911
 21
285.5718515499
  0
LINE
  5
2A6
100
AcDbEntity
  8
0
100
AcDbLine
 62
7
  6
CONTINUOUS
 10
131.4592836216
 20
285.5718515499
 11
133.3242339522
 21
285.5718515499
  0
LINE
  5
2A7
100
AcDbEntity
  8
0
100
AcDbLine
 62
7
  6
CONTINUOUS
 10
136.9592836216
 20
285.5718515499
 11
138.8242339522
 21
285.5718515499
  0
LINE
  5
2A8
100
AcDbEntity
  8
0
100
AcDbLine
 62
7
  6
CONTINUOUS
 10
142.4592836216
 20
285.5718515499
 11
144.3242339522
 21
285.5718515499
  0
LINE
  5
2A9
100
AcDbEntity
  8
0
100
AcDbLine
 62
7
  6
CONTINUOUS
 10
128.7943332911
 20
286.3718515499
 11
130.6592836213
 21
286.3718515499
  0
LINE
  5
2AA
100
AcDbEntity
  8
0
100
AcDbLine
 62
7
  6
CONTINUOUS
 10
131.459283622
 20
286.3718515499
 11
133.3242339522
 21
286.3718515499
  0
LINE
  5
2AB
100
AcDbEntity
  8
0
100
AcDbLine
 62
7
  6
CONTINUOUS
 10
134.2943332911
 20
286.3718515499
 11
136.1592836213
 21
286.3718515499
  0
LINE
  5
2AC
100
AcDbEntity
  8
0
100
AcDbLine
 62
7
  6
CONTINUOUS
 10
136.959283622
 20
286.3718515499
 11
138.8242339522
 21
286.3718515499
  0
LINE
  5
2AD
100
AcDbEntity
  8
0
100
AcDbLine
 62
7
  6
CONTINUOUS
 10
139.794333291
 20
286.3718515499
 11
141.6592836212
 21
286.3718515499
  0
LINE
  5
2AE
100
AcDbEntity
  8
0
100
AcDbLine
 62
7
  6
CONTINUOUS
 10
142.459283622
 20
286.3718515499
 11
144.3242339522
 21
286.3718515499
  0
LINE
  5
2AF
100
AcDbEntity
  8
0
100
AcDbLine
 62
7
  6
CONTINUOUS
 10
130.6592836216
 20
287.4718515499
 11
131.459283622
 21
287.4718515499
  0
LINE
  5
2B0
100
AcDbEntity
  8
0
100
AcDbLine
 62
7
  6
CONTINUOUS
 10
136.1592836216
 20
287.4718515499
 11
136.959283622
 21
287.4718515499
  0
LINE
  5
2B1
100
AcDbEntity
  8
0
100
AcDbLine
 62
7
  6
CONTINUOUS
 10
141.6592836216
 20
287.4718515499
 11
142.459283622
 21
287.4718515499
  0
LINE
  5
2B2
100
AcDbEntity
  8
0
100
AcDbLine
 62
9
  6
CONTINUOUS
 10
127.6092836216
 20
287.8018515502
 11
128.3092836216
 21
287.8018472824
  0
LINE
  5
2B3
100
AcDbEntity
  8
0
100
AcDbLine
 62
9
  6
CONTINUOUS
 10
133.4592836216
 20
287.8018515502
 11
134.1592836216
 21
287.8018476381
  0
LINE
  5
2B4
100
AcDbEntity
  8
0
100
AcDbLine
 62
9
  6
CONTINUOUS
 10
138.9592836216
 20
287.8018515502
 11
139.6592836216
 21
287.801839815
  0
LINE
  5
2B5
100
AcDbEntity
  8
0
100
AcDbLine
 62
9
  6
CONTINUOUS
 10
144.8092836216
 20
287.8018515502
 11
145.5092836216
 21
287.801847405
  0
LINE
  5
2B6
100
AcDbEntity
  8
0
100
AcDbLine
 62
7
  6
CONTINUOUS
 10
145.3092836216
 20
290.2018515499
 11
145.0092836216
 21
290.2018515499
  0
LINE
  5
2B7
100
AcDbEntity
  8
0
100
AcDbLine
 62
7
  6
CONTINUOUS
 10
139.4592836216
 20
290.2018515499
 11
139.1592836216
 21
290.2018515499
  0
LINE
  5
2B8
100
AcDbEntity
  8
0
100
AcDbLine
 62
7
  6
CONTINUOUS
 10
133.9592836216
 20
290.2018515499
 11
133.659283622
 21
290.2018515499
  0
LINE
  5
2B9
100
AcDbEntity
  8
0
100
AcDbLine
 62
7
  6
CONTINUOUS
 10
128.1092836216
 20
290.2018515499
 11
127.8092836216
 21
290.2018515499
  0
LINE
  5
2BA
100
AcDbEntity
  8
0
100
AcDbLine
 62
7
  6
CONTINUOUS
 10
128.1092836216
 20
293.4518515499
 11
145.0092836216
 21
293.4518515499
  0
ARC
  5
2BB
100
AcDbEntity
  8
0
100
AcDbCircle
 62
9
  6
CONTINUOUS
 10
-529.4465809371
 20
284.7766955029
 40
674.5391197332
100
AcDbArc
 50
0.460821772
 51
0.7184173975
  0
ARC
  5
2BC
100
AcDbEntity
  8
0
100
AcDbCircle
 62
7
  6
CONTINUOUS
 10
128.1092836216
 20
203.9518515499
 40
0.5
100
AcDbArc
 50
180.0068639083
 51
270.0
  0
ARC
  5
2BD
100
AcDbEntity
  8
0
100
AcDbCircle
 62
9
  6
CONTINUOUS
 10
128.1078360436
 20
215.7780049504
 40
0.8591316793
100
AcDbArc
 50
261.1644266986
 51
268.0801638458
  0
ARC
  5
2BE
100
AcDbEntity
  8
0
100
AcDbCircle
 62
7
  6
CONTINUOUS
 10
128.1092836216
 20
215.2018515499
 40
0.5
100
AcDbArc
 50
179.9987312881
 51
270.0
  0
ARC
  5
2BF
100
AcDbEntity
  8
0
100
AcDbCircle
 62
7
  6
CONTINUOUS
 10
128.1092836216
 20
226.4518515499
 40
0.5
100
AcDbArc
 50
180.0
 51
270.0
  0
ARC
  5
2C0
100
AcDbEntity
  8
0
100
AcDbCircle
 62
7
  6
CONTINUOUS
 10
128.1942836216
 20
226.6518515499
 40
0.5
100
AcDbArc
 50
180.0
 51
270.0
  0
ARC
  5
2C1
100
AcDbEntity
  8
0
100
AcDbCircle
 62
7
  6
CONTINUOUS
 10
127.8092836216
 20
218.1518515499
 40
0.2
100
AcDbArc
 50
179.9999487203
 51
270.0
  0
ARC
  5
2C2
100
AcDbEntity
  8
0
100
AcDbCircle
 62
7
  6
CONTINUOUS
 10
128.1092836216
 20
218.1518515499
 40
0.2
100
AcDbArc
 50
270.0
 51
0.0000248664
  0
ARC
  5
2C3
100
AcDbEntity
  8
0
100
AcDbCircle
 62
7
  6
CONTINUOUS
 10
133.3882699129
 20
202.1518515499
 40
1.5
100
AcDbArc
 50
199.9999999791
 51
270.0
  0
ARC
  5
2C4
100
AcDbEntity
  8
0
100
AcDbCircle
 62
9
  6
CONTINUOUS
 10
131.2766012351
 20
215.0794910208
 40
3.2014611954
100
AcDbArc
 50
182.8564661626
 51
184.2230765982
  0
CIRCLE
  5
2C5
100
AcDbEntity
  8
0
100
AcDbCircle
 62
7
  6
CONTINUOUS
 10
131.0592836216
 20
222.1818515499
 40
2.35
  0
CIRCLE
  5
2C6
100
AcDbEntity
  8
0
100
AcDbCircle
 62
7
  6
CONTINUOUS
 10
131.0592836216
 20
222.1818515499
 40
2.3
  0
ARC
  5
2C7
100
AcDbEntity
  8
0
100
AcDbCircle
 62
9
  6
CONTINUOUS
 10
131.0592836216
 20
222.1818515499
 40
2.1
100
AcDbArc
 50
190.9805754211
 51
349.0194245694
  0
ARC
  5
2C8
100
AcDbEntity
  8
0
100
AcDbCircle
 62
9
  6
CONTINUOUS
 10
131.0592836216
 20
222.1818515499
 40
2.1
100
AcDbArc
 50
10.9805754221
 51
169.0194245726
  0
ARC
  5
2C9
100
AcDbEntity
  8
0
100
AcDbCircle
 62
7
  6
CONTINUOUS
 10
133.6592836216
 20
218.1518515499
 40
0.2
100
AcDbArc
 50
179.9999488349
 51
270.0
  0
ARC
  5
2CA
100
AcDbEntity
  8
0
100
AcDbCircle
 62
7
  6
CONTINUOUS
 10
133.9592836216
 20
218.1518515499
 40
0.2
100
AcDbArc
 50
270.0
 51
0.0000511651
  0
ARC
  5
2CB
100
AcDbEntity
  8
0
100
AcDbCircle
 62
9
  6
CONTINUOUS
 10
136.5599247233
 20
-1084.8525214808
 40
1366.862588492
100
AcDbArc
 50
89.6445549781
 51
90.355500387
  0
ARC
  5
2CC
100
AcDbEntity
  8
0
100
AcDbCircle
 62
9
  6
CONTINUOUS
 10
136.5600448703
 20
-1056.2787146453
 40
1349.5391557278
100
AcDbArc
 50
89.6399973943
 51
90.3600689309
  0
ARC
  5
2CD
100
AcDbEntity
  8
0
100
AcDbCircle
 62
7
  6
CONTINUOUS
 10
139.7302973304
 20
202.1518515499
 40
1.5
100
AcDbArc
 50
270.0
 51
340.0000000071
  0
CIRCLE
  5
2CE
100
AcDbEntity
  8
0
100
AcDbCircle
 62
7
  6
CONTINUOUS
 10
136.5592836216
 20
222.1818515499
 40
2.35
  0
CIRCLE
  5
2CF
100
AcDbEntity
  8
0
100
AcDbCircle
 62
7
  6
CONTINUOUS
 10
136.5592836216
 20
222.1818515499
 40
2.3
  0
ARC
  5
2D0
100
AcDbEntity
  8
0
100
AcDbCircle
 62
9
  6
CONTINUOUS
 10
136.5592836216
 20
222.1818515499
 40
2.1
100
AcDbArc
 50
10.9805754176
 51
169.0194245755
  0
ARC
  5
2D1
100
AcDbEntity
  8
0
100
AcDbCircle
 62
9
  6
CONTINUOUS
 10
136.5592836216
 20
222.1818515499
 40
2.1
100
AcDbArc
 50
190.9805754211
 51
349.0194245694
  0
ARC
  5
2D2
100
AcDbEntity
  8
0
100
AcDbCircle
 62
7
  6
CONTINUOUS
 10
139.1592836216
 20
218.1518515499
 40
0.2
100
AcDbArc
 50
179.9999223069
 51
270.0
  0
ARC
  5
2D3
100
AcDbEntity
  8
0
100
AcDbCircle
 62
7
  6
CONTINUOUS
 10
139.4592836216
 20
218.1518515499
 40
0.2
100
AcDbArc
 50
270.0
 51
0.0000511651
  0
ARC
  5
2D4
100
AcDbEntity
  8
0
100
AcDbCircle
 62
7
  6
CONTINUOUS
 10
145.0092836216
 20
203.9518515499
 40
0.5
100
AcDbArc
 50
270.0
 51
359.9919667422
  0
CIRCLE
  5
2D5
100
AcDbEntity
  8
0
100
AcDbCircle
 62
7
  6
CONTINUOUS
 10
142.0592836216
 20
222.1818515499
 40
2.35
  0
CIRCLE
  5
2D6
100
AcDbEntity
  8
0
100
AcDbCircle
 62
7
  6
CONTINUOUS
 10
142.0592836216
 20
222.1818515499
 40
2.3
  0
ARC
  5
2D7
100
AcDbEntity
  8
0
100
AcDbCircle
 62
9
  6
CONTINUOUS
 10
142.0592836216
 20
222.1818515499
 40
2.1
100
AcDbArc
 50
190.9805754211
 51
349.0194245695
  0
ARC
  5
2D8
100
AcDbEntity
  8
0
100
AcDbCircle
 62
9
  6
CONTINUOUS
 10
142.0592836216
 20
222.1818515499
 40
2.1
100
AcDbArc
 50
10.9805754221
 51
169.0194245726
  0
ARC
  5
2D9
100
AcDbEntity
  8
0
100
AcDbCircle
 62
7
  6
CONTINUOUS
 10
145.0092836216
 20
215.2018515499
 40
0.5
100
AcDbArc
 50
270.0
 51
0.0005939051
  0
ARC
  5
2DA
100
AcDbEntity
  8
0
100
AcDbCircle
 62
7
  6
CONTINUOUS
 10
145.3092836216
 20
218.1518515499
 40
0.2
100
AcDbArc
 50
270.0
 51
0.0000512797
  0
ARC
  5
2DB
100
AcDbEntity
  8
0
100
AcDbCircle
 62
7
  6
CONTINUOUS
 10
145.0092836216
 20
218.1518515499
 40
0.2
100
AcDbArc
 50
179.9999487203
 51
270.0
  0
ARC
  5
2DC
100
AcDbEntity
  8
0
100
AcDbCircle
 62
7
  6
CONTINUOUS
 10
144.8942836216
 20
226.6518515499
 40
0.5
100
AcDbArc
 50
270.0
 51
360.0
  0
ARC
  5
2DD
100
AcDbEntity
  8
0
100
AcDbCircle
 62
7
  6
CONTINUOUS
 10
145.0092836216
 20
226.4518515499
 40
0.5
100
AcDbArc
 50
270.0000000458
 51
360.0
  0
ARC
  5
2DE
100
AcDbEntity
  8
0
100
AcDbCircle
 62
7
  6
CONTINUOUS
 10
129.6092836216
 20
269.1518515499
 40
0.9
100
AcDbArc
 50
90.0
 51
270.0
  0
ARC
  5
2DF
100
AcDbEntity
  8
0
100
AcDbCircle
 62
7
  6
CONTINUOUS
 10
128.1092836216
 20
270.4518515499
 40
0.5
100
AcDbArc
 50
90.0000000427
 51
180.0000557144
  0
ARC
  5
2E0
100
AcDbEntity
  8
0
100
AcDbCircle
 62
7
  6
CONTINUOUS
 10
128.1092836216
 20
281.7018515499
 40
0.5
100
AcDbArc
 50
90.0
 51
180.0
  0
ARC
  5
2E1
100
AcDbEntity
  8
0
100
AcDbCircle
 62
7
  6
CONTINUOUS
 10
128.1092836216
 20
292.9518515499
 40
0.5
100
AcDbArc
 50
90.0
 51
180.0005315788
  0
ARC
  5
2E2
100
AcDbEntity
  8
0
100
AcDbCircle
 62
7
  6
CONTINUOUS
 10
128.1092836216
 20
290.0018515499
 40
0.2
100
AcDbArc
 50
359.9999158898
 51
90.0
  0
ARC
  5
2E3
100
AcDbEntity
  8
0
100
AcDbCircle
 62
7
  6
CONTINUOUS
 10
127.8092836216
 20
290.0018515499
 40
0.2
100
AcDbArc
 50
90.0
 51
180.0000555473
  0
ARC
  5
2E4
100
AcDbEntity
  8
0
100
AcDbCircle
 62
9
  6
CONTINUOUS
 10
131.0091138614
 20
285.998474677
 40
2.4778120491
100
AcDbArc
 50
179.7752430022
 51
181.1548628415
  0
CIRCLE
  5
2E5
100
AcDbEntity
  8
0
100
AcDbCircle
 62
7
  6
CONTINUOUS
 10
131.0592836216
 20
285.9718515499
 40
2.35
  0
CIRCLE
  5
2E6
100
AcDbEntity
  8
0
100
AcDbCircle
 62
7
  6
CONTINUOUS
 10
131.0592836216
 20
285.9718515499
 40
2.3
  0
ARC
  5
2E7
100
AcDbEntity
  8
0
100
AcDbCircle
 62
9
  6
CONTINUOUS
 10
131.0592836216
 20
285.9718515499
 40
2.1000000003
100
AcDbArc
 50
10.9805754176
 51
169.0194245755
  0
ARC
  5
2E8
100
AcDbEntity
  8
0
100
AcDbCircle
 62
9
  6
CONTINUOUS
 10
131.0592836216
 20
285.9718515499
 40
2.1
100
AcDbArc
 50
190.9805754211
 51
349.0194245694
  0
ARC
  5
2E9
100
AcDbEntity
  8
0
100
AcDbCircle
 62
7
  6
CONTINUOUS
 10
133.9592836216
 20
290.0018515499
 40
0.2
100
AcDbArc
 50
359.9999160044
 51
90.0
  0
ARC
  5
2EA
100
AcDbEntity
  8
0
100
AcDbCircle
 62
7
  6
CONTINUOUS
 10
133.6592836216
 20
290.0018515499
 40
0.2
100
AcDbArc
 50
90.0
 51
180.0000264706
  0
ARC
  5
2EB
100
AcDbEntity
  8
0
100
AcDbCircle
 62
9
  6
CONTINUOUS
 10
136.5586153323
 20
1570.0846588397
 40
1366.441025228
100
AcDbArc
 50
269.6444464227
 51
270.3556112165
  0
ARC
  5
2EC
100
AcDbEntity
  8
0
100
AcDbCircle
 62
9
  6
CONTINUOUS
 10
136.5586567474
 20
1564.4145536974
 40
1349.521291663
100
AcDbArc
 50
269.6399869405
 51
270.3600671774
  0
CIRCLE
  5
2ED
100
AcDbEntity
  8
0
100
AcDbCircle
 62
7
  6
CONTINUOUS
 10
136.5592836216
 20
285.9718515499
 40
2.35
  0
CIRCLE
  5
2EE
100
AcDbEntity
  8
0
100
AcDbCircle
 62
7
  6
CONTINUOUS
 10
136.5592836216
 20
285.9718515499
 40
2.3
  0
ARC
  5
2EF
100
AcDbEntity
  8
0
100
AcDbCircle
 62
9
  6
CONTINUOUS
 10
136.5592836216
 20
285.9718515499
 40
2.1000000003
100
AcDbArc
 50
10.9805754176
 51
169.0194245755
  0
ARC
  5
2F0
100
AcDbEntity
  8
0
100
AcDbCircle
 62
9
  6
CONTINUOUS
 10
136.5592836216
 20
285.9718515499
 40
2.1
100
AcDbArc
 50
190.9805754211
 51
349.0194245694
  0
ARC
  5
2F1
100
AcDbEntity
  8
0
100
AcDbCircle
 62
7
  6
CONTINUOUS
 10
139.1592836216
 20
290.0018515499
 40
0.2
100
AcDbArc
 50
90.0
 51
180.0000264706
  0
ARC
  5
2F2
100
AcDbEntity
  8
0
100
AcDbCircle
 62
7
  6
CONTINUOUS
 10
139.4592836216
 20
290.0018515499
 40
0.2
100
AcDbArc
 50
359.9999160044
 51
90.0
  0
ARC
  5
2F3
100
AcDbEntity
  8
0
100
AcDbCircle
 62
7
  6
CONTINUOUS
 10
143.5092836216
 20
269.1518515499
 40
0.9
100
AcDbArc
 50
270.0
 51
90.0
  0
ARC
  5
2F4
100
AcDbEntity
  8
0
100
AcDbCircle
 62
7
  6
CONTINUOUS
 10
145.0092836216
 20
270.4518515499
 40
0.5
100
AcDbArc
 50
359.9999435407
 51
90.0
  0
ARC
  5
2F5
100
AcDbEntity
  8
0
100
AcDbCircle
 62
9
  6
CONTINUOUS
 10
142.0843459782
 20
286.008004407
 40
2.5029004167
100
AcDbArc
 50
358.6339703488
 51
0.0043525973
  0
CIRCLE
  5
2F6
100
AcDbEntity
  8
0
100
AcDbCircle
 62
7
  6
CONTINUOUS
 10
142.0592836216
 20
285.9718515499
 40
2.35
  0
CIRCLE
  5
2F7
100
AcDbEntity
  8
0
100
AcDbCircle
 62
7
  6
CONTINUOUS
 10
142.0592836216
 20
285.9718515499
 40
2.3
  0
ARC
  5
2F8
100
AcDbEntity
  8
0
100
AcDbCircle
 62
9
  6
CONTINUOUS
 10
142.0592836216
 20
285.9718515499
 40
2.1000000003
100
AcDbArc
 50
10.9805754176
 51
169.0194245754
  0
ARC
  5
2F9
100
AcDbEntity
  8
0
100
AcDbCircle
 62
9
  6
CONTINUOUS
 10
142.0592836216
 20
285.9718515499
 40
2.1
100
AcDbArc
 50
190.9805754211
 51
349.0194245695
  0
ARC
  5
2FA
100
AcDbEntity
  8
0
100
AcDbCircle
 62
7
  6
CONTINUOUS
 10
145.0092836216
 20
281.7018515499
 40
0.5
100
AcDbArc
 50
0.0068639083
 51
90.0
  0
ARC
  5
2FB
100
AcDbEntity
  8
0
100
AcDbCircle
 62
7
  6
CONTINUOUS
 10
145.0092836216
 20
292.9518515499
 40
0.5
100
AcDbArc
 50
359.9985437819
 51
90.0
  0
ARC
  5
2FC
100
AcDbEntity
  8
0
100
AcDbCircle
 62
7
  6
CONTINUOUS
 10
145.3092836216
 20
290.0018515499
 40
0.2
100
AcDbArc
 50
359.9999444517
 51
90.0
  0
ARC
  5
2FD
100
AcDbEntity
  8
0
100
AcDbCircle
 62
7
  6
CONTINUOUS
 10
145.0092836216
 20
290.0018515499
 40
0.2
100
AcDbArc
 50
90.0
 51
180.0000264706
  0
SPLINE
  5
2FE
100
AcDbEntity
  8
0
100
AcDbSpline
 62
7
  6
CONTINUOUS
 70
0
 71
3
 72
12
 73
8
 74
0
 42
0.0000001
 43
0.0000001
 44
0.0000000001
 40
0.0
 40
0.0
 40
0.0
 40
0.0
 40
0.3709860235
 40
0.6699430652
 40
0.7855436431
 40
0.8774529618
 40
1.0
 40
1.0
 40
1.0
 40
1.0
 10
128.0527581988
 20
267.2178614269
 30
0.0
 10
128.003845587
 20
267.2139935588
 30
0.0
 10
127.9157447005
 20
267.2030637478
 30
0.0
 10
127.8143763526
 20
267.1791214602
 30
0.0
 10
127.7521048067
 20
267.1528912741
 30
0.0
 10
127.7152072543
 20
267.1312470506
 30
0.0
 10
127.6942836224
 20
267.105573375
 30
0.0
 10
127.6942836224
 20
267.0893657358
 30
0.0
  0
SPLINE
  5
2FF
100
AcDbEntity
  8
0
100
AcDbSpline
 62
7
  6
CONTINUOUS
 70
0
 71
3
 72
12
 73
8
 74
0
 42
0.0000001
 43
0.0000001
 44
0.0000000001
 40
0.0
 40
0.0
 40
0.0
 40
0.0
 40
0.122550778
 40
0.214452998
 40
0.3300556774
 40
0.6290507427
 40
1.0
 40
1.0
 40
1.0
 40
1.0
 10
145.3942836216
 20
267.0893657346
 30
0.0
 10
145.3942836216
 20
267.1055740722
 30
0.0
 10
145.3733634119
 20
267.1312485877
 30
0.0
 10
145.3364690655
 20
267.1528999712
 30
0.0
 10
145.2741917221
 20
267.1791309369
 30
0.0
 10
145.1728188991
 20
267.2030619097
 30
0.0
 10
145.0847174244
 20
267.2139938936
 30
0.0
 10
145.0358090448
 20
267.217861427
 30
0.0
  0
SPLINE
  5
300
100
AcDbEntity
  8
0
100
AcDbSpline
 62
9
  6
CONTINUOUS
 70
0
 71
3
 72
15
 73
11
 74
0
 42
0.0000001
 43
0.0000001
 44
0.0000000001
 40
0.0
 40
0.0
 40
0.0
 40
0.0
 40
0.1245204755
 40
0.2504816833
 40
0.3776495185
 40
0.5052239184
 40
0.6318912483
 40
0.7564425878
 40
0.8787848239
 40
1.0
 40
1.0
 40
1.0
 40
1.0
 10
144.5872463146
 20
286.0081944007
 30
0.0
 10
144.5862972333
 20
286.3056291718
 30
0.0
 10
144.4762662055
 20
286.9090067028
 30
0.0
 10
144.0026479372
 20
287.6989030419
 30
0.0
 10
143.2740413347
 20
288.2763519387
 30
0.0
 10
142.3860650787
 20
288.5574301117
 30
0.0
 10
141.4622888981
 20
288.5039264384
 30
0.0
 10
140.6309285546
 20
288.129160828
 30
0.0
 10
139.9911474204
 20
287.5008364309
 30
0.0
 10
139.7360761755
 20
286.9623414974
 30
0.0
 10
139.6592836479
 20
286.6831696168
 30
0.0
  0
SPLINE
  5
301
100
AcDbEntity
  8
0
100
AcDbSpline
 62
9
  6
CONTINUOUS
 70
0
 71
3
 72
10
 73
6
 74
0
 42
0.0000001
 43
0.0000001
 44
0.0000000001
 40
0.0
 40
0.0
 40
0.0
 40
0.0
 40
0.1013265607
 40
0.3278140352
 40
1.0
 40
1.0
 40
1.0
 40
1.0
 10
144.4092777762
 20
285.971851926
 30
0.0
 10
144.4092778352
 20
285.9781773044
 30
0.0
 10
144.4290300838
 20
285.9931900278
 30
0.0
 10
144.4871703454
 20
286.0062507639
 30
0.0
 10
144.5453305391
 20
286.0101561893
 30
0.0
 10
144.5872463146
 20
286.0081944007
 30
0.0
  0
SPLINE
  5
302
100
AcDbEntity
  8
0
100
AcDbSpline
 62
9
  6
CONTINUOUS
 70
0
 71
3
 72
16
 73
12
 74
0
 42
0.0000001
 43
0.0000001
 44
0.0000000001
 40
0.0
 40
0.0
 40
0.0
 40
0.0
 40
0.1250025081
 40
0.1885962435
 40
0.2526586387
 40
0.3805181653
 40
0.507066575
 40
0.6314412983
 40
0.7542120809
 40
0.8766458671
 40
1.0
 40
1.0
 40
1.0
 40
1.0
 10
139.6592836215
 20
285.3540660135
 30
0.0
 10
139.7391613167
 20
285.0685245279
 30
0.0
 10
139.9374200678
 20
284.6543802362
 30
0.0
 10
140.3298863622
 20
284.1981204173
 30
0.0
 10
140.8059083348
 20
283.8178621859
 30
0.0
 10
141.5171185841
 20
283.5150446402
 30
0.0
 10
142.4340872204
 20
283.473751534
 30
0.0
 10
143.2942984586
 20
283.7559583598
 30
0.0
 10
143.9975227755
 20
284.3093988515
 30
0.0
 10
144.4633298642
 20
285.0701585624
 30
0.0
 10
144.5795627329
 20
285.6558260196
 30
0.0
 10
144.58653507
 20
285.9483366215
 30
0.0
  0
SPLINE
  5
303
100
AcDbEntity
  8
0
100
AcDbSpline
 62
9
  6
CONTINUOUS
 70
0
 71
3
 72
9
 73
5
 74
0
 42
0.0000001
 43
0.0000001
 44
0.0000000001
 40
0.0
 40
0.0
 40
0.0
 40
0.0
 40
0.3436169498
 40
1.0
 40
1.0
 40
1.0
 40
1.0
 10
139.7092837448
 20
285.9718515336
 30
0.0
 10
139.7092837307
 20
285.9789747051
 30
0.0
 10
139.6914566753
 20
285.9958462845
 30
0.0
 10
139.672431752
 20
286.0016326681
 30
0.0
 10
139.659283022
 20
286.0051335331
 30
0.0
  0
SPLINE
  5
304
100
AcDbEntity
  8
0
100
AcDbSpline
 62
7
  6
CONTINUOUS
 70
0
 71
3
 72
9
 73
5
 74
0
 42
0.0000001
 43
0.0000001
 44
0.0000000001
 40
0.0
 40
0.0
 40
0.0
 40
0.0
 40
0.5278152405
 40
1.0
 40
1.0
 40
1.0
 40
1.0
 10
145.3958253675
 20
266.2897498797
 30
0.0
 10
145.4311079327
 20
266.3227137977
 30
0.0
 10
145.488099879
 20
266.3976973885
 30
0.0
 10
145.5092836571
 20
266.4900380166
 30
0.0
 10
145.5092836216
 20
266.5332342442
 30
0.0
  0
SPLINE
  5
305
100
AcDbEntity
  8
0
100
AcDbSpline
 62
9
  6
CONTINUOUS
 70
0
 71
3
 72
11
 73
7
 74
0
 42
0.0000001
 43
0.0000001
 44
0.0000000001
 40
0.0
 40
0.0
 40
0.0
 40
0.0
 40
0.2539895954
 40
0.5056607338
 40
0.7540161383
 40
1.0
 40
1.0
 40
1.0
 40
1.0
 10
145.0092836216
 20
267.4131850634
 30
0.0
 10
145.0742308183
 20
267.4131850634
 30
0.0
 10
145.2048803242
 20
267.4380253438
 30
0.0
 10
145.3710104725
 20
267.5448618203
 30
0.0
 10
145.4829385266
 20
267.7053952943
 30
0.0
 10
145.509283688
 20
267.8332484033
 30
0.0
 10
145.5092836216
 20
267.896148469
 30
0.0
  0
SPLINE
  5
306
100
AcDbEntity
  8
0
100
AcDbSpline
 62
9
  6
CONTINUOUS
 70
0
 71
3
 72
16
 73
12
 74
0
 42
0.0000001
 43
0.0000001
 44
0.0000000001
 40
0.0
 40
0.0
 40
0.0
 40
0.0
 40
0.1225215874
 40
0.2466201031
 40
0.3725656152
 40
0.4998032319
 40
0.6270567216
 40
0.752977063
 40
0.8154733069
 40
0.8774886249
 40
1.0
 40
1.0
 40
1.0
 40
1.0
 10
138.9592836261
 20
285.2853893672
 30
0.0
 10
138.8831654031
 20
285.0365903345
 30
0.0
 10
138.6500045025
 20
284.5565104699
 30
0.0
 10
138.0921556404
 20
283.9773867067
 30
0.0
 10
137.3704622439
 20
283.5985649256
 30
0.0
 10
136.5592394519
 20
283.464456192
 30
0.0
 10
135.7483234891
 20
283.5982932165
 30
0.0
 10
135.1437816497
 20
283.9159232672
 30
0.0
 10
134.745074499
 20
284.2708511582
 30
0.0
 10
134.4095903656
 20
284.676080829
 30
0.0
 10
134.2346066453
 20
285.0363694942
 30
0.0
 10
134.1592836289
 20
285.2853877694
 30
0.0
  0
SPLINE
  5
307
100
AcDbEntity
  8
0
100
AcDbSpline
 62
9
  6
CONTINUOUS
 70
0
 71
3
 72
9
 73
5
 74
0
 42
0.0000001
 43
0.0000001
 44
0.0000000001
 40
0.0
 40
0.0
 40
0.0
 40
0.0
 40
0.3498386041
 40
1.0
 40
1.0
 40
1.0
 40
1.0
 10
134.209284107
 20
285.9718514815
 30
0.0
 10
134.2092841211
 20
285.9791201343
 30
0.0
 10
134.1913268778
 20
285.9959920041
 30
0.0
 10
134.1723296701
 20
286.0019028168
 30
0.0
 10
134.1592829854
 20
286.0054047867
 30
0.0
  0
SPLINE
  5
308
100
AcDbEntity
  8
0
100
AcDbSpline
 62
9
  6
CONTINUOUS
 70
0
 71
3
 72
16
 73
12
 74
0
 42
0.0000001
 43
0.0000001
 44
0.0000000001
 40
0.0
 40
0.0
 40
0.0
 40
0.0
 40
0.1225581146
 40
0.1845872626
 40
0.2470805411
 40
0.3729668633
 40
0.5001661731
 40
0.6273613436
 40
0.753280557
 40
0.8774143826
 40
1.0
 40
1.0
 40
1.0
 40
1.0
 10
138.9592836151
 20
286.7447603547
 30
0.0
 10
138.8844925221
 20
286.9943283974
 30
0.0
 10
138.7099912438
 20
287.3555365574
 30
0.0
 10
138.374518729
 20
287.7616676587
 30
0.0
 10
137.9756400992
 20
288.1172009813
 30
0.0
 10
137.3709869925
 20
288.4354735355
 30
0.0
 10
136.5596757338
 20
288.5711940766
 30
0.0
 10
135.7477566371
 20
288.4355981813
 30
0.0
 10
135.026482826
 20
288.0548101543
 30
0.0
 10
134.4672853819
 20
287.4757386898
 30
0.0
 10
134.2344397957
 20
286.9942780439
 30
0.0
 10
134.159283621
 20
286.7447586401
 30
0.0
  0
SPLINE
  5
309
100
AcDbEntity
  8
0
100
AcDbSpline
 62
9
  6
CONTINUOUS
 70
0
 71
3
 72
9
 73
5
 74
0
 42
0.0000001
 43
0.0000001
 44
0.0000000001
 40
0.0
 40
0.0
 40
0.0
 40
0.0
 40
0.340080002
 40
1.0
 40
1.0
 40
1.0
 40
1.0
 10
138.9092782923
 20
285.9718516023
 30
0.0
 10
138.9092782756
 20
285.9789233774
 30
0.0
 10
138.9268510216
 20
285.9960268189
 30
0.0
 10
138.9460289232
 20
286.001848241
 30
0.0
 10
138.9592825051
 20
286.0054055226
 30
0.0
  0
SPLINE
  5
30A
100
AcDbEntity
  8
0
100
AcDbSpline
 62
9
  6
CONTINUOUS
 70
0
 71
3
 72
19
 73
15
 74
0
 42
0.0000001
 43
0.0000001
 44
0.0000000001
 40
0.0
 40
0.0
 40
0.0
 40
0.0
 40
0.0619656542
 40
0.1236386638
 40
0.1850655583
 40
0.2464082214
 40
0.3689662831
 40
0.4931465111
 40
0.5563318691
 40
0.6200435496
 40
0.7477231556
 40
0.8116897848
 40
0.8751833281
 40
1.0
 40
1.0
 40
1.0
 40
1.0
 10
128.5318051265
 20
285.9485348851
 30
0.0
 10
128.5347709555
 20
285.8013611925
 30
0.0
 10
128.5667340967
 20
285.5075448668
 30
0.0
 10
128.6919992205
 20
285.0837875445
 30
0.0
 10
128.8894993837
 20
284.6901283551
 30
0.0
 10
129.2363984206
 20
284.2186932607
 30
0.0
 10
129.8242196747
 20
283.75558945
 30
0.0
 10
130.5397209948
 20
283.5222413886
 30
0.0
 10
131.1383474752
 20
283.4935623339
 30
0.0
 10
131.7407499461
 20
283.5726188026
 30
0.0
 10
132.3120705283
 20
283.8189615066
 30
0.0
 10
132.7884246198
 20
284.19823666
 30
0.0
 10
133.1813280946
 20
284.6542887782
 30
0.0
 10
133.3794773609
 20
285.0684977748
 30
0.0
 10
133.4592836262
 20
285.3540662769
 30
0.0
  0
SPLINE
  5
30B
100
AcDbEntity
  8
0
100
AcDbSpline
 62
9
  6
CONTINUOUS
 70
0
 71
3
 72
10
 73
6
 74
0
 42
0.0000001
 43
0.0000001
 44
0.0000000001
 40
0.0
 40
0.0
 40
0.0
 40
0.0
 40
0.1055252573
 40
0.3383863276
 40
1.0
 40
1.0
 40
1.0
 40
1.0
 10
128.7092860564
 20
285.9718515694
 30
0.0
 10
128.7092860854
 20
285.9784379137
 30
0.0
 10
128.6884574865
 20
285.9936124159
 30
0.0
 10
128.6305419332
 20
286.0062828059
 30
0.0
 10
128.5725702593
 20
286.0101248451
 30
0.0
 10
128.5313208765
 20
286.0081944884
 30
0.0
  0
SPLINE
  5
30C
100
AcDbEntity
  8
0
100
AcDbSpline
 62
9
  6
CONTINUOUS
 70
0
 71
3
 72
9
 73
5
 74
0
 42
0.0000001
 43
0.0000001
 44
0.0000000001
 40
0.0
 40
0.0
 40
0.0
 40
0.0
 40
0.237850045
 40
1.0
 40
1.0
 40
1.0
 40
1.0
 10
145.0394704256
 20
214.919959713
 30
0.0
 10
145.042706872
 20
215.1603293865
 30
0.0
 10
145.0546412671
 20
216.170945044
 30
0.0
 10
145.0635158876
 20
217.181592187
 30
0.0
 10
145.0706738662
 20
217.9518524181
 30
0.0
  0
SPLINE
  5
30D
100
AcDbEntity
  8
0
100
AcDbSpline
 62
9
  6
CONTINUOUS
 70
0
 71
3
 72
11
 73
7
 74
0
 42
0.0000001
 43
0.0000001
 44
0.0000000001
 40
0.0
 40
0.0
 40
0.0
 40
0.0
 40
0.1783619106
 40
0.4129319716
 40
0.7009529873
 40
1.0
 40
1.0
 40
1.0
 40
1.0
 10
145.5092830983
 20
215.2021799609
 30
0.0
 10
145.5093737162
 20
215.1669052032
 30
0.0
 10
145.4793392251
 20
215.0848255832
 30
0.0
 10
145.3681432302
 20
214.9951969494
 30
0.0
 10
145.214764952
 20
214.936851475
 30
0.0
 10
145.0986451473
 20
214.9213645812
 30
0.0
 10
145.0395369866
 20
214.9193369414
 30
0.0
  0
SPLINE
  5
30E
100
AcDbEntity
  8
0
100
AcDbSpline
 62
9
  6
CONTINUOUS
 70
0
 71
3
 72
15
 73
11
 74
0
 42
0.0000001
 43
0.0000001
 44
0.0000000001
 40
0.0
 40
0.0
 40
0.0
 40
0.0
 40
0.1212293606
 40
0.2435601801
 40
0.3681249078
 40
0.4948176555
 40
0.6223788284
 40
0.7495466014
 40
0.8754930167
 40
1.0
 40
1.0
 40
1.0
 40
1.0
 10
133.459283602
 20
286.6831669649
 30
0.0
 10
133.3822969091
 20
286.962326659
 30
0.0
 10
133.1276892213
 20
287.50096938
 30
0.0
 10
132.4879119143
 20
288.1295642734
 30
0.0
 10
131.6560242239
 20
288.5036789992
 30
0.0
 10
130.7324849394
 20
288.5564802784
 30
0.0
 10
129.8435630427
 20
288.2778111392
 30
0.0
 10
129.1159921462
 20
287.6986688901
 30
0.0
 10
128.6428479773
 20
286.9088141167
 30
0.0
 10
128.532701436
 20
286.30560137
 30
0.0
 10
128.5313208955
 20
286.0081944291
 30
0.0
  0
SPLINE
  5
30F
100
AcDbEntity
  8
0
100
AcDbSpline
 62
9
  6
CONTINUOUS
 70
0
 71
3
 72
9
 73
5
 74
0
 42
0.0000001
 43
0.0000001
 44
0.0000000001
 40
0.0
 40
0.0
 40
0.0
 40
0.0
 40
0.3396579748
 40
1.0
 40
1.0
 40
1.0
 40
1.0
 10
133.4092785093
 20
285.9718515991
 30
0.0
 10
133.4092784908
 20
285.9788954357
 30
0.0
 10
133.4269467252
 20
285.9958650626
 30
0.0
 10
133.4460493986
 20
286.0016111325
 30
0.0
 10
133.4592826353
 20
286.0051342448
 30
0.0
  0
SPLINE
  5
310
100
AcDbEntity
  8
0
100
AcDbSpline
 62
9
  6
CONTINUOUS
 70
0
 71
3
 72
10
 73
6
 74
0
 42
0.0000001
 43
0.0000001
 44
0.0000000001
 40
0.0
 40
0.0
 40
0.0
 40
0.0
 40
0.237454391
 40
0.4872627458
 40
1.0
 40
1.0
 40
1.0
 40
1.0
 10
128.0790524972
 20
203.6693818425
 30
0.0
 10
128.0673325587
 20
204.5439920694
 30
0.0
 10
128.0515063758
 20
206.3388156447
 30
0.0
 10
128.0172782333
 20
210.0222591456
 30
0.0
 10
127.9916167119
 20
212.8310640621
 30
0.0
 10
127.9771207693
 20
214.7197311686
 30
0.0
  0
SPLINE
  5
311
100
AcDbEntity
  8
0
100
AcDbSpline
 62
9
  6
CONTINUOUS
 70
0
 71
3
 72
12
 73
8
 74
0
 42
0.0000001
 43
0.0000001
 44
0.0000000001
 40
0.0
 40
0.0
 40
0.0
 40
0.0
 40
0.0258641456
 40
0.0790402265
 40
0.2766835368
 40
0.5897544389
 40
1.0
 40
1.0
 40
1.0
 40
1.0
 10
145.0093701404
 20
214.701850377
 30
0.0
 10
145.0112866609
 20
214.7018459809
 30
0.0
 10
145.0155231149
 20
214.7075586614
 30
0.0
 10
145.0211727204
 20
214.7261462671
 30
0.0
 10
145.0282884475
 20
214.768506955
 30
0.0
 10
145.0346236784
 20
214.8358567023
 30
0.0
 10
145.0379667957
 20
214.8895487598
 30
0.0
 10
145.0394755456
 20
214.9199103719
 30
0.0
  0
SPLINE
  5
312
100
AcDbEntity
  8
0
100
AcDbSpline
 62
9
  6
CONTINUOUS
 70
0
 71
3
 72
11
 73
7
 74
0
 42
0.0000001
 43
0.0000001
 44
0.0000000001
 40
0.0
 40
0.0
 40
0.0
 40
0.0
 40
0.0797698165
 40
0.2746077026
 40
0.5847331418
 40
1.0
 40
1.0
 40
1.0
 40
1.0
 10
128.1092168052
 20
214.7018515543
 30
0.0
 10
128.1053426579
 20
214.7018476369
 30
0.0
 10
128.0995720716
 20
214.7186866363
 30
0.0
 10
128.0941819519
 20
214.7427812118
 30
0.0
 10
128.0880861894
 20
214.78913916
 30
0.0
 10
128.0853190574
 20
214.8236225987
 30
0.0
 10
128.0838323311
 20
214.8437358277
 30
0.0
  0
SPLINE
  5
313
100
AcDbEntity
  8
0
100
AcDbSpline
 62
9
  6
CONTINUOUS
 70
0
 71
3
 72
11
 73
7
 74
0
 42
0.0000001
 43
0.0000001
 44
0.0000000001
 40
0.0
 40
0.0
 40
0.0
 40
0.0
 40
0.1938388952
 40
0.4200437558
 40
0.6909527849
 40
1.0
 40
1.0
 40
1.0
 40
1.0
 10
127.6092840395
 20
215.201206676
 30
0.0
 10
127.6093184146
 20
215.1715765365
 30
0.0
 10
127.6291679743
 20
215.10690211
 30
0.0
 10
127.7039583784
 20
215.0289319876
 30
0.0
 10
127.8130780118
 20
214.9690411815
 30
0.0
 10
127.8988773547
 20
214.9441437544
 30
0.0
 10
127.945237957
 20
214.9350666154
 30
0.0
  0
SPLINE
  5
314
100
AcDbEntity
  8
0
100
AcDbSpline
 62
9
  6
CONTINUOUS
 70
0
 71
3
 72
9
 73
5
 74
0
 42
0.0000001
 43
0.0000001
 44
0.0000000001
 40
0.0
 40
0.0
 40
0.0
 40
0.0
 40
0.238021817
 40
1.0
 40
1.0
 40
1.0
 40
1.0
 10
128.079053465
 20
214.919355543
 30
0.0
 10
128.0757588444
 20
215.1599453382
 30
0.0
 10
128.0640574304
 20
216.1707627158
 30
0.0
 10
128.0550809939
 20
217.1816070128
 30
0.0
 10
128.0478454721
 20
217.9518442806
 30
0.0
  0
SPLINE
  5
315
100
AcDbEntity
  8
0
100
AcDbSpline
 62
9
  6
CONTINUOUS
 70
0
 71
3
 72
8
 73
4
 74
0
 42
0.0000001
 43
0.0000001
 44
0.0000000001
 40
0.0
 40
0.0
 40
0.0
 40
0.0
 40
1.0
 40
1.0
 40
1.0
 40
1.0
 10
127.945237957
 20
214.9350666154
 30
0.0
 10
127.9555032676
 20
214.933056642
 30
0.0
 10
127.9657991794
 20
214.9311814952
 30
0.0
 10
127.9761411615
 20
214.9296130562
 30
0.0
  0
SPLINE
  5
316
100
AcDbEntity
  8
0
100
AcDbSpline
 62
7
  6
CONTINUOUS
 70
0
 71
3
 72
9
 73
5
 74
0
 42
0.0000001
 43
0.0000001
 44
0.0000000001
 40
0.0
 40
0.0
 40
0.0
 40
0.0
 40
0.4803162632
 40
1.0
 40
1.0
 40
1.0
 40
1.0
 10
127.6092836216
 20
266.533233851
 30
0.0
 10
127.6092836216
 20
266.4978059891
 30
0.0
 10
127.6230432576
 20
266.4235077363
 30
0.0
 10
127.6616177628
 20
266.3588291838
 30
0.0
 10
127.6858823212
 20
266.3291552623
 30
0.0
  0
SPLINE
  5
317
100
AcDbEntity
  8
0
100
AcDbSpline
 62
9
  6
CONTINUOUS
 70
0
 71
3
 72
11
 73
7
 74
0
 42
0.0000001
 43
0.0000001
 44
0.0000000001
 40
0.0
 40
0.0
 40
0.0
 40
0.0
 40
0.2459833288
 40
0.4943389329
 40
0.7460102728
 40
1.0
 40
1.0
 40
1.0
 40
1.0
 10
127.6092836216
 20
267.8961501662
 30
0.0
 10
127.6092836216
 20
267.8332503261
 30
0.0
 10
127.6356290253
 20
267.7053975523
 30
0.0
 10
127.747556961
 20
267.5448644276
 30
0.0
 10
127.9136870072
 20
267.438028016
 30
0.0
 10
128.0443364835
 20
267.4131879582
 30
0.0
 10
128.1092836216
 20
267.4131880956
 30
0.0
  0
SPLINE
  5
318
100
AcDbEntity
  8
0
100
AcDbSpline
 62
9
  6
CONTINUOUS
 70
0
 71
3
 72
11
 73
7
 74
0
 42
0.0000001
 43
0.0000001
 44
0.0000000001
 40
0.0
 40
0.0
 40
0.0
 40
0.0
 40
0.2581604131
 40
0.5127277574
 40
0.7625452804
 40
1.0
 40
1.0
 40
1.0
 40
1.0
 10
127.9771576512
 20
270.9518413794
 30
0.0
 10
127.983559381
 20
271.9012450683
 30
0.0
 10
128.0014647755
 20
273.7867993674
 30
0.0
 10
128.0258445359
 20
276.5910730519
 30
0.0
 10
128.0519114946
 20
279.3191760014
 30
0.0
 10
128.0671886724
 20
281.1111407312
 30
0.0
 10
128.0790280921
 20
281.9843373189
 30
0.0
  0
SPLINE
  5
319
100
AcDbEntity
  8
0
100
AcDbSpline
 62
9
  6
CONTINUOUS
 70
0
 71
3
 72
12
 73
8
 74
0
 42
0.0000001
 43
0.0000001
 44
0.0000000001
 40
0.0
 40
0.0
 40
0.0
 40
0.0
 40
0.4100999213
 40
0.7230972381
 40
0.9207661119
 40
0.9740374329
 40
1.0
 40
1.0
 40
1.0
 40
1.0
 10
128.0790777406
 20
281.9837135502
 30
0.0
 10
128.080585997
 20
282.0140794709
 30
0.0
 10
128.0839344965
 20
282.0677816427
 30
0.0
 10
128.0902595717
 20
282.1351511537
 30
0.0
 10
128.0973561992
 20
282.1775402768
 30
0.0
 10
128.1030966667
 20
282.1961361897
 30
0.0
 10
128.1073467495
 20
282.2018504101
 30
0.0
 10
128.1092715219
 20
282.2018515493
 30
0.0
  0
SPLINE
  5
31A
100
AcDbEntity
  8
0
100
AcDbSpline
 62
9
  6
CONTINUOUS
 70
0
 71
3
 72
11
 73
7
 74
0
 42
0.0000001
 43
0.0000001
 44
0.0000000001
 40
0.0
 40
0.0
 40
0.0
 40
0.0
 40
0.1866521128
 40
0.4131011587
 40
0.6898815995
 40
1.0
 40
1.0
 40
1.0
 40
1.0
 10
127.6092836343
 20
281.701739213
 30
0.0
 10
127.6092748159
 20
281.738620711
 30
0.0
 10
127.6403406699
 20
281.8207677604
 30
0.0
 10
127.7505293449
 20
281.9071042315
 30
0.0
 10
127.9018445915
 20
281.9657775719
 30
0.0
 10
128.0178968061
 20
281.9802693569
 30
0.0
 10
128.0790777406
 20
281.9837135502
 30
0.0
  0
SPLINE
  5
31B
100
AcDbEntity
  8
0
100
AcDbSpline
 62
9
  6
CONTINUOUS
 70
0
 71
3
 72
11
 73
7
 74
0
 42
0.0000001
 43
0.0000001
 44
0.0000000001
 40
0.0
 40
0.0
 40
0.0
 40
0.0
 40
0.1783591965
 40
0.4129249788
 40
0.700946375
 40
1.0
 40
1.0
 40
1.0
 40
1.0
 10
127.6092841808
 20
292.9515090199
 30
0.0
 10
127.6091904384
 20
292.9867828757
 30
0.0
 10
127.6392171217
 20
293.0688632462
 30
0.0
 10
127.7504068481
 20
293.1584963331
 30
0.0
 10
127.9037823382
 20
293.2168462981
 30
0.0
 10
128.0199020496
 20
293.232335962
 30
0.0
 10
128.0790108733
 20
293.2343649609
 30
0.0
  0
SPLINE
  5
31C
100
AcDbEntity
  8
0
100
AcDbSpline
 62
9
  6
CONTINUOUS
 70
0
 71
3
 72
12
 73
8
 74
0
 42
0.0000001
 43
0.0000001
 44
0.0000000001
 40
0.0
 40
0.0
 40
0.0
 40
0.0
 40
0.0259073196
 40
0.0790933693
 40
0.2767285798
 40
0.5897813769
 40
1.0
 40
1.0
 40
1.0
 40
1.0
 10
128.1092840579
 20
293.4518527174
 30
0.0
 10
128.1073640914
 20
293.451858505
 30
0.0
 10
128.1031102982
 20
293.4461561882
 30
0.0
 10
128.0974399237
 20
293.4275593446
 30
0.0
 10
128.0903016418
 20
293.3852061259
 30
0.0
 10
128.0839384733
 20
293.3178493292
 30
0.0
 10
128.0805808614
 20
293.2641557357
 30
0.0
 10
128.0790725072
 20
293.2337921327
 30
0.0
  0
SPLINE
  5
31D
100
AcDbEntity
  8
0
100
AcDbSpline
 62
9
  6
CONTINUOUS
 70
0
 71
3
 72
11
 73
7
 74
0
 42
0.0000001
 43
0.0000001
 44
0.0000000001
 40
0.0
 40
0.0
 40
0.0
 40
0.0
 40
0.0839077346
 40
0.2768059714
 40
0.5841280245
 40
1.0
 40
1.0
 40
1.0
 40
1.0
 10
145.0092826995
 20
293.4518515498
 30
0.0
 10
145.0122241722
 20
293.4518563156
 30
0.0
 10
145.0176161651
 20
293.4406065004
 30
0.0
 10
145.0219216229
 20
293.4227375137
 30
0.0
 10
145.0273608556
 20
293.3899083571
 30
0.0
 10
145.0299953752
 20
293.3650482211
 30
0.0
 10
145.0313886283
 20
293.3505361052
 30
0.0
  0
SPLINE
  5
31E
100
AcDbEntity
  8
0
100
AcDbSpline
 62
9
  6
CONTINUOUS
 70
0
 71
3
 72
9
 73
5
 74
0
 42
0.0000001
 43
0.0000001
 44
0.0000000001
 40
0.0
 40
0.0
 40
0.0
 40
0.0
 40
0.22099001
 40
1.0
 40
1.0
 40
1.0
 40
1.0
 10
145.0313886283
 20
293.3505361052
 30
0.0
 10
145.032212753
 20
293.3419520276
 30
0.0
 10
145.0356096183
 20
293.3030764614
 30
0.0
 10
145.0379568336
 20
293.2641151434
 30
0.0
 10
145.0394500225
 20
293.2337530451
 30
0.0
  0
SPLINE
  5
31F
100
AcDbEntity
  8
0
100
AcDbSpline
 62
9
  6
CONTINUOUS
 70
0
 71
3
 72
11
 73
7
 74
0
 42
0.0000001
 43
0.0000001
 44
0.0000000001
 40
0.0
 40
0.0
 40
0.0
 40
0.0
 40
0.1854959208
 40
0.4127950969
 40
0.6899187658
 40
1.0
 40
1.0
 40
1.0
 40
1.0
 10
145.5092836212
 20
292.9518675757
 30
0.0
 10
145.5092839705
 20
292.9885098892
 30
0.0
 10
145.4777078262
 20
293.0702782842
 30
0.0
 10
145.3682374258
 20
293.157272967
 30
0.0
 10
145.2167324654
 20
293.2158850433
 30
0.0
 10
145.1006669574
 20
293.2316652499
 30
0.0
 10
145.0394500225
 20
293.2337530451
 30
0.0
  0
SPLINE
  5
320
100
AcDbEntity
  8
0
100
AcDbSpline
 62
9
  6
CONTINUOUS
 70
0
 71
3
 72
9
 73
5
 74
0
 42
0.0000001
 43
0.0000001
 44
0.0000000001
 40
0.0
 40
0.0
 40
0.0
 40
0.0
 40
0.2378500667
 40
1.0
 40
1.0
 40
1.0
 40
1.0
 10
128.0790976611
 20
293.2337428784
 30
0.0
 10
128.0758499473
 20
292.9933735132
 30
0.0
 10
128.0638896647
 20
291.9827588737
 30
0.0
 10
128.0550479031
 20
290.9721121485
 30
0.0
 10
128.0478933978
 20
290.2018524782
 30
0.0
  0
SPLINE
  5
321
100
AcDbEntity
  8
0
100
AcDbSpline
 62
9
  6
CONTINUOUS
 70
0
 71
3
 72
11
 73
7
 74
0
 42
0.0000001
 43
0.0000001
 44
0.0000000001
 40
0.0
 40
0.0
 40
0.0
 40
0.0
 40
0.2991972221
 40
0.5873222587
 40
0.8218677405
 40
1.0
 40
1.0
 40
1.0
 40
1.0
 10
145.0395148946
 20
281.9843212876
 30
0.0
 10
145.098571755
 20
281.9823026315
 30
0.0
 10
145.214583497
 20
281.9668895082
 30
0.0
 10
145.367855323
 20
281.9088098189
 30
0.0
 10
145.4790779856
 20
281.8196155178
 30
0.0
 10
145.5093022255
 20
281.7377810124
 30
0.0
 10
145.5092835964
 20
281.702599956
 30
0.0
  0
SPLINE
  5
322
100
AcDbEntity
  8
0
100
AcDbSpline
 62
9
  6
CONTINUOUS
 70
0
 71
3
 72
11
 73
7
 74
0
 42
0.0000001
 43
0.0000001
 44
0.0000000001
 40
0.0
 40
0.0
 40
0.0
 40
0.0
 40
0.083759033
 40
0.2765971665
 40
0.5839930046
 40
1.0
 40
1.0
 40
1.0
 40
1.0
 10
145.0093503206
 20
282.201851545
 30
0.0
 10
145.0122862662
 20
282.2018539303
 30
0.0
 10
145.0176381796
 20
282.1905833988
 30
0.0
 10
145.0218854844
 20
282.1727206086
 30
0.0
 10
145.0273132808
 20
282.1398820208
 30
0.0
 10
145.0299503188
 20
282.1150197135
 30
0.0
 10
145.0313464966
 20
282.1005047063
 30
0.0
  0
SPLINE
  5
323
100
AcDbEntity
  8
0
100
AcDbSpline
 62
9
  6
CONTINUOUS
 70
0
 71
3
 72
9
 73
5
 74
0
 42
0.0000001
 43
0.0000001
 44
0.0000000001
 40
0.0
 40
0.0
 40
0.0
 40
0.0
 40
0.2209974221
 40
1.0
 40
1.0
 40
1.0
 40
1.0
 10
145.0313464966
 20
282.1005047063
 30
0.0
 10
145.0321721785
 20
282.0919207154
 30
0.0
 10
145.0355775602
 20
282.0530469341
 30
0.0
 10
145.037940677
 20
282.0140877833
 30
0.0
 10
145.0394511664
 20
281.9837276304
 30
0.0
  0
SPLINE
  5
324
100
AcDbEntity
  8
0
100
AcDbSpline
 62
9
  6
CONTINUOUS
 70
0
 71
3
 72
10
 73
6
 74
0
 42
0.0000001
 43
0.0000001
 44
0.0000000001
 40
0.0
 40
0.0
 40
0.0
 40
0.0
 40
0.5127528452
 40
0.7625775449
 40
1.0
 40
1.0
 40
1.0
 40
1.0
 10
145.1414174803
 20
270.9518480667
 30
0.0
 10
145.1268954896
 20
272.837413874
 30
0.0
 10
145.101428629
 20
275.6416408907
 30
0.0
 10
145.0668418457
 20
279.3189204985
 30
0.0
 10
145.0513271562
 20
281.1106891332
 30
0.0
 10
145.0394512225
 20
281.9837170034
 30
0.0
  0
SPLINE
  5
325
100
AcDbEntity
  8
0
100
AcDbSpline
 62
9
  6
CONTINUOUS
 70
0
 71
3
 72
11
 73
7
 74
0
 42
0.0000001
 43
0.0000001
 44
0.0000000001
 40
0.0
 40
0.0
 40
0.0
 40
0.0
 40
0.25816152
 40
0.5127299087
 40
0.7625470483
 40
1.0
 40
1.0
 40
1.0
 40
1.0
 10
145.1413228691
 20
214.7009081184
 30
0.0
 10
145.1359887601
 20
213.7515292266
 30
0.0
 10
145.1167237602
 20
211.8660453713
 30
0.0
 10
145.0927470144
 20
209.061868145
 30
0.0
 10
145.0667084273
 20
206.3338700428
 30
0.0
 10
145.0512195465
 20
204.5419831841
 30
0.0
 10
145.0395325514
 20
203.6688236696
 30
0.0
  0
SPLINE
  5
326
100
AcDbEntity
  8
0
100
AcDbSpline
 62
9
  6
CONTINUOUS
 70
0
 71
3
 72
12
 73
8
 74
0
 42
0.0000001
 43
0.0000001
 44
0.0000000001
 40
0.0
 40
0.0
 40
0.0
 40
0.0
 40
0.4101568465
 40
0.7230945234
 40
0.9207555369
 40
0.9740241354
 40
1.0
 40
1.0
 40
1.0
 40
1.0
 10
145.0394623516
 20
203.6694435129
 30
0.0
 10
145.0379554801
 20
203.6391480197
 30
0.0
 10
145.0346070406
 20
203.5855788451
 30
0.0
 10
145.0282826063
 20
203.5183748904
 30
0.0
 10
145.0211960283
 20
203.4760998608
 30
0.0
 10
145.0154615735
 20
203.4575477641
 30
0.0
 10
145.0112167531
 20
203.4518526874
 30
0.0
 10
145.0092957213
 20
203.4518515504
 30
0.0
  0
SPLINE
  5
327
100
AcDbEntity
  8
0
100
AcDbSpline
 62
9
  6
CONTINUOUS
 70
0
 71
3
 72
11
 73
7
 74
0
 42
0.0000001
 43
0.0000001
 44
0.0000000001
 40
0.0
 40
0.0
 40
0.0
 40
0.0
 40
0.1784610401
 40
0.4132984327
 40
0.7008013313
 40
1.0
 40
1.0
 40
1.0
 40
1.0
 10
145.5092834962
 20
203.9515249718
 30
0.0
 10
145.509327647
 20
203.9162347033
 30
0.0
 10
145.4795831326
 20
203.8339332758
 30
0.0
 10
145.3677260084
 20
203.7450631556
 30
0.0
 10
145.2148285048
 20
203.6859589005
 30
0.0
 10
145.0986602019
 20
203.6708519249
 30
0.0
 10
145.0395290727
 20
203.6688235503
 30
0.0
  0
SPLINE
  5
328
100
AcDbEntity
  8
0
100
AcDbSpline
 62
9
  6
CONTINUOUS
 70
0
 71
3
 72
11
 73
7
 74
0
 42
0.0000001
 43
0.0000001
 44
0.0000000001
 40
0.0
 40
0.0
 40
0.0
 40
0.0
 40
0.2994315784
 40
0.5870730126
 40
0.8218385845
 40
1.0
 40
1.0
 40
1.0
 40
1.0
 10
128.0790525134
 20
203.6693782762
 30
0.0
 10
128.019941298
 20
203.6713987826
 30
0.0
 10
127.9038280695
 20
203.6864431707
 30
0.0
 10
127.7509898276
 20
203.7453183619
 30
0.0
 10
127.6391150269
 20
203.8338127819
 30
0.0
 10
127.6092640722
 20
203.9159096717
 30
0.0
 10
127.6092836463
 20
203.9511013062
 30
0.0
  0
SPLINE
  5
329
100
AcDbEntity
  8
0
100
AcDbSpline
 62
9
  6
CONTINUOUS
 70
0
 71
3
 72
11
 73
7
 74
0
 42
0.0000001
 43
0.0000001
 44
0.0000000001
 40
0.0
 40
0.0
 40
0.0
 40
0.0
 40
0.083761183
 40
0.2765991901
 40
0.5839939709
 40
1.0
 40
1.0
 40
1.0
 40
1.0
 10
128.1092169386
 20
203.4518515547
 30
0.0
 10
128.1062811704
 20
203.4518491668
 30
0.0
 10
128.1009290835
 20
203.4631182476
 30
0.0
 10
128.0966815982
 20
203.4809797037
 30
0.0
 10
128.0912538901
 20
203.5138151735
 30
0.0
 10
128.0886170366
 20
203.5386753195
 30
0.0
 10
128.087220988
 20
203.5531890442
 30
0.0
  0
SPLINE
  5
32A
100
AcDbEntity
  8
0
100
AcDbSpline
 62
9
  6
CONTINUOUS
 70
0
 71
3
 72
9
 73
5
 74
0
 42
0.0000001
 43
0.0000001
 44
0.0000000001
 40
0.0
 40
0.0
 40
0.0
 40
0.0
 40
0.2209932766
 40
1.0
 40
1.0
 40
1.0
 40
1.0
 10
128.087220988
 20
203.5531890442
 30
0.0
 10
128.0863952384
 20
203.561773776
 30
0.0
 10
128.0829896365
 20
203.6006516536
 30
0.0
 10
128.0806266521
 20
203.6396149217
 30
0.0
 10
128.0791162396
 20
203.6699784372
 30
0.0
  0
SPLINE
  5
32B
100
AcDbEntity
  8
0
100
AcDbSpline
 62
9
  6
CONTINUOUS
 70
0
 71
3
 72
12
 73
8
 74
0
 42
0.0000001
 43
0.0000001
 44
0.0000000001
 40
0.0
 40
0.0
 40
0.0
 40
0.0
 40
0.1223441888
 40
0.2190672078
 40
0.3405815604
 40
0.645747145
 40
1.0
 40
1.0
 40
1.0
 40
1.0
 10
128.1942836216
 20
226.1518515499
 30
0.0
 10
128.1722216765
 20
226.1518515498
 30
0.0
 10
128.1387795768
 20
226.1857588118
 30
0.0
 10
128.1130436013
 20
226.2394073254
 30
0.0
 10
128.0825108146
 20
226.3298522983
 30
0.0
 10
128.059249633
 20
226.4688915607
 30
0.0
 10
128.052758198
 20
226.5879702416
 30
0.0
 10
128.052758198
 20
226.6518515515
 30
0.0
  0
SPLINE
  5
32C
100
AcDbEntity
  8
0
100
AcDbSpline
 62
9
  6
CONTINUOUS
 70
0
 71
3
 72
12
 73
8
 74
0
 42
0.0000001
 43
0.0000001
 44
0.0000000001
 40
0.0
 40
0.0
 40
0.0
 40
0.0
 40
0.3542529399
 40
0.6594183702
 40
0.7809326885
 40
0.8776557103
 40
1.0
 40
1.0
 40
1.0
 40
1.0
 10
145.0358090454
 20
226.6518515499
 30
0.0
 10
145.0358090454
 20
226.5879702251
 30
0.0
 10
145.0293176104
 20
226.4688915559
 30
0.0
 10
145.0060564223
 20
226.3298523194
 30
0.0
 10
144.9755236735
 20
226.2394073678
 30
0.0
 10
144.9497876843
 20
226.1857588521
 30
0.0
 10
144.9163455847
 20
226.1518515499
 30
0.0
 10
144.8942836216
 20
226.1518515499
 30
0.0
  0
ELLIPSE
  5
32D
100
AcDbEntity
  8
0
100
AcDbEllipse
 62
7
  6
CONTINUOUS
 10
136.5442836216
 20
259.5081198886
 30
0.0
 11
30.0
 21
-0.0
 31
0.0
 40
0.2679491924
 41
1.2838227719
 42
1.2991606964
  0
ELLIPSE
  5
32E
100
AcDbEntity
  8
0
100
AcDbEllipse
 62
7
  6
CONTINUOUS
 10
136.5442836216
 20
259.5081198886
 30
0.0
 11
30.0
 21
0.0
 31
0.0
 40
0.2679491924
 41
1.8424319572
 42
1.8577698816
  0
ELLIPSE
  5
32F
100
AcDbEntity
  8
0
100
AcDbEllipse
 62
7
  6
CONTINUOUS
 10
136.5442836216
 20
216.1313434742
 30
0.0
 11
30.0
 21
-0.0
 31
0.0
 40
0.5773502692
 41
1.7062097893
 42
1.767053777
  0
ENDSEC
  0
SECTION
  2
OBJECTS
  0
DICTIONARY
  5
C
100
AcDbDictionary
280
0
281
1
  3
ACAD_GROUP
350
D
  3
ACAD_MLINESTYLE
350
17
  3
ACAD_LAYOUT
350
1A
  3
ACAD_PLOTSETTINGS
350
19
  3
ACAD_PLOTSTYLENAME
350
E
  0
DICTIONARY
  5
D
102
{ACAD_REACTORS
330
C
102
}
100
AcDbDictionary
280
0
281
1
  0
ACDBDICTIONARYWDFLT
  5
E
102
{ACAD_REACTORS
330
C
102
}
100
AcDbDictionary
281
1
  3
Normal
350
F
100
AcDbDictionaryWithDefault
340
F
  0
DICTIONARY
  5
17
102
{ACAD_REACTORS
330
C
102
}
100
AcDbDictionary
280
0
281
1
  3
Standard
350
18
  0
DICTIONARY
  5
19
102
{ACAD_REACTORS
330
C
102
}
100
AcDbDictionary
281
1
  0
DICTIONARY
  5
1A
102
{ACAD_REACTORS
330
C
102
}
100
AcDbDictionary
281
1
  3
Model
350
330
  3
Layout1
350
331
  0
ACDBPLACEHOLDER
  5
F
102
{ACAD_REACTORS
330
E
102
}
  0
MLINESTYLE
  5
18
102
{ACAD_REACTORS
330
17
102
}
100
AcDbMlineStyle
  2
STANDARD
 70
0
  3

 62
256
 51
90.0
 52
90.0
 71
2
 49
0.5
 62
256
  6
BYLAYER
 49
-0.5
 62
256
  6
BYLAYER
  0
LAYOUT
  5
330
102
{ACAD_REACTORS
330
1A
102
}
100
AcDbPlotSettings
  1

  2
none_device
  4
ANSI_C_(22.00_x_17.00_Inches)
  6

 40
0.0
 41
0.0
 42
0.0
 43
0.0
 44
558.8
 45
431.8
 46
0.0
 47
0.0
 48
0.0
 49
0.0
140
0.0
141
0.0
142
1.0
143
1.0
 70
1024
 72
1
 73
0
 74
0
  7

 75
0
147
1.0
148
0.0
149
0.0
100
AcDbLayout
  1
Model
 70
0
 71
0
 10
0.0
 20
0.0
 11
558.8
 21
431.8
 12
0.0
 22
0.0
 32
0.0
 14
0.0
 24
0.0
 34
0.0
 15
0.0
 25
0.0
 35
0.0
146
0.0
 13
0.0
 23
0.0
 33
0.0
 16
1.0
 26
0.0
 36
0.0
 17
0.0
 27
1.0
 37
0.0
 76
0
330
218
345
0
346
0
  0
LAYOUT
  5
331
102
{ACAD_REACTORS
330
1A
102
}
100
AcDbPlotSettings
  1

  2
none_device
  4
ANSI_C_(22.00_x_17.00_Inches)
  6

 40
0.0
 41
0.0
 42
0.0
 43
0.0
 44
558.8
 45
431.8
 46
0.0
 47
0.0
 48
0.0
 49
0.0
140
0.0
141
0.0
142
1.0
143
1.0
 70
0
 72
1
 73
0
 74
0
  7

 75
0
147
1.0
148
0.0
149
0.0
100
AcDbLayout
  1
Layout1
 70
0
 71
1
 10
0.0
 20
0.0
 11
558.8
 21
431.8
 12
0.0
 22
0.0
 32
0.0
 14
0.0
 24
0.0
 34
0.0
 15
0.0
 25
0.0
 35
0.0
146
0.0
 13
0.0
 23
0.0
 33
0.0
 16
1.0
 26
0.0
 36
0.0
 17
0.0
 27
1.0
 37
0.0
 76
0
330
219
345
0
346
0
  0
ENDSEC
  0
EOF
