999
DXF file: C:\Users\sesa63760\Dev\_Creo\CAD\MCADID0001014_3D-CAD\drw0001_1.dxf
999
Pro/ENGINEER 2019471 by Parametric Technology Corporation
  0
SECTION
  2
HEADER
  9
$ACADVER
  1
AC1024
  9
$DWGCODEPAGE
  3
ANSI_1252
  9
$EXTMAX
 10
1549.4434365176
 20
2191.3557173606
 30
0.0
  9
$EXTMIN
 10
0.0
 20
0.0
 30
0.0
  9
$LIMMIN
 10
0.0
 20
0.0
  9
$LIMMAX
 10
1549.4434365176
 20
2191.3557173606
  9
$VIEWCTR
 10
774.7217182588
 20
1095.6778586803
  9
$VIEWSIZE
 40
2191.3557173606
  9
$CLAYER
  8
0
  9
$LTSCALE
 40
142.8439282428
  9
$CELTYPE
  6
BYLAYER
  9
$DIMSCALE
 40
1.0
  9
$DIMASZ
 40
18.4457551966
  9
$DIMEXO
 40
1.0
  9
$DIMDLI
 40
98.6921686041
  9
$DIMEXE
 40
1.0
  9
$DIMCEN
 40
23.3744609852
  9
$DIMLFAC
 40
1.0
  9
$DIMBLK
  1
_FILLED
  9
$DIMALT
 70
0
  9
$DIMALTF
 40
0.0393700787
  9
$DIMTXT
 40
25.8240572753
  9
$DIMTOL
 70
1
  9
$DIMLIM
 70
0
  9
$DIMTFAC
 40
1.0
  9
$DIMTP
 40
0.01
  9
$DIMTM
 40
0.01
  9
$DIMGAP
 40
0.625
  9
$DIMDSEP
 70
46
  9
$AUNITS
 70
0
  9
$PDMODE
 70
3
  9
$PDSIZE
 40
0.3125
  9
$HANDSEED
  5
537
  9
$TILEMODE
 70
1
  9
$MEASUREMENT
 70
1
  9
$INSUNITS
 70
4
  0
ENDSEC
  0
SECTION
  2
CLASSES
  0
CLASS
  1
ACDBDICTIONARYWDFLT
  2
AcDbDictionaryWithDefault
  3
AutoCAD 2000
 90
0
 91
1
280
0
281
0
  0
CLASS
  1
ACDBPLACEHOLDER
  2
AcDbPlaceHolder
  3
AutoCAD 2000
 90
0
 91
1
280
0
281
0
  0
CLASS
  1
LAYOUT
  2
AcDbLayout
  3
AutoCAD 2000
 90
0
 91
0
280
0
281
0
  0
ENDSEC
  0
SECTION
  2
TABLES
  0
TABLE
  2
VPORT
  5
8
100
AcDbSymbolTable
 70
2
  0
VPORT
  5
1F4
100
AcDbSymbolTableRecord
100
AcDbViewportTableRecord
  2
*ACTIVE
 70
0
 10
0.0
 20
0.0
 11
1.0
 21
1.0
 12
774.7217182588
 22
1095.6778586803
 13
0.0
 23
0.0
 14
1.0
 24
1.0
 15
0.0
 25
0.0
 16
0.0
 26
0.0
 36
1.0
 17
0.0
 27
0.0
 37
0.0
 40
2191.3557173606
 41
0.7070707071
 42
50.0
 43
0.0
 44
0.0
 50
0.0
 51
0.0
 71
0
 72
100
 73
1
 74
1
 75
0
 76
0
 77
0
 78
0
  0
ENDTAB
  0
TABLE
  2
LTYPE
  5
5
100
AcDbSymbolTable
 70
6
  0
LTYPE
  5
14
100
AcDbSymbolTableRecord
100
AcDbLinetypeTableRecord
  2
BYBLOCK
 70
0
  3

 72
65
 73
0
 40
0.0
  0
LTYPE
  5
15
100
AcDbSymbolTableRecord
100
AcDbLinetypeTableRecord
  2
BYLAYER
 70
0
  3

 72
65
 73
0
 40
0.0
  0
LTYPE
  5
16
100
AcDbSymbolTableRecord
100
AcDbLinetypeTableRecord
  2
CONTINUOUS
 70
64
  3
Solid line
 72
65
 73
0
 40
0.0
  0
LTYPE
  5
1F5
100
AcDbSymbolTableRecord
100
AcDbLinetypeTableRecord
  2
CENTER
 70
64
  3
____ _ ____ _ ____ _ ____ _ ____ _ ____ _ ____
 72
65
 73
4
 40
0.6
 49
0.375
 74
0
 49
-0.075
 74
0
 49
0.075
 74
0
 49
-0.075
 74
0
  0
LTYPE
  5
1F6
100
AcDbSymbolTableRecord
100
AcDbLinetypeTableRecord
  2
HIDDEN
 70
64
  3
- - - - - - - - - - - - - - - - - - - -
 72
65
 73
2
 40
0.2
 49
0.1
 74
0
 49
-0.1
 74
0
  0
LTYPE
  5
1F7
100
AcDbSymbolTableRecord
100
AcDbLinetypeTableRecord
  2
PHANTOM
 70
64
  3
_____ _ _ _____ _ _ _____ _ _ _____
 72
65
 73
6
 40
0.8
 49
0.45
 74
0
 49
-0.05
 74
0
 49
0.1
 74
0
 49
-0.05
 74
0
 49
0.1
 74
0
 49
-0.05
 74
0
  0
LTYPE
  5
1F8
100
AcDbSymbolTableRecord
100
AcDbLinetypeTableRecord
  2
DOT
 70
64
  3
. . . . . . . . . . . . . . . . . . . .
 72
65
 73
2
 40
0.2
 49
0.1
 74
0
 49
-0.1
 74
0
  0
LTYPE
  5
1F9
100
AcDbSymbolTableRecord
100
AcDbLinetypeTableRecord
  2
DASHED
 70
64
  3
- - - - - - - - - - - - - - - - - - - -
 72
65
 73
2
 40
0.2
 49
0.1
 74
0
 49
-0.1
 74
0
  0
ENDTAB
  0
TABLE
  2
LAYER
  5
2
100
AcDbSymbolTable
 70
36
  0
LAYER
  5
10
100
AcDbSymbolTableRecord
100
AcDbLayerTableRecord
  2
0
 70
0
 62
7
  6
CONTINUOUS
370
-3
390
F
  0
LAYER
  5
1FA
100
AcDbSymbolTableRecord
100
AcDbLayerTableRecord
  2
DEFAULT_1
 70
0
 62
7
  6
CENTER
370
-3
390
F
  0
LAYER
  5
1FB
100
AcDbSymbolTableRecord
100
AcDbLayerTableRecord
  2
DEFAULT_2
 70
0
 62
8
  6
HIDDEN
370
-3
390
F
  0
LAYER
  5
1FC
100
AcDbSymbolTableRecord
100
AcDbLayerTableRecord
  2
DEFAULT_3
 70
0
 62
7
  6
PHANTOM
370
-3
390
F
  0
LAYER
  5
1FD
100
AcDbSymbolTableRecord
100
AcDbLayerTableRecord
  2
00_COMPONENTS
 70
0
 62
7
  6
CONTINUOUS
370
-3
390
F
  0
LAYER
  5
1FE
100
AcDbSymbolTableRecord
100
AcDbLayerTableRecord
  2
01_1_DEFAULT_DATUMS
 70
0
 62
7
  6
CONTINUOUS
370
-3
390
F
  0
LAYER
  5
1FF
100
AcDbSymbolTableRecord
100
AcDbLayerTableRecord
  2
01_PLANES
 70
0
 62
7
  6
CONTINUOUS
370
-3
390
F
  0
LAYER
  5
200
100
AcDbSymbolTableRecord
100
AcDbLayerTableRecord
  2
02_COORD_SYS
 70
0
 62
7
  6
CONTINUOUS
370
-3
390
F
  0
LAYER
  5
201
100
AcDbSymbolTableRecord
100
AcDbLayerTableRecord
  2
03_AXES
 70
0
 62
7
  6
CONTINUOUS
370
-3
390
F
  0
LAYER
  5
202
100
AcDbSymbolTableRecord
100
AcDbLayerTableRecord
  2
04_POINTS
 70
0
 62
7
  6
CONTINUOUS
370
-3
390
F
  0
LAYER
  5
203
100
AcDbSymbolTableRecord
100
AcDbLayerTableRecord
  2
05_CURVES
 70
0
 62
7
  6
CONTINUOUS
370
-3
390
F
  0
LAYER
  5
204
100
AcDbSymbolTableRecord
100
AcDbLayerTableRecord
  2
06_SURFS
 70
0
 62
7
  6
CONTINUOUS
370
-3
390
F
  0
LAYER
  5
205
100
AcDbSymbolTableRecord
100
AcDbLayerTableRecord
  2
07_COSMETICS
 70
0
 62
7
  6
CONTINUOUS
370
-3
390
F
  0
LAYER
  5
206
100
AcDbSymbolTableRecord
100
AcDbLayerTableRecord
  2
10_NOTES
 70
0
 62
7
  6
CONTINUOUS
370
-3
390
F
  0
LAYER
  5
207
100
AcDbSymbolTableRecord
100
AcDbLayerTableRecord
  2
11_NOTES_PUB
 70
0
 62
7
  6
CONTINUOUS
370
-3
390
F
  0
LAYER
  5
208
100
AcDbSymbolTableRecord
100
AcDbLayerTableRecord
  2
13_REF_GTOL
 70
0
 62
7
  6
CONTINUOUS
370
-3
390
F
  0
LAYER
  5
209
100
AcDbSymbolTableRecord
100
AcDbLayerTableRecord
  2
16_MISC
 70
0
 62
7
  6
CONTINUOUS
370
-3
390
F
  0
LAYER
  5
20A
100
AcDbSymbolTableRecord
100
AcDbLayerTableRecord
  2
17_NO_PRINT
 70
0
 62
7
  6
CONTINUOUS
370
-3
390
F
  0
LAYER
  5
20B
100
AcDbSymbolTableRecord
100
AcDbLayerTableRecord
  2
18_DATUM_CAMS_JOINTS
 70
0
 62
7
  6
CONTINUOUS
370
-3
390
F
  0
LAYER
  5
20C
100
AcDbSymbolTableRecord
100
AcDbLayerTableRecord
  2
19_DATUM_FUNCTIONAL
 70
0
 62
7
  6
CONTINUOUS
370
-3
390
F
  0
LAYER
  5
20D
100
AcDbSymbolTableRecord
100
AcDbLayerTableRecord
  2
20_DATUM_KINEMATIC_SCHEME
 70
0
 62
7
  6
CONTINUOUS
370
-3
390
F
  0
ENDTAB
  0
TABLE
  2
STYLE
  5
3
100
AcDbSymbolTable
 70
1
  0
STYLE
  5
11
100
AcDbSymbolTableRecord
100
AcDbTextStyleTableRecord
  2
STANDARD
 70
0
 40
0.0
 41
0.8
 50
0.0
 71
0
 42
0.2
  3
txt
  4

  0
STYLE
  5
20E
100
AcDbSymbolTableRecord
100
AcDbTextStyleTableRecord
  2
TEXTSTYLE_1
 70
0
 40
0.0
 41
0.8
 50
0.0
 71
0
 42
0.2
  3
gdt
  4

  0
ENDTAB
  0
TABLE
  2
VIEW
  5
6
100
AcDbSymbolTable
 70
0
  0
ENDTAB
  0
TABLE
  2
UCS
  5
7
100
AcDbSymbolTable
 70
0
  0
ENDTAB
  0
TABLE
  2
APPID
  5
9
100
AcDbSymbolTable
 70
1
  0
APPID
  5
20F
100
AcDbSymbolTableRecord
100
AcDbRegAppTableRecord
  2
ACAD
 70
0
  0
ENDTAB
  0
TABLE
  2
BLOCK_RECORD
  5
1
100
AcDbSymbolTable
 70
0
  0
BLOCK_RECORD
  5
210
100
AcDbSymbolTableRecord
100
AcDbBlockTableRecord
  2
*Model_Space
  0
BLOCK_RECORD
  5
211
100
AcDbSymbolTableRecord
100
AcDbBlockTableRecord
  2
*Paper_Space
  0
BLOCK_RECORD
  5
212
100
AcDbSymbolTableRecord
100
AcDbBlockTableRecord
  2
_FILLED
  0
ENDTAB
  0
TABLE
  2
DIMSTYLE
  5
A
100
AcDbSymbolTable
 70
1
100
AcDbDimStyleTable
 71
0
  0
DIMSTYLE
105
213
100
AcDbSymbolTableRecord
100
AcDbDimStyleTableRecord
  2
STANDARD
 70
0
  3

  4

 40
1.0
 41
18.4457551966
 42
1.0
 43
0.38
 44
1.0
 45
0.0
 46
0.0
 47
0.01
 48
0.01
140
25.8240572753
141
0.09
142
0.0
143
25.4
144
1.0
145
0.0
146
1.0
147
0.625
 71
1
 72
0
 73
0
 74
0
 75
0
 76
0
 77
1
 78
8
 79
2
170
0
171
1
172
0
173
0
174
0
175
0
176
0
177
0
178
0
270
2
179
2
271
2
272
2
273
2
274
2
275
0
280
0
281
0
282
0
283
1
284
8
285
0
286
0
287
3
288
0
340
11
278
46
341
212
342
212
343
212
344
212
  0
ENDTAB
  0
ENDSEC
  0
SECTION
  2
BLOCKS
  0
BLOCK
  5
20
100
AcDbEntity
  8
0
100
AcDbBlockBegin
  2
*Model_Space
 70
0
 10
0.0
 20
0.0
 30
0.0
  3
*Model_Space
  1

  0
ENDBLK
  5
21
100
AcDbEntity
  8
0
100
AcDbBlockEnd
  0
BLOCK
  5
1C
100
AcDbEntity
  8
0
100
AcDbBlockBegin
  2
*Paper_Space
 70
0
 10
0.0
 20
0.0
 30
0.0
  3
*Paper_Space
  1

  0
ENDBLK
  5
1D
100
AcDbEntity
  8
0
100
AcDbBlockEnd
  0
BLOCK
  5
214
100
AcDbEntity
  8
0
100
AcDbBlockBegin
  2
_FILLED
 70
64
 10
0.0
 20
0.0
  3
_FILLED
  1

  0
SOLID
  5
215
100
AcDbEntity
  8
0
  6
BYBLOCK
 62
0
100
AcDbTrace
 10
0.0
 20
0.0
 11
-1.0
 21
0.25
 12
-1.0
 22
-0.25
 13
-1.0
 23
-0.25
  0
ENDBLK
  5
216
100
AcDbEntity
  8
0
  6
BYBLOCK
 62
0
100
AcDbBlockEnd
  0
ENDSEC
  0
SECTION
  2
ENTITIES
  0
LINE
  5
217
100
AcDbEntity
  8
0
100
AcDbLine
 62
7
  6
CONTINUOUS
 10
204.7633694156
 20
849.2141987174
 11
204.3973455357
 21
850.580237537
  0
LINE
  5
218
100
AcDbEntity
  8
0
100
AcDbLine
 62
7
  6
CONTINUOUS
 10
179.7532654062
 20
737.9389288757
 11
179.7532654062
 21
754.5245951505
  0
LINE
  5
219
100
AcDbEntity
  8
0
100
AcDbLine
 62
7
  6
CONTINUOUS
 10
181.1674848565
 20
753.7081136413
 11
181.1674848565
 21
738.7554522009
  0
LINE
  5
21A
100
AcDbEntity
  8
0
100
AcDbLine
 62
7
  6
CONTINUOUS
 10
191.9862636512
 20
730.8763638225
 11
191.9862636512
 21
732.5093686567
  0
LINE
  5
21B
100
AcDbEntity
  8
0
100
AcDbLine
 62
7
  6
CONTINUOUS
 10
196.2289043383
 20
732.5093788548
 11
196.2289043383
 21
730.8763740205
  0
LINE
  5
21C
100
AcDbEntity
  8
0
100
AcDbLine
 62
7
  6
CONTINUOUS
 10
197.4309164688
 20
820.8140748024
 11
197.4310116659
 21
879.602045773
  0
LINE
  5
21D
100
AcDbEntity
  8
0
100
AcDbLine
 62
7
  6
CONTINUOUS
 10
198.846003566
 20
877.1529683006
 11
198.845274844
 21
819.9981142477
  0
LINE
  5
21E
100
AcDbEntity
  8
0
100
AcDbLine
 62
7
  6
CONTINUOUS
 10
204.289955205
 20
727.8554342532
 11
204.2899728688
 21
725.4059795281
  0
LINE
  5
21F
100
AcDbEntity
  8
0
100
AcDbLine
 62
7
  6
CONTINUOUS
 10
204.2899728688
 20
725.4059795281
 11
204.2899728688
 21
723.7729746938
  0
LINE
  5
220
100
AcDbEntity
  8
0
100
AcDbLine
 62
7
  6
CONTINUOUS
 10
204.7141503849
 20
737.4083087012
 11
204.7141503849
 21
735.775303867
  0
LINE
  5
221
100
AcDbEntity
  8
0
100
AcDbLine
 62
7
  6
CONTINUOUS
 10
213.9994038309
 20
1042.4942900717
 11
213.9994038309
 21
879.6020578544
  0
LINE
  5
222
100
AcDbEntity
  8
0
100
AcDbLine
 62
7
  6
CONTINUOUS
 10
213.9994038309
 20
1044.127294906
 11
213.9994038309
 21
1055.9665799544
  0
LINE
  5
223
100
AcDbEntity
  8
0
100
AcDbLine
 62
7
  6
CONTINUOUS
 10
423.7061205819
 20
597.0958685662
 11
411.4731223368
 21
604.1584336194
  0
LINE
  5
224
100
AcDbEntity
  8
0
100
AcDbLine
 62
7
  6
CONTINUOUS
 10
399.1694131193
 20
611.261822748
 11
374.2084398216
 21
625.6727213826
  0
LINE
  5
225
100
AcDbEntity
  8
0
100
AcDbLine
 62
7
  6
CONTINUOUS
 10
179.7532654062
 20
737.9389288757
 11
191.9862636512
 21
730.8763638225
  0
LINE
  5
226
100
AcDbEntity
  8
0
100
AcDbLine
 62
7
  6
CONTINUOUS
 10
204.2899728688
 20
723.7729746938
 11
229.2509461664
 21
709.3620760592
  0
LINE
  5
227
100
AcDbEntity
  8
0
100
AcDbLine
 62
7
  6
CONTINUOUS
 10
181.1674848565
 20
738.7554522009
 11
191.9862636512
 21
732.5093686567
  0
LINE
  5
228
100
AcDbEntity
  8
0
100
AcDbLine
 62
7
  6
CONTINUOUS
 10
204.2899728688
 20
725.4059795281
 11
229.2509461664
 21
710.9950808935
  0
LINE
  5
229
100
AcDbEntity
  8
0
100
AcDbLine
 62
7
  6
CONTINUOUS
 10
374.2084398216
 20
627.3057262168
 11
399.1694131193
 21
612.8948275823
  0
LINE
  5
22A
100
AcDbEntity
  8
0
100
AcDbLine
 62
7
  6
CONTINUOUS
 10
411.4731223368
 20
605.7914384536
 11
422.2919011316
 21
599.5453549095
  0
LINE
  5
22B
100
AcDbEntity
  8
0
100
AcDbLine
 62
7
  6
CONTINUOUS
 10
423.7061205819
 20
613.6815348408
 11
422.2919011316
 21
614.4980163499
  0
LINE
  5
22C
100
AcDbEntity
  8
0
100
AcDbLine
 62
7
  6
CONTINUOUS
 10
181.1674848565
 20
753.7081136413
 11
179.7532654062
 21
754.5245951504
  0
LINE
  5
22D
100
AcDbEntity
  8
0
100
AcDbLine
 62
7
  6
CONTINUOUS
 10
389.0575850755
 20
642.0025165242
 11
252.5854081221
 21
720.7929821466
  0
LINE
  5
22E
100
AcDbEntity
  8
0
100
AcDbLine
 62
7
  6
CONTINUOUS
 10
397.896353601
 20
651.1879929895
 11
268.4952738991
 21
725.8960510668
  0
LINE
  5
22F
100
AcDbEntity
  8
0
100
AcDbLine
 62
7
  6
CONTINUOUS
 10
311.4355710761
 20
702.3297734063
 11
316.7503900042
 21
699.2613306849
  0
LINE
  5
230
100
AcDbEntity
  8
0
100
AcDbLine
 62
7
  6
CONTINUOUS
 10
324.9077541746
 20
694.5517808295
 11
332.2427213173
 21
690.317031378
  0
LINE
  5
231
100
AcDbEntity
  8
0
100
AcDbLine
 62
7
  6
CONTINUOUS
 10
214.8834920783
 20
849.5261297297
 11
213.7531256453
 21
850.9138556439
  0
LINE
  5
232
100
AcDbEntity
  8
0
100
AcDbLine
 62
7
  6
CONTINUOUS
 10
220.3475709442
 20
854.3714093105
 11
221.4779373772
 21
852.9836833963
  0
LINE
  5
233
100
AcDbEntity
  8
0
100
AcDbLine
 62
7
  6
CONTINUOUS
 10
219.9537594889
 20
841.5989409376
 11
220.3197833688
 21
840.2329021179
  0
LINE
  5
234
100
AcDbEntity
  8
0
100
AcDbLine
 62
7
  6
CONTINUOUS
 10
220.9066098147
 20
1068.8111013121
 11
220.9066098147
 21
1081.195840307
  0
LINE
  5
235
100
AcDbEntity
  8
0
100
AcDbLine
 62
7
  6
CONTINUOUS
 10
222.5332830749
 20
1020.6531643473
 11
222.5332696297
 21
864.701210438
  0
LINE
  5
236
100
AcDbEntity
  8
0
100
AcDbLine
 62
7
  6
CONTINUOUS
 10
225.7152503424
 20
1027.7975287511
 11
225.7152503424
 21
1039.6368137995
  0
LINE
  5
237
100
AcDbEntity
  8
0
100
AcDbLine
 62
7
  6
CONTINUOUS
 10
225.7152453004
 20
1022.4902659507
 11
225.7152503424
 21
1026.1645239169
  0
LINE
  5
238
100
AcDbEntity
  8
0
100
AcDbLine
 62
7
  6
CONTINUOUS
 10
229.2509461664
 20
709.3620760592
 11
229.2509461664
 21
710.9950808935
  0
LINE
  5
239
100
AcDbEntity
  8
0
100
AcDbLine
 62
7
  6
CONTINUOUS
 10
237.0290059447
 20
856.3322825049
 11
237.0290059447
 21
855.0842807176
  0
LINE
  5
23A
100
AcDbEntity
  8
0
100
AcDbLine
 62
7
  6
CONTINUOUS
 10
252.5854081221
 20
720.7929821466
 11
252.5854081221
 21
846.1043158099
  0
LINE
  5
23B
100
AcDbEntity
  8
0
100
AcDbLine
 62
7
  6
CONTINUOUS
 10
197.4308613365
 20
820.8140429719
 11
198.8450807868
 21
819.9980022093
  0
LINE
  5
23C
100
AcDbEntity
  8
0
100
AcDbLine
 62
7
  6
CONTINUOUS
 10
427.2412541083
 20
655.4746092951
 11
419.8166019943
 21
659.7611372176
  0
LINE
  5
23D
100
AcDbEntity
  8
0
100
AcDbLine
 62
7
  6
CONTINUOUS
 10
428.3019098641
 20
656.0869755259
 11
432.7047178379
 21
653.5450706627
  0
LINE
  5
23E
100
AcDbEntity
  8
0
100
AcDbLine
 62
7
  6
CONTINUOUS
 10
428.3019098641
 20
657.3117291516
 11
432.9877512542
 21
654.606418566
  0
LINE
  5
23F
100
AcDbEntity
  8
0
100
AcDbLine
 62
7
  6
CONTINUOUS
 10
428.3019098641
 20
657.7199803602
 11
433.0820957263
 21
654.9602012005
  0
LINE
  5
240
100
AcDbEntity
  8
0
100
AcDbLine
 62
7
  6
CONTINUOUS
 10
439.9694970619
 20
680.7879299628
 11
441.3837165122
 21
679.9709185491
  0
LINE
  5
241
100
AcDbEntity
  8
0
100
AcDbLine
 62
7
  6
CONTINUOUS
 10
285.4657453844
 20
793.3195055281
 11
285.4657453844
 21
789.8083014536
  0
LINE
  5
242
100
AcDbEntity
  8
0
100
AcDbLine
 62
7
  6
CONTINUOUS
 10
285.4657453844
 20
738.551607939
 11
285.4657453844
 21
739.7763615647
  0
LINE
  5
243
100
AcDbEntity
  8
0
100
AcDbLine
 62
7
  6
CONTINUOUS
 10
286.1728462777
 20
794.058711885
 11
286.1728462777
 21
790.7399807071
  0
LINE
  5
244
100
AcDbEntity
  8
0
100
AcDbLine
 62
7
  6
CONTINUOUS
 10
179.7532654062
 20
754.5245951505
 11
197.4309164688
 21
820.8140748024
  0
LINE
  5
245
100
AcDbEntity
  8
0
100
AcDbLine
 62
7
  6
CONTINUOUS
 10
198.845274844
 20
819.9981142477
 11
181.1674848565
 21
753.7081136413
  0
LINE
  5
246
100
AcDbEntity
  8
0
100
AcDbLine
 62
7
  6
CONTINUOUS
 10
403.4120538064
 20
611.2618329461
 11
399.1694131193
 21
611.261822748
  0
LINE
  5
247
100
AcDbEntity
  8
0
100
AcDbLine
 62
7
  6
CONTINUOUS
 10
399.1694131193
 20
612.8948275823
 11
403.4120538064
 21
612.8948377803
  0
LINE
  5
248
100
AcDbEntity
  8
0
100
AcDbLine
 62
7
  6
CONTINUOUS
 10
220.3197833688
 20
840.2329021179
 11
204.7633694156
 21
849.2141987173
  0
LINE
  5
249
100
AcDbEntity
  8
0
100
AcDbLine
 62
7
  6
CONTINUOUS
 10
204.3973455357
 20
850.5802375371
 11
219.9537594889
 21
841.5989409376
  0
LINE
  5
24A
100
AcDbEntity
  8
0
100
AcDbLine
 62
7
  6
CONTINUOUS
 10
237.0290059447
 20
855.0842807176
 11
439.9694970619
 21
737.9364680167
  0
LINE
  5
24B
100
AcDbEntity
  8
0
100
AcDbLine
 62
7
  6
CONTINUOUS
 10
222.5332696297
 20
864.701210438
 11
409.9173602389
 21
756.5174027277
  0
LINE
  5
24C
100
AcDbEntity
  8
0
100
AcDbLine
 62
7
  6
CONTINUOUS
 10
413.0993275063
 20
755.0884917517
 11
441.3837189181
 21
738.7588629598
  0
LINE
  5
24D
100
AcDbEntity
  8
0
100
AcDbLine
 62
7
  6
CONTINUOUS
 10
197.431011666
 20
879.6020086726
 11
222.533269665
 21
865.1100821901
  0
LINE
  5
24E
100
AcDbEntity
  8
0
100
AcDbLine
 62
7
  6
CONTINUOUS
 10
198.8450807868
 20
877.152435537
 11
220.3394047832
 21
864.71687107
  0
LINE
  5
24F
100
AcDbEntity
  8
0
100
AcDbLine
 62
7
  6
CONTINUOUS
 10
374.2084398216
 20
627.3057262168
 11
374.2084398216
 21
625.6727213826
  0
LINE
  5
250
100
AcDbEntity
  8
0
100
AcDbLine
 62
7
  6
CONTINUOUS
 10
389.0575850755
 20
642.0025165242
 11
389.0575850755
 21
767.3254731226
  0
LINE
  5
251
100
AcDbEntity
  8
0
100
AcDbLine
 62
7
  6
CONTINUOUS
 10
395.4201565539
 20
1139.6566229996
 11
395.4201565539
 21
1143.7391350853
  0
LINE
  5
252
100
AcDbEntity
  8
0
100
AcDbLine
 62
7
  6
CONTINUOUS
 10
399.1694131193
 20
612.8948275823
 11
399.1694131193
 21
611.261822748
  0
LINE
  5
253
100
AcDbEntity
  8
0
100
AcDbLine
 62
7
  6
CONTINUOUS
 10
403.4120538064
 20
611.2618329461
 11
403.4120538064
 21
612.8948377803
  0
LINE
  5
254
100
AcDbEntity
  8
0
100
AcDbLine
 62
7
  6
CONTINUOUS
 10
409.9173602389
 20
756.5174027277
 11
409.9173602389
 21
912.4693643995
  0
LINE
  5
255
100
AcDbEntity
  8
0
100
AcDbLine
 62
7
  6
CONTINUOUS
 10
411.473104673
 20
608.2408931788
 11
411.4731223368
 21
605.7914384536
  0
LINE
  5
256
100
AcDbEntity
  8
0
100
AcDbLine
 62
7
  6
CONTINUOUS
 10
411.4731223368
 20
605.7914384536
 11
411.4731223368
 21
604.1584336194
  0
LINE
  5
257
100
AcDbEntity
  8
0
100
AcDbLine
 62
7
  6
CONTINUOUS
 10
411.8972998529
 20
617.7937676268
 11
411.8972998529
 21
616.1607627925
  0
LINE
  5
258
100
AcDbEntity
  8
0
100
AcDbLine
 62
7
  6
CONTINUOUS
 10
413.0993275063
 20
931.4530138516
 11
413.0993275063
 21
919.6137288032
  0
LINE
  5
259
100
AcDbEntity
  8
0
100
AcDbLine
 62
7
  6
CONTINUOUS
 10
413.0993275063
 20
917.980723969
 11
413.0993275063
 21
755.0884917516
  0
LINE
  5
25A
100
AcDbEntity
  8
0
100
AcDbLine
 62
7
  6
CONTINUOUS
 10
419.8166019943
 20
659.7611372176
 11
419.8166019943
 21
749.5697678268
  0
LINE
  5
25B
100
AcDbEntity
  8
0
100
AcDbLine
 62
7
  6
CONTINUOUS
 10
422.2919011316
 20
599.5453549095
 11
422.2919011316
 21
614.49801635
  0
LINE
  5
25C
100
AcDbEntity
  8
0
100
AcDbLine
 62
7
  6
CONTINUOUS
 10
423.7061205819
 20
613.6815348409
 11
423.7061205819
 21
597.0958685662
  0
LINE
  5
25D
100
AcDbEntity
  8
0
100
AcDbLine
 62
7
  6
CONTINUOUS
 10
196.2289043383
 20
730.8763740205
 11
191.9862636512
 21
730.8763638225
  0
LINE
  5
25E
100
AcDbEntity
  8
0
100
AcDbLine
 62
7
  6
CONTINUOUS
 10
191.9862636512
 20
732.5093686567
 11
196.2289043383
 21
732.5093788548
  0
LINE
  5
25F
100
AcDbEntity
  8
0
100
AcDbLine
 62
7
  6
CONTINUOUS
 10
427.2412541083
 20
655.4746092951
 11
427.2412541083
 21
745.2838722402
  0
LINE
  5
260
100
AcDbEntity
  8
0
100
AcDbLine
 62
7
  6
CONTINUOUS
 10
428.3019098641
 20
744.6716065403
 11
428.3019098641
 21
656.0869755259
  0
LINE
  5
261
100
AcDbEntity
  8
0
100
AcDbLine
 62
7
  6
CONTINUOUS
 10
436.5597668601
 20
1185.3809113297
 11
436.5597668601
 21
1143.7392880561
  0
LINE
  5
262
100
AcDbEntity
  8
0
100
AcDbLine
 62
7
  6
CONTINUOUS
 10
439.9696990133
 20
680.7880465588
 11
439.9704418638
 21
737.9370134951
  0
LINE
  5
263
100
AcDbEntity
  8
0
100
AcDbLine
 62
7
  6
CONTINUOUS
 10
441.3837189181
 20
738.7588629598
 11
441.3837514357
 21
679.970938712
  0
LINE
  5
264
100
AcDbEntity
  8
0
100
AcDbLine
 62
7
  6
CONTINUOUS
 10
459.0600318171
 20
1102.9149550928
 11
459.0600318171
 21
1106.9974671784
  0
LINE
  5
265
100
AcDbEntity
  8
0
100
AcDbLine
 62
7
  6
CONTINUOUS
 10
466.2409806391
 20
1156.7400659826
 11
466.2409806391
 21
1173.0701143252
  0
LINE
  5
266
100
AcDbEntity
  8
0
100
AcDbLine
 62
7
  6
CONTINUOUS
 10
469.6678700008
 20
755.0886277257
 11
469.6678700008
 21
917.980859943
  0
LINE
  5
267
100
AcDbEntity
  8
0
100
AcDbLine
 62
7
  6
CONTINUOUS
 10
469.6678700008
 20
919.6138647773
 11
469.6678700008
 21
931.4531498257
  0
LINE
  5
268
100
AcDbEntity
  8
0
100
AcDbLine
 62
7
  6
CONTINUOUS
 10
480.3830573834
 20
1181.2349974026
 11
481.5597287241
 21
1185.3809113346
  0
LINE
  5
269
100
AcDbEntity
  8
0
100
AcDbLine
 62
7
  6
CONTINUOUS
 10
409.9173602389
 20
912.4693643995
 11
222.5332830749
 21
1020.6531643473
  0
LINE
  5
26A
100
AcDbEntity
  8
0
100
AcDbLine
 62
7
  6
CONTINUOUS
 10
413.0993275063
 20
914.3064630919
 11
225.7152453004
 21
1022.4902659507
  0
LINE
  5
26B
100
AcDbEntity
  8
0
100
AcDbLine
 62
7
  6
CONTINUOUS
 10
225.7152503424
 20
1026.1645239169
 11
413.0993275063
 21
917.980723969
  0
LINE
  5
26C
100
AcDbEntity
  8
0
100
AcDbLine
 62
7
  6
CONTINUOUS
 10
225.7152503424
 20
1027.7975287511
 11
413.0993275063
 21
919.6137288032
  0
LINE
  5
26D
100
AcDbEntity
  8
0
100
AcDbLine
 62
7
  6
CONTINUOUS
 10
225.7152503424
 20
1039.6368137995
 11
413.0993275063
 21
931.4530138516
  0
LINE
  5
26E
100
AcDbEntity
  8
0
100
AcDbLine
 62
7
  6
CONTINUOUS
 10
481.5597668601
 20
1185.3809113297
 11
481.5597668601
 21
1180.5556392386
  0
LINE
  5
26F
100
AcDbEntity
  8
0
100
AcDbLine
 62
7
  6
CONTINUOUS
 10
481.5597668601
 20
1147.8959607147
 11
481.5597668601
 21
1143.7392880561
  0
LINE
  5
270
100
AcDbEntity
  8
0
100
AcDbLine
 62
7
  6
CONTINUOUS
 10
514.2143843009
 20
1145.3732833932
 11
514.2143843009
 21
1129.0432350506
  0
LINE
  5
271
100
AcDbEntity
  8
0
100
AcDbLine
 62
7
  6
CONTINUOUS
 10
531.2854226731
 20
1149.4557249319
 11
531.2854226731
 21
1133.1256765893
  0
LINE
  5
272
100
AcDbEntity
  8
0
100
AcDbLine
 62
7
  6
CONTINUOUS
 10
220.9066098147
 20
1081.195840307
 11
283.1317474895
 21
1117.1213258477
  0
LINE
  5
273
100
AcDbEntity
  8
0
100
AcDbLine
 62
7
  6
CONTINUOUS
 10
578.7011514449
 20
1287.767382166
 11
640.9262891198
 21
1323.6928677067
  0
LINE
  5
274
100
AcDbEntity
  8
0
100
AcDbLine
 62
7
  6
CONTINUOUS
 10
936.4956930751
 20
1494.3389240249
 11
998.72083075
 21
1530.2644095656
  0
LINE
  5
275
100
AcDbEntity
  8
0
100
AcDbLine
 62
7
  6
CONTINUOUS
 10
1017.6713125046
 20
1529.5296624712
 11
225.7150148251
 21
1072.2962101352
  0
LINE
  5
276
100
AcDbEntity
  8
0
100
AcDbLine
 62
7
  6
CONTINUOUS
 10
1126.5464455397
 20
1588.0755762881
 11
1127.2520782441
 21
1588.4303292773
  0
LINE
  5
277
100
AcDbEntity
  8
0
100
AcDbLine
 62
7
  6
CONTINUOUS
 10
1127.6071101274
 20
1587.4632151563
 11
1128.3127428318
 21
1587.8179681455
  0
LINE
  5
278
100
AcDbEntity
  8
0
100
AcDbLine
 62
7
  6
CONTINUOUS
 10
231.0182483362
 20
1075.3580151539
 11
220.9066098147
 21
1081.195840307
  0
LINE
  5
279
100
AcDbEntity
  8
0
100
AcDbLine
 62
7
  6
CONTINUOUS
 10
578.7011514449
 20
1276.0916346382
 11
578.7011514449
 21
1287.767382166
  0
LINE
  5
27A
100
AcDbEntity
  8
0
100
AcDbLine
 62
7
  6
CONTINUOUS
 10
422.2919011316
 20
614.49801635
 11
439.9696990133
 21
680.7880465588
  0
LINE
  5
27B
100
AcDbEntity
  8
0
100
AcDbLine
 62
7
  6
CONTINUOUS
 10
441.3837514357
 20
679.970938712
 11
423.7061205819
 21
613.6815348409
  0
LINE
  5
27C
100
AcDbEntity
  8
0
100
AcDbLine
 62
7
  6
CONTINUOUS
 10
737.3047794157
 20
1348.473460114
 11
939.8900287775
 21
1465.4354101982
  0
LINE
  5
27D
100
AcDbEntity
  8
0
100
AcDbLine
 62
7
  6
CONTINUOUS
 10
436.5597668601
 20
1167.4909583907
 11
395.4201565539
 21
1143.7391350853
  0
LINE
  5
27E
100
AcDbEntity
  8
0
100
AcDbLine
 62
7
  6
CONTINUOUS
 10
222.5332830749
 20
1020.6531643473
 11
225.7152503424
 21
1022.4902630398
  0
LINE
  5
27F
100
AcDbEntity
  8
0
100
AcDbLine
 62
7
  6
CONTINUOUS
 10
293.2433860111
 20
1111.2835006946
 11
283.1317474895
 21
1117.1213258477
  0
LINE
  5
280
100
AcDbEntity
  8
0
100
AcDbLine
 62
7
  6
CONTINUOUS
 10
204.3973455357
 20
850.580237537
 11
221.4733440928
 21
865.7223926416
  0
LINE
  5
281
100
AcDbEntity
  8
0
100
AcDbLine
 62
7
  6
CONTINUOUS
 10
236.7501863499
 20
856.4932554313
 11
219.9537594889
 21
841.5989409376
  0
LINE
  5
282
100
AcDbEntity
  8
0
100
AcDbLine
 62
7
  6
CONTINUOUS
 10
831.3499813127
 20
1339.0839083738
 11
939.890420325
 21
1401.7493859931
  0
LINE
  5
283
100
AcDbEntity
  8
0
100
AcDbLine
 62
7
  6
CONTINUOUS
 10
939.8904350449
 20
1400.1164249307
 11
834.8855152186
 21
1339.4921680808
  0
LINE
  5
284
100
AcDbEntity
  8
0
100
AcDbLine
 62
7
  6
CONTINUOUS
 10
459.0600318171
 20
1106.9974671784
 11
505.7294463955
 21
1133.9419054116
  0
LINE
  5
285
100
AcDbEntity
  8
0
100
AcDbLine
 62
7
  6
CONTINUOUS
 10
459.0600318171
 20
1102.9149550928
 11
509.2650561174
 21
1131.9006663659
  0
LINE
  5
286
100
AcDbEntity
  8
0
100
AcDbLine
 62
7
  6
CONTINUOUS
 10
951.4522996221
 20
1378.1493323055
 11
872.7009656139
 21
1332.6824998172
  0
LINE
  5
287
100
AcDbEntity
  8
0
100
AcDbLine
 62
7
  6
CONTINUOUS
 10
962.9772202072
 20
1374.9870263372
 11
883.4987487027
 21
1329.1003833256
  0
LINE
  5
288
100
AcDbEntity
  8
0
100
AcDbLine
 62
7
  6
CONTINUOUS
 10
395.4201565539
 20
1139.6566229996
 11
459.0600318171
 21
1102.9149550928
  0
LINE
  5
289
100
AcDbEntity
  8
0
100
AcDbLine
 62
7
  6
CONTINUOUS
 10
395.4201565539
 20
1143.7391350853
 11
459.0600318171
 21
1106.9974671784
  0
LINE
  5
28A
100
AcDbEntity
  8
0
100
AcDbLine
 62
7
  6
CONTINUOUS
 10
881.515695476
 20
1324.2993662151
 11
877.2974393241
 21
1321.8639694277
  0
LINE
  5
28B
100
AcDbEntity
  8
0
100
AcDbLine
 62
7
  6
CONTINUOUS
 10
898.7166048266
 20
1329.4784646373
 11
893.9082803428
 21
1326.7023783031
  0
LINE
  5
28C
100
AcDbEntity
  8
0
100
AcDbLine
 62
7
  6
CONTINUOUS
 10
908.6160585513
 20
1335.1938827936
 11
903.8074580097
 21
1332.4176370773
  0
LINE
  5
28D
100
AcDbEntity
  8
0
100
AcDbLine
 62
7
  6
CONTINUOUS
 10
918.5155122725
 20
1340.909300948
 11
913.7069117305
 21
1338.1330552314
  0
LINE
  5
28E
100
AcDbEntity
  8
0
100
AcDbLine
 62
7
  6
CONTINUOUS
 10
928.4149659705
 20
1346.6247190879
 11
923.6063654615
 21
1343.8484733904
  0
LINE
  5
28F
100
AcDbEntity
  8
0
100
AcDbLine
 62
7
  6
CONTINUOUS
 10
935.8037284185
 20
1350.6392155356
 11
962.3201223539
 21
1365.9483955134
  0
LINE
  5
290
100
AcDbEntity
  8
0
100
AcDbLine
 62
7
  6
CONTINUOUS
 10
935.8037284244
 20
1349.2575815368
 11
962.3201223392
 21
1364.5667373181
  0
LINE
  5
291
100
AcDbEntity
  8
0
100
AcDbLine
 62
7
  6
CONTINUOUS
 10
900.9784530357
 20
1322.6194355892
 11
905.7870544978
 21
1325.3956818371
  0
LINE
  5
292
100
AcDbEntity
  8
0
100
AcDbLine
 62
7
  6
CONTINUOUS
 10
910.8779067433
 20
1328.3348537357
 11
915.6865082188
 21
1331.1110999912
  0
LINE
  5
293
100
AcDbEntity
  8
0
100
AcDbLine
 62
7
  6
CONTINUOUS
 10
920.7773604646
 20
1334.0502718901
 11
925.5859619398
 21
1336.8265181455
  0
LINE
  5
294
100
AcDbEntity
  8
0
100
AcDbLine
 62
7
  6
CONTINUOUS
 10
930.6768142089
 20
1339.7656900587
 11
935.4854156509
 21
1342.5419362949
  0
LINE
  5
295
100
AcDbEntity
  8
0
100
AcDbLine
 62
7
  6
CONTINUOUS
 10
935.4855620628
 20
1341.7821060985
 11
930.6772418861
 21
1339.0060410851
  0
LINE
  5
296
100
AcDbEntity
  8
0
100
AcDbLine
 62
7
  6
CONTINUOUS
 10
925.5861083433
 20
1336.0666879451
 11
920.7777881628
 21
1333.2906229294
  0
LINE
  5
297
100
AcDbEntity
  8
0
100
AcDbLine
 62
7
  6
CONTINUOUS
 10
915.6866546223
 20
1330.3512697909
 11
910.8783344418
 21
1327.5752047752
  0
LINE
  5
298
100
AcDbEntity
  8
0
100
AcDbLine
 62
7
  6
CONTINUOUS
 10
905.7872009013
 20
1324.6358516367
 11
900.978880721
 21
1321.8597866211
  0
LINE
  5
299
100
AcDbEntity
  8
0
100
AcDbLine
 62
7
  6
CONTINUOUS
 10
940.0826596875
 20
1339.8889678926
 11
935.2738887565
 21
1337.1126238196
  0
LINE
  5
29A
100
AcDbEntity
  8
0
100
AcDbLine
 62
7
  6
CONTINUOUS
 10
942.3437414305
 20
1333.0294963599
 11
947.152512364
 21
1335.8058404343
  0
LINE
  5
29B
100
AcDbEntity
  8
0
100
AcDbLine
 62
7
  6
CONTINUOUS
 10
942.3442198776
 20
1332.2132785805
 11
947.1525660498
 21
1334.9893619664
  0
LINE
  5
29C
100
AcDbEntity
  8
0
100
AcDbLine
 62
7
  6
CONTINUOUS
 10
951.7487026797
 20
1333.1522448665
 11
946.9410661268
 21
1330.3765708764
  0
LINE
  5
29D
100
AcDbEntity
  8
0
100
AcDbLine
 62
7
  6
CONTINUOUS
 10
954.0112082471
 20
1326.2936123509
 11
958.8201768116
 21
1329.0700629273
  0
LINE
  5
29E
100
AcDbEntity
  8
0
100
AcDbLine
 62
7
  6
CONTINUOUS
 10
954.011600602
 20
1325.477346695
 11
958.820176185
 21
1328.2535625305
  0
LINE
  5
29F
100
AcDbEntity
  8
0
100
AcDbLine
 62
7
  6
CONTINUOUS
 10
963.4164891585
 20
1326.4165558886
 11
958.6082662771
 21
1323.6405364127
  0
LINE
  5
2A0
100
AcDbEntity
  8
0
100
AcDbLine
 62
7
  6
CONTINUOUS
 10
933.7185362342
 20
1309.2705472959
 11
928.9099347114
 21
1306.4943010131
  0
LINE
  5
2A1
100
AcDbEntity
  8
0
100
AcDbLine
 62
7
  6
CONTINUOUS
 10
943.6179898368
 20
1314.9859653818
 11
938.8093884322
 21
1312.2097191671
  0
LINE
  5
2A2
100
AcDbEntity
  8
0
100
AcDbLine
 62
7
  6
CONTINUOUS
 10
953.5174436762
 20
1320.7013836043
 11
948.7088421532
 21
1317.9251373213
  0
LINE
  5
2A3
100
AcDbEntity
  8
0
100
AcDbLine
 62
7
  6
CONTINUOUS
 10
259.5994871222
 20
918.3525671401
 11
251.257636615
 21
913.5364262527
  0
LINE
  5
2A4
100
AcDbEntity
  8
0
100
AcDbLine
 62
7
  6
CONTINUOUS
 10
197.4310116659
 20
879.602045773
 11
213.9994038309
 21
889.1677345627
  0
LINE
  5
2A5
100
AcDbEntity
  8
0
100
AcDbLine
 62
7
  6
CONTINUOUS
 10
935.9803844263
 20
1302.411518238
 11
940.7889849683
 21
1305.1877639546
  0
LINE
  5
2A6
100
AcDbEntity
  8
0
100
AcDbLine
 62
7
  6
CONTINUOUS
 10
945.8798381473
 20
1308.1269363922
 11
950.6884386893
 21
1310.9031821088
  0
LINE
  5
2A7
100
AcDbEntity
  8
0
100
AcDbLine
 62
7
  6
CONTINUOUS
 10
955.7792918683
 20
1313.8423545464
 11
960.5878924102
 21
1316.618600263
  0
LINE
  5
2A8
100
AcDbEntity
  8
0
100
AcDbLine
 62
7
  6
CONTINUOUS
 10
965.6787455893
 20
1319.5577727006
 11
970.4873461361
 21
1322.33401842
  0
LINE
  5
2A9
100
AcDbEntity
  8
0
100
AcDbLine
 62
7
  6
CONTINUOUS
 10
970.4874916144
 20
1321.9112963591
 11
965.6791732721
 21
1319.1352334176
  0
LINE
  5
2AA
100
AcDbEntity
  8
0
100
AcDbLine
 62
7
  6
CONTINUOUS
 10
960.5880378932
 20
1316.1958782045
 11
955.7797195512
 21
1313.4198152634
  0
LINE
  5
2AB
100
AcDbEntity
  8
0
100
AcDbLine
 62
7
  6
CONTINUOUS
 10
950.6885841722
 20
1310.4804600504
 11
945.8802658302
 21
1307.7043971092
  0
LINE
  5
2AC
100
AcDbEntity
  8
0
100
AcDbLine
 62
7
  6
CONTINUOUS
 10
940.7891304512
 20
1304.7650418962
 11
935.9808121092
 21
1301.988978955
  0
LINE
  5
2AD
100
AcDbEntity
  8
0
100
AcDbLine
 62
7
  6
CONTINUOUS
 10
1004.675994886
 20
1341.4947502518
 11
978.1596009503
 21
1326.1856184587
  0
LINE
  5
2AE
100
AcDbEntity
  8
0
100
AcDbLine
 62
7
  6
CONTINUOUS
 10
1392.0258648776
 20
1436.8764286571
 11
1392.8076314291
 21
1437.1554064031
  0
LINE
  5
2AF
100
AcDbEntity
  8
0
100
AcDbLine
 62
7
  6
CONTINUOUS
 10
514.2143843009
 20
1129.0432350506
 11
466.2409806391
 21
1156.7400659826
  0
LINE
  5
2B0
100
AcDbEntity
  8
0
100
AcDbLine
 62
7
  6
CONTINUOUS
 10
1124.3667277465
 20
1599.4657216371
 11
1123.4180483982
 21
1598.3702781569
  0
LINE
  5
2B1
100
AcDbEntity
  8
0
100
AcDbLine
 62
7
  6
CONTINUOUS
 10
1125.6165652079
 20
1597.8356629369
 11
1126.5652445562
 21
1598.9311064171
  0
LINE
  5
2B2
100
AcDbEntity
  8
0
100
AcDbLine
 62
7
  6
CONTINUOUS
 10
940.0259997246
 20
1296.4650982732
 11
1019.5044710457
 21
1342.3517411789
  0
LINE
  5
2B3
100
AcDbEntity
  8
0
100
AcDbLine
 62
7
  6
CONTINUOUS
 10
950.370090831
 20
1287.8412239106
 11
1029.1214248392
 21
1333.3080563989
  0
LINE
  5
2B4
100
AcDbEntity
  8
0
100
AcDbLine
 62
7
  6
CONTINUOUS
 10
948.0230712421
 20
1274.1736473575
 11
1053.0279910684
 21
1334.7979042075
  0
LINE
  5
2B5
100
AcDbEntity
  8
0
100
AcDbLine
 62
7
  6
CONTINUOUS
 10
948.0230712421
 20
1273.765396149
 11
1053.0279910684
 21
1334.3896529989
  0
LINE
  5
2B6
100
AcDbEntity
  8
0
100
AcDbLine
 62
7
  6
CONTINUOUS
 10
1056.5635249743
 20
1334.3896614973
 11
948.023085962
 21
1271.724183878
  0
LINE
  5
2B7
100
AcDbEntity
  8
0
100
AcDbLine
 62
7
  6
CONTINUOUS
 10
466.2409806391
 20
1173.0701143252
 11
514.2143843009
 21
1145.3732833932
  0
LINE
  5
2B8
100
AcDbEntity
  8
0
100
AcDbLine
 62
7
  6
CONTINUOUS
 10
480.3830573834
 20
1181.2349974026
 11
528.3564610452
 21
1153.5381664706
  0
LINE
  5
2B9
100
AcDbEntity
  8
0
100
AcDbLine
 62
7
  6
CONTINUOUS
 10
1150.6087268713
 20
1343.7796653511
 11
948.0234775095
 21
1226.8177152669
  0
LINE
  5
2BA
100
AcDbEntity
  8
0
100
AcDbLine
 62
7
  6
CONTINUOUS
 10
409.9173602389
 20
912.4693643995
 11
413.0993275063
 21
914.3064630919
  0
LINE
  5
2BB
100
AcDbEntity
  8
0
100
AcDbLine
 62
7
  6
CONTINUOUS
 10
469.6678700008
 20
931.4531498257
 11
1261.6241676803
 21
1388.6866021617
  0
LINE
  5
2BC
100
AcDbEntity
  8
0
100
AcDbLine
 62
7
  6
CONTINUOUS
 10
469.6678700008
 20
919.6138647773
 11
1261.6241676803
 21
1376.8473171133
  0
LINE
  5
2BD
100
AcDbEntity
  8
0
100
AcDbLine
 62
7
  6
CONTINUOUS
 10
1260.2099600059
 20
1374.3978239713
 11
469.6678700008
 21
917.980859943
  0
LINE
  5
2BE
100
AcDbEntity
  8
0
100
AcDbLine
 62
7
  6
CONTINUOUS
 10
1392.0624547803
 20
1436.6886573249
 11
1393.1209038369
 21
1437.2207868087
  0
LINE
  5
2BF
100
AcDbEntity
  8
0
100
AcDbLine
 62
7
  6
CONTINUOUS
 10
1390.6519278821
 20
1435.5976544747
 11
1392.0631932907
 21
1436.3071604531
  0
LINE
  5
2C0
100
AcDbEntity
  8
0
100
AcDbLine
 62
7
  6
CONTINUOUS
 10
1393.1238578785
 20
1435.6947993213
 11
1391.7125924698
 21
1434.9852933429
  0
LINE
  5
2C1
100
AcDbEntity
  8
0
100
AcDbLine
 62
7
  6
CONTINUOUS
 10
834.8855152186
 20
1339.0839168722
 11
834.8855152186
 21
1339.4921680808
  0
LINE
  5
2C2
100
AcDbEntity
  8
0
100
AcDbLine
 62
7
  6
CONTINUOUS
 10
1125.0440028714
 20
1585.6838220485
 11
1126.5464455397
 21
1588.0755762881
  0
LINE
  5
2C3
100
AcDbEntity
  8
0
100
AcDbLine
 62
7
  6
CONTINUOUS
 10
1127.6071101274
 20
1587.4632151563
 11
1126.1046674591
 21
1585.0714609167
  0
LINE
  5
2C4
100
AcDbEntity
  8
0
100
AcDbLine
 62
7
  6
CONTINUOUS
 10
181.1674848565
 20
738.7554522009
 11
252.5854081221
 21
779.988363296
  0
LINE
  5
2C5
100
AcDbEntity
  8
0
100
AcDbLine
 62
7
  6
CONTINUOUS
 10
196.2289043383
 20
732.5093788548
 11
204.7141503849
 21
737.4083087012
  0
LINE
  5
2C6
100
AcDbEntity
  8
0
100
AcDbLine
 62
7
  6
CONTINUOUS
 10
204.7141503849
 20
735.775303867
 11
196.2289043383
 21
730.8763740205
  0
LINE
  5
2C7
100
AcDbEntity
  8
0
100
AcDbLine
 62
7
  6
CONTINUOUS
 10
297.3216018055
 20
785.3799413817
 11
298.3822575613
 21
785.9923076125
  0
LINE
  5
2C8
100
AcDbEntity
  8
0
100
AcDbLine
 62
7
  6
CONTINUOUS
 10
212.7752012515
 20
732.7543640997
 11
204.289955205
 21
727.8554342532
  0
LINE
  5
2C9
100
AcDbEntity
  8
0
100
AcDbLine
 62
7
  6
CONTINUOUS
 10
303.3215749442
 20
774.987621028
 11
304.3822307
 21
775.5999872588
  0
LINE
  5
2CA
100
AcDbEntity
  8
0
100
AcDbLine
 62
7
  6
CONTINUOUS
 10
329.6444091872
 20
788.9609336763
 11
328.7334509005
 21
788.4349948037
  0
LINE
  5
2CB
100
AcDbEntity
  8
0
100
AcDbLine
 62
7
  6
CONTINUOUS
 10
321.8776135525
 20
784.4767988926
 11
321.0992705555
 21
784.0274250361
  0
LINE
  5
2CC
100
AcDbEntity
  8
0
100
AcDbLine
 62
7
  6
CONTINUOUS
 10
312.0148109882
 20
778.7825411672
 11
308.7538438123
 21
776.8998321286
  0
LINE
  5
2CD
100
AcDbEntity
  8
0
100
AcDbLine
 62
7
  6
CONTINUOUS
 10
300.2641495795
 20
771.998334136
 11
296.5903941162
 21
769.8773030912
  0
LINE
  5
2CE
100
AcDbEntity
  8
0
100
AcDbLine
 62
7
  6
CONTINUOUS
 10
287.6393340873
 20
764.709437022
 11
286.7046981488
 21
764.1698279323
  0
LINE
  5
2CF
100
AcDbEntity
  8
0
100
AcDbLine
 62
7
  6
CONTINUOUS
 10
229.2509461664
 20
710.9950808935
 11
252.5854451119
 21
724.4671797235
  0
LINE
  5
2D0
100
AcDbEntity
  8
0
100
AcDbLine
 62
7
  6
CONTINUOUS
 10
252.5854081221
 20
722.8341535333
 11
229.2509461664
 21
709.3620760592
  0
LINE
  5
2D1
100
AcDbEntity
  8
0
100
AcDbLine
 62
7
  6
CONTINUOUS
 10
313.8215279369
 20
756.801060409
 11
314.8821836928
 21
757.4134266398
  0
LINE
  5
2D2
100
AcDbEntity
  8
0
100
AcDbLine
 62
7
  6
CONTINUOUS
 10
893.9079408774
 20
1324.9097555824
 11
893.9077009593
 21
1325.3958262656
  0
LINE
  5
2D3
100
AcDbEntity
  8
0
100
AcDbLine
 62
7
  6
CONTINUOUS
 10
872.7009656139
 20
1324.5176507333
 11
872.7009656139
 21
1332.6824998172
  0
LINE
  5
2D4
100
AcDbEntity
  8
0
100
AcDbLine
 62
7
  6
CONTINUOUS
 10
881.515695476
 20
1326.2309215439
 11
881.515695476
 21
1319.428613198
  0
LINE
  5
2D5
100
AcDbEntity
  8
0
100
AcDbLine
 62
7
  6
CONTINUOUS
 10
883.4987888509
 20
1318.2836996056
 11
883.4987888342
 21
1323.2345400969
  0
LINE
  5
2D6
100
AcDbEntity
  8
0
100
AcDbLine
 62
7
  6
CONTINUOUS
 10
893.4392923116
 20
1326.0489153391
 11
893.4392923116
 21
1325.6072470965
  0
LINE
  5
2D7
100
AcDbEntity
  8
0
100
AcDbLine
 62
7
  6
CONTINUOUS
 10
898.7159278806
 20
1322.619857959
 11
898.7158950898
 21
1321.904734672
  0
LINE
  5
2D8
100
AcDbEntity
  8
0
100
AcDbLine
 62
7
  6
CONTINUOUS
 10
286.6004245848
 20
737.5737559189
 11
286.1728337262
 21
737.3268876951
  0
LINE
  5
2D9
100
AcDbEntity
  8
0
100
AcDbLine
 62
7
  6
CONTINUOUS
 10
327.8214652606
 20
732.5523129169
 11
328.8821210165
 21
733.1646791477
  0
LINE
  5
2DA
100
AcDbEntity
  8
0
100
AcDbLine
 62
7
  6
CONTINUOUS
 10
409.9173602389
 20
756.5174027277
 11
413.0993275063
 21
758.3545014201
  0
LINE
  5
2DB
100
AcDbEntity
  8
0
100
AcDbLine
 62
7
  6
CONTINUOUS
 10
338.3214182534
 20
714.3657522979
 11
339.3820740092
 21
714.9781185287
  0
LINE
  5
2DC
100
AcDbEntity
  8
0
100
AcDbLine
 62
7
  6
CONTINUOUS
 10
588.8127899664
 20
1281.9295570129
 11
578.7011514449
 21
1287.767382166
  0
LINE
  5
2DD
100
AcDbEntity
  8
0
100
AcDbLine
 62
7
  6
CONTINUOUS
 10
903.8073945976
 20
1330.6251737371
 11
903.8071546732
 21
1331.1112444238
  0
LINE
  5
2DE
100
AcDbEntity
  8
0
100
AcDbLine
 62
7
  6
CONTINUOUS
 10
913.7068483182
 20
1336.3405918915
 11
913.7066083936
 21
1336.8266625784
  0
LINE
  5
2DF
100
AcDbEntity
  8
0
100
AcDbLine
 62
7
  6
CONTINUOUS
 10
923.6063020443
 20
1342.0560100425
 11
923.606062124
 21
1342.5420807272
  0
LINE
  5
2E0
100
AcDbEntity
  8
0
100
AcDbLine
 62
7
  6
CONTINUOUS
 10
900.978880721
 20
1321.8597866211
 11
900.9787550793
 21
1322.619618397
  0
LINE
  5
2E1
100
AcDbEntity
  8
0
100
AcDbLine
 62
7
  6
CONTINUOUS
 10
910.8783344418
 20
1327.5752047752
 11
910.878208798
 21
1328.3350365499
  0
LINE
  5
2E2
100
AcDbEntity
  8
0
100
AcDbLine
 62
7
  6
CONTINUOUS
 10
920.7777881628
 20
1333.2906229294
 11
920.777662519
 21
1334.0504547041
  0
LINE
  5
2E3
100
AcDbEntity
  8
0
100
AcDbLine
 62
7
  6
CONTINUOUS
 10
928.9097788661
 20
1304.472670533
 11
928.9096087518
 21
1305.1879225433
  0
LINE
  5
2E4
100
AcDbEntity
  8
0
100
AcDbLine
 62
7
  6
CONTINUOUS
 10
930.6772418861
 20
1339.0060410851
 11
930.6771162483
 21
1339.7658728631
  0
LINE
  5
2E5
100
AcDbEntity
  8
0
100
AcDbLine
 62
7
  6
CONTINUOUS
 10
935.9808121092
 20
1301.988978955
 11
935.9806864735
 21
1302.4117010479
  0
LINE
  5
2E6
100
AcDbEntity
  8
0
100
AcDbLine
 62
7
  6
CONTINUOUS
 10
938.8092325872
 20
1310.1880886872
 11
938.8090624728
 21
1310.9033406975
  0
LINE
  5
2E7
100
AcDbEntity
  8
0
100
AcDbLine
 62
7
  6
CONTINUOUS
 10
940.7890715261
 20
1305.1878068813
 11
940.7891304512
 21
1304.7650418962
  0
LINE
  5
2E8
100
AcDbEntity
  8
0
100
AcDbLine
 62
7
  6
CONTINUOUS
 10
945.8802658302
 20
1307.7043971092
 11
945.8801401945
 21
1308.1271192021
  0
LINE
  5
2E9
100
AcDbEntity
  8
0
100
AcDbLine
 62
7
  6
CONTINUOUS
 10
948.7086863081
 20
1315.9035068414
 11
948.7085161938
 21
1316.6187588517
  0
LINE
  5
2EA
100
AcDbEntity
  8
0
100
AcDbLine
 62
7
  6
CONTINUOUS
 10
950.6885252471
 20
1310.9032250355
 11
950.6885841722
 21
1310.4804600504
  0
LINE
  5
2EB
100
AcDbEntity
  8
0
100
AcDbLine
 62
7
  6
CONTINUOUS
 10
903.3387460326
 20
1331.7643334933
 11
903.3387460326
 21
1331.3226652507
  0
LINE
  5
2EC
100
AcDbEntity
  8
0
100
AcDbLine
 62
7
  6
CONTINUOUS
 10
905.7871410553
 20
1325.3957247635
 11
905.7872009013
 21
1324.6358516367
  0
LINE
  5
2ED
100
AcDbEntity
  8
0
100
AcDbLine
 62
7
  6
CONTINUOUS
 10
906.2557655506
 20
1326.0489848873
 11
906.2557655506
 21
1325.3018140362
  0
LINE
  5
2EE
100
AcDbEntity
  8
0
100
AcDbLine
 62
7
  6
CONTINUOUS
 10
912.5771279562
 20
1320.8439071759
 11
912.5771279562
 21
1321.660409593
  0
LINE
  5
2EF
100
AcDbEntity
  8
0
100
AcDbLine
 62
7
  6
CONTINUOUS
 10
913.2381997535
 20
1337.4797516475
 11
913.2381997535
 21
1337.0380834049
  0
LINE
  5
2F0
100
AcDbEntity
  8
0
100
AcDbLine
 62
7
  6
CONTINUOUS
 10
915.6865947763
 20
1331.1111429177
 11
915.6866546223
 21
1330.3512697909
  0
LINE
  5
2F1
100
AcDbEntity
  8
0
100
AcDbLine
 62
7
  6
CONTINUOUS
 10
916.1552192716
 20
1331.7644030415
 11
916.1552192716
 21
1331.0172321904
  0
LINE
  5
2F2
100
AcDbEntity
  8
0
100
AcDbLine
 62
7
  6
CONTINUOUS
 10
920.5868129624
 20
1320.8439071759
 11
920.5868129624
 21
1321.660409593
  0
LINE
  5
2F3
100
AcDbEntity
  8
0
100
AcDbLine
 62
7
  6
CONTINUOUS
 10
923.1376534728
 20
1343.1951698017
 11
923.1376534728
 21
1342.7535015592
  0
LINE
  5
2F4
100
AcDbEntity
  8
0
100
AcDbLine
 62
7
  6
CONTINUOUS
 10
925.5860484973
 20
1336.8265610719
 11
925.5861083433
 21
1336.0666879451
  0
LINE
  5
2F5
100
AcDbEntity
  8
0
100
AcDbLine
 62
7
  6
CONTINUOUS
 10
926.0546729926
 20
1337.4798211957
 11
926.0546729926
 21
1336.7326503446
  0
LINE
  5
2F6
100
AcDbEntity
  8
0
100
AcDbLine
 62
7
  6
CONTINUOUS
 10
928.4412237064
 20
1305.8409979903
 11
928.4412237064
 21
1305.0938271391
  0
LINE
  5
2F7
100
AcDbEntity
  8
0
100
AcDbLine
 62
7
  6
CONTINUOUS
 10
930.450874519
 20
1296.1273540386
 11
930.4508745189
 21
1291.1765135526
  0
LINE
  5
2F8
100
AcDbEntity
  8
0
100
AcDbLine
 62
7
  6
CONTINUOUS
 10
933.9090837365
 20
1320.8439071759
 11
933.9090837365
 21
1321.660409593
  0
LINE
  5
2F9
100
AcDbEntity
  8
0
100
AcDbLine
 62
7
  6
CONTINUOUS
 10
934.8049639395
 20
1336.4591973521
 11
934.8049639395
 21
1335.642694935
  0
LINE
  5
2FA
100
AcDbEntity
  8
0
100
AcDbLine
 62
7
  6
CONTINUOUS
 10
935.2731320439
 20
1334.9897447361
 11
935.2731320185
 21
1335.8062471678
  0
LINE
  5
2FB
100
AcDbEntity
  8
0
100
AcDbLine
 62
7
  6
CONTINUOUS
 10
935.4855022142
 20
1342.5419792238
 11
935.4855620628
 21
1341.7821060985
  0
LINE
  5
2FC
100
AcDbEntity
  8
0
100
AcDbLine
 62
7
  6
CONTINUOUS
 10
935.8037284244
 20
1349.2575815368
 11
935.8037284185
 21
1350.6392155356
  0
LINE
  5
2FD
100
AcDbEntity
  8
0
100
AcDbLine
 62
7
  6
CONTINUOUS
 10
935.9541267153
 20
1343.1952393499
 11
935.9541267153
 21
1342.4480684987
  0
LINE
  5
2FE
100
AcDbEntity
  8
0
100
AcDbLine
 62
7
  6
CONTINUOUS
 10
936.4956930751
 20
1482.6631764972
 11
936.4956930751
 21
1494.3389240249
  0
LINE
  5
2FF
100
AcDbEntity
  8
0
100
AcDbLine
 62
7
  6
CONTINUOUS
 10
938.3406774273
 20
1311.5564161445
 11
938.3406774273
 21
1310.8092452933
  0
LINE
  5
300
100
AcDbEntity
  8
0
100
AcDbLine
 62
7
  6
CONTINUOUS
 10
939.890420325
 20
1401.7493859931
 11
939.8900287775
 21
1465.4354101982
  0
LINE
  5
301
100
AcDbEntity
  8
0
100
AcDbLine
 62
7
  6
CONTINUOUS
 10
940.0259997245
 20
1286.7246163323
 11
940.0259997246
 21
1296.4650982732
  0
LINE
  5
302
100
AcDbEntity
  8
0
100
AcDbLine
 62
7
  6
CONTINUOUS
 10
941.2576969454
 20
1305.8410675386
 11
941.2576969454
 21
1305.399399296
  0
LINE
  5
303
100
AcDbEntity
  8
0
100
AcDbLine
 62
7
  6
CONTINUOUS
 10
941.9187687427
 20
1320.8439071759
 11
941.9187687427
 21
1321.660409593
  0
LINE
  5
304
100
AcDbEntity
  8
0
100
AcDbLine
 62
7
  6
CONTINUOUS
 10
942.3442198776
 20
1332.2132785805
 11
942.3442198522
 21
1333.0297809829
  0
LINE
  5
305
100
AcDbEntity
  8
0
100
AcDbLine
 62
7
  6
CONTINUOUS
 10
946.4722744044
 20
1329.7232249025
 11
946.4722744044
 21
1328.9067224854
  0
LINE
  5
306
100
AcDbEntity
  8
0
100
AcDbLine
 62
7
  6
CONTINUOUS
 10
946.9404424964
 20
1328.2537722936
 11
946.9404424783
 21
1329.0702747212
  0
LINE
  5
307
100
AcDbEntity
  8
0
100
AcDbLine
 62
7
  6
CONTINUOUS
 10
947.6214371785
 20
1336.4592669004
 11
947.6214371785
 21
1335.6427644832
  0
LINE
  5
308
100
AcDbEntity
  8
0
100
AcDbLine
 62
7
  6
CONTINUOUS
 10
948.0230712421
 20
1273.765396149
 11
948.0230712421
 21
1274.1736473575
  0
LINE
  5
309
100
AcDbEntity
  8
0
100
AcDbLine
 62
7
  6
CONTINUOUS
 10
948.023085962
 20
1271.724183878
 11
948.0234775095
 21
1226.8177152669
  0
LINE
  5
30A
100
AcDbEntity
  8
0
100
AcDbLine
 62
7
  6
CONTINUOUS
 10
948.2401311483
 20
1317.2718342987
 11
948.2401311483
 21
1316.5246634476
  0
LINE
  5
30B
100
AcDbEntity
  8
0
100
AcDbLine
 62
7
  6
CONTINUOUS
 10
951.1571506664
 20
1311.5564856928
 11
951.1571506664
 21
1311.1148174502
  0
LINE
  5
30C
100
AcDbEntity
  8
0
100
AcDbLine
 62
7
  6
CONTINUOUS
 10
908.6154051131
 20
1328.3352625392
 11
908.6153508668
 21
1327.6201515569
  0
LINE
  5
30D
100
AcDbEntity
  8
0
100
AcDbLine
 62
7
  6
CONTINUOUS
 10
918.5148588341
 20
1334.0506806933
 11
918.5148045878
 21
1333.3355697111
  0
LINE
  5
30E
100
AcDbEntity
  8
0
100
AcDbLine
 62
7
  6
CONTINUOUS
 10
928.4143125478
 20
1339.7660988518
 11
928.4142583029
 21
1339.050987869
  0
LINE
  5
30F
100
AcDbEntity
  8
0
100
AcDbLine
 62
7
  6
CONTINUOUS
 10
940.0816168864
 20
1333.0301299391
 11
940.0815182831
 21
1332.2136844493
  0
LINE
  5
310
100
AcDbEntity
  8
0
100
AcDbLine
 62
7
  6
CONTINUOUS
 10
947.1526646326
 20
1335.8059213
 11
947.1525660498
 21
1334.9893619664
  0
LINE
  5
311
100
AcDbEntity
  8
0
100
AcDbLine
 62
7
  6
CONTINUOUS
 10
933.7178199775
 20
1302.4119632984
 11
933.7176999159
 21
1301.9260839544
  0
LINE
  5
312
100
AcDbEntity
  8
0
100
AcDbLine
 62
7
  6
CONTINUOUS
 10
943.6172736984
 20
1308.1273814526
 11
943.6171536366
 21
1307.6415021087
  0
LINE
  5
313
100
AcDbEntity
  8
0
100
AcDbLine
 62
7
  6
CONTINUOUS
 10
344.3213913921
 20
703.9734319442
 11
345.3820471479
 21
704.585798175
  0
LINE
  5
314
100
AcDbEntity
  8
0
100
AcDbLine
 62
7
  6
CONTINUOUS
 10
1288.4941134944
 20
1227.8353579089
 11
1260.2099600059
 21
1211.505591754
  0
LINE
  5
315
100
AcDbEntity
  8
0
100
AcDbLine
 62
7
  6
CONTINUOUS
 10
469.6678700008
 20
755.0886277257
 11
441.3837189181
 21
738.7588629598
  0
LINE
  5
316
100
AcDbEntity
  8
0
100
AcDbLine
 62
7
  6
CONTINUOUS
 10
651.0379276413
 20
1317.8550425536
 11
640.9262891198
 21
1323.6928677067
  0
LINE
  5
317
100
AcDbEntity
  8
0
100
AcDbLine
 62
7
  6
CONTINUOUS
 10
955.7797195512
 20
1313.4198152634
 11
955.7795939155
 21
1313.8425373563
  0
LINE
  5
318
100
AcDbEntity
  8
0
100
AcDbLine
 62
7
  6
CONTINUOUS
 10
958.6081401322
 20
1321.6189249403
 11
958.607969916
 21
1322.3341770052
  0
LINE
  5
319
100
AcDbEntity
  8
0
100
AcDbLine
 62
7
  6
CONTINUOUS
 10
960.5879789681
 20
1316.6186431897
 11
960.5880378932
 21
1316.1958782045
  0
LINE
  5
31A
100
AcDbEntity
  8
0
100
AcDbLine
 62
7
  6
CONTINUOUS
 10
965.6791732721
 20
1319.1352334176
 11
965.6790476365
 21
1319.5579555105
  0
LINE
  5
31B
100
AcDbEntity
  8
0
100
AcDbLine
 62
7
  6
CONTINUOUS
 10
970.4874326905
 20
1322.3340613447
 11
970.4874916144
 21
1321.9112963591
  0
LINE
  5
31C
100
AcDbEntity
  8
0
100
AcDbLine
 62
7
  6
CONTINUOUS
 10
951.4522996221
 20
1378.1493323055
 11
951.4522996221
 21
1368.3331500533
  0
LINE
  5
31D
100
AcDbEntity
  8
0
100
AcDbLine
 62
7
  6
CONTINUOUS
 10
954.011600602
 20
1325.477346695
 11
954.0116005821
 21
1326.2938491006
  0
LINE
  5
31E
100
AcDbEntity
  8
0
100
AcDbLine
 62
7
  6
CONTINUOUS
 10
958.1395848693
 20
1322.9872524529
 11
958.1395848693
 21
1322.2400816017
  0
LINE
  5
31F
100
AcDbEntity
  8
0
100
AcDbLine
 62
7
  6
CONTINUOUS
 10
958.8201883895
 20
1329.0700719938
 11
958.820176185
 21
1328.2535625305
  0
LINE
  5
320
100
AcDbEntity
  8
0
100
AcDbLine
 62
7
  6
CONTINUOUS
 10
959.2888201466
 20
1329.7232705277
 11
959.2888201466
 21
1328.9067681105
  0
LINE
  5
321
100
AcDbEntity
  8
0
100
AcDbLine
 62
7
  6
CONTINUOUS
 10
961.0566043874
 20
1317.271903847
 11
961.0566043874
 21
1316.8302356044
  0
LINE
  5
322
100
AcDbEntity
  8
0
100
AcDbLine
 62
7
  6
CONTINUOUS
 10
962.3201223539
 20
1365.9483955134
 11
962.3201223392
 21
1364.5667373181
  0
LINE
  5
323
100
AcDbEntity
  8
0
100
AcDbLine
 62
7
  6
CONTINUOUS
 10
965.5944352457
 20
1375.7776059706
 11
965.5944352457
 21
1378.149366299
  0
LINE
  5
324
100
AcDbEntity
  8
0
100
AcDbLine
 62
7
  6
CONTINUOUS
 10
970.9560581084
 20
1322.9873220012
 11
970.9560581084
 21
1322.5456537586
  0
LINE
  5
325
100
AcDbEntity
  8
0
100
AcDbLine
 62
7
  6
CONTINUOUS
 10
951.7489273564
 20
1326.2941574866
 11
951.7488287542
 21
1325.4777119962
  0
LINE
  5
326
100
AcDbEntity
  8
0
100
AcDbLine
 62
7
  6
CONTINUOUS
 10
964.5829625711
 20
1364.5666858621
 11
964.5830743793
 21
1365.8846870297
  0
LINE
  5
327
100
AcDbEntity
  8
0
100
AcDbLine
 62
7
  6
CONTINUOUS
 10
953.5167274194
 20
1313.8427996068
 11
953.5166073576
 21
1313.3569202629
  0
LINE
  5
328
100
AcDbEntity
  8
0
100
AcDbLine
 62
7
  6
CONTINUOUS
 10
963.4161811405
 20
1319.558217761
 11
963.4160610788
 21
1319.072338417
  0
LINE
  5
329
100
AcDbEntity
  8
0
100
AcDbLine
 62
7
  6
CONTINUOUS
 10
1289.9083211688
 20
1169.8636721833
 11
1288.4941134944
 21
1169.0471838755
  0
LINE
  5
32A
100
AcDbEntity
  8
0
100
AcDbLine
 62
7
  6
CONTINUOUS
 10
419.8166019943
 20
659.7611372176
 11
389.0575850755
 21
642.0025165242
  0
LINE
  5
32B
100
AcDbEntity
  8
0
100
AcDbLine
 62
7
  6
CONTINUOUS
 10
425.1199432617
 20
656.6993209768
 11
374.2084398216
 21
627.3057262168
  0
LINE
  5
32C
100
AcDbEntity
  8
0
100
AcDbLine
 62
7
  6
CONTINUOUS
 10
428.3019098641
 20
656.0869755259
 11
427.2412541083
 21
655.4746092951
  0
LINE
  5
32D
100
AcDbEntity
  8
0
100
AcDbLine
 62
7
  6
CONTINUOUS
 10
1056.5635249743
 20
1334.3896614973
 11
1150.6087268713
 21
1343.7796653511
  0
LINE
  5
32E
100
AcDbEntity
  8
0
100
AcDbLine
 62
7
  6
CONTINUOUS
 10
948.0234775095
 20
1226.8177152669
 11
737.3047794157
 21
1348.473460114
  0
LINE
  5
32F
100
AcDbEntity
  8
0
100
AcDbLine
 62
7
  6
CONTINUOUS
 10
1004.6757961136
 20
1342.737669185
 11
1004.6758868628
 21
1341.4947502439
  0
LINE
  5
330
100
AcDbEntity
  8
0
100
AcDbLine
 62
7
  6
CONTINUOUS
 10
1019.5044710457
 20
1342.3517411789
 11
1019.5044710769
 21
1327.7557386983
  0
LINE
  5
331
100
AcDbEntity
  8
0
100
AcDbLine
 62
7
  6
CONTINUOUS
 10
1021.4875244558
 20
1345.0103783389
 11
1021.4875244558
 21
1329.2535906969
  0
LINE
  5
332
100
AcDbEntity
  8
0
100
AcDbLine
 62
7
  6
CONTINUOUS
 10
1029.1213659599
 20
1341.4729054828
 11
1029.1213659599
 21
1333.3080563989
  0
LINE
  5
333
100
AcDbEntity
  8
0
100
AcDbLine
 62
7
  6
CONTINUOUS
 10
1053.0279910684
 20
1334.3896529989
 11
1053.0279910684
 21
1334.7979042075
  0
LINE
  5
334
100
AcDbEntity
  8
0
100
AcDbLine
 62
7
  6
CONTINUOUS
 10
1393.1238578785
 20
1435.6947993213
 11
1393.7065996876
 21
1436.4030463494
  0
LINE
  5
335
100
AcDbEntity
  8
0
100
AcDbLine
 62
7
  6
CONTINUOUS
 10
1384.6602942348
 20
1449.9232310172
 11
1383.7116148865
 21
1448.827787537
  0
LINE
  5
336
100
AcDbEntity
  8
0
100
AcDbLine
 62
7
  6
CONTINUOUS
 10
1389.7769751077
 20
1445.1433791071
 11
1388.8282957594
 21
1444.0479356269
  0
LINE
  5
337
100
AcDbEntity
  8
0
100
AcDbLine
 62
7
  6
CONTINUOUS
 10
1392.8076314291
 20
1437.1554064031
 11
1393.7563107773
 21
1438.2508498833
  0
LINE
  5
338
100
AcDbEntity
  8
0
100
AcDbLine
 62
7
  6
CONTINUOUS
 10
403.4120538064
 20
612.8948377803
 11
411.8972998529
 21
617.7937676268
  0
LINE
  5
339
100
AcDbEntity
  8
0
100
AcDbLine
 62
7
  6
CONTINUOUS
 10
411.8972998529
 20
616.1607627925
 11
403.4120538064
 21
611.2618329461
  0
LINE
  5
33A
100
AcDbEntity
  8
0
100
AcDbLine
 62
7
  6
CONTINUOUS
 10
419.9583507196
 20
613.1398230253
 11
411.473104673
 21
608.2408931788
  0
LINE
  5
33B
100
AcDbEntity
  8
0
100
AcDbLine
 62
7
  6
CONTINUOUS
 10
423.7061205819
 20
597.0958685662
 11
1307.5859170992
 21
1107.4010609055
  0
LINE
  5
33C
100
AcDbEntity
  8
0
100
AcDbLine
 62
7
  6
CONTINUOUS
 10
1323.1422898369
 20
1106.1764147076
 11
1375.5563927406
 21
1136.4375304939
  0
LINE
  5
33D
100
AcDbEntity
  8
0
100
AcDbLine
 62
7
  6
CONTINUOUS
 10
1323.1422898369
 20
1104.9516610819
 11
1375.5563927406
 21
1135.2127768682
  0
LINE
  5
33E
100
AcDbEntity
  8
0
100
AcDbLine
 62
7
  6
CONTINUOUS
 10
1323.1422898369
 20
1102.5021538306
 11
1323.8493936743
 21
1102.9103979845
  0
LINE
  5
33F
100
AcDbEntity
  8
0
100
AcDbLine
 62
7
  6
CONTINUOUS
 10
1375.5593350063
 20
1136.9527640318
 11
1376.970600415
 21
1137.6622700102
  0
LINE
  5
340
100
AcDbEntity
  8
0
100
AcDbLine
 62
7
  6
CONTINUOUS
 10
831.3499813127
 20
1339.0839083738
 11
737.3047794157
 21
1348.473460114
  0
LINE
  5
341
100
AcDbEntity
  8
0
100
AcDbLine
 62
7
  6
CONTINUOUS
 10
948.023085962
 20
1271.724183878
 11
831.3499813127
 21
1339.0839083738
  0
LINE
  5
342
100
AcDbEntity
  8
0
100
AcDbLine
 62
7
  6
CONTINUOUS
 10
834.8855152186
 20
1339.0839168722
 11
948.0230712421
 21
1273.765396149
  0
LINE
  5
343
100
AcDbEntity
  8
0
100
AcDbLine
 62
7
  6
CONTINUOUS
 10
834.8855152186
 20
1339.4921680808
 11
948.0230712421
 21
1274.1736473575
  0
LINE
  5
344
100
AcDbEntity
  8
0
100
AcDbLine
 62
7
  6
CONTINUOUS
 10
872.7010244932
 20
1324.5176507333
 11
936.2279552074
 21
1287.8411899171
  0
LINE
  5
345
100
AcDbEntity
  8
0
100
AcDbLine
 62
7
  6
CONTINUOUS
 10
928.9092819979
 20
1305.188102765
 11
933.7177454842
 21
1302.4120133541
  0
LINE
  5
346
100
AcDbEntity
  8
0
100
AcDbLine
 62
7
  6
CONTINUOUS
 10
893.907350656
 20
1325.3960200802
 11
898.7157419481
 21
1322.6199723497
  0
LINE
  5
347
100
AcDbEntity
  8
0
100
AcDbLine
 62
7
  6
CONTINUOUS
 10
940.7896386336
 20
1306.4939627787
 11
935.9811101937
 21
1309.2700896894
  0
LINE
  5
348
100
AcDbEntity
  8
0
100
AcDbLine
 62
7
  6
CONTINUOUS
 10
905.7877072587
 20
1326.701880113
 11
900.9793159419
 21
1329.4779278579
  0
LINE
  5
349
100
AcDbEntity
  8
0
100
AcDbLine
 62
7
  6
CONTINUOUS
 10
938.8087357188
 20
1310.9035209192
 11
943.6171992051
 21
1308.1274315083
  0
LINE
  5
34A
100
AcDbEntity
  8
0
100
AcDbLine
 62
7
  6
CONTINUOUS
 10
903.8068043442
 20
1331.1114382533
 11
908.6153306724
 21
1328.3353125617
  0
LINE
  5
34B
100
AcDbEntity
  8
0
100
AcDbLine
 62
7
  6
CONTINUOUS
 10
950.6890923546
 20
1312.2093809329
 11
945.8805639147
 21
1314.9855078436
  0
LINE
  5
34C
100
AcDbEntity
  8
0
100
AcDbLine
 62
7
  6
CONTINUOUS
 10
915.6871609799
 20
1332.4172982671
 11
910.8786975071
 21
1335.1933876701
  0
LINE
  5
34D
100
AcDbEntity
  8
0
100
AcDbLine
 62
7
  6
CONTINUOUS
 10
1307.5858989925
 20
1107.4010295431
 11
1316.0712220251
 21
1102.5021368338
  0
LINE
  5
34E
100
AcDbEntity
  8
0
100
AcDbLine
 62
7
  6
CONTINUOUS
 10
1120.5513207565
 20
1502.7924661029
 11
1125.0440028714
 21
1585.6838220485
  0
LINE
  5
34F
100
AcDbEntity
  8
0
100
AcDbLine
 62
7
  6
CONTINUOUS
 10
1126.1046674591
 20
1585.0714609167
 11
1121.6119853443
 21
1502.1801049711
  0
LINE
  5
350
100
AcDbEntity
  8
0
100
AcDbLine
 62
7
  6
CONTINUOUS
 10
1123.6087202247
 20
1501.0273156299
 11
1128.3127428318
 21
1587.8179681455
  0
LINE
  5
351
100
AcDbEntity
  8
0
100
AcDbLine
 62
7
  6
CONTINUOUS
 10
1125.6677522527
 20
1499.8385598276
 11
1130.431856476
 21
1587.7377364975
  0
LINE
  5
352
100
AcDbEntity
  8
0
100
AcDbLine
 62
7
  6
CONTINUOUS
 10
948.7081894398
 20
1316.6189390734
 11
953.5166529261
 21
1313.8428496625
  0
LINE
  5
353
100
AcDbEntity
  8
0
100
AcDbLine
 62
7
  6
CONTINUOUS
 10
913.7062580635
 20
1336.8268564085
 11
918.5147843935
 21
1334.0507307159
  0
LINE
  5
354
100
AcDbEntity
  8
0
100
AcDbLine
 62
7
  6
CONTINUOUS
 10
1316.0712220251
 20
1104.9516440852
 11
1307.5859170992
 21
1109.8505263408
  0
LINE
  5
355
100
AcDbEntity
  8
0
100
AcDbLine
 62
7
  6
CONTINUOUS
 10
1316.0712220251
 20
1106.1763977109
 11
1307.5859170992
 21
1111.0752799665
  0
LINE
  5
356
100
AcDbEntity
  8
0
100
AcDbLine
 62
7
  6
CONTINUOUS
 10
960.5885460756
 20
1317.9247990871
 11
955.7800176357
 21
1320.7009259978
  0
LINE
  5
357
100
AcDbEntity
  8
0
100
AcDbLine
 62
7
  6
CONTINUOUS
 10
925.5866145838
 20
1338.1327164889
 11
920.7781511369
 21
1340.9088058769
  0
LINE
  5
358
100
AcDbEntity
  8
0
100
AcDbLine
 62
7
  6
CONTINUOUS
 10
935.2731320439
 20
1334.9897447361
 11
940.0815182831
 21
1332.2136844493
  0
LINE
  5
359
100
AcDbEntity
  8
0
100
AcDbLine
 62
7
  6
CONTINUOUS
 10
946.9404424964
 20
1328.2537722936
 11
951.7488287542
 21
1325.4777119962
  0
LINE
  5
35A
100
AcDbEntity
  8
0
100
AcDbLine
 62
7
  6
CONTINUOUS
 10
958.6076431582
 20
1322.3343572291
 11
963.4161066472
 21
1319.5582678167
  0
LINE
  5
35B
100
AcDbEntity
  8
0
100
AcDbLine
 62
7
  6
CONTINUOUS
 10
946.9399494755
 20
1329.0705509423
 11
951.7487873027
 21
1326.2942453909
  0
LINE
  5
35C
100
AcDbEntity
  8
0
100
AcDbLine
 62
7
  6
CONTINUOUS
 10
935.2726390301
 20
1335.8065233806
 11
940.0814768212
 21
1333.0302178501
  0
LINE
  5
35D
100
AcDbEntity
  8
0
100
AcDbLine
 62
7
  6
CONTINUOUS
 10
923.60571181
 20
1342.5422745489
 11
928.4142381031
 21
1339.7661488776
  0
LINE
  5
35E
100
AcDbEntity
  8
0
100
AcDbLine
 62
7
  6
CONTINUOUS
 10
970.4879174781
 20
1323.6402665173
 11
965.6792872786
 21
1326.4164594489
  0
LINE
  5
35F
100
AcDbEntity
  8
0
100
AcDbLine
 62
7
  6
CONTINUOUS
 10
958.8203759558
 20
1330.3763604255
 11
954.0121134143
 21
1333.152342823
  0
LINE
  5
360
100
AcDbEntity
  8
0
100
AcDbLine
 62
7
  6
CONTINUOUS
 10
947.1537620575
 20
1337.1119408928
 11
942.3449243476
 21
1339.8882463731
  0
LINE
  5
361
100
AcDbEntity
  8
0
100
AcDbLine
 62
7
  6
CONTINUOUS
 10
935.486068398
 20
1343.8481345883
 11
930.6776049571
 21
1346.624223973
  0
LINE
  5
362
100
AcDbEntity
  8
0
100
AcDbLine
 62
7
  6
CONTINUOUS
 10
1288.4941017186
 20
1170.6801536923
 11
1289.9083211689
 21
1169.8636721833
  0
LINE
  5
363
100
AcDbEntity
  8
0
100
AcDbLine
 62
7
  6
CONTINUOUS
 10
964.5829625711
 20
1364.5666858621
 11
1004.6108136012
 21
1341.457118103
  0
LINE
  5
364
100
AcDbEntity
  8
0
100
AcDbLine
 62
7
  6
CONTINUOUS
 10
1024.524951129
 20
1330.6542969058
 11
1021.4875244558
 21
1332.4079163411
  0
LINE
  5
365
100
AcDbEntity
  8
0
100
AcDbLine
 62
7
  6
CONTINUOUS
 10
1389.1494852138
 20
1433.2059002352
 11
1390.6519278821
 21
1435.5976544747
  0
LINE
  5
366
100
AcDbEntity
  8
0
100
AcDbLine
 62
7
  6
CONTINUOUS
 10
1391.7125924698
 20
1434.9852933429
 11
1390.2101498016
 21
1432.5935391034
  0
LINE
  5
367
100
AcDbEntity
  8
0
100
AcDbLine
 62
7
  6
CONTINUOUS
 10
1374.4986704186
 20
1137.5651251636
 11
1375.0731309186
 21
1137.2334677424
  0
LINE
  5
368
100
AcDbEntity
  8
0
100
AcDbLine
 62
7
  6
CONTINUOUS
 10
1373.1785822694
 20
1138.5378674463
 11
1374.2392468572
 21
1137.9255063146
  0
LINE
  5
369
100
AcDbEntity
  8
0
100
AcDbLine
 62
7
  6
CONTINUOUS
 10
1288.4941134944
 20
1188.3347867408
 11
1373.2261669627
 21
1139.4158195568
  0
LINE
  5
36A
100
AcDbEntity
  8
0
100
AcDbLine
 62
7
  6
CONTINUOUS
 10
1373.2676498588
 20
1140.1811916483
 11
1288.4941134944
 21
1189.1241084517
  0
LINE
  5
36B
100
AcDbEntity
  8
0
100
AcDbLine
 62
7
  6
CONTINUOUS
 10
1029.1213659599
 20
1341.4729054828
 11
1020.9275859602
 21
1346.2034795515
  0
LINE
  5
36C
100
AcDbEntity
  8
0
100
AcDbLine
 62
7
  6
CONTINUOUS
 10
1007.3782524972
 20
1354.0260139043
 11
984.6785240657
 21
1367.131411741
  0
LINE
  5
36D
100
AcDbEntity
  8
0
100
AcDbLine
 62
7
  6
CONTINUOUS
 10
970.0025250904
 20
1375.6044120151
 11
965.5944352457
 21
1378.149366299
  0
LINE
  5
36E
100
AcDbEntity
  8
0
100
AcDbLine
 62
7
  6
CONTINUOUS
 10
1053.0279910684
 20
1334.7979042075
 11
939.8904350449
 21
1400.1164249307
  0
LINE
  5
36F
100
AcDbEntity
  8
0
100
AcDbLine
 62
7
  6
CONTINUOUS
 10
939.890420325
 20
1401.7493859931
 11
1056.5635249743
 21
1334.3896614973
  0
LINE
  5
370
100
AcDbEntity
  8
0
100
AcDbLine
 62
7
  6
CONTINUOUS
 10
1288.4941134944
 20
1227.8353579089
 11
1271.925571
 21
1237.4009939745
  0
LINE
  5
371
100
AcDbEntity
  8
0
100
AcDbLine
 62
7
  6
CONTINUOUS
 10
939.8900287775
 20
1465.4354101982
 11
1150.6087268713
 21
1343.7796653511
  0
LINE
  5
372
100
AcDbEntity
  8
0
100
AcDbLine
 62
7
  6
CONTINUOUS
 10
946.6073315967
 20
1488.5010988719
 11
936.4956930751
 21
1494.3389240249
  0
LINE
  5
373
100
AcDbEntity
  8
0
100
AcDbLine
 62
7
  6
CONTINUOUS
 10
1374.4986704186
 20
1137.5651251636
 11
1373.1785822694
 21
1138.5378674463
  0
LINE
  5
374
100
AcDbEntity
  8
0
100
AcDbLine
 62
7
  6
CONTINUOUS
 10
1374.2392468572
 20
1137.9255063146
 11
1375.5593350063
 21
1136.9527640318
  0
LINE
  5
375
100
AcDbEntity
  8
0
100
AcDbLine
 62
7
  6
CONTINUOUS
 10
1260.2099600059
 20
1374.3978239713
 11
1260.2099600059
 21
1211.505591754
  0
LINE
  5
376
100
AcDbEntity
  8
0
100
AcDbLine
 62
7
  6
CONTINUOUS
 10
1261.6241676803
 20
1388.6866021617
 11
1261.6241676803
 21
1376.8473171133
  0
LINE
  5
377
100
AcDbEntity
  8
0
100
AcDbLine
 62
7
  6
CONTINUOUS
 10
1377.5533422241
 20
1138.3705170383
 11
1376.970600415
 21
1137.6622700102
  0
LINE
  5
378
100
AcDbEntity
  8
0
100
AcDbLine
 62
7
  6
CONTINUOUS
 10
1271.925571
 20
1388.6751942335
 11
1271.925571
 21
1227.8352219348
  0
LINE
  5
379
100
AcDbEntity
  8
0
100
AcDbLine
 62
7
  6
CONTINUOUS
 10
1273.3397786744
 20
1393.1769472942
 11
1273.3397786744
 21
1405.0162323425
  0
LINE
  5
37A
100
AcDbEntity
  8
0
100
AcDbLine
 62
7
  6
CONTINUOUS
 10
1288.4941134944
 20
1169.0471838755
 11
1288.4941134944
 21
1227.8353579089
  0
LINE
  5
37B
100
AcDbEntity
  8
0
100
AcDbLine
 62
7
  6
CONTINUOUS
 10
1307.5859170992
 20
1107.4010609055
 11
1307.5859170992
 21
1123.9867271801
  0
LINE
  5
37C
100
AcDbEntity
  8
0
100
AcDbLine
 62
7
  6
CONTINUOUS
 10
1316.0712220251
 20
1106.1763977109
 11
1316.0712220251
 21
1102.5021368338
  0
LINE
  5
37D
100
AcDbEntity
  8
0
100
AcDbLine
 62
7
  6
CONTINUOUS
 10
1008.8324692715
 20
1524.4265844125
 11
998.72083075
 21
1530.2644095656
  0
LINE
  5
37E
100
AcDbEntity
  8
0
100
AcDbLine
 62
7
  6
CONTINUOUS
 10
1261.623932163
 20
1421.3459984974
 11
1074.239854999
 21
1529.5297984453
  0
LINE
  5
37F
100
AcDbEntity
  8
0
100
AcDbLine
 62
7
  6
CONTINUOUS
 10
1307.5859170992
 20
1123.9867271801
 11
1289.9083211688
 21
1169.8636721833
  0
LINE
  5
380
100
AcDbEntity
  8
0
100
AcDbLine
 62
7
  6
CONTINUOUS
 10
1323.1422898369
 20
1102.5021538306
 11
1323.1422898369
 21
1106.1764147076
  0
LINE
  5
381
100
AcDbEntity
  8
0
100
AcDbLine
 62
7
  6
CONTINUOUS
 10
1323.8493936743
 20
1105.3599052359
 11
1323.8493936743
 21
1102.9103979845
  0
LINE
  5
382
100
AcDbEntity
  8
0
100
AcDbLine
 62
7
  6
CONTINUOUS
 10
1373.1785822694
 20
1138.5378674463
 11
1389.1494852138
 21
1433.2059002352
  0
LINE
  5
383
100
AcDbEntity
  8
0
100
AcDbLine
 62
7
  6
CONTINUOUS
 10
1127.6414844989
 20
1590.2456893482
 11
1123.6621488293
 21
1597.138218572
  0
LINE
  5
384
100
AcDbEntity
  8
0
100
AcDbLine
 62
7
  6
CONTINUOUS
 10
1375.5563927406
 20
1135.2127768682
 11
1375.5563890251
 21
1136.9527640106
  0
LINE
  5
385
100
AcDbEntity
  8
0
100
AcDbLine
 62
7
  6
CONTINUOUS
 10
1390.2101498016
 20
1432.5935391034
 11
1374.2392468572
 21
1137.9255063146
  0
LINE
  5
386
100
AcDbEntity
  8
0
100
AcDbLine
 62
7
  6
CONTINUOUS
 10
1392.0624547804
 20
1436.6886573249
 11
1392.0418405111
 21
1436.3083177662
  0
LINE
  5
387
100
AcDbEntity
  8
0
100
AcDbLine
 62
7
  6
CONTINUOUS
 10
1376.970600415
 20
1137.6622700102
 11
1393.1238578785
 21
1435.6947993213
  0
LINE
  5
388
100
AcDbEntity
  8
0
100
AcDbLine
 62
7
  6
CONTINUOUS
 10
1393.7067072829
 20
1436.4030404062
 11
1377.5534498194
 21
1138.3705110951
  0
LINE
  5
389
100
AcDbEntity
  8
0
100
AcDbLine
 62
7
  6
CONTINUOUS
 10
1126.1046674592
 20
1585.0714609167
 11
1125.0440028715
 21
1585.6838220485
  0
LINE
  5
38A
100
AcDbEntity
  8
0
100
AcDbLine
 62
7
  6
CONTINUOUS
 10
1389.1494852138
 20
1433.2059002352
 11
1390.2101498015
 21
1432.5935391034
  0
LINE
  5
38B
100
AcDbEntity
  8
0
100
AcDbLine
 62
7
  6
CONTINUOUS
 10
1127.6071101274
 20
1587.4632151563
 11
1126.5464455397
 21
1588.0755762881
  0
LINE
  5
38C
100
AcDbEntity
  8
0
100
AcDbLine
 62
7
  6
CONTINUOUS
 10
1390.6519278821
 20
1435.5976544747
 11
1391.7125924698
 21
1434.9852933429
  0
LINE
  5
38D
100
AcDbEntity
  8
0
100
AcDbLine
 62
7
  6
CONTINUOUS
 10
1129.7242078976
 20
1588.1457063464
 11
1130.9952860285
 21
1587.4124476527
  0
LINE
  5
38E
100
AcDbEntity
  8
0
100
AcDbLine
 62
7
  6
CONTINUOUS
 10
1130.9952860285
 20
1587.4124476527
 11
1392.0624547804
 21
1436.6886573249
  0
LINE
  5
38F
100
AcDbEntity
  8
0
100
AcDbLine
 62
7
  6
CONTINUOUS
 10
1392.0258648776
 20
1436.8764286571
 11
1129.6881568481
 21
1588.3337485842
  0
LINE
  5
390
100
AcDbEntity
  8
0
100
AcDbLine
 62
7
  6
CONTINUOUS
 10
1125.6165652079
 20
1597.8356629369
 11
1383.7116148865
 21
1448.827787537
  0
LINE
  5
391
100
AcDbEntity
  8
0
100
AcDbLine
 62
7
  6
CONTINUOUS
 10
1126.5652445562
 20
1598.9311064171
 11
1384.6602942348
 21
1449.9232310172
  0
LINE
  5
392
100
AcDbEntity
  8
0
100
AcDbLine
 62
7
  6
CONTINUOUS
 10
1127.6414844989
 20
1590.2456893482
 11
1129.6881568481
 21
1588.3337485842
  0
LINE
  5
393
100
AcDbEntity
  8
0
100
AcDbLine
 62
7
  6
CONTINUOUS
 10
1393.7065996876
 20
1436.4030463494
 11
1393.1209038369
 21
1437.2207868087
  0
LINE
  5
394
100
AcDbEntity
  8
0
100
AcDbLine
 62
7
  6
CONTINUOUS
 10
1388.8282957594
 20
1444.0479356269
 11
1392.8076314291
 21
1437.1554064031
  0
LINE
  5
395
100
AcDbEntity
  8
0
100
AcDbLine
 62
7
  6
CONTINUOUS
 10
1393.7563107773
 20
1438.2508498833
 11
1389.7769751077
 21
1445.1433791071
  0
ARC
  5
396
100
AcDbEntity
  8
0
100
AcDbCircle
 62
7
  6
CONTINUOUS
 10
260.0535362553
 20
709.5394719139
 40
105.9906118477
100
AcDbArc
 50
23.9248815141
 51
29.2681388155
  0
ARC
  5
397
100
AcDbEntity
  8
0
100
AcDbCircle
 62
7
  6
CONTINUOUS
 10
270.1330073075
 20
717.8058155676
 40
92.9607231363
100
AcDbArc
 50
40.4523216612
 51
45.3327841992
  0
ARC
  5
398
100
AcDbEntity
  8
0
100
AcDbCircle
 62
7
  6
CONTINUOUS
 10
290.5692077013
 20
718.2571614168
 40
74.1433051311
100
AcDbArc
 50
6.6699188912
 51
9.2803272697
  0
ARC
  5
399
100
AcDbEntity
  8
0
100
AcDbCircle
 62
7
  6
CONTINUOUS
 10
347.0981431236
 20
769.5012441586
 40
68.0247372605
100
AcDbArc
 50
185.7685876276
 51
188.2277809189
  0
ARC
  5
39A
100
AcDbEntity
  8
0
100
AcDbCircle
 62
7
  6
CONTINUOUS
 10
344.6298009142
 20
770.8825495287
 40
66.5936083995
100
AcDbArc
 50
181.7843974825
 51
186.7641978531
  0
ARC
  5
39B
100
AcDbEntity
  8
0
100
AcDbCircle
 62
7
  6
CONTINUOUS
 10
298.1225806165
 20
719.0859800741
 40
66.5448105067
100
AcDbArc
 50
1.782703886
 51
6.7165080862
  0
ARC
  5
39C
100
AcDbEntity
  8
0
100
AcDbCircle
 62
7
  6
CONTINUOUS
 10
337.7399284972
 20
770.6087217905
 40
59.6985797418
100
AcDbArc
 50
180.0083902562
 51
181.7276242299
  0
ARC
  5
39D
100
AcDbEntity
  8
0
100
AcDbCircle
 62
7
  6
CONTINUOUS
 10
304.9670404768
 20
719.3570212129
 40
59.6952597207
100
AcDbArc
 50
0.0083874147
 51
1.7270492
  0
ARC
  5
39E
100
AcDbEntity
  8
0
100
AcDbCircle
 62
7
  6
CONTINUOUS
 10
336.3146998759
 20
769.9930926778
 40
59.3340064892
100
AcDbArc
 50
180.0052910133
 51
181.3687574154
  0
ARC
  5
39F
100
AcDbEntity
  8
0
100
AcDbCircle
 62
7
  6
CONTINUOUS
 10
334.2569163126
 20
769.9894375823
 40
57.276222702
100
AcDbArc
 50
179.0889594003
 51
180.0018247619
  0
ARC
  5
3A0
100
AcDbEntity
  8
0
100
AcDbCircle
 62
7
  6
CONTINUOUS
 10
341.4146400181
 20
708.9986552797
 40
20.8050498195
100
AcDbArc
 50
303.1341486369
 51
305.4037223707
  0
ARC
  5
3A1
100
AcDbEntity
  8
0
100
AcDbCircle
 62
7
  6
CONTINUOUS
 10
301.2864953238
 20
780.9704592073
 40
20.8008362339
100
AcDbArc
 50
123.1363455105
 51
125.3916376446
  0
ARC
  5
3A2
100
AcDbEntity
  8
0
100
AcDbCircle
 62
7
  6
CONTINUOUS
 10
300.1964892852
 20
780.3969483529
 40
20.752444619
100
AcDbArc
 50
116.6378591729
 51
117.4404680136
  0
ARC
  5
3A3
100
AcDbEntity
  8
0
100
AcDbCircle
 62
7
  6
CONTINUOUS
 10
341.4555800859
 20
708.9364096506
 40
20.7305478735
100
AcDbArc
 50
300.8633805471
 51
303.1334317057
  0
ARC
  5
3A4
100
AcDbEntity
  8
0
100
AcDbCircle
 62
7
  6
CONTINUOUS
 10
300.1814792452
 20
780.4257603708
 40
20.71995721
100
AcDbArc
 50
117.44034658
 51
119.9988862733
  0
ARC
  5
3A5
100
AcDbEntity
  8
0
100
AcDbCircle
 62
7
  6
CONTINUOUS
 10
341.4679692046
 20
708.9160496995
 40
20.706715508
100
AcDbArc
 50
299.9994146569
 51
300.8628541912
  0
ARC
  5
3A6
100
AcDbEntity
  8
0
100
AcDbCircle
 62
7
  6
CONTINUOUS
 10
340.4659741417
 20
710.648772253
 40
19.7086764349
100
AcDbArc
 50
300.0034539117
 51
303.5429927703
  0
ARC
  5
3A7
100
AcDbEntity
  8
0
100
AcDbCircle
 62
7
  6
CONTINUOUS
 10
301.1642331066
 20
778.7248991681
 40
19.6847047601
100
AcDbArc
 50
116.5022998605
 51
120.0007689183
  0
ARC
  5
3A8
100
AcDbEntity
  8
0
100
AcDbCircle
 62
7
  6
CONTINUOUS
 10
338.5144680786
 20
716.4859150816
 40
16.7395825025
100
AcDbArc
 50
295.8090289229
 51
296.8455624168
  0
ARC
  5
3A9
100
AcDbEntity
  8
0
100
AcDbCircle
 62
7
  6
CONTINUOUS
 10
305.2403485263
 20
774.1154991837
 40
16.7146056556
100
AcDbArc
 50
121.0540083436
 51
124.0798915433
  0
ARC
  5
3AA
100
AcDbEntity
  8
0
100
AcDbCircle
 62
7
  6
CONTINUOUS
 10
304.1705498825
 20
773.5165385942
 40
16.6984131262
100
AcDbArc
 50
116.8437223656
 51
119.9988123942
  0
ARC
  5
3AB
100
AcDbEntity
  8
0
100
AcDbCircle
 62
7
  6
CONTINUOUS
 10
337.4798765857
 20
715.8233766199
 40
16.6830414207
100
AcDbArc
 50
299.9998129507
 51
301.0545654285
  0
ARC
  5
3AC
100
AcDbEntity
  8
0
100
AcDbCircle
 62
7
  6
CONTINUOUS
 10
336.4630589365
 20
717.5817284886
 40
15.7142597448
100
AcDbArc
 50
300.0049851052
 51
304.4462943492
  0
ARC
  5
3AD
100
AcDbEntity
  8
0
100
AcDbCircle
 62
7
  6
CONTINUOUS
 10
305.1676485948
 20
771.7898710994
 40
15.692332447
100
AcDbArc
 50
115.6074942346
 51
119.9994182722
  0
ARC
  5
3AE
100
AcDbEntity
  8
0
100
AcDbCircle
 62
7
  6
CONTINUOUS
 10
334.5086883922
 20
723.4277601431
 40
12.7543785022
100
AcDbArc
 50
294.4888447295
 51
295.8495464342
  0
ARC
  5
3AF
100
AcDbEntity
  8
0
100
AcDbCircle
 62
7
  6
CONTINUOUS
 10
309.2446185615
 20
767.181290219
 40
12.7219740262
100
AcDbArc
 50
121.3864621157
 51
125.371040501
  0
ARC
  5
3B0
100
AcDbEntity
  8
0
100
AcDbCircle
 62
7
  6
CONTINUOUS
 10
308.1713253603
 20
766.5865539494
 40
12.7003603446
100
AcDbArc
 50
115.8457098565
 51
119.9975899101
  0
ARC
  5
3B1
100
AcDbEntity
  8
0
100
AcDbCircle
 62
7
  6
CONTINUOUS
 10
333.4813225762
 20
722.7490866296
 40
12.6801759546
100
AcDbArc
 50
299.999868494
 51
301.3872009045
  0
ARC
  5
3B2
100
AcDbEntity
  8
0
100
AcDbCircle
 62
7
  6
CONTINUOUS
 10
332.4576171104
 20
724.5183738924
 40
11.7243013478
100
AcDbArc
 50
300.0092359861
 51
305.9666254439
  0
ARC
  5
3B3
100
AcDbEntity
  8
0
100
AcDbCircle
 62
7
  6
CONTINUOUS
 10
309.1747736338
 20
764.8475110327
 40
11.7081646519
100
AcDbArc
 50
114.1008155685
 51
119.9949289145
  0
ARC
  5
3B4
100
AcDbEntity
  8
0
100
AcDbCircle
 62
7
  6
CONTINUOUS
 10
314.2703073299
 20
758.4871264353
 40
7.7644517887
100
AcDbArc
 50
123.4640592533
 51
128.9340395337
  0
ARC
  5
3B5
100
AcDbEntity
  8
0
100
AcDbCircle
 62
7
  6
CONTINUOUS
 10
313.1718547564
 20
757.9238117576
 40
7.7028072371
100
AcDbArc
 50
114.2911673247
 51
119.990471271
  0
ARC
  5
3B6
100
AcDbEntity
  8
0
100
AcDbCircle
 62
7
  6
CONTINUOUS
 10
328.4852071434
 20
731.4031454791
 40
7.6728957794
100
AcDbArc
 50
299.9980820616
 51
303.4528940337
  0
ARC
  5
3B7
100
AcDbEntity
  8
0
100
AcDbCircle
 62
7
  6
CONTINUOUS
 10
317.1759580242
 20
750.9862854987
 40
3.7129434209
100
AcDbArc
 50
109.717705998
 51
119.9636123937
  0
ARC
  5
3B8
100
AcDbEntity
  8
0
100
AcDbCircle
 62
7
  6
CONTINUOUS
 10
324.4699488087
 20
738.3544969504
 40
3.7005821055
100
AcDbArc
 50
300.0218948034
 51
308.8415494468
  0
ARC
  5
3B9
100
AcDbEntity
  8
0
100
AcDbCircle
 62
7
  6
CONTINUOUS
 10
244.0256936243
 20
1057.8868146918
 40
36.6275315192
100
AcDbArc
 50
238.4328169099
 51
240.0060011336
  0
ARC
  5
3BA
100
AcDbEntity
  8
0
100
AcDbCircle
 62
7
  6
CONTINUOUS
 10
241.1027242154
 20
890.5869524883
 40
31.3367611105
100
AcDbArc
 50
233.2116915179
 51
234.1555350502
  0
ARC
  5
3BB
100
AcDbEntity
  8
0
100
AcDbCircle
 62
7
  6
CONTINUOUS
 10
240.3665852706
 20
889.6073631398
 40
30.1114092953
100
AcDbArc
 50
231.4442506964
 51
233.2172142791
  0
ARC
  5
3BC
100
AcDbEntity
  8
0
100
AcDbCircle
 62
7
  6
CONTINUOUS
 10
227.5662316267
 20
1044.1443536915
 40
13.5671979384
100
AcDbArc
 50
183.5270810959
 51
191.0169195094
  0
ARC
  5
3BD
100
AcDbEntity
  8
0
100
AcDbCircle
 62
7
  6
CONTINUOUS
 10
227.3733117829
 20
1042.4939817096
 40
13.3736139258
100
AcDbArc
 50
176.4934325128
 51
179.9986789021
  0
ARC
  5
3BE
100
AcDbEntity
  8
0
100
AcDbCircle
 62
7
  6
CONTINUOUS
 10
227.3733112422
 20
1044.1276035545
 40
13.3736133833
100
AcDbArc
 50
180.0013223241
 51
183.5063030055
  0
ARC
  5
3BF
100
AcDbEntity
  8
0
100
AcDbCircle
 62
7
  6
CONTINUOUS
 10
219.700437936
 20
844.1652600623
 40
5.6038242746
100
AcDbArc
 50
107.4722996399
 51
114.7900008224
  0
ARC
  5
3C0
100
AcDbEntity
  8
0
100
AcDbCircle
 62
7
  6
CONTINUOUS
 10
219.5433744714
 20
844.5013988084
 40
5.2328050361
100
AcDbArc
 50
114.7719417568
 51
121.0297583875
  0
ARC
  5
3C1
100
AcDbEntity
  8
0
100
AcDbCircle
 62
7
  6
CONTINUOUS
 10
382.6060960903
 20
780.4052451467
 40
105.9418772998
100
AcDbArc
 50
203.9139856354
 51
209.1191529254
  0
ARC
  5
3C2
100
AcDbEntity
  8
0
100
AcDbCircle
 62
7
  6
CONTINUOUS
 10
380.1797973487
 20
779.3012632385
 40
103.2763519415
100
AcDbArc
 50
202.5538200806
 51
203.8997418155
  0
ARC
  5
3C3
100
AcDbEntity
  8
0
100
AcDbCircle
 62
7
  6
CONTINUOUS
 10
379.1550754947
 20
778.8728109554
 40
102.1656678581
100
AcDbArc
 50
202.1124149106
 51
202.5523334157
  0
ARC
  5
3C4
100
AcDbEntity
  8
0
100
AcDbCircle
 62
7
  6
CONTINUOUS
 10
375.8084778222
 20
776.838546424
 40
97.7486374482
100
AcDbArc
 50
202.2573978883
 51
203.6809954693
  0
ARC
  5
3C5
100
AcDbEntity
  8
0
100
AcDbCircle
 62
7
  6
CONTINUOUS
 10
374.5581177618
 20
776.3232013436
 40
96.3962434798
100
AcDbArc
 50
201.7329664456
 51
202.2554061168
  0
ARC
  5
3C6
100
AcDbEntity
  8
0
100
AcDbCircle
 62
7
  6
CONTINUOUS
 10
372.7649062844
 20
772.3431737851
 40
93.2276898478
100
AcDbArc
 50
220.2349650749
 51
225.2694838175
  0
ARC
  5
3C7
100
AcDbEntity
  8
0
100
AcDbCircle
 62
7
  6
CONTINUOUS
 10
351.9517641209
 20
771.6851604903
 40
73.959168831
100
AcDbArc
 50
186.713546719
 51
189.0452537653
  0
ARC
  5
3C8
100
AcDbEntity
  8
0
100
AcDbCircle
 62
7
  6
CONTINUOUS
 10
466.4456028395
 20
729.7855275558
 40
15.9501385505
100
AcDbArc
 50
359.969100974
 51
3.7639213858
  0
ARC
  5
3C9
100
AcDbEntity
  8
0
100
AcDbCircle
 62
7
  6
CONTINUOUS
 10
475.5761140263
 20
732.5944773757
 40
6.2444613159
100
AcDbArc
 50
70.4150415044
 51
73.0697662632
  0
ARC
  5
3CA
100
AcDbEntity
  8
0
100
AcDbCircle
 62
7
  6
CONTINUOUS
 10
462.3442023231
 20
713.0756552963
 40
6.2408474134
100
AcDbArc
 50
250.1437735205
 51
253.0113511412
  0
ARC
  5
3CB
100
AcDbEntity
  8
0
100
AcDbCircle
 62
7
  6
CONTINUOUS
 10
463.7883021832
 20
712.2008847376
 40
6.2034927195
100
AcDbArc
 50
226.7259003034
 51
234.3957768462
  0
ARC
  5
3CC
100
AcDbEntity
  8
0
100
AcDbCircle
 62
7
  6
CONTINUOUS
 10
475.6387601633
 20
732.7685721245
 40
6.0594395198
100
AcDbArc
 50
60.0103970175
 51
70.4213245404
  0
ARC
  5
3CD
100
AcDbEntity
  8
0
100
AcDbCircle
 62
7
  6
CONTINUOUS
 10
463.6915907913
 20
712.070753273
 40
6.0413852743
100
AcDbArc
 50
234.4230111683
 51
239.970583551
  0
ARC
  5
3CE
100
AcDbEntity
  8
0
100
AcDbCircle
 62
7
  6
CONTINUOUS
 10
419.7169942949
 20
615.4669405068
 40
1.9107385499
100
AcDbArc
 50
349.833856688
 51
359.9956545194
  0
ARC
  5
3CF
100
AcDbEntity
  8
0
100
AcDbCircle
 62
7
  6
CONTINUOUS
 10
436.630077275
 20
973.8251493914
 40
48.4994522095
100
AcDbArc
 50
246.9142510737
 51
250.1224718304
  0
ARC
  5
3D0
100
AcDbEntity
  8
0
100
AcDbCircle
 62
7
  6
CONTINUOUS
 10
446.137040938
 20
973.8247536436
 40
48.4990268358
100
AcDbArc
 50
289.8778681337
 51
293.0860274203
  0
ARC
  5
3D1
100
AcDbEntity
  8
0
100
AcDbCircle
 62
7
  6
CONTINUOUS
 10
1258.4019005189
 20
1187.0189798919
 40
15.9501385506
100
AcDbArc
 50
359.969100974
 51
3.7639213858
  0
ARC
  5
3D2
100
AcDbEntity
  8
0
100
AcDbCircle
 62
7
  6
CONTINUOUS
 10
1319.6067414505
 20
1112.7262535778
 40
8.6201129252
100
AcDbArc
 50
264.8087519073
 51
275.1898598456
  0
ARC
  5
3D3
100
AcDbEntity
  8
0
100
AcDbCircle
 62
7
  6
CONTINUOUS
 10
1267.5324117059
 20
1189.8279297121
 40
6.2444613155
100
AcDbArc
 50
70.4150415043
 51
73.0697662632
  0
ARC
  5
3D4
100
AcDbEntity
  8
0
100
AcDbCircle
 62
7
  6
CONTINUOUS
 10
1254.3005000025
 20
1170.3091076321
 40
6.2408474132
100
AcDbArc
 50
250.1437735205
 51
253.0113511413
  0
ARC
  5
3D5
100
AcDbEntity
  8
0
100
AcDbCircle
 62
7
  6
CONTINUOUS
 10
1255.7445998627
 20
1169.4343370737
 40
6.2034927195
100
AcDbArc
 50
226.7259003034
 51
234.3957768461
  0
ARC
  5
3D6
100
AcDbEntity
  8
0
100
AcDbCircle
 62
7
  6
CONTINUOUS
 10
1267.5950578428
 20
1190.0020244606
 40
6.0594395198
100
AcDbArc
 50
60.0103970175
 51
70.4213245404
  0
ARC
  5
3D7
100
AcDbEntity
  8
0
100
AcDbCircle
 62
7
  6
CONTINUOUS
 10
1255.6478884709
 20
1169.3042056092
 40
6.0413852745
100
AcDbArc
 50
234.4230111683
 51
239.9705835509
  0
ARC
  5
3D8
100
AcDbEntity
  8
0
100
AcDbCircle
 62
7
  6
CONTINUOUS
 10
1318.5357724059
 20
1110.4514037638
 40
4.9345400324
100
AcDbArc
 50
240.0364566097
 51
243.5244115106
  0
ARC
  5
3D9
100
AcDbEntity
  8
0
100
AcDbCircle
 62
7
  6
CONTINUOUS
 10
1320.6777152952
 20
1110.4513925625
 40
4.9345276705
100
AcDbArc
 50
296.475623642
 51
299.9639499576
  0
ARC
  5
3DA
100
AcDbEntity
  8
0
100
AcDbCircle
 62
7
  6
CONTINUOUS
 10
1374.4685535429
 20
1138.707812765
 40
2.1567313997
100
AcDbArc
 50
302.0208944909
 51
306.9313531107
  0
ARC
  5
3DB
100
AcDbEntity
  8
0
100
AcDbCircle
 62
7
  6
CONTINUOUS
 10
1214.8457469176
 20
1833.0529714938
 40
601.0079893169
100
AcDbArc
 50
237.7239326316
 51
238.2644521085
  0
ARC
  5
3DC
100
AcDbEntity
  8
0
100
AcDbCircle
 62
7
  6
CONTINUOUS
 10
1244.5440384371
 20
1850.1991149174
 40
601.0078582455
100
AcDbArc
 50
237.7239325927
 51
238.2644524167
  0
ARC
  5
3DD
100
AcDbEntity
  8
0
100
AcDbCircle
 62
7
  6
CONTINUOUS
 10
1224.7451306168
 20
1838.7682780036
 40
601.0078575316
100
AcDbArc
 50
237.7239325919
 51
238.2644524177
  0
ARC
  5
3DE
100
AcDbEntity
  8
0
100
AcDbCircle
 62
7
  6
CONTINUOUS
 10
1234.6445843308
 20
1844.4836961465
 40
601.0078575183
100
AcDbArc
 50
237.7239325918
 51
238.2644524177
  0
ARC
  5
3DF
100
AcDbEntity
  8
0
100
AcDbCircle
 62
7
  6
CONTINUOUS
 10
1209.5796664917
 20
1789.6378374393
 40
531.0634703121
100
AcDbArc
 50
241.7979093881
 51
242.3849022374
  0
ARC
  5
3E0
100
AcDbEntity
  8
0
100
AcDbCircle
 62
7
  6
CONTINUOUS
 10
1199.6802005426
 20
1783.922396199
 40
531.0634441878
100
AcDbArc
 50
241.7979093611
 51
242.3849022519
  0
ARC
  5
3E1
100
AcDbEntity
  8
0
100
AcDbCircle
 62
7
  6
CONTINUOUS
 10
1189.7807468191
 20
1778.20697804
 40
531.0634441824
100
AcDbArc
 50
241.7979093611
 51
242.3849022519
  0
ARC
  5
3E2
100
AcDbEntity
  8
0
100
AcDbCircle
 62
7
  6
CONTINUOUS
 10
1179.8812930902
 20
1772.491559871
 40
531.0634441657
100
AcDbArc
 50
241.7979093611
 51
242.3849022519
  0
ARC
  5
3E3
100
AcDbEntity
  8
0
100
AcDbCircle
 62
7
  6
CONTINUOUS
 10
1242.588382031
 20
1404.9719969464
 40
35.288809323
100
AcDbArc
 50
299.9572137424
 51
304.3148999137
  0
ARC
  5
3E4
100
AcDbEntity
  8
0
100
AcDbCircle
 62
7
  6
CONTINUOUS
 10
1259.7474620002
 20
1393.1928301453
 40
13.5920319227
100
AcDbArc
 50
347.1273491462
 51
359.9330474976
  0
ARC
  5
3E5
100
AcDbEntity
  8
0
100
AcDbCircle
 62
7
  6
CONTINUOUS
 10
936.1263165316
 20
1321.6608813482
 40
4.4604915849
100
AcDbArc
 50
354.7129742542
 51
359.9939402238
  0
ARC
  5
3E6
100
AcDbEntity
  8
0
100
AcDbCircle
 62
7
  6
CONTINUOUS
 10
918.3695767965
 20
1321.6608811824
 40
4.4604882141
100
AcDbArc
 50
180.0060576511
 51
185.286858258
  0
ARC
  5
3E7
100
AcDbEntity
  8
0
100
AcDbCircle
 62
7
  6
CONTINUOUS
 10
1129.2932869206
 20
1585.4147417403
 40
2.6000594878
100
AcDbArc
 50
79.0859635151
 51
80.7560206339
  0
ARC
  5
3E8
100
AcDbEntity
  8
0
100
AcDbCircle
 62
7
  6
CONTINUOUS
 10
1129.3204023732
 20
1585.5445398723
 40
2.4674760178
100
AcDbArc
 50
73.4948044323
 51
79.1335546323
  0
ARC
  5
3E9
100
AcDbEntity
  8
0
100
AcDbCircle
 62
7
  6
CONTINUOUS
 10
1019.2055855594
 20
1329.2546236518
 40
2.2818893607
100
AcDbArc
 50
350.5357788136
 51
359.9740636143
  0
ARC
  5
3EA
100
AcDbEntity
  8
0
100
AcDbCircle
 62
7
  6
CONTINUOUS
 10
923.7247124295
 20
1321.6627486276
 40
1.8156218877
100
AcDbArc
 50
180.073813192
 51
193.1630724152
  0
ARC
  5
3EB
100
AcDbEntity
  8
0
100
AcDbCircle
 62
7
  6
CONTINUOUS
 10
930.7711860485
 20
1321.6627484512
 40
1.8156201083
100
AcDbArc
 50
346.8372362001
 51
359.9261923038
  0
SPLINE
  5
3EC
100
AcDbEntity
  8
0
100
AcDbSpline
 62
7
  6
CONTINUOUS
 70
0
 71
3
 72
11
 73
7
 74
0
 42
0.0000001
 43
0.0000001
 44
0.0000000001
 40
0.0
 40
0.0
 40
0.0
 40
0.0
 40
0.2177389317
 40
0.4509090262
 40
0.7101604539
 40
1.0
 40
1.0
 40
1.0
 40
1.0
 10
947.6214310788
 20
1335.6427644833
 30
0.0
 10
947.6214310081
 20
1335.5817704204
 30
0.0
 10
947.5989021829
 20
1335.4546036289
 30
0.0
 10
947.5024029172
 20
1335.2775302063
 30
0.0
 10
947.3499992778
 20
1335.1173743166
 30
0.0
 10
947.2224013117
 20
1335.0296773239
 30
0.0
 10
947.1520828402
 20
1334.9890900319
 30
0.0
  0
SPLINE
  5
3ED
100
AcDbEntity
  8
0
100
AcDbSpline
 62
7
  6
CONTINUOUS
 70
0
 71
3
 72
11
 73
7
 74
0
 42
0.0000001
 43
0.0000001
 44
0.0000000001
 40
0.0
 40
0.0
 40
0.0
 40
0.0
 40
0.2178184926
 40
0.4510198213
 40
0.7102358309
 40
1.0
 40
1.0
 40
1.0
 40
1.0
 10
947.6214312159
 20
1336.4592669004
 30
0.0
 10
947.6214312907
 20
1336.5201419806
 30
0.0
 10
947.5989940156
 20
1336.647041613
 30
0.0
 10
947.50287858
 20
1336.8238118264
 30
0.0
 10
947.3510151457
 20
1336.9837309136
 30
0.0
 10
947.223880126
 20
1337.0714245945
 30
0.0
 10
947.1537620575
 20
1337.1119408928
 30
0.0
  0
SPLINE
  5
3EE
100
AcDbEntity
  8
0
100
AcDbSpline
 62
7
  6
CONTINUOUS
 70
0
 71
3
 72
11
 73
7
 74
0
 42
0.0000001
 43
0.0000001
 44
0.0000000001
 40
0.0
 40
0.0
 40
0.0
 40
0.0
 40
0.28981684
 40
0.5490611156
 40
0.7822401107
 40
1.0
 40
1.0
 40
1.0
 40
1.0
 10
935.2738887565
 20
1337.1126238196
 30
0.0
 10
935.2036170692
 20
1337.072063532
 30
0.0
 10
935.0761509954
 20
1336.9843459
 30
0.0
 10
934.9238763235
 20
1336.8242607083
 30
0.0
 10
934.8274766977
 20
1336.6472603788
 30
0.0
 10
934.8049699819
 20
1336.5201614769
 30
0.0
 10
934.804969912
 20
1336.459197352
 30
0.0
  0
SPLINE
  5
3EF
100
AcDbEntity
  8
0
100
AcDbSpline
 62
7
  6
CONTINUOUS
 70
0
 71
3
 72
11
 73
7
 74
0
 42
0.0000001
 43
0.0000001
 44
0.0000000001
 40
0.0
 40
0.0
 40
0.0
 40
0.0
 40
0.2897643457
 40
0.5489802188
 40
0.7821815515
 40
1.0
 40
1.0
 40
1.0
 40
1.0
 10
935.2726391388
 20
1334.9900209008
 30
0.0
 10
935.2025231808
 20
1335.0305409747
 30
0.0
 10
935.0753845818
 20
1335.1182287935
 30
0.0
 10
934.923523099
 20
1335.2781506351
 30
0.0
 10
934.8274068581
 20
1335.4549200246
 30
0.0
 10
934.8049698516
 20
1335.5818198577
 30
0.0
 10
934.8049699779
 20
1335.6426949349
 30
0.0
  0
SPLINE
  5
3F0
100
AcDbEntity
  8
0
100
AcDbSpline
 62
7
  6
CONTINUOUS
 70
0
 71
3
 72
11
 73
7
 74
0
 42
0.0000001
 43
0.0000001
 44
0.0000000001
 40
0.0
 40
0.0
 40
0.0
 40
0.0
 40
0.2372882911
 40
0.500091608
 40
0.7628426619
 40
1.0
 40
1.0
 40
1.0
 40
1.0
 10
942.3437415392
 20
1332.2129940055
 30
0.0
 10
942.1830528864
 20
1332.1203114115
 30
0.0
 10
941.8093605207
 20
1331.9852573623
 30
0.0
 10
941.2120940812
 20
1331.9206574467
 30
0.0
 10
940.6149319479
 20
1331.9857045907
 30
0.0
 10
940.2415979599
 20
1332.1212467588
 30
0.0
 10
940.0810471971
 20
1332.2139634699
 30
0.0
  0
SPLINE
  5
3F1
100
AcDbEntity
  8
0
100
AcDbSpline
 62
7
  6
CONTINUOUS
 70
0
 71
3
 72
11
 73
7
 74
0
 42
0.0000001
 43
0.0000001
 44
0.0000000001
 40
0.0
 40
0.0
 40
0.0
 40
0.0
 40
0.2371805851
 40
0.4999323508
 40
0.7627230583
 40
1.0
 40
1.0
 40
1.0
 40
1.0
 10
942.3449243476
 20
1339.8882463731
 30
0.0
 10
942.184391432
 20
1339.9809527858
 30
0.0
 10
941.8110488061
 20
1340.1163115619
 30
0.0
 10
941.2140159031
 20
1340.1813018511
 30
0.0
 10
940.6168941815
 20
1340.1166587263
 30
0.0
 10
940.2433070493
 20
1339.9816266706
 30
0.0
 10
940.0826596875
 20
1339.8889678926
 30
0.0
  0
SPLINE
  5
3F2
100
AcDbEntity
  8
0
100
AcDbSpline
 62
7
  6
CONTINUOUS
 70
0
 71
3
 72
11
 73
7
 74
0
 42
0.0000001
 43
0.0000001
 44
0.0000000001
 40
0.0
 40
0.0
 40
0.0
 40
0.0
 40
0.2178185041
 40
0.4510198093
 40
0.7102356638
 40
1.0
 40
1.0
 40
1.0
 40
1.0
 10
934.804969912
 20
1336.459197352
 30
0.0
 10
934.8049698422
 20
1336.3983222679
 30
0.0
 10
934.8274068797
 20
1336.2714224656
 30
0.0
 10
934.9235230749
 20
1336.0946530804
 30
0.0
 10
935.0753845259
 20
1335.934731272
 30
0.0
 10
935.2025230843
 20
1335.8470434475
 30
0.0
 10
935.2726390301
 20
1335.8065233806
 30
0.0
  0
SPLINE
  5
3F3
100
AcDbEntity
  8
0
100
AcDbSpline
 62
7
  6
CONTINUOUS
 70
0
 71
3
 72
11
 73
7
 74
0
 42
0.0000001
 43
0.0000001
 44
0.0000000001
 40
0.0
 40
0.0
 40
0.0
 40
0.0
 40
0.2898168373
 40
0.5490611113
 40
0.7822401018
 40
1.0
 40
1.0
 40
1.0
 40
1.0
 10
947.152512364
 20
1335.8058404343
 30
0.0
 10
947.2227840501
 20
1335.8464007222
 30
0.0
 10
947.3502501224
 20
1335.9341183529
 30
0.0
 10
947.5025247945
 20
1336.0942035416
 30
0.0
 10
947.5989244144
 20
1336.2712038734
 30
0.0
 10
947.6214311411
 20
1336.3983027732
 30
0.0
 10
947.6214312159
 20
1336.4592669004
 30
0.0
  0
SPLINE
  5
3F4
100
AcDbEntity
  8
0
100
AcDbSpline
 62
7
  6
CONTINUOUS
 70
0
 71
3
 72
11
 73
7
 74
0
 42
0.0000001
 43
0.0000001
 44
0.0000000001
 40
0.0
 40
0.0
 40
0.0
 40
0.0
 40
0.2371805879
 40
0.4999323537
 40
0.7627230597
 40
1.0
 40
1.0
 40
1.0
 40
1.0
 10
940.0814768212
 20
1333.0302178501
 30
0.0
 10
940.2420097383
 20
1332.9375114448
 30
0.0
 10
940.6153523598
 20
1332.802152681
 30
0.0
 10
941.2123852499
 20
1332.7371624025
 30
0.0
 10
941.8095069537
 20
1332.8018055313
 30
0.0
 10
942.1830940736
 20
1332.9368375847
 30
0.0
 10
942.3437414305
 20
1333.0294963599
 30
0.0
  0
SPLINE
  5
3F5
100
AcDbEntity
  8
0
100
AcDbSpline
 62
7
  6
CONTINUOUS
 70
0
 71
3
 72
11
 73
7
 74
0
 42
0.0000001
 43
0.0000001
 44
0.0000000001
 40
0.0
 40
0.0
 40
0.0
 40
0.0
 40
0.2177665778
 40
0.45094729
 40
0.7101858659
 40
1.0
 40
1.0
 40
1.0
 40
1.0
 10
959.2888141127
 20
1328.9067681106
 30
0.0
 10
959.2888140899
 20
1328.8458227561
 30
0.0
 10
959.2663199274
 20
1328.7187643166
 30
0.0
 10
959.1699668944
 20
1328.5418170881
 30
0.0
 10
959.0177695268
 20
1328.3817632444
 30
0.0
 10
958.8903495317
 20
1328.2940744944
 30
0.0
 10
958.8201069837
 20
1328.2535201951
 30
0.0
  0
SPLINE
  5
3F6
100
AcDbEntity
  8
0
100
AcDbSpline
 62
7
  6
CONTINUOUS
 70
0
 71
3
 72
11
 73
7
 74
0
 42
0.0000001
 43
0.0000001
 44
0.0000000001
 40
0.0
 40
0.0
 40
0.0
 40
0.0
 40
0.2177794832
 40
0.4509654535
 40
0.7101987835
 40
1.0
 40
1.0
 40
1.0
 40
1.0
 10
959.2888141238
 20
1329.7232705277
 30
0.0
 10
959.2888141388
 20
1329.7841969617
 30
0.0
 10
959.2663344741
 20
1329.9112128863
 30
0.0
 10
959.1700426807
 20
1330.088112111
 30
0.0
 10
959.0179308749
 20
1330.2481274369
 30
0.0
 10
958.8905858773
 20
1330.3358168141
 30
0.0
 10
958.8203759558
 20
1330.3763604255
 30
0.0
  0
SPLINE
  5
3F7
100
AcDbEntity
  8
0
100
AcDbSpline
 62
7
  6
CONTINUOUS
 70
0
 71
3
 72
11
 73
7
 74
0
 42
0.0000001
 43
0.0000001
 44
0.0000000001
 40
0.0
 40
0.0
 40
0.0
 40
0.0
 40
0.2898115365
 40
0.5490525935
 40
0.7822338959
 40
1.0
 40
1.0
 40
1.0
 40
1.0
 10
946.9410661268
 20
1330.3765708764
 30
0.0
 10
946.8708123918
 20
1330.3360123807
 30
0.0
 10
946.7433785686
 20
1330.2483021971
 30
0.0
 10
946.5911494623
 20
1330.0882323742
 30
0.0
 10
946.4947795373
 20
1329.9112573013
 30
0.0
 10
946.472280448
 20
1329.7841795271
 30
0.0
 10
946.4722803814
 20
1329.7232249024
 30
0.0
  0
SPLINE
  5
3F8
100
AcDbEntity
  8
0
100
AcDbSpline
 62
7
  6
CONTINUOUS
 70
0
 71
3
 72
11
 73
7
 74
0
 42
0.0000001
 43
0.0000001
 44
0.0000000001
 40
0.0
 40
0.0
 40
0.0
 40
0.0
 40
0.2897643408
 40
0.5489802031
 40
0.7821815282
 40
1.0
 40
1.0
 40
1.0
 40
1.0
 10
946.9399495464
 20
1328.2540484843
 30
0.0
 10
946.8698335952
 20
1328.2945685549
 30
0.0
 10
946.7426950167
 20
1328.3822563755
 30
0.0
 10
946.5908335539
 20
1328.5421782022
 30
0.0
 10
946.4947173264
 20
1328.7189475859
 30
0.0
 10
946.4722803211
 20
1328.8458474063
 30
0.0
 10
946.472280419
 20
1328.9067224853
 30
0.0
  0
SPLINE
  5
3F9
100
AcDbEntity
  8
0
100
AcDbSpline
 62
7
  6
CONTINUOUS
 70
0
 71
3
 72
11
 73
7
 74
0
 42
0.0000001
 43
0.0000001
 44
0.0000000001
 40
0.0
 40
0.0
 40
0.0
 40
0.0
 40
0.2372801506
 40
0.5000831712
 40
0.7628386696
 40
1.0
 40
1.0
 40
1.0
 40
1.0
 10
954.0112083362
 20
1325.4771099853
 30
0.0
 10
953.8505179978
 20
1325.3844149077
 30
0.0
 10
953.4768202084
 20
1325.2493092803
 30
0.0
 10
952.8795103934
 20
1325.1846826204
 30
0.0
 10
952.2822950431
 20
1325.2497159396
 30
0.0
 10
951.9089233258
 20
1325.385265705
 30
0.0
 10
951.7483576891
 20
1325.4779910046
 30
0.0
  0
SPLINE
  5
3FA
100
AcDbEntity
  8
0
100
AcDbSpline
 62
7
  6
CONTINUOUS
 70
0
 71
3
 72
11
 73
7
 74
0
 42
0.0000001
 43
0.0000001
 44
0.0000000001
 40
0.0
 40
0.0
 40
0.0
 40
0.0
 40
0.2372154984
 40
0.5000095442
 40
0.7627983266
 40
1.0
 40
1.0
 40
1.0
 40
1.0
 10
954.0121134143
 20
1333.152342823
 30
0.0
 10
953.8514689568
 20
1333.2451229677
 30
0.0
 10
953.4778271725
 20
1333.3805412366
 30
0.0
 10
952.8803780376
 20
1333.4453975526
 30
0.0
 10
952.2829328085
 20
1333.3805043409
 30
0.0
 10
951.9093403017
 20
1333.2450152287
 30
0.0
 10
951.7487026797
 20
1333.1522448665
 30
0.0
  0
SPLINE
  5
3FB
100
AcDbEntity
  8
0
100
AcDbSpline
 62
7
  6
CONTINUOUS
 70
0
 71
3
 72
11
 73
7
 74
0
 42
0.0000001
 43
0.0000001
 44
0.0000000001
 40
0.0
 40
0.0
 40
0.0
 40
0.0
 40
0.2371845808
 40
0.499940791
 40
0.7627312002
 40
1.0
 40
1.0
 40
1.0
 40
1.0
 10
951.7487873027
 20
1326.2942453909
 30
0.0
 10
951.9093350971
 20
1326.201530395
 30
0.0
 10
952.2827154561
 20
1326.0661640413
 30
0.0
 10
952.879801568
 20
1326.0011875869
 30
0.0
 10
953.4769666528
 20
1326.0658574616
 30
0.0
 10
953.8505592003
 20
1326.2009410926
 30
0.0
 10
954.0112082471
 20
1326.2936123509
 30
0.0
  0
SPLINE
  5
3FC
100
AcDbEntity
  8
0
100
AcDbSpline
 62
7
  6
CONTINUOUS
 70
0
 71
3
 72
11
 73
7
 74
0
 42
0.0000001
 43
0.0000001
 44
0.0000000001
 40
0.0
 40
0.0
 40
0.0
 40
0.0
 40
0.2178185012
 40
0.4510198096
 40
0.7102356622
 40
1.0
 40
1.0
 40
1.0
 40
1.0
 10
946.4722803814
 20
1329.7232249024
 30
0.0
 10
946.472280315
 20
1329.6623498209
 30
0.0
 10
946.4947173381
 20
1329.5354500205
 30
0.0
 10
946.5908335359
 20
1329.3586806411
 30
0.0
 10
946.7426949781
 20
1329.1987588338
 30
0.0
 10
946.8698335316
 20
1329.1110710088
 30
0.0
 10
946.9399494755
 20
1329.0705509423
 30
0.0
  0
SPLINE
  5
3FD
100
AcDbEntity
  8
0
100
AcDbSpline
 62
7
  6
CONTINUOUS
 70
0
 71
3
 72
11
 73
7
 74
0
 42
0.0000001
 43
0.0000001
 44
0.0000000001
 40
0.0
 40
0.0
 40
0.0
 40
0.0
 40
0.2898104235
 40
0.5490478435
 40
0.7822300138
 40
1.0
 40
1.0
 40
1.0
 40
1.0
 10
958.8201768116
 20
1329.0700629273
 30
0.0
 10
958.8904117506
 20
1329.1106128335
 30
0.0
 10
959.0178102804
 20
1329.198304961
 30
0.0
 10
959.1699867001
 20
1329.3583472879
 30
0.0
 10
959.2663235422
 20
1329.5352826345
 30
0.0
 10
959.2888141087
 20
1329.6623300411
 30
0.0
 10
959.2888141238
 20
1329.7232705277
 30
0.0
  0
SPLINE
  5
3FE
100
AcDbEntity
  8
0
100
AcDbSpline
 62
7
  6
CONTINUOUS
 70
0
 71
3
 72
15
 73
11
 74
0
 42
0.0000001
 43
0.0000001
 44
0.0000000001
 40
0.0
 40
0.0
 40
0.0
 40
0.0
 40
0.1141568478
 40
0.2373261091
 40
0.3669760945
 40
0.5000005189
 40
0.6330248713
 40
0.7626746459
 40
0.8858435749
 40
1.0
 40
1.0
 40
1.0
 40
1.0
 10
931.9580627418
 20
1324.3797791729
 30
0.0
 10
931.6356093979
 20
1324.5659434863
 30
0.0
 10
930.9305219761
 20
1324.89427045
 30
0.0
 10
929.7823280841
 20
1325.243248631
 30
0.0
 10
928.5392337244
 20
1325.458048443
 30
0.0
 10
927.2479208186
 20
1325.5305286548
 30
0.0
 10
925.9566089413
 20
1325.458042319
 30
0.0
 10
924.7135176216
 20
1325.2432366072
 30
0.0
 10
923.5653286571
 20
1324.8942529677
 30
0.0
 10
922.8602455442
 20
1324.5659224786
 30
0.0
 10
922.5377947368
 20
1324.3797565294
 30
0.0
  0
SPLINE
  5
3FF
100
AcDbEntity
  8
0
100
AcDbSpline
 62
7
  6
CONTINUOUS
 70
0
 71
3
 72
11
 73
7
 74
0
 42
0.0000001
 43
0.0000001
 44
0.0000000001
 40
0.0
 40
0.0
 40
0.0
 40
0.0
 40
0.2898062199
 40
0.5490505511
 40
0.7822285474
 40
1.0
 40
1.0
 40
1.0
 40
1.0
 10
922.5377947368
 20
1324.3797565294
 30
0.0
 10
922.2454059526
 20
1324.2109467938
 30
0.0
 10
921.7150426739
 20
1323.845868761
 30
0.0
 10
921.0814967941
 20
1323.1796222249
 30
0.0
 10
920.6804655364
 20
1322.4430099381
 30
0.0
 10
920.5868153958
 20
1321.914110883
 30
0.0
 10
920.5868153948
 20
1321.660409593
 30
0.0
  0
SPLINE
  5
400
100
AcDbEntity
  8
0
100
AcDbSpline
 62
7
  6
CONTINUOUS
 70
0
 71
3
 72
11
 73
7
 74
0
 42
0.0000001
 43
0.0000001
 44
0.0000000001
 40
0.0
 40
0.0
 40
0.0
 40
0.0
 40
0.2844814261
 40
0.54407519
 40
0.7807982326
 40
1.0
 40
1.0
 40
1.0
 40
1.0
 10
923.4728166953
 20
1319.4808493265
 30
0.0
 10
923.2765183152
 20
1319.5941796852
 30
0.0
 10
922.9147907507
 20
1319.8365580328
 30
0.0
 10
922.4600412716
 20
1320.2660834143
 30
0.0
 10
922.1295367777
 20
1320.7359633556
 30
0.0
 10
921.9964459548
 20
1321.0791976808
 30
0.0
 10
921.956794419
 20
1321.249289141
 30
0.0
  0
SPLINE
  5
401
100
AcDbEntity
  8
0
100
AcDbSpline
 62
7
  6
CONTINUOUS
 70
0
 71
3
 72
13
 73
9
 74
0
 42
0.0000001
 43
0.0000001
 44
0.0000000001
 40
0.0
 40
0.0
 40
0.0
 40
0.0
 40
0.1142593019
 40
0.2375370768
 40
0.4999994812
 40
0.7624621695
 40
0.8857402761
 40
1.0
 40
1.0
 40
1.0
 40
1.0
 10
931.0231114385
 20
1319.4808674752
 30
0.0
 10
930.7646667082
 20
1319.3316552312
 30
0.0
 10
930.199521638
 20
1319.0684394602
 30
0.0
 10
928.9469534334
 20
1318.688084651
 30
0.0
 10
927.2479699569
 20
1318.5032064935
 30
0.0
 10
925.5489848529
 20
1318.6880768025
 30
0.0
 10
924.2964119762
 20
1319.0684254521
 30
0.0
 10
923.7312634561
 20
1319.3316383951
 30
0.0
 10
923.4728166953
 20
1319.4808493265
 30
0.0
  0
SPLINE
  5
402
100
AcDbEntity
  8
0
100
AcDbSpline
 62
7
  6
CONTINUOUS
 70
0
 71
3
 72
11
 73
7
 74
0
 42
0.0000001
 43
0.0000001
 44
0.0000000001
 40
0.0
 40
0.0
 40
0.0
 40
0.0
 40
0.2898066966
 40
0.5490512049
 40
0.7822290079
 40
1.0
 40
1.0
 40
1.0
 40
1.0
 10
922.5378339571
 20
1318.124537596
 30
0.0
 10
922.2454397081
 20
1318.2933476754
 30
0.0
 10
921.7150663677
 20
1318.6584271056
 30
0.0
 10
921.0815076107
 20
1319.3246785748
 30
0.0
 10
920.6804676938
 20
1320.0612979998
 30
0.0
 10
920.5868153906
 20
1320.5902031543
 30
0.0
 10
920.5868153948
 20
1320.8439071759
 30
0.0
  0
SPLINE
  5
403
100
AcDbEntity
  8
0
100
AcDbSpline
 62
7
  6
CONTINUOUS
 70
0
 71
3
 72
15
 73
11
 74
0
 42
0.0000001
 43
0.0000001
 44
0.0000000001
 40
0.0
 40
0.0
 40
0.0
 40
0.0
 40
0.114156423
 40
0.2373253507
 40
0.3669751242
 40
0.4999994762
 40
0.633023901
 40
0.7626738875
 40
0.8858431502
 40
1.0
 40
1.0
 40
1.0
 40
1.0
 10
931.9581019622
 20
1318.1245602395
 30
0.0
 10
931.6356511604
 20
1317.9383942936
 30
0.0
 10
930.9305680584
 20
1317.6100638082
 30
0.0
 10
929.7823791092
 20
1317.2610801692
 30
0.0
 10
928.5392877996
 20
1317.0462744547
 30
0.0
 10
927.247975926
 20
1316.9737881142
 30
0.0
 10
925.9566630164
 20
1317.0462683212
 30
0.0
 10
924.7135686468
 20
1317.2610681304
 30
0.0
 10
923.5653747395
 20
1317.6100463119
 30
0.0
 10
922.8602873067
 20
1317.9383732794
 30
0.0
 10
922.5378339571
 20
1318.124537596
 30
0.0
  0
SPLINE
  5
404
100
AcDbEntity
  8
0
100
AcDbSpline
 62
7
  6
CONTINUOUS
 70
0
 71
3
 72
11
 73
7
 74
0
 42
0.0000001
 43
0.0000001
 44
0.0000000001
 40
0.0
 40
0.0
 40
0.0
 40
0.0
 40
0.2177709906
 40
0.4509487929
 40
0.7101933012
 40
1.0
 40
1.0
 40
1.0
 40
1.0
 10
933.9090813041
 20
1321.660409593
 30
0.0
 10
933.9090813051
 20
1321.9141136129
 30
0.0
 10
933.8154290074
 20
1322.4430187648
 30
0.0
 10
933.4143890912
 20
1323.1796381883
 30
0.0
 10
932.7808303355
 20
1323.8458896603
 30
0.0
 10
932.2504569929
 20
1324.2109690924
 30
0.0
 10
931.9580627418
 20
1324.3797791729
 30
0.0
  0
SPLINE
  5
405
100
AcDbEntity
  8
0
100
AcDbSpline
 62
7
  6
CONTINUOUS
 70
0
 71
3
 72
11
 73
7
 74
0
 42
0.0000001
 43
0.0000001
 44
0.0000000001
 40
0.0
 40
0.0
 40
0.0
 40
0.0
 40
0.2177714511
 40
0.4509494468
 40
0.710193778
 40
1.0
 40
1.0
 40
1.0
 40
1.0
 10
933.9090813041
 20
1320.8439071759
 30
0.0
 10
933.9090812999
 20
1320.5902058877
 30
0.0
 10
933.8154311648
 20
1320.0613068352
 30
0.0
 10
933.4143999079
 20
1319.3246945499
 30
0.0
 10
932.7808540292
 20
1318.658448011
 30
0.0
 10
932.2504907485
 20
1318.2933699764
 30
0.0
 10
931.9581019622
 20
1318.1245602395
 30
0.0
  0
SPLINE
  5
406
100
AcDbEntity
  8
0
100
AcDbSpline
 62
7
  6
CONTINUOUS
 70
0
 71
3
 72
11
 73
7
 74
0
 42
0.0000001
 43
0.0000001
 44
0.0000000001
 40
0.0
 40
0.0
 40
0.0
 40
0.0
 40
0.2844811325
 40
0.5440747443
 40
0.7807978711
 40
1.0
 40
1.0
 40
1.0
 40
1.0
 10
923.4727852604
 20
1323.0234492938
 30
0.0
 10
923.2764900731
 20
1322.9101188911
 30
0.0
 10
922.9147685641
 20
1322.6677408027
 30
0.0
 10
922.4600274559
 20
1322.2382170681
 30
0.0
 10
922.1295298136
 20
1321.768339814
 30
0.0
 10
921.9964424755
 20
1321.4251081757
 30
0.0
 10
921.9567922008
 20
1321.255018111
 30
0.0
  0
SPLINE
  5
407
100
AcDbEntity
  8
0
100
AcDbSpline
 62
7
  6
CONTINUOUS
 70
0
 71
3
 72
13
 73
9
 74
0
 42
0.0000001
 43
0.0000001
 44
0.0000000001
 40
0.0
 40
0.0
 40
0.0
 40
0.0
 40
0.114259727
 40
0.2375378359
 40
0.5000005264
 40
0.7624629286
 40
0.8857407012
 40
1.0
 40
1.0
 40
1.0
 40
1.0
 10
931.0230800037
 20
1323.0234674425
 30
0.0
 10
930.7646332358
 20
1323.1726783778
 30
0.0
 10
930.1994847023
 20
1323.4358913258
 30
0.0
 10
928.9469118042
 20
1323.8162399735
 30
0.0
 10
927.2479266936
 20
1324.0011102754
 30
0.0
 10
925.5489432237
 20
1323.8162321109
 30
0.0
 10
924.2963750405
 20
1323.4358772998
 30
0.0
 10
923.7312299837
 20
1323.1726615337
 30
0.0
 10
923.4727852604
 20
1323.0234492938
 30
0.0
  0
SPLINE
  5
408
100
AcDbEntity
  8
0
100
AcDbSpline
 62
7
  6
CONTINUOUS
 70
0
 71
3
 72
11
 73
7
 74
0
 42
0.0000001
 43
0.0000001
 44
0.0000000001
 40
0.0
 40
0.0
 40
0.0
 40
0.0
 40
0.2192017677
 40
0.4559248092
 40
0.7155185725
 40
1.0
 40
1.0
 40
1.0
 40
1.0
 10
932.5391023352
 20
1321.2550273939
 30
0.0
 10
932.4994508158
 20
1321.4251188761
 30
0.0
 10
932.3663600169
 20
1321.768353251
 30
0.0
 10
932.0358555169
 20
1322.2382332591
 30
0.0
 10
931.5811060044
 20
1322.6677586971
 30
0.0
 10
931.2193784043
 20
1322.9101370719
 30
0.0
 10
931.0230800037
 20
1323.0234674425
 30
0.0
  0
SPLINE
  5
409
100
AcDbEntity
  8
0
100
AcDbSpline
 62
7
  6
CONTINUOUS
 70
0
 71
3
 72
11
 73
7
 74
0
 42
0.0000001
 43
0.0000001
 44
0.0000000001
 40
0.0
 40
0.0
 40
0.0
 40
0.0
 40
0.2192021291
 40
0.4559252549
 40
0.7155188662
 40
1.0
 40
1.0
 40
1.0
 40
1.0
 10
932.5391045535
 20
1321.2492988924
 30
0.0
 10
932.4994542952
 20
1321.0792088056
 30
0.0
 10
932.3663669811
 20
1320.7359771177
 30
0.0
 10
932.0358693328
 20
1320.2660997966
 30
0.0
 10
931.5811281911
 20
1319.8365760054
 30
0.0
 10
931.2194066464
 20
1319.5941978898
 30
0.0
 10
931.0231114385
 20
1319.4808674752
 30
0.0
  0
SPLINE
  5
40A
100
AcDbEntity
  8
0
100
AcDbSpline
 62
7
  6
CONTINUOUS
 70
0
 71
3
 72
11
 73
7
 74
0
 42
0.0000001
 43
0.0000001
 44
0.0000000001
 40
0.0
 40
0.0
 40
0.0
 40
0.0
 40
0.2177711045
 40
0.4509506687
 40
0.7101913461
 40
1.0
 40
1.0
 40
1.0
 40
1.0
 10
921.9090920485
 20
1321.660409593
 30
0.0
 10
921.9090920482
 20
1321.8637493954
 30
0.0
 10
921.9841372103
 20
1322.2876636501
 30
0.0
 10
922.3055786495
 20
1322.8780440072
 30
0.0
 10
922.8133500413
 20
1323.4120453827
 30
0.0
 10
923.2384353603
 20
1323.7046505407
 30
0.0
 10
923.4727852604
 20
1323.8399517109
 30
0.0
  0
SPLINE
  5
40B
100
AcDbEntity
  8
0
100
AcDbSpline
 62
7
  6
CONTINUOUS
 70
0
 71
3
 72
15
 73
11
 74
0
 42
0.0000001
 43
0.0000001
 44
0.0000000001
 40
0.0
 40
0.0
 40
0.0
 40
0.0
 40
0.1141568478
 40
0.2373261091
 40
0.3669760945
 40
0.5000005189
 40
0.6330248713
 40
0.7626746459
 40
0.8858435749
 40
1.0
 40
1.0
 40
1.0
 40
1.0
 10
922.5378339571
 20
1318.9410400131
 30
0.0
 10
922.860287301
 20
1318.7548756998
 30
0.0
 10
923.5653747229
 20
1318.4265487361
 30
0.0
 10
924.7135686149
 20
1318.0775705551
 30
0.0
 10
925.9566629745
 20
1317.862770743
 30
0.0
 10
927.2479758803
 20
1317.7902905313
 30
0.0
 10
928.5392877576
 20
1317.8627768671
 30
0.0
 10
929.7823790773
 20
1318.0775825788
 30
0.0
 10
930.9305680418
 20
1318.4265662183
 30
0.0
 10
931.6356511547
 20
1318.7548967074
 30
0.0
 10
931.9581019622
 20
1318.9410626567
 30
0.0
  0
SPLINE
  5
40C
100
AcDbEntity
  8
0
100
AcDbSpline
 62
7
  6
CONTINUOUS
 70
0
 71
3
 72
11
 73
7
 74
0
 42
0.0000001
 43
0.0000001
 44
0.0000000001
 40
0.0
 40
0.0
 40
0.0
 40
0.0
 40
0.2898091339
 40
0.5490499884
 40
0.7822293583
 40
1.0
 40
1.0
 40
1.0
 40
1.0
 10
931.0230800037
 20
1323.8399698596
 30
0.0
 10
931.2574342864
 20
1323.7046684123
 30
0.0
 10
931.6825276726
 20
1323.4120621323
 30
0.0
 10
932.1903093832
 20
1322.8780567989
 30
0.0
 10
932.5117577628
 20
1322.2876707228
 30
0.0
 10
932.5868046501
 20
1321.8637515826
 30
0.0
 10
932.5868046504
 20
1321.660409593
 30
0.0
  0
SPLINE
  5
40D
100
AcDbEntity
  8
0
100
AcDbSpline
 62
7
  6
CONTINUOUS
 70
0
 71
3
 72
13
 73
9
 74
0
 42
0.0000001
 43
0.0000001
 44
0.0000000001
 40
0.0
 40
0.0
 40
0.0
 40
0.0
 40
0.1142593019
 40
0.2375370768
 40
0.4999994812
 40
0.7624621695
 40
0.8857402761
 40
1.0
 40
1.0
 40
1.0
 40
1.0
 10
923.4727852604
 20
1323.8399517109
 30
0.0
 10
923.7312299907
 20
1323.9891639548
 30
0.0
 10
924.2963750609
 20
1324.2523797259
 30
0.0
 10
925.5489432655
 20
1324.6327345351
 30
0.0
 10
927.247926742
 20
1324.8176126925
 30
0.0
 10
928.9469118461
 20
1324.6327423836
 30
0.0
 10
930.1994847228
 20
1324.2523937339
 30
0.0
 10
930.7646332428
 20
1323.9891807909
 30
0.0
 10
931.0230800037
 20
1323.8399698596
 30
0.0
  0
SPLINE
  5
40E
100
AcDbEntity
  8
0
100
AcDbSpline
 62
7
  6
CONTINUOUS
 70
0
 71
3
 72
11
 73
7
 74
0
 42
0.0000001
 43
0.0000001
 44
0.0000000001
 40
0.0
 40
0.0
 40
0.0
 40
0.0
 40
0.2898062199
 40
0.5490505511
 40
0.7822285474
 40
1.0
 40
1.0
 40
1.0
 40
1.0
 10
931.9581019622
 20
1318.9410626567
 30
0.0
 10
932.2504907463
 20
1319.1098723923
 30
0.0
 10
932.780854025
 20
1319.4749504251
 30
0.0
 10
933.4143999049
 20
1320.1411969612
 30
0.0
 10
933.8154311625
 20
1320.877809248
 30
0.0
 10
933.9090813031
 20
1321.4067083031
 30
0.0
 10
933.9090813041
 20
1321.660409593
 30
0.0
  0
SPLINE
  5
40F
100
AcDbEntity
  8
0
100
AcDbSpline
 62
7
  6
CONTINUOUS
 70
0
 71
3
 72
11
 73
7
 74
0
 42
0.0000001
 43
0.0000001
 44
0.0000000001
 40
0.0
 40
0.0
 40
0.0
 40
0.0
 40
0.2177709906
 40
0.4509487929
 40
0.7101933012
 40
1.0
 40
1.0
 40
1.0
 40
1.0
 10
920.5868153948
 20
1321.660409593
 30
0.0
 10
920.5868153939
 20
1321.4067055732
 30
0.0
 10
920.6804676915
 20
1320.8778004213
 30
0.0
 10
921.0815076077
 20
1320.1411809978
 30
0.0
 10
921.7150663634
 20
1319.4749295257
 30
0.0
 10
922.245439706
 20
1319.1098500937
 30
0.0
 10
922.5378339571
 20
1318.9410400131
 30
0.0
  0
SPLINE
  5
410
100
AcDbEntity
  8
0
100
AcDbSpline
 62
7
  6
CONTINUOUS
 70
0
 71
3
 72
11
 73
7
 74
0
 42
0.0000001
 43
0.0000001
 44
0.0000000001
 40
0.0
 40
0.0
 40
0.0
 40
0.0
 40
0.2179151218
 40
0.4525262996
 40
0.7121050259
 40
1.0
 40
1.0
 40
1.0
 40
1.0
 10
940.5678313537
 20
1321.2498688616
 30
0.0
 10
940.5237372591
 20
1320.7730809334
 30
0.0
 10
940.268239125
 20
1319.7930095045
 30
0.0
 10
939.4475414028
 20
1318.4406978056
 30
0.0
 10
938.227731508
 20
1317.2122785744
 30
0.0
 10
937.2278277709
 20
1316.5312342744
 30
0.0
 10
936.6799892397
 20
1316.214941439
 30
0.0
  0
SPLINE
  5
411
100
AcDbEntity
  8
0
100
AcDbSpline
 62
7
  6
CONTINUOUS
 70
0
 71
3
 72
11
 73
7
 74
0
 42
0.0000001
 43
0.0000001
 44
0.0000000001
 40
0.0
 40
0.0
 40
0.0
 40
0.0
 40
0.2898066966
 40
0.5490512049
 40
0.7822290079
 40
1.0
 40
1.0
 40
1.0
 40
1.0
 10
916.8741549543
 20
1314.8546305179
 30
0.0
 10
916.2301711195
 20
1315.2264263471
 30
0.0
 10
915.0620501361
 20
1316.0304956896
 30
0.0
 10
913.6666683894
 20
1317.497881514
 30
0.0
 10
912.7833978581
 20
1319.1202492716
 30
0.0
 10
912.5771333041
 20
1320.2851366485
 30
0.0
 10
912.5771333135
 20
1320.8439071759
 30
0.0
  0
SPLINE
  5
412
100
AcDbEntity
  8
0
100
AcDbSpline
 62
7
  6
CONTINUOUS
 70
0
 71
3
 72
15
 73
11
 74
0
 42
0.0000001
 43
0.0000001
 44
0.0000000001
 40
0.0
 40
0.0
 40
0.0
 40
0.0
 40
0.114156423
 40
0.2373253507
 40
0.3669751242
 40
0.4999994762
 40
0.633023901
 40
0.7626738875
 40
0.8858431502
 40
1.0
 40
1.0
 40
1.0
 40
1.0
 10
937.6218281254
 20
1314.8546803891
 30
0.0
 10
936.9116462235
 20
1314.4446591244
 30
0.0
 10
935.3587356534
 20
1313.7215275108
 30
0.0
 10
932.8299064265
 20
1312.9529083505
 30
0.0
 10
930.0920594564
 20
1312.4798094156
 30
0.0
 10
927.2480090853
 20
1312.3201618448
 30
0.0
 10
924.4039564327
 20
1312.4797959067
 30
0.0
 10
921.6661027232
 20
1312.9528818356
 30
0.0
 10
919.1372625763
 20
1313.7214889761
 30
0.0
 10
917.5843424678
 20
1314.4446128416
 30
0.0
 10
916.8741549543
 20
1314.8546305179
 30
0.0
  0
SPLINE
  5
413
100
AcDbEntity
  8
0
100
AcDbSpline
 62
7
  6
CONTINUOUS
 70
0
 71
3
 72
11
 73
7
 74
0
 42
0.0000001
 43
0.0000001
 44
0.0000000001
 40
0.0
 40
0.0
 40
0.0
 40
0.0
 40
0.2179146586
 40
0.4525256099
 40
0.7121045007
 40
1.0
 40
1.0
 40
1.0
 40
1.0
 10
940.5678325733
 20
1321.2544347293
 30
0.0
 10
940.523739283
 20
1321.7312292485
 30
0.0
 10
940.2682379621
 20
1322.7113151953
 30
0.0
 10
939.4475232708
 20
1324.0636447092
 30
0.0
 10
938.2276865129
 20
1325.2920772382
 30
0.0
 10
937.2277611014
 20
1325.973126253
 30
0.0
 10
936.6799107014
 20
1326.2894206734
 30
0.0
  0
SPLINE
  5
414
100
AcDbEntity
  8
0
100
AcDbSpline
 62
7
  6
CONTINUOUS
 70
0
 71
3
 72
11
 73
7
 74
0
 42
0.0000001
 43
0.0000001
 44
0.0000000001
 40
0.0
 40
0.0
 40
0.0
 40
0.0
 40
0.2878949719
 40
0.5474736983
 40
0.7820848767
 40
1.0
 40
1.0
 40
1.0
 40
1.0
 10
917.8159074592
 20
1326.2893753299
 30
0.0
 10
917.2680689363
 20
1325.9730824993
 30
0.0
 10
916.2681652106
 20
1325.2920382076
 30
0.0
 10
915.0483553193
 20
1324.0636189959
 30
0.0
 10
914.2276575938
 20
1322.7113073069
 30
0.0
 10
913.9721594513
 20
1321.7312358842
 30
0.0
 10
913.928065349
 20
1321.2544479569
 30
0.0
  0
SPLINE
  5
415
100
AcDbEntity
  8
0
100
AcDbSpline
 62
7
  6
CONTINUOUS
 70
0
 71
3
 72
13
 73
9
 74
0
 42
0.0000001
 43
0.0000001
 44
0.0000000001
 40
0.0
 40
0.0
 40
0.0
 40
0.0
 40
0.1142587585
 40
0.2375379762
 40
0.5000005201
 40
0.7624627794
 40
0.8857416646
 40
1.0
 40
1.0
 40
1.0
 40
1.0
 10
936.6799107014
 20
1326.2894206734
 30
0.0
 10
936.0342007362
 20
1326.6622130619
 30
0.0
 10
934.6222057571
 20
1327.3198341082
 30
0.0
 10
931.4927251601
 20
1328.2701346912
 30
0.0
 10
927.247894343
 20
1328.7320132731
 30
0.0
 10
923.0030675975
 20
1328.2701150776
 30
0.0
 10
919.8735986933
 20
1327.3197991016
 30
0.0
 10
918.4616123451
 20
1326.6621709944
 30
0.0
 10
917.8159074592
 20
1326.2893753299
 30
0.0
  0
SPLINE
  5
416
100
AcDbEntity
  8
0
100
AcDbSpline
 62
7
  6
CONTINUOUS
 70
0
 71
3
 72
11
 73
7
 74
0
 42
0.0000001
 43
0.0000001
 44
0.0000000001
 40
0.0
 40
0.0
 40
0.0
 40
0.0
 40
0.2177709906
 40
0.4509487929
 40
0.7101933012
 40
1.0
 40
1.0
 40
1.0
 40
1.0
 10
941.9187633855
 20
1321.660409593
 30
0.0
 10
941.9187633876
 20
1322.2191801166
 30
0.0
 10
941.7124988458
 20
1323.3840674877
 30
0.0
 10
940.8292283162
 20
1325.0064352421
 30
0.0
 10
939.4338465721
 20
1326.4738210728
 30
0.0
 10
938.2657255841
 20
1327.2778904191
 30
0.0
 10
937.6217417446
 20
1327.6496862511
 30
0.0
  0
SPLINE
  5
417
100
AcDbEntity
  8
0
100
AcDbSpline
 62
7
  6
CONTINUOUS
 70
0
 71
3
 72
11
 73
7
 74
0
 42
0.0000001
 43
0.0000001
 44
0.0000000001
 40
0.0
 40
0.0
 40
0.0
 40
0.0
 40
0.2177714511
 40
0.4509494468
 40
0.710193778
 40
1.0
 40
1.0
 40
1.0
 40
1.0
 10
941.9187633855
 20
1320.8439071759
 30
0.0
 10
941.9187633761
 20
1320.2851426686
 30
0.0
 10
941.7125035973
 20
1319.1202687312
 30
0.0
 10
940.8292521394
 20
1317.4979166982
 30
0.0
 10
939.4338987564
 20
1316.0305417325
 30
0.0
 10
938.265799929
 20
1315.226475464
 30
0.0
 10
937.6218281254
 20
1314.8546803891
 30
0.0
  0
SPLINE
  5
418
100
AcDbEntity
  8
0
100
AcDbSpline
 62
7
  6
CONTINUOUS
 70
0
 71
3
 72
15
 73
11
 74
0
 42
0.0000001
 43
0.0000001
 44
0.0000000001
 40
0.0
 40
0.0
 40
0.0
 40
0.0
 40
0.1141568478
 40
0.2373261091
 40
0.3669760945
 40
0.5000005189
 40
0.6330248713
 40
0.7626746459
 40
0.8858435749
 40
1.0
 40
1.0
 40
1.0
 40
1.0
 10
937.6217417446
 20
1327.6496862511
 30
0.0
 10
936.9115542437
 20
1328.0597039201
 30
0.0
 10
935.3586341593
 20
1328.7828277774
 30
0.0
 10
932.829794046
 20
1329.5514349168
 30
0.0
 10
930.0919403586
 20
1330.0245208518
 30
0.0
 10
927.2478877142
 20
1330.1841549241
 30
0.0
 10
924.4038373349
 20
1330.0245073638
 30
0.0
 10
921.6659903428
 20
1329.551408435
 30
0.0
 10
919.1371610822
 20
1328.7827892736
 30
0.0
 10
917.584250488
 20
1328.0596576518
 30
0.0
 10
916.8740685735
 20
1327.6496363798
 30
0.0
  0
SPLINE
  5
419
100
AcDbEntity
  8
0
100
AcDbSpline
 62
7
  6
CONTINUOUS
 70
0
 71
3
 72
11
 73
7
 74
0
 42
0.0000001
 43
0.0000001
 44
0.0000000001
 40
0.0
 40
0.0
 40
0.0
 40
0.0
 40
0.2898062199
 40
0.5490505511
 40
0.7822285474
 40
1.0
 40
1.0
 40
1.0
 40
1.0
 10
916.8740685735
 20
1327.6496363798
 30
0.0
 10
916.2300967746
 20
1327.2778413077
 30
0.0
 10
915.0619979518
 20
1326.473775043
 30
0.0
 10
913.6666445662
 20
1325.0064000836
 30
0.0
 10
912.7833931065
 20
1323.3840480473
 30
0.0
 10
912.5771333156
 20
1322.2191741042
 30
0.0
 10
912.5771333135
 20
1321.660409593
 30
0.0
  0
SPLINE
  5
41A
100
AcDbEntity
  8
0
100
AcDbSpline
 62
7
  6
CONTINUOUS
 70
0
 71
3
 72
11
 73
7
 74
0
 42
0.0000001
 43
0.0000001
 44
0.0000000001
 40
0.0
 40
0.0
 40
0.0
 40
0.0
 40
0.2878954971
 40
0.5474743881
 40
0.7820853399
 40
1.0
 40
1.0
 40
1.0
 40
1.0
 10
917.8159859976
 20
1316.2148960955
 30
0.0
 10
917.2681356058
 20
1316.5311905111
 30
0.0
 10
916.2682102057
 20
1317.2122395177
 30
0.0
 10
915.0483734513
 20
1318.4406720271
 30
0.0
 10
914.2276587568
 20
1319.7930015311
 30
0.0
 10
913.9721574274
 20
1320.7730874717
 30
0.0
 10
913.9280641295
 20
1321.2498819899
 30
0.0
  0
SPLINE
  5
41B
100
AcDbEntity
  8
0
100
AcDbSpline
 62
7
  6
CONTINUOUS
 70
0
 71
3
 72
13
 73
9
 74
0
 42
0.0000001
 43
0.0000001
 44
0.0000000001
 40
0.0
 40
0.0
 40
0.0
 40
0.0
 40
0.1142583334
 40
0.2375372171
 40
0.499999475
 40
0.7624620203
 40
0.8857412395
 40
1.0
 40
1.0
 40
1.0
 40
1.0
 10
936.6799892397
 20
1316.214941439
 30
0.0
 10
936.0342843652
 20
1315.8421457812
 30
0.0
 10
934.6222980389
 20
1315.1845176815
 30
0.0
 10
931.4928291685
 20
1314.2342017044
 30
0.0
 10
927.2480024341
 20
1313.7723034958
 30
0.0
 10
923.0031716059
 20
1314.2341820647
 30
0.0
 10
919.8736909752
 20
1315.1844826466
 30
0.0
 10
918.4616959741
 20
1315.8421037004
 30
0.0
 10
917.8159859976
 20
1316.2148960955
 30
0.0
  0
SPLINE
  5
41C
100
AcDbEntity
  8
0
100
AcDbSpline
 62
7
  6
CONTINUOUS
 70
0
 71
3
 72
15
 73
11
 74
0
 42
0.0000001
 43
0.0000001
 44
0.0000000001
 40
0.0
 40
0.0
 40
0.0
 40
0.0
 40
0.1141568478
 40
0.2373261091
 40
0.3669760945
 40
0.5000005189
 40
0.6330248713
 40
0.7626746459
 40
0.8858435749
 40
1.0
 40
1.0
 40
1.0
 40
1.0
 10
916.8741549543
 20
1315.671132935
 30
0.0
 10
917.5843424552
 20
1315.261115266
 30
0.0
 10
919.1372625397
 20
1314.5379914087
 30
0.0
 10
921.6661026529
 20
1313.7693842693
 30
0.0
 10
924.4039563403
 20
1313.2962983343
 30
0.0
 10
927.2480089847
 20
1313.1366642619
 30
0.0
 10
930.092059364
 20
1313.2963118223
 30
0.0
 10
932.8299063561
 20
1313.769410751
 30
0.0
 10
935.3587356168
 20
1314.5380299125
 30
0.0
 10
936.9116462109
 20
1315.2611615342
 30
0.0
 10
937.6218281254
 20
1315.6711828063
 30
0.0
  0
SPLINE
  5
41D
100
AcDbEntity
  8
0
100
AcDbSpline
 62
7
  6
CONTINUOUS
 70
0
 71
3
 72
11
 73
7
 74
0
 42
0.0000001
 43
0.0000001
 44
0.0000000001
 40
0.0
 40
0.0
 40
0.0
 40
0.0
 40
0.2898066966
 40
0.5490512049
 40
0.7822290079
 40
1.0
 40
1.0
 40
1.0
 40
1.0
 10
936.6799107014
 20
1327.1059230906
 30
0.0
 10
937.2654275951
 20
1326.7678824018
 30
0.0
 10
938.3274955117
 20
1326.0368140763
 30
0.0
 10
939.5961913108
 20
1324.7026514104
 30
0.0
 10
940.3992701924
 20
1323.2275775365
 30
0.0
 10
940.5868081
 20
1322.1684496491
 30
0.0
 10
940.5868080916
 20
1321.660409593
 30
0.0
  0
SPLINE
  5
41E
100
AcDbEntity
  8
0
100
AcDbSpline
 62
7
  6
CONTINUOUS
 70
0
 71
3
 72
13
 73
9
 74
0
 42
0.0000001
 43
0.0000001
 44
0.0000000001
 40
0.0
 40
0.0
 40
0.0
 40
0.0
 40
0.1142583334
 40
0.2375372171
 40
0.499999475
 40
0.7624620203
 40
0.8857412395
 40
1.0
 40
1.0
 40
1.0
 40
1.0
 10
917.8159074592
 20
1327.1058777471
 30
0.0
 10
918.4616123337
 20
1327.4786734049
 30
0.0
 10
919.87359866
 20
1328.1363015046
 30
0.0
 10
923.0030675304
 20
1329.0866174817
 30
0.0
 10
927.2478942649
 20
1329.5485156903
 30
0.0
 10
931.492725093
 20
1329.0866371214
 30
0.0
 10
934.6222057238
 20
1328.1363365394
 30
0.0
 10
936.0342007248
 20
1327.4787154857
 30
0.0
 10
936.6799107014
 20
1327.1059230906
 30
0.0
  0
SPLINE
  5
41F
100
AcDbEntity
  8
0
100
AcDbSpline
 62
7
  6
CONTINUOUS
 70
0
 71
3
 72
11
 73
7
 74
0
 42
0.0000001
 43
0.0000001
 44
0.0000000001
 40
0.0
 40
0.0
 40
0.0
 40
0.0
 40
0.2177709906
 40
0.4509487929
 40
0.7101933012
 40
1.0
 40
1.0
 40
1.0
 40
1.0
 10
912.5771333135
 20
1321.660409593
 30
0.0
 10
912.5771333114
 20
1321.1016390694
 30
0.0
 10
912.7833978532
 20
1319.9367516984
 30
0.0
 10
913.6666683827
 20
1318.3143839439
 30
0.0
 10
915.0620501268
 20
1316.8469981133
 30
0.0
 10
916.2301711148
 20
1316.0429287669
 30
0.0
 10
916.8741549543
 20
1315.671132935
 30
0.0
  0
SPLINE
  5
420
100
AcDbEntity
  8
0
100
AcDbSpline
 62
7
  6
CONTINUOUS
 70
0
 71
3
 72
11
 73
7
 74
0
 42
0.0000001
 43
0.0000001
 44
0.0000000001
 40
0.0
 40
0.0
 40
0.0
 40
0.0
 40
0.2177714511
 40
0.4509494468
 40
0.710193778
 40
1.0
 40
1.0
 40
1.0
 40
1.0
 10
913.9090886074
 20
1321.660409593
 30
0.0
 10
913.9090886159
 20
1322.1684441756
 30
0.0
 10
914.0966221819
 20
1323.2275598436
 30
0.0
 10
914.8996837217
 20
1324.7026194206
 30
0.0
 10
916.1683537323
 20
1326.0367722136
 30
0.0
 10
917.2304015044
 20
1326.7678377443
 30
0.0
 10
917.8159074592
 20
1327.1058777471
 30
0.0
  0
SPLINE
  5
421
100
AcDbEntity
  8
0
100
AcDbSpline
 62
7
  6
CONTINUOUS
 70
0
 71
3
 72
11
 73
7
 74
0
 42
0.0000001
 43
0.0000001
 44
0.0000000001
 40
0.0
 40
0.0
 40
0.0
 40
0.0
 40
0.2898062199
 40
0.5490505511
 40
0.7822285474
 40
1.0
 40
1.0
 40
1.0
 40
1.0
 10
937.6218281254
 20
1315.6711828063
 30
0.0
 10
938.2657999243
 20
1316.0429778784
 30
0.0
 10
939.4338987471
 20
1316.8470441431
 30
0.0
 10
940.8292521327
 20
1318.3144191025
 30
0.0
 10
941.7125035924
 20
1319.9367711387
 30
0.0
 10
941.9187633834
 20
1321.1016450819
 30
0.0
 10
941.9187633855
 20
1321.660409593
 30
0.0
  0
SPLINE
  5
422
100
AcDbEntity
  8
0
100
AcDbSpline
 62
7
  6
CONTINUOUS
 70
0
 71
3
 72
11
 73
7
 74
0
 42
0.0000001
 43
0.0000001
 44
0.0000000001
 40
0.0
 40
0.0
 40
0.0
 40
0.0
 40
0.2183506973
 40
0.4539330047
 40
0.7135852199
 40
1.0
 40
1.0
 40
1.0
 40
1.0
 10
315.9105465138
 20
754.4917399138
 30
0.0
 10
315.6156305581
 20
754.2539683027
 30
0.0
 10
315.0765613452
 20
753.6625091484
 30
0.0
 10
314.5099958527
 20
752.5487106489
 30
0.0
 10
314.1714103875
 20
751.2264588749
 30
0.0
 10
314.103945378
 20
750.2766173007
 30
0.0
 10
314.103945378
 20
749.7797011935
 30
0.0
  0
SPLINE
  5
423
100
AcDbEntity
  8
0
100
AcDbSpline
 62
7
  6
CONTINUOUS
 70
0
 71
3
 72
11
 73
7
 74
0
 42
0.0000001
 43
0.0000001
 44
0.0000000001
 40
0.0
 40
0.0
 40
0.0
 40
0.0
 40
0.2898058077
 40
0.5490483914
 40
0.7822269636
 40
1.0
 40
1.0
 40
1.0
 40
1.0
 10
331.7816885067
 20
739.5736823305
 30
0.0
 10
331.7816885067
 20
738.8640650695
 30
0.0
 10
331.6745253115
 20
737.5150218618
 30
0.0
 10
331.1275813348
 20
735.6616736023
 30
0.0
 10
330.2082347642
 20
734.1575773599
 30
0.0
 10
329.3439052291
 20
733.431321662
 30
0.0
 10
328.8821156659
 20
733.1646883977
 30
0.0
  0
SPLINE
  5
424
100
AcDbEntity
  8
0
100
AcDbSpline
 62
7
  6
CONTINUOUS
 70
0
 71
3
 72
17
 73
13
 74
0
 42
0.0000001
 43
0.0000001
 44
0.0000000001
 40
0.0
 40
0.0
 40
0.0
 40
0.0
 40
0.1264776002
 40
0.2653862616
 40
0.4102135278
 40
0.5534476926
 40
0.6878379488
 40
0.8076985331
 40
0.8613660458
 40
0.9108633579
 40
0.9567400115
 40
1.0
 40
1.0
 40
1.0
 40
1.0
 10
314.103945378
 20
749.7797011935
 30
0.0
 10
314.103945378
 20
748.8834582031
 30
0.0
 10
314.3431624077
 20
747.0007340093
 30
0.0
 10
315.2439072491
 20
744.223422998
 30
0.0
 10
316.6403067159
 20
741.5244029584
 30
0.0
 10
318.4288125874
 20
739.1067988386
 30
0.0
 10
320.4751849428
 20
737.1505804724
 30
0.0
 10
322.3445289601
 20
735.9802822169
 30
0.0
 10
323.8345229547
 20
735.4371723568
 30
0.0
 10
324.8774368046
 20
735.238595523
 30
0.0
 10
325.8662654194
 20
735.2398240826
 30
0.0
 10
326.4890187962
 20
735.3799497834
 30
0.0
 10
326.7776441424
 20
735.4832315104
 30
0.0
  0
SPLINE
  5
425
100
AcDbEntity
  8
0
100
AcDbSpline
 62
7
  6
CONTINUOUS
 70
0
 71
3
 72
17
 73
13
 74
0
 42
0.0000001
 43
0.0000001
 44
0.0000000001
 40
0.0
 40
0.0
 40
0.0
 40
0.0
 40
0.0432567127
 40
0.0891270321
 40
0.1386167939
 40
0.1922770043
 40
0.3121269638
 40
0.4465147383
 40
0.5897540711
 40
0.7345914327
 40
0.8735122518
 40
1.0
 40
1.0
 40
1.0
 40
1.0
 10
315.9232622156
 20
754.4815254128
 30
0.0
 10
316.2118253604
 20
754.585035331
 30
0.0
 10
316.834500657
 20
754.7256182152
 30
0.0
 10
317.8233487232
 20
754.727436059
 30
0.0
 10
318.8663565407
 20
754.5293520507
 30
0.0
 10
320.3565900917
 20
753.9867796145
 30
0.0
 10
322.226374236
 20
752.8168499827
 30
0.0
 10
324.2733084012
 20
750.8607322861
 30
0.0
 10
326.0623907261
 20
748.4429248372
 30
0.0
 10
327.4592907094
 20
745.7434742399
 30
0.0
 10
328.3603840782
 20
742.9656130795
 30
0.0
 10
328.5997035754
 20
741.0824749664
 30
0.0
 10
328.5997035754
 20
740.1860383632
 30
0.0
  0
SPLINE
  5
426
100
AcDbEntity
  8
0
100
AcDbSpline
 62
7
  6
CONTINUOUS
 70
0
 71
3
 72
17
 73
13
 74
0
 42
0.0000001
 43
0.0000001
 44
0.0000000001
 40
0.0
 40
0.0
 40
0.0
 40
0.0
 40
0.1286801489
 40
0.2702732117
 40
0.4174289607
 40
0.5617751829
 40
0.695446171
 40
0.8127113815
 40
0.8646761935
 40
0.9125101632
 40
0.9571397576
 40
1.0
 40
1.0
 40
1.0
 40
1.0
 10
310.9219604467
 20
750.3920572262
 30
0.0
 10
310.9219604467
 20
749.1954784361
 30
0.0
 10
311.2567542247
 20
746.6793892194
 30
0.0
 10
312.5060892988
 20
742.9849489801
 30
0.0
 10
314.43160714
 20
739.4260109204
 30
0.0
 10
316.878123613
 20
736.2943961851
 30
0.0
 10
319.6459257909
 20
733.843116517
 30
0.0
 10
322.151122813
 20
732.4733287757
 30
0.0
 10
324.1108007697
 20
731.9519370609
 30
0.0
 10
325.459549805
 20
731.8527637294
 30
0.0
 10
326.715459818
 20
732.03681458
 30
0.0
 10
327.4763101296
 20
732.3530362726
 30
0.0
 10
327.8214597366
 20
732.5523224711
 30
0.0
  0
SPLINE
  5
427
100
AcDbEntity
  8
0
100
AcDbSpline
 62
7
  6
CONTINUOUS
 70
0
 71
3
 72
11
 73
7
 74
0
 42
0.0000001
 43
0.0000001
 44
0.0000000001
 40
0.0
 40
0.0
 40
0.0
 40
0.0
 40
0.2864336164
 40
0.5460852145
 40
0.781655565
 40
1.0
 40
1.0
 40
1.0
 40
1.0
 10
328.5997035754
 20
740.1860383632
 30
0.0
 10
328.5997035754
 20
739.6888143019
 30
0.0
 10
328.5321578903
 20
738.7384110501
 30
0.0
 10
328.1931396405
 20
737.4154632492
 30
0.0
 10
327.6258398865
 20
736.3012728151
 30
0.0
 10
327.0860937414
 20
735.7098426765
 30
0.0
 10
326.790838457
 20
735.4721751156
 30
0.0
  0
SPLINE
  5
428
100
AcDbEntity
  8
0
100
AcDbSpline
 62
7
  6
CONTINUOUS
 70
0
 71
3
 72
11
 73
7
 74
0
 42
0.0000001
 43
0.0000001
 44
0.0000000001
 40
0.0
 40
0.0
 40
0.0
 40
0.0
 40
0.2177723173
 40
0.4509507673
 40
0.710193633
 40
1.0
 40
1.0
 40
1.0
 40
1.0
 10
313.8215334609
 20
756.8010508548
 30
0.0
 10
313.3597453332
 20
756.5344186507
 30
0.0
 10
312.495416768
 20
755.8081651793
 30
0.0
 10
311.5760703484
 20
754.3040704881
 30
0.0
 10
311.0291238262
 20
752.4507211971
 30
0.0
 10
310.9219604467
 20
751.1016758402
 30
0.0
 10
310.9219604467
 20
750.3920572262
 30
0.0
  0
SPLINE
  5
429
100
AcDbEntity
  8
0
100
AcDbSpline
 62
7
  6
CONTINUOUS
 70
0
 71
3
 72
17
 73
13
 74
0
 42
0.0000001
 43
0.0000001
 44
0.0000000001
 40
0.0
 40
0.0
 40
0.0
 40
0.0
 40
0.0428603331
 40
0.0874900344
 40
0.1353241626
 40
0.1872891697
 40
0.3045545163
 40
0.4382250667
 40
0.5825708141
 40
0.7297261958
 40
0.8713194546
 40
1.0
 40
1.0
 40
1.0
 40
1.0
 10
314.8821890433
 20
757.4134173898
 30
0.0
 10
315.2273393082
 20
757.612704141
 30
0.0
 10
315.9881916428
 20
757.9289260395
 30
0.0
 10
317.244105117
 20
758.112976358
 30
0.0
 10
318.5928583819
 20
758.0138009462
 30
0.0
 10
320.5525400107
 20
757.4924051682
 30
0.0
 10
323.0577343412
 20
756.1226146999
 30
0.0
 10
325.8255292462
 20
753.6713380669
 30
0.0
 10
328.2720382718
 20
750.5397328105
 30
0.0
 10
330.1975548692
 20
746.9808010326
 30
0.0
 10
331.4468930695
 20
743.286359581
 30
0.0
 10
331.7816885067
 20
740.7702648168
 30
0.0
 10
331.7816885067
 20
739.5736823305
 30
0.0
  0
SPLINE
  5
42A
100
AcDbEntity
  8
0
100
AcDbSpline
 62
7
  6
CONTINUOUS
 70
0
 71
3
 72
17
 73
13
 74
0
 42
0.0000001
 43
0.0000001
 44
0.0000000001
 40
0.0
 40
0.0
 40
0.0
 40
0.0
 40
0.1286801489
 40
0.2702732117
 40
0.4174289607
 40
0.5617751829
 40
0.695446171
 40
0.8127113815
 40
0.8646761935
 40
0.9125101632
 40
0.9571397576
 40
1.0
 40
1.0
 40
1.0
 40
1.0
 10
330.7210327508
 20
738.9613160997
 30
0.0
 10
330.7210327508
 20
740.1578948898
 30
0.0
 10
330.3862389729
 20
742.6739841065
 30
0.0
 10
329.1369038988
 20
746.3684243458
 30
0.0
 10
327.2113860575
 20
749.9273624054
 30
0.0
 10
324.7648695845
 20
753.0589771408
 30
0.0
 10
321.9970674067
 20
755.5102568089
 30
0.0
 10
319.4918703846
 20
756.8800445502
 30
0.0
 10
317.5321924279
 20
757.401436265
 30
0.0
 10
316.1834433926
 20
757.5006095965
 30
0.0
 10
314.9275333796
 20
757.3165587459
 30
0.0
 10
314.166683068
 20
757.0003370533
 30
0.0
 10
313.8215334609
 20
756.8010508548
 30
0.0
  0
SPLINE
  5
42B
100
AcDbEntity
  8
0
100
AcDbSpline
 62
7
  6
CONTINUOUS
 70
0
 71
3
 72
11
 73
7
 74
0
 42
0.0000001
 43
0.0000001
 44
0.0000000001
 40
0.0
 40
0.0
 40
0.0
 40
0.0
 40
0.2898068588
 40
0.5490477194
 40
0.7822273326
 40
1.0
 40
1.0
 40
1.0
 40
1.0
 10
313.0432896222
 20
749.1673349627
 30
0.0
 10
313.0432896222
 20
749.724893295
 30
0.0
 10
313.1274844314
 20
750.7848559888
 30
0.0
 10
313.5572433953
 20
752.2410521986
 30
0.0
 10
314.2795666325
 20
753.4228492088
 30
0.0
 10
314.9586876043
 20
753.9934825369
 30
0.0
 10
315.3215288013
 20
754.20296719
 30
0.0
  0
SPLINE
  5
42C
100
AcDbEntity
  8
0
100
AcDbSpline
 62
7
  6
CONTINUOUS
 70
0
 71
3
 72
11
 73
7
 74
0
 42
0.0000001
 43
0.0000001
 44
0.0000000001
 40
0.0
 40
0.0
 40
0.0
 40
0.0
 40
0.2177723173
 40
0.4509507673
 40
0.710193633
 40
1.0
 40
1.0
 40
1.0
 40
1.0
 10
327.8214597366
 20
732.5523224711
 30
0.0
 10
328.2832478644
 20
732.8189546752
 30
0.0
 10
329.1475764296
 20
733.5452081466
 30
0.0
 10
330.0669228492
 20
735.0493028378
 30
0.0
 10
330.6138693714
 20
736.9026521288
 30
0.0
 10
330.7210327508
 20
738.2516974857
 30
0.0
 10
330.7210327508
 20
738.9613160997
 30
0.0
  0
SPLINE
  5
42D
100
AcDbEntity
  8
0
100
AcDbSpline
 62
7
  6
CONTINUOUS
 70
0
 71
3
 72
17
 73
13
 74
0
 42
0.0000001
 43
0.0000001
 44
0.0000000001
 40
0.0
 40
0.0
 40
0.0
 40
0.0
 40
0.0428603005
 40
0.0874899766
 40
0.1353239706
 40
0.1872887982
 40
0.3045539955
 40
0.4382245258
 40
0.5825704236
 40
0.7297258001
 40
0.8713191454
 40
1.0
 40
1.0
 40
1.0
 40
1.0
 10
326.3214643963
 20
735.1504061358
 30
0.0
 10
326.0502698118
 20
734.993833222
 30
0.0
 10
325.4524645875
 20
734.7453623772
 30
0.0
 10
324.4656739822
 20
734.6007585928
 30
0.0
 10
323.4059432187
 20
734.6786805342
 30
0.0
 10
321.8661963463
 20
735.0883456191
 30
0.0
 10
319.8978299031
 20
736.1646026208
 30
0.0
 10
317.7231312617
 20
738.0906013105
 30
0.0
 10
315.8008719237
 20
740.5511463788
 30
0.0
 10
314.2879655552
 20
743.3474501861
 30
0.0
 10
313.3063411225
 20
746.2502270805
 30
0.0
 10
313.0432896222
 20
748.2271611123
 30
0.0
 10
313.0432896222
 20
749.1673349627
 30
0.0
  0
SPLINE
  5
42E
100
AcDbEntity
  8
0
100
AcDbSpline
 62
7
  6
CONTINUOUS
 70
0
 71
3
 72
11
 73
7
 74
0
 42
0.0000001
 43
0.0000001
 44
0.0000000001
 40
0.0
 40
0.0
 40
0.0
 40
0.0
 40
0.2183577436
 40
0.4539534633
 40
0.7136060322
 40
1.0
 40
1.0
 40
1.0
 40
1.0
 10
309.3909293653
 20
764.5268600601
 30
0.0
 10
308.7750553282
 20
764.0294696355
 30
0.0
 10
307.649441499
 20
762.7927235733
 30
0.0
 10
306.466472275
 20
760.4647661446
 30
0.0
 10
305.7595056088
 20
757.7016447996
 30
0.0
 10
305.6186286762
 20
755.7168940516
 30
0.0
 10
305.6186286762
 20
754.6785902477
 30
0.0
  0
SPLINE
  5
42F
100
AcDbEntity
  8
0
100
AcDbSpline
 62
7
  6
CONTINUOUS
 70
0
 71
3
 72
11
 73
7
 74
0
 42
0.0000001
 43
0.0000001
 44
0.0000000001
 40
0.0
 40
0.0
 40
0.0
 40
0.0
 40
0.2898058092
 40
0.5490483909
 40
0.7822269627
 40
1.0
 40
1.0
 40
1.0
 40
1.0
 10
346.6309927348
 20
731.0006264855
 30
0.0
 10
346.6309927348
 20
729.2265833239
 30
0.0
 10
346.3630847466
 20
725.8539753073
 30
0.0
 10
344.9957248022
 20
721.2206046662
 30
0.0
 10
342.6973583848
 20
717.4603640664
 30
0.0
 10
340.5365345448
 20
715.6447248185
 30
0.0
 10
339.3820606317
 20
714.9781416555
 30
0.0
  0
SPLINE
  5
430
100
AcDbEntity
  8
0
100
AcDbSpline
 62
7
  6
CONTINUOUS
 70
0
 71
3
 72
17
 73
13
 74
0
 42
0.0000001
 43
0.0000001
 44
0.0000000001
 40
0.0
 40
0.0
 40
0.0
 40
0.0
 40
0.1267560176
 40
0.2660037564
 40
0.411130755
 40
0.554519512
 40
0.6888408002
 40
0.8083953714
 40
0.8618516812
 40
0.9111324883
 40
0.9568299645
 40
1.0
 40
1.0
 40
1.0
 40
1.0
 10
305.6186286762
 20
754.6785902477
 30
0.0
 10
305.6186286762
 20
752.7931755627
 30
0.0
 10
306.1248944014
 20
748.8320172205
 30
0.0
 10
308.0290713013
 20
742.9919852066
 30
0.0
 10
310.978923666
 20
737.3226001851
 30
0.0
 10
314.753370609
 20
732.2552205652
 30
0.0
 10
319.0660432741
 20
728.1710736068
 30
0.0
 10
323.0011487403
 20
725.7465012599
 30
0.0
 10
326.1308498369
 20
724.6435454364
 30
0.0
 10
328.3169847238
 20
724.258204286
 30
0.0
 10
330.3854838855
 20
724.2965004132
 30
0.0
 10
331.6827106798
 20
724.6170201922
 30
0.0
 10
332.2823270981
 20
724.8467739871
 30
0.0
  0
SPLINE
  5
431
100
AcDbEntity
  8
0
100
AcDbSpline
 62
7
  6
CONTINUOUS
 70
0
 71
3
 72
18
 73
14
 74
0
 42
0.0000001
 43
0.0000001
 44
0.0000000001
 40
0.0
 40
0.0
 40
0.0
 40
0.0
 40
0.0429795246
 40
0.0882318451
 40
0.1894666435
 40
0.2770062356
 40
0.3737856297
 40
0.4778254053
 40
0.5863185601
 40
0.6960119587
 40
0.8035380831
 40
0.9057349869
 40
1.0
 40
1.0
 40
1.0
 40
1.0
 10
310.0031212686
 20
764.9446640858
 30
0.0
 10
310.5917765254
 20
765.2103824263
 30
0.0
 10
311.8741552456
 20
765.6036951826
 30
0.0
 10
314.7362610506
 20
765.7878478537
 30
0.0
 10
318.225522491
 20
764.9042917318
 30
0.0
 10
322.0164430523
 20
762.8583333746
 30
0.0
 10
325.4385327799
 20
760.1674226326
 30
0.0
 10
328.6463277826
 20
756.7848774365
 30
0.0
 10
331.5034449548
 20
752.8595473763
 30
0.0
 10
333.8810546539
 20
748.5674144433
 30
0.0
 10
335.6730002227
 20
744.1000606943
 30
0.0
 10
336.7989833228
 20
739.6588721337
 30
0.0
 10
337.0850202772
 20
736.7036607324
 30
0.0
 10
337.0850202772
 20
735.287149309
 30
0.0
  0
SPLINE
  5
432
100
AcDbEntity
  8
0
100
AcDbSpline
 62
7
  6
CONTINUOUS
 70
0
 71
3
 72
17
 73
13
 74
0
 42
0.0000001
 43
0.0000001
 44
0.0000000001
 40
0.0
 40
0.0
 40
0.0
 40
0.0
 40
0.1286801496
 40
0.2702732124
 40
0.4174289625
 40
0.5617751849
 40
0.6954461727
 40
0.8127113822
 40
0.8646761937
 40
0.9125101634
 40
0.9571397575
 40
1.0
 40
1.0
 40
1.0
 40
1.0
 10
296.0726562186
 20
758.9651130711
 30
0.0
 10
296.0726562186
 20
755.9736660792
 30
0.0
 10
296.9096406691
 20
749.6834430218
 30
0.0
 10
300.0329783767
 20
740.4473423893
 30
0.0
 10
304.8467730062
 20
731.5499972199
 30
0.0
 10
310.9630642228
 20
723.7209603768
 30
0.0
 10
317.8825696647
 20
717.592761241
 30
0.0
 10
324.1455621921
 20
714.1682919242
 30
0.0
 10
329.0447570502
 20
712.8648126551
 30
0.0
 10
332.4166296207
 20
712.6168793294
 30
0.0
 10
335.5564046465
 20
713.077006459
 30
0.0
 10
337.4585304224
 20
713.8675606872
 30
0.0
 10
338.3214044426
 20
714.3657761846
 30
0.0
  0
SPLINE
  5
433
100
AcDbEntity
  8
0
100
AcDbSpline
 62
7
  6
CONTINUOUS
 70
0
 71
3
 72
11
 73
7
 74
0
 42
0.0000001
 43
0.0000001
 44
0.0000000001
 40
0.0
 40
0.0
 40
0.0
 40
0.0
 40
0.288594221
 40
0.5480829339
 40
0.7822014968
 40
1.0
 40
1.0
 40
1.0
 40
1.0
 10
337.0850202772
 20
735.287149309
 30
0.0
 10
337.0850202772
 20
734.1702456864
 30
0.0
 10
336.9228954061
 20
732.0425080872
 30
0.0
 10
336.1007781863
 20
729.1042416383
 30
0.0
 10
334.7218470788
 20
726.6835353637
 30
0.0
 10
333.4181768721
 20
725.4660026717
 30
0.0
 10
332.7149002729
 20
725.0013468512
 30
0.0
  0
SPLINE
  5
434
100
AcDbEntity
  8
0
100
AcDbSpline
 62
7
  6
CONTINUOUS
 70
0
 71
3
 72
11
 73
7
 74
0
 42
0.0000001
 43
0.0000001
 44
0.0000000001
 40
0.0
 40
0.0
 40
0.0
 40
0.0
 40
0.2177723184
 40
0.4509507678
 40
0.7101936313
 40
1.0
 40
1.0
 40
1.0
 40
1.0
 10
303.321588755
 20
774.9875971412
 30
0.0
 10
302.1671184297
 20
774.3210166278
 30
0.0
 10
300.0062970149
 20
772.5053829453
 30
0.0
 10
297.7079309749
 20
768.7451462244
 30
0.0
 10
296.3405646678
 20
764.1117730052
 30
0.0
 10
296.0726562186
 20
760.7391596161
 30
0.0
 10
296.0726562186
 20
758.9651130711
 30
0.0
  0
SPLINE
  5
435
100
AcDbEntity
  8
0
100
AcDbSpline
 62
7
  6
CONTINUOUS
 70
0
 71
3
 72
17
 73
13
 74
0
 42
0.0000001
 43
0.0000001
 44
0.0000000001
 40
0.0
 40
0.0
 40
0.0
 40
0.0
 40
0.0428603333
 40
0.0874900347
 40
0.1353241632
 40
0.1872891703
 40
0.3045545162
 40
0.4382250658
 40
0.5825708127
 40
0.7297261954
 40
0.8713194539
 40
1.0
 40
1.0
 40
1.0
 40
1.0
 10
304.3822440775
 20
775.599964132
 30
0.0
 10
305.2451197447
 20
776.0981810124
 30
0.0
 10
307.1472505875
 20
776.8887357583
 30
0.0
 10
310.287034287
 20
777.3488615555
 30
0.0
 10
313.6589174584
 20
777.1009230179
 30
0.0
 10
318.5581215223
 20
775.7974335669
 30
0.0
 10
324.8211073149
 20
772.3729574099
 30
0.0
 10
331.7405945437
 20
766.2447658634
 30
0.0
 10
337.8568671133
 20
758.415752739
 30
0.0
 10
342.6706586186
 20
749.5184232939
 30
0.0
 10
345.7940041372
 20
740.2823196367
 30
0.0
 10
346.6309927348
 20
733.9920827164
 30
0.0
 10
346.6309927348
 20
731.0006264855
 30
0.0
  0
SPLINE
  5
436
100
AcDbEntity
  8
0
100
AcDbSpline
 62
7
  6
CONTINUOUS
 70
0
 71
3
 72
17
 73
13
 74
0
 42
0.0000001
 43
0.0000001
 44
0.0000000001
 40
0.0
 40
0.0
 40
0.0
 40
0.0
 40
0.127434089
 40
0.2675106819
 40
0.4133630898
 40
0.5571132319
 40
0.691241988
 40
0.8100245128
 40
0.86296046
 40
0.9117195479
 40
0.9570039499
 40
1.0
 40
1.0
 40
1.0
 40
1.0
 10
345.5703369789
 20
730.3882602547
 30
0.0
 10
345.5703369789
 20
733.3001084607
 30
0.0
 10
344.7769562447
 20
739.4196612964
 30
0.0
 10
341.8011332642
 20
748.4292622507
 30
0.0
 10
337.1992725867
 20
757.1525378682
 30
0.0
 10
331.3253246543
 20
764.907896309
 30
0.0
 10
324.6367125861
 20
771.0968271813
 30
0.0
 10
318.5507791049
 20
774.6988271167
 30
0.0
 10
313.7372180793
 20
776.2513768873
 30
0.0
 10
310.3919817208
 20
776.7232471983
 30
0.0
 10
307.2433217221
 20
776.5285665212
 30
0.0
 10
305.2906116159
 20
775.936279492
 30
0.0
 10
304.3938212405
 20
775.5350558269
 30
0.0
  0
SPLINE
  5
437
100
AcDbEntity
  8
0
100
AcDbSpline
 62
7
  6
CONTINUOUS
 70
0
 71
3
 72
11
 73
7
 74
0
 42
0.0000001
 43
0.0000001
 44
0.0000000001
 40
0.0
 40
0.0
 40
0.0
 40
0.0
 40
0.2898080515
 40
0.5490466
 40
0.7822273424
 40
1.0
 40
1.0
 40
1.0
 40
1.0
 10
304.5579729204
 20
754.0662240169
 30
0.0
 10
304.5579729204
 20
755.2320324667
 30
0.0
 10
304.7340052993
 20
757.4483157118
 30
0.0
 10
305.6326281237
 20
760.4930808179
 30
0.0
 10
307.142914101
 20
762.9641047244
 30
0.0
 10
308.5628729783
 20
764.1572999084
 30
0.0
 10
309.321560601
 20
764.5952789312
 30
0.0
  0
SPLINE
  5
438
100
AcDbEntity
  8
0
100
AcDbSpline
 62
7
  6
CONTINUOUS
 70
0
 71
3
 72
11
 73
7
 74
0
 42
0.0000001
 43
0.0000001
 44
0.0000000001
 40
0.0
 40
0.0
 40
0.0
 40
0.0
 40
0.2179778548
 40
0.4527744898
 40
0.7123751649
 40
1.0
 40
1.0
 40
1.0
 40
1.0
 10
339.3434623011
 20
715.0292022687
 30
0.0
 10
340.3525362769
 20
715.7613466104
 30
0.0
 10
342.210538588
 20
717.6319669537
 30
0.0
 10
344.1693953033
 20
721.2539175383
 30
0.0
 10
345.3386216473
 20
725.6045024633
 30
0.0
 10
345.5703369789
 20
728.7432196217
 30
0.0
 10
345.5703369789
 20
730.3882602547
 30
0.0
  0
SPLINE
  5
439
100
AcDbEntity
  8
0
100
AcDbSpline
 62
7
  6
CONTINUOUS
 70
0
 71
3
 72
17
 73
13
 74
0
 42
0.0000001
 43
0.0000001
 44
0.0000000001
 40
0.0
 40
0.0
 40
0.0
 40
0.0
 40
0.0428603686
 40
0.0874900695
 40
0.1353240172
 40
0.1872887255
 40
0.3045536743
 40
0.4382240259
 40
0.5825699794
 40
0.7297254815
 40
0.8713186604
 40
1.0
 40
1.0
 40
1.0
 40
1.0
 10
332.3214325966
 20
724.7580943947
 30
0.0
 10
331.7543735608
 20
724.4307396904
 30
0.0
 10
330.5044378099
 20
723.911170328
 30
0.0
 10
328.441137759
 20
723.6088334257
 30
0.0
 10
326.2253415616
 20
723.7717567073
 30
0.0
 10
323.0058751499
 20
724.6283290138
 30
0.0
 10
318.8902061866
 20
726.8786783155
 30
0.0
 10
314.3431100956
 20
730.9057616384
 30
0.0
 10
310.3238372568
 20
736.0505370328
 30
0.0
 10
307.1604853679
 20
741.8973544018
 30
0.0
 10
305.1079864405
 20
747.966802117
 30
0.0
 10
304.5579729204
 20
752.1003981265
 30
0.0
 10
304.5579729204
 20
754.0662240169
 30
0.0
  0
SPLINE
  5
43A
100
AcDbEntity
  8
0
100
AcDbSpline
 62
7
  6
CONTINUOUS
 70
0
 71
3
 72
11
 73
7
 74
0
 42
0.0000001
 43
0.0000001
 44
0.0000000001
 40
0.0
 40
0.0
 40
0.0
 40
0.0
 40
0.2179231464
 40
0.4525601553
 40
0.7121392406
 40
1.0
 40
1.0
 40
1.0
 40
1.0
 10
301.8802608901
 20
777.5550484199
 30
0.0
 10
300.7690173397
 20
776.7662218884
 30
0.0
 10
298.7197195898
 20
774.739078355
 30
0.0
 10
296.5576072058
 20
770.7903382173
 30
0.0
 10
295.2673736132
 20
766.0356134145
 30
0.0
 10
295.011982799
 20
762.6023066759
 30
0.0
 10
295.011982799
 20
760.8022015655
 30
0.0
  0
SPLINE
  5
43B
100
AcDbEntity
  8
0
100
AcDbSpline
 62
7
  6
CONTINUOUS
 70
0
 71
3
 72
11
 73
7
 74
0
 42
0.0000001
 43
0.0000001
 44
0.0000000001
 40
0.0
 40
0.0
 40
0.0
 40
0.0
 40
0.2898058094
 40
0.5490483908
 40
0.7822269626
 40
1.0
 40
1.0
 40
1.0
 40
1.0
 10
355.1163094365
 20
726.1017374313
 30
0.0
 10
355.1163094365
 20
723.7194508988
 30
0.0
 10
354.7565472809
 20
719.1905201341
 30
0.0
 10
352.9203782125
 20
712.9685652741
 30
0.0
 10
349.834000453
 20
707.9190993265
 30
0.0
 10
346.9323227247
 20
705.4809551932
 30
0.0
 10
345.3820291837
 20
704.5858292312
 30
0.0
  0
SPLINE
  5
43C
100
AcDbEntity
  8
0
100
AcDbSpline
 62
7
  6
CONTINUOUS
 70
0
 71
3
 72
17
 73
13
 74
0
 42
0.0000001
 43
0.0000001
 44
0.0000000001
 40
0.0
 40
0.0
 40
0.0
 40
0.0
 40
0.1275160343
 40
0.2676920498
 40
0.4136310633
 40
0.557423047
 40
0.6915258442
 40
0.8102130342
 40
0.863085963
 40
0.9117830318
 40
0.9570202979
 40
1.0
 40
1.0
 40
1.0
 40
1.0
 10
295.011982799
 20
760.8022015655
 30
0.0
 10
295.011982799
 20
757.635146315
 30
0.0
 10
295.8763993698
 20
750.9790172209
 30
0.0
 10
299.1176177893
 20
741.1811137997
 30
0.0
 10
304.1287954904
 20
731.6976575683
 30
0.0
 10
310.5233187682
 20
723.271993979
 30
0.0
 10
317.8016698312
 20
716.5563448012
 30
0.0
 10
324.4219527326
 20
712.6574954016
 30
0.0
 10
329.6545491735
 20
710.9888071277
 30
0.0
 10
333.2887471354
 20
710.4918114491
 30
0.0
 10
336.7071149167
 20
710.7214556122
 30
0.0
 10
338.8241466586
 20
711.3782520833
 30
0.0
 10
339.7955832289
 20
711.8207401136
 30
0.0
  0
SPLINE
  5
43D
100
AcDbEntity
  8
0
100
AcDbSpline
 62
7
  6
CONTINUOUS
 70
0
 71
3
 72
17
 73
13
 74
0
 42
0.0000001
 43
0.0000001
 44
0.0000000001
 40
0.0
 40
0.0
 40
0.0
 40
0.0
 40
0.0429299885
 40
0.0880047876
 40
0.1364836999
 40
0.1891327165
 40
0.3074775724
 40
0.4414842333
 40
0.5854211003
 40
0.7316652042
 40
0.8721940939
 40
1.0
 40
1.0
 40
1.0
 40
1.0
 10
302.6346131255
 20
778.0165132892
 30
0.0
 10
303.598036087
 20
778.4832160415
 30
0.0
 10
305.7035492313
 20
779.1893015798
 30
0.0
 10
309.1208334804
 20
779.484220388
 30
0.0
 10
312.7625306501
 20
779.0421659723
 30
0.0
 10
318.0175496348
 20
777.4342994034
 30
0.0
 10
324.6826641393
 20
773.5783871315
 30
0.0
 10
332.0191736118
 20
766.8766940594
 30
0.0
 10
338.4743778664
 20
758.4317233751
 30
0.0
 10
343.5384526967
 20
748.9042228132
 30
0.0
 10
346.8164150991
 20
739.0494216263
 30
0.0
 10
347.6916661544
 20
732.3505343127
 30
0.0
 10
347.6916661544
 20
729.1635379912
 30
0.0
  0
SPLINE
  5
43E
100
AcDbEntity
  8
0
100
AcDbSpline
 62
7
  6
CONTINUOUS
 70
0
 71
3
 72
17
 73
13
 74
0
 42
0.0000001
 43
0.0000001
 44
0.0000000001
 40
0.0
 40
0.0
 40
0.0
 40
0.0
 40
0.1286801497
 40
0.2702732125
 40
0.4174289626
 40
0.5617751851
 40
0.6954461728
 40
0.8127113822
 40
0.8646761937
 40
0.9125101634
 40
0.9571397575
 40
1.0
 40
1.0
 40
1.0
 40
1.0
 10
287.5873395169
 20
763.8640021254
 30
0.0
 10
287.5873395169
 20
759.8469161628
 30
0.0
 10
288.7112900653
 20
751.4000451982
 30
0.0
 10
292.905486418
 20
738.9972814878
 30
0.0
 10
299.3697249236
 20
727.0494179724
 30
0.0
 10
307.5830302755
 20
716.5361399253
 30
0.0
 10
316.8749375828
 20
708.3068439469
 30
0.0
 10
325.2852418307
 20
703.7082708686
 30
0.0
 10
331.8641606364
 20
701.9578844235
 30
0.0
 10
336.3921038004
 20
701.6249453866
 30
0.0
 10
340.6083731199
 20
702.2428303894
 30
0.0
 10
343.1626563044
 20
703.3044317812
 30
0.0
 10
344.3213728461
 20
703.9734640208
 30
0.0
  0
SPLINE
  5
43F
100
AcDbEntity
  8
0
100
AcDbSpline
 62
7
  6
CONTINUOUS
 70
0
 71
3
 72
11
 73
7
 74
0
 42
0.0000001
 43
0.0000001
 44
0.0000000001
 40
0.0
 40
0.0
 40
0.0
 40
0.0
 40
0.2893356133
 40
0.5486910125
 40
0.782248376
 40
1.0
 40
1.0
 40
1.0
 40
1.0
 10
347.6916661544
 20
729.1635379912
 30
0.0
 10
347.6916661544
 20
727.2698380352
 30
0.0
 10
347.4101344685
 20
723.6667709856
 30
0.0
 10
345.9769585648
 20
718.7064879237
 30
0.0
 10
343.5702274977
 20
714.6560997362
 30
0.0
 10
341.3020309215
 20
712.6666985386
 30
0.0
 10
340.0853984677
 20
711.9244368034
 30
0.0
  0
SPLINE
  5
440
100
AcDbEntity
  8
0
100
AcDbSpline
 62
7
  6
CONTINUOUS
 70
0
 71
3
 72
11
 73
7
 74
0
 42
0.0000001
 43
0.0000001
 44
0.0000000001
 40
0.0
 40
0.0
 40
0.0
 40
0.0
 40
0.2177723185
 40
0.4509507679
 40
0.7101936312
 40
1.0
 40
1.0
 40
1.0
 40
1.0
 10
297.3216203515
 20
785.3799093051
 30
0.0
 10
295.7713316284
 20
784.484786901
 30
0.0
 10
292.8696571567
 20
782.0466502412
 30
0.0
 10
289.7832799041
 20
776.9971895024
 30
0.0
 10
287.9471022915
 20
770.7752311804
 30
0.0
 10
287.5873395169
 20
766.2462932012
 30
0.0
 10
287.5873395169
 20
763.8640021254
 30
0.0
  0
SPLINE
  5
441
100
AcDbEntity
  8
0
100
AcDbSpline
 62
7
  6
CONTINUOUS
 70
0
 71
3
 72
17
 73
13
 74
0
 42
0.0000001
 43
0.0000001
 44
0.0000000001
 40
0.0
 40
0.0
 40
0.0
 40
0.0
 40
0.0428603333
 40
0.0874900347
 40
0.1353241633
 40
0.1872891704
 40
0.3045545162
 40
0.4382250657
 40
0.5825708126
 40
0.7297261953
 40
0.8713194539
 40
1.0
 40
1.0
 40
1.0
 40
1.0
 10
298.3822755255
 20
785.9922765563
 30
0.0
 10
299.5409942791
 20
786.6613106532
 30
0.0
 10
302.0952842687
 20
787.7229127405
 30
0.0
 10
306.3115652383
 20
788.3407959539
 30
0.0
 10
310.8395226409
 20
788.0078499168
 30
0.0
 10
317.4184538114
 20
786.2574497963
 30
0.0
 10
325.8287490148
 20
781.6588675298
 30
0.0
 10
335.1206318611
 20
773.4295817429
 30
0.0
 10
343.3339121694
 20
762.9163355492
 30
0.0
 10
349.7981464779
 20
750.9684931515
 30
0.0
 10
353.9923533193
 20
738.56572538
 30
0.0
 10
355.1163094365
 20
730.1188358002
 30
0.0
 10
355.1163094365
 20
726.1017374313
 30
0.0
  0
SPLINE
  5
442
100
AcDbEntity
  8
0
100
AcDbSpline
 62
7
  6
CONTINUOUS
 70
0
 71
3
 72
17
 73
13
 74
0
 42
0.0000001
 43
0.0000001
 44
0.0000000001
 40
0.0
 40
0.0
 40
0.0
 40
0.0
 40
0.1277552537
 40
0.2682231495
 40
0.4144150276
 40
0.5583274308
 40
0.6923515765
 40
0.8107560112
 40
0.8634437202
 40
0.9119601231
 40
0.9570623993
 40
1.0
 40
1.0
 40
1.0
 40
1.0
 10
354.0556536807
 20
725.4893712005
 30
0.0
 10
354.0556536807
 20
729.426897544
 30
0.0
 10
352.9754259287
 20
737.7031933767
 30
0.0
 10
348.9289931247
 20
749.8798568581
 30
0.0
 10
342.6768534807
 20
761.6544905885
 30
0.0
 10
334.7057507011
 20
772.0955330274
 30
0.0
 10
325.6440530707
 20
780.3875476446
 30
0.0
 10
317.4099118609
 20
785.1659860779
 30
0.0
 10
310.9150196827
 20
787.1677791361
 30
0.0
 10
306.4123779029
 20
787.7263456146
 30
0.0
 10
302.1854168494
 20
787.3756675355
 30
0.0
 10
299.5787438998
 20
786.5128216544
 30
0.0
 10
298.3853643875
 20
785.9408399199
 30
0.0
  0
SPLINE
  5
443
100
AcDbEntity
  8
0
100
AcDbSpline
 62
7
  6
CONTINUOUS
 70
0
 71
3
 72
11
 73
7
 74
0
 42
0.0000001
 43
0.0000001
 44
0.0000000001
 40
0.0
 40
0.0
 40
0.0
 40
0.0
 40
0.2898069179
 40
0.549047667
 40
0.7822272466
 40
1.0
 40
1.0
 40
1.0
 40
1.0
 10
293.9513270432
 20
760.1898353347
 30
0.0
 10
293.9513270432
 20
762.1159463327
 30
0.0
 10
294.2421818811
 20
765.7776352945
 30
0.0
 10
295.7268034587
 20
770.8081307594
 30
0.0
 10
298.2221015422
 20
774.8907019849
 30
0.0
 10
300.5681559597
 20
776.8619811793
 30
0.0
 10
301.8216078487
 20
777.5856557492
 30
0.0
  0
SPLINE
  5
444
100
AcDbEntity
  8
0
100
AcDbSpline
 62
7
  6
CONTINUOUS
 70
0
 71
3
 72
11
 73
7
 74
0
 42
0.0000001
 43
0.0000001
 44
0.0000000001
 40
0.0
 40
0.0
 40
0.0
 40
0.0
 40
0.2178530336
 40
0.4522386533
 40
0.7117809666
 40
1.0
 40
1.0
 40
1.0
 40
1.0
 10
345.3515706981
 20
704.622858245
 30
0.0
 10
346.7562415236
 20
705.586267626
 30
0.0
 10
349.3531334559
 20
708.0849058136
 30
0.0
 10
352.0962034353
 20
712.999641359
 30
0.0
 10
353.7323387595
 20
718.9403279024
 30
0.0
 10
354.0556536807
 20
723.2358990084
 30
0.0
 10
354.0556536807
 20
725.4893712005
 30
0.0
  0
SPLINE
  5
445
100
AcDbEntity
  8
0
100
AcDbSpline
 62
7
  6
CONTINUOUS
 70
0
 71
3
 72
17
 73
13
 74
0
 42
0.0000001
 43
0.0000001
 44
0.0000000001
 40
0.0
 40
0.0
 40
0.0
 40
0.0
 40
0.0428603208
 40
0.0874900177
 40
0.1353240328
 40
0.1872888706
 40
0.3045540265
 40
0.4382245199
 40
0.5825704489
 40
0.7297258765
 40
0.8713191574
 40
1.0
 40
1.0
 40
1.0
 40
1.0
 10
339.8213853489
 20
711.7677175766
 30
0.0
 10
338.8845308981
 20
711.2268290529
 30
0.0
 10
336.8193844669
 20
710.3684750941
 30
0.0
 10
333.4104698254
 20
709.8689349702
 30
0.0
 10
329.7495804671
 20
710.1381209204
 30
0.0
 10
324.4304554614
 20
711.5533285385
 30
0.0
 10
317.6306460969
 20
715.2713070554
 30
0.0
 10
310.1180518352
 20
721.9247563957
 30
0.0
 10
303.4775189847
 20
730.4248221985
 30
0.0
 10
298.2511154617
 20
740.0847815279
 30
0.0
 10
294.8600500624
 20
750.1125557942
 30
0.0
 10
293.9513270432
 20
756.9419623371
 30
0.0
 10
293.9513270432
 20
760.1898353347
 30
0.0
  0
SPLINE
  5
446
100
AcDbEntity
  8
0
100
AcDbSpline
 62
7
  6
CONTINUOUS
 70
0
 71
3
 72
11
 73
7
 74
0
 42
0.0000001
 43
0.0000001
 44
0.0000000001
 40
0.0
 40
0.0
 40
0.0
 40
0.0
 40
0.2178302158
 40
0.452118155
 40
0.7116415099
 40
1.0
 40
1.0
 40
1.0
 40
1.0
 10
295.8743469098
 20
787.959489069
 30
0.0
 10
294.3673238824
 20
786.9399565661
 30
0.0
 10
291.5785668527
 20
784.2857307755
 30
0.0
 10
288.6313625446
 20
779.0447118326
 30
0.0
 10
286.8737225549
 20
772.6999404244
 30
0.0
 10
286.5266660973
 20
768.1096961325
 30
0.0
 10
286.5266660973
 20
765.7010906198
 30
0.0
  0
SPLINE
  5
447
100
AcDbEntity
  8
0
100
AcDbSpline
 62
7
  6
CONTINUOUS
 70
0
 71
3
 72
11
 73
7
 74
0
 42
0.0000001
 43
0.0000001
 44
0.0000000001
 40
0.0
 40
0.0
 40
0.0
 40
0.0
 40
0.2898058094
 40
0.5490483908
 40
0.7822269626
 40
1.0
 40
1.0
 40
1.0
 40
1.0
 10
363.6016261383
 20
721.202848377
 30
0.0
 10
363.6016261383
 20
718.212318474
 30
0.0
 10
363.1500098153
 20
712.527064961
 30
0.0
 10
360.8450316229
 20
704.7165258819
 30
0.0
 10
356.9706425211
 20
698.3778345864
 30
0.0
 10
353.3281109045
 20
695.3171855679
 30
0.0
 10
351.3819977357
 20
694.1935168068
 30
0.0
  0
SPLINE
  5
448
100
AcDbEntity
  8
0
100
AcDbSpline
 62
7
  6
CONTINUOUS
 70
0
 71
3
 72
17
 73
13
 74
0
 42
0.0000001
 43
0.0000001
 44
0.0000000001
 40
0.0
 40
0.0
 40
0.0
 40
0.0
 40
0.1277975546
 40
0.2683164374
 40
0.4145526772
 40
0.5584859278
 40
0.6924955394
 40
0.8108498155
 40
0.8635049079
 40
0.9119897346
 40
0.9570688627
 40
1.0
 40
1.0
 40
1.0
 40
1.0
 10
286.5266660973
 20
765.7010906198
 30
0.0
 10
286.5266660973
 20
761.5084090084
 30
0.0
 10
287.6779127134
 20
752.6956545634
 30
0.0
 10
291.9896762964
 20
739.7308718878
 30
0.0
 10
298.6510172758
 20
727.1962577046
 30
0.0
 10
307.1425302065
 20
716.085114525
 30
0.0
 10
316.793745001
 20
707.2665681464
 30
0.0
 10
325.5620210958
 20
702.1914295997
 30
0.0
 10
332.4757157875
 20
700.0736014004
 30
0.0
 10
337.2671566801
 20
699.489951262
 30
0.0
 10
341.763632543
 20
699.8756269616
 30
0.0
 10
344.5344732793
 20
700.8028980529
 30
0.0
 10
345.8024298325
 20
701.4161030114
 30
0.0
  0
SPLINE
  5
449
100
AcDbEntity
  8
0
100
AcDbSpline
 62
7
  6
CONTINUOUS
 70
0
 71
3
 72
17
 73
13
 74
0
 42
0.0000001
 43
0.0000001
 44
0.0000000001
 40
0.0
 40
0.0
 40
0.0
 40
0.0
 40
0.0429018389
 40
0.0878624861
 40
0.1361833483
 40
0.1886678837
 40
0.3067578651
 40
0.4406896675
 40
0.5847296462
 40
0.7311959671
 40
0.8719824352
 40
1.0
 40
1.0
 40
1.0
 40
1.0
 10
296.6302388159
 20
788.4155556742
 30
0.0
 10
297.8898735222
 20
789.0530600361
 30
0.0
 10
300.6484570922
 20
790.0299820203
 30
0.0
 10
305.1431655348
 20
790.4817936919
 30
0.0
 10
309.9416177891
 20
789.9538942639
 30
0.0
 10
316.8771868461
 20
787.8979603679
 30
0.0
 10
325.690073786
 20
782.8667824816
 30
0.0
 10
335.3993456655
 20
774.0630061271
 30
0.0
 10
343.9516551753
 20
762.9330672179
 30
0.0
 10
350.6661098207
 20
750.354612082
 30
0.0
 10
355.0148229178
 20
737.3329212277
 30
0.0
 10
356.1769828561
 20
728.477317214
 30
0.0
 10
356.1769828561
 20
724.2646489369
 30
0.0
  0
SPLINE
  5
44A
100
AcDbEntity
  8
0
100
AcDbSpline
 62
7
  6
CONTINUOUS
 70
0
 71
3
 72
9
 73
5
 74
0
 42
0.0000001
 43
0.0000001
 44
0.0000000001
 40
0.0
 40
0.0
 40
0.0
 40
0.0
 40
0.244492048
 40
1.0
 40
1.0
 40
1.0
 40
1.0
 10
279.1020228151
 20
768.7628911796
 30
0.0
 10
279.1020228151
 20
768.2650638982
 30
0.0
 10
279.1294510371
 20
766.2289467246
 30
0.0
 10
279.2634603845
 20
764.1945925113
 30
0.0
 10
279.4178856255
 20
762.6640207202
 30
0.0
  0
SPLINE
  5
44B
100
AcDbEntity
  8
0
100
AcDbSpline
 62
7
  6
CONTINUOUS
 70
0
 71
3
 72
9
 73
5
 74
0
 42
0.0000001
 43
0.0000001
 44
0.0000000001
 40
0.0
 40
0.0
 40
0.0
 40
0.0
 40
0.2401149564
 40
1.0
 40
1.0
 40
1.0
 40
1.0
 10
279.7735873214
 20
759.7663037178
 30
0.0
 10
280.0005506631
 20
758.1924152974
 30
0.0
 10
281.1661548093
 20
751.6701840113
 30
0.0
 10
283.1503868808
 20
745.3041467615
 30
0.0
 10
285.0137505548
 20
740.6294755853
 30
0.0
  0
SPLINE
  5
44C
100
AcDbEntity
  8
0
100
AcDbSpline
 62
7
  6
CONTINUOUS
 70
0
 71
3
 72
9
 73
5
 74
0
 42
0.0000001
 43
0.0000001
 44
0.0000000001
 40
0.0
 40
0.0
 40
0.0
 40
0.0
 40
0.2488018534
 40
1.0
 40
1.0
 40
1.0
 40
1.0
 10
286.2906797712
 20
737.578389075
 30
0.0
 10
286.6065623856
 20
736.8580623409
 30
0.0
 10
287.9107431573
 20
733.9781498359
 30
0.0
 10
289.3514460048
 20
731.1601540995
 30
0.0
 10
290.5053597728
 20
729.0845612211
 30
0.0
  0
SPLINE
  5
44D
100
AcDbEntity
  8
0
100
AcDbSpline
 62
7
  6
CONTINUOUS
 70
0
 71
3
 72
9
 73
5
 74
0
 42
0.0000001
 43
0.0000001
 44
0.0000000001
 40
0.0
 40
0.0
 40
0.0
 40
0.0
 40
0.2526289235
 40
1.0
 40
1.0
 40
1.0
 40
1.0
 10
290.5053597728
 20
729.0845612211
 30
0.0
 10
291.3250415044
 20
727.6101654629
 30
0.0
 10
294.7136384795
 20
721.8556049786
 30
0.0
 10
298.6672283089
 20
716.4303149232
 30
0.0
 10
301.9190094311
 20
712.6446024056
 30
0.0
  0
SPLINE
  5
44E
100
AcDbEntity
  8
0
100
AcDbSpline
 62
7
  6
CONTINUOUS
 70
0
 71
3
 72
9
 73
5
 74
0
 42
0.0000001
 43
0.0000001
 44
0.0000000001
 40
0.0
 40
0.0
 40
0.0
 40
0.0
 40
0.2533848736
 40
1.0
 40
1.0
 40
1.0
 40
1.0
 10
301.9190094311
 20
712.6446024056
 30
0.0
 10
302.3605985085
 20
712.1305059043
 30
0.0
 10
304.1256070837
 20
710.1208482895
 30
0.0
 10
305.9798171209
 20
708.1892086107
 30
0.0
 10
307.4137671539
 20
706.799420755
 30
0.0
  0
SPLINE
  5
44F
100
AcDbEntity
  8
0
100
AcDbSpline
 62
7
  6
CONTINUOUS
 70
0
 71
3
 72
13
 73
9
 74
0
 42
0.0000001
 43
0.0000001
 44
0.0000000001
 40
0.0
 40
0.0
 40
0.0
 40
0.0
 40
0.3034036388
 40
0.569492811
 40
0.6879944956
 40
0.7977036961
 40
0.9006896035
 40
1.0
 40
1.0
 40
1.0
 40
1.0
 10
307.4137671539
 20
706.799420755
 30
0.0
 10
310.8919057702
 20
703.4284003582
 30
0.0
 10
317.9836390697
 20
697.6423864132
 30
0.0
 10
327.9474252564
 20
692.6887856036
 30
0.0
 10
335.6734558896
 20
690.9169221369
 30
0.0
 10
340.9900897085
 20
690.6826911865
 30
0.0
 10
345.9414929692
 20
691.5123947637
 30
0.0
 10
348.9483356641
 20
692.7883911007
 30
0.0
 10
350.3213412496
 20
693.5811518569
 30
0.0
  0
SPLINE
  5
450
100
AcDbEntity
  8
0
100
AcDbSpline
 62
7
  6
CONTINUOUS
 70
0
 71
3
 72
11
 73
7
 74
0
 42
0.0000001
 43
0.0000001
 44
0.0000000001
 40
0.0
 40
0.0
 40
0.0
 40
0.0
 40
0.2894507892
 40
0.5487803061
 40
0.7822471018
 40
1.0
 40
1.0
 40
1.0
 40
1.0
 10
356.1769828561
 20
724.2646489369
 30
0.0
 10
356.1769828561
 20
721.7627034565
 30
0.0
 10
355.8036192001
 20
717.0033060926
 30
0.0
 10
353.9017385545
 20
710.4543901496
 30
0.0
 10
350.7072664663
 20
705.1145806329
 30
0.0
 10
347.6983342546
 20
702.502351649
 30
0.0
 10
346.0858929275
 20
701.531408464
 30
0.0
  0
SPLINE
  5
451
100
AcDbEntity
  8
0
100
AcDbSpline
 62
7
  6
CONTINUOUS
 70
0
 71
3
 72
11
 73
7
 74
0
 42
0.0000001
 43
0.0000001
 44
0.0000000001
 40
0.0
 40
0.0
 40
0.0
 40
0.0
 40
0.2177723185
 40
0.4509507679
 40
0.7101936311
 40
1.0
 40
1.0
 40
1.0
 40
1.0
 10
291.321651948
 20
795.7722214689
 30
0.0
 10
289.3755448271
 20
794.6485571742
 30
0.0
 10
285.7330172987
 20
791.5879175372
 30
0.0
 10
281.8586288333
 20
785.2492327805
 30
0.0
 10
279.5536399152
 20
777.4386893556
 30
0.0
 10
279.1020228151
 20
771.753426786
 30
0.0
 10
279.1020228151
 20
768.7628911796
 30
0.0
  0
SPLINE
  5
452
100
AcDbEntity
  8
0
100
AcDbSpline
 62
7
  6
CONTINUOUS
 70
0
 71
3
 72
13
 73
9
 74
0
 42
0.0000001
 43
0.0000001
 44
0.0000000001
 40
0.0
 40
0.0
 40
0.0
 40
0.0
 40
0.0993501372
 40
0.2023667277
 40
0.312091764
 40
0.4305929814
 40
0.6966442375
 40
1.0
 40
1.0
 40
1.0
 40
1.0
 10
292.3823069735
 20
796.3845889807
 30
0.0
 10
293.7532387153
 20
797.1761530051
 30
0.0
 10
296.755044039
 20
798.4506783572
 30
0.0
 10
301.6978250872
 20
799.2815966788
 30
0.0
 10
307.0051554078
 20
799.0517880438
 30
0.0
 10
314.7176178933
 20
797.2903067815
 30
0.0
 10
324.666035967
 20
792.3569133283
 30
0.0
 10
331.7492648386
 20
786.5903565163
 30
0.0
 10
335.2239427674
 20
783.2301562495
 30
0.0
  0
SPLINE
  5
453
100
AcDbEntity
  8
0
100
AcDbSpline
 62
7
  6
CONTINUOUS
 70
0
 71
3
 72
9
 73
5
 74
0
 42
0.0000001
 43
0.0000001
 44
0.0000000001
 40
0.0
 40
0.0
 40
0.0
 40
0.0
 40
0.2465713893
 40
1.0
 40
1.0
 40
1.0
 40
1.0
 10
335.2239427674
 20
783.2301562495
 30
0.0
 10
335.6821482729
 20
782.7870469043
 30
0.0
 10
337.5196076669
 20
780.9684941135
 30
0.0
 10
339.2743514445
 20
779.0666502639
 30
0.0
 10
340.5492084199
 20
777.5941450983
 30
0.0
  0
SPLINE
  5
454
100
AcDbEntity
  8
0
100
AcDbSpline
 62
7
  6
CONTINUOUS
 70
0
 71
3
 72
9
 73
5
 74
0
 42
0.0000001
 43
0.0000001
 44
0.0000000001
 40
0.0
 40
0.0
 40
0.0
 40
0.0
 40
0.2463417444
 40
1.0
 40
1.0
 40
1.0
 40
1.0
 10
340.5492084199
 20
777.5941450983
 30
0.0
 10
341.6305108931
 20
776.3452022693
 30
0.0
 10
345.8828595635
 20
771.1578017667
 30
0.0
 10
349.5967885319
 20
765.5318767749
 30
0.0
 10
352.0644581415
 20
761.1211445803
 30
0.0
  0
SPLINE
  5
455
100
AcDbEntity
  8
0
100
AcDbSpline
 62
7
  6
CONTINUOUS
 70
0
 71
3
 72
9
 73
5
 74
0
 42
0.0000001
 43
0.0000001
 44
0.0000000001
 40
0.0
 40
0.0
 40
0.0
 40
0.0
 40
0.250996016
 40
1.0
 40
1.0
 40
1.0
 40
1.0
 10
352.0644581415
 20
761.1211445803
 30
0.0
 10
352.4623396958
 20
760.4099679404
 30
0.0
 10
354.0136199909
 20
757.5577151528
 30
0.0
 10
355.4285002196
 20
754.6311556763
 30
0.0
 10
356.4055489461
 20
752.4042666578
 30
0.0
  0
SPLINE
  5
456
100
AcDbEntity
  8
0
100
AcDbSpline
 62
7
  6
CONTINUOUS
 70
0
 71
3
 72
9
 73
5
 74
0
 42
0.0000001
 43
0.0000001
 44
0.0000000001
 40
0.0
 40
0.0
 40
0.0
 40
0.0
 40
0.2595755448
 40
1.0
 40
1.0
 40
1.0
 40
1.0
 10
356.4055489461
 20
752.4042666578
 30
0.0
 10
357.2010224397
 20
750.5912238284
 30
0.0
 10
360.0531815342
 20
743.5177918584
 30
0.0
 10
362.056814162
 20
736.0832958473
 30
0.0
 10
362.8864944237
 20
730.4970943649
 30
0.0
  0
SPLINE
  5
457
100
AcDbEntity
  8
0
100
AcDbSpline
 62
7
  6
CONTINUOUS
 70
0
 71
3
 72
9
 73
5
 74
0
 42
0.0000001
 43
0.0000001
 44
0.0000000001
 40
0.0
 40
0.0
 40
0.0
 40
0.0
 40
0.252433295
 40
1.0
 40
1.0
 40
1.0
 40
1.0
 10
362.8864944237
 20
730.4970943649
 30
0.0
 10
362.9270051879
 20
730.2243371335
 30
0.0
 10
363.0812272998
 20
729.1429071006
 30
0.0
 10
363.210154446
 20
728.0578506612
 30
0.0
 10
363.2914314824
 20
727.2452899831
 30
0.0
  0
SPLINE
  5
458
100
AcDbEntity
  8
0
100
AcDbSpline
 62
7
  6
CONTINUOUS
 70
0
 71
3
 72
9
 73
5
 74
0
 42
0.0000001
 43
0.0000001
 44
0.0000000001
 40
0.0
 40
0.0
 40
0.0
 40
0.0
 40
0.2554206813
 40
1.0
 40
1.0
 40
1.0
 40
1.0
 10
363.2914314824
 20
727.2452899831
 30
0.0
 10
363.3427138992
 20
726.7325981172
 30
0.0
 10
363.5199524795
 20
724.7231115012
 30
0.0
 10
363.6016261383
 20
722.7048594487
 30
0.0
 10
363.6016261383
 20
721.202848377
 30
0.0
  0
SPLINE
  5
459
100
AcDbEntity
  8
0
100
AcDbSpline
 62
7
  6
CONTINUOUS
 70
0
 71
3
 72
17
 73
13
 74
0
 42
0.0000001
 43
0.0000001
 44
0.0000000001
 40
0.0
 40
0.0
 40
0.0
 40
0.0
 40
0.1279449326
 40
0.2686437806
 40
0.4150350196
 40
0.5590405283
 40
0.692998678
 40
0.8111757216
 40
0.8637161598
 40
0.9120905505
 40
0.9570894638
 40
1.0
 40
1.0
 40
1.0
 40
1.0
 10
362.5409703825
 20
720.5904821462
 30
0.0
 10
362.5409703825
 20
725.5536765491
 30
0.0
 10
361.1738437503
 20
735.9866894529
 30
0.0
 10
356.0566878943
 20
751.3302701627
 30
0.0
 10
348.1541842797
 20
766.1559337376
 30
0.0
 10
338.0859628734
 20
779.2820787634
 30
0.0
 10
326.6514377631
 20
789.6763607896
 30
0.0
 10
316.2694395306
 20
795.6302759725
 30
0.0
 10
308.0938566123
 20
798.0803411827
 30
0.0
 10
302.4343442433
 20
798.7249021657
 30
0.0
 10
297.1298087652
 20
798.2174766994
 30
0.0
 10
293.8699030773
 20
797.0838567517
 30
0.0
 10
292.3802537685
 20
796.34106528
 30
0.0
  0
SPLINE
  5
45A
100
AcDbEntity
  8
0
100
AcDbSpline
 62
7
  6
CONTINUOUS
 70
0
 71
3
 72
11
 73
7
 74
0
 42
0.0000001
 43
0.0000001
 44
0.0000000001
 40
0.0
 40
0.0
 40
0.0
 40
0.0
 40
0.2898070539
 40
0.5490476247
 40
0.782227148
 40
1.0
 40
1.0
 40
1.0
 40
1.0
 10
285.4660103414
 20
765.088724389
 30
0.0
 10
285.4660103414
 20
767.6230821515
 30
0.0
 10
285.8487141194
 20
772.4410936114
 30
0.0
 10
287.8021637625
 20
779.0601655632
 30
0.0
 10
291.0854496398
 20
784.4319688571
 30
0.0
 10
294.172363362
 20
787.0257580878
 30
0.0
 10
295.8216430687
 20
787.9779616205
 30
0.0
  0
SPLINE
  5
45B
100
AcDbEntity
  8
0
100
AcDbSpline
 62
7
  6
CONTINUOUS
 70
0
 71
3
 72
11
 73
7
 74
0
 42
0.0000001
 43
0.0000001
 44
0.0000000001
 40
0.0
 40
0.0
 40
0.0
 40
0.0
 40
0.2178020092
 40
0.4519428806
 40
0.7114400821
 40
1.0
 40
1.0
 40
1.0
 40
1.0
 10
351.3562506287
 20
694.2221534636
 30
0.0
 10
353.1566377232
 20
695.4157081433
 30
0.0
 10
356.4932805632
 20
698.540137504
 30
0.0
 10
360.0221171999
 20
704.7462338071
 30
0.0
 10
362.1259479095
 20
712.2764193881
 30
0.0
 10
362.5409703825
 20
717.7286449073
 30
0.0
 10
362.5409703825
 20
720.5904821462
 30
0.0
  0
SPLINE
  5
45C
100
AcDbEntity
  8
0
100
AcDbSpline
 62
7
  6
CONTINUOUS
 70
0
 71
3
 72
17
 73
13
 74
0
 42
0.0000001
 43
0.0000001
 44
0.0000000001
 40
0.0
 40
0.0
 40
0.0
 40
0.0
 40
0.0428603471
 40
0.0874900543
 40
0.1353240829
 40
0.1872889271
 40
0.3045540153
 40
0.4382244265
 40
0.5825703324
 40
0.7297258642
 40
0.8713191033
 40
1.0
 40
1.0
 40
1.0
 40
1.0
 10
345.8213501289
 20
701.3754117053
 30
0.0
 10
344.5886460314
 20
700.6637160531
 30
0.0
 10
341.8713469387
 20
699.5343025902
 30
0.0
 10
337.3859311497
 20
698.8770131923
 30
0.0
 10
332.5689705601
 20
699.2312066107
 30
0.0
 10
325.5701236845
 20
701.0933222984
 30
0.0
 10
316.6230106451
 20
705.9853972389
 30
0.0
 10
306.7380218647
 20
714.7399311149
 30
0.0
 10
298.0004772941
 20
725.9242270808
 30
0.0
 10
291.1236289749
 20
738.634700634
 30
0.0
 10
286.6616990149
 20
751.8291438366
 30
0.0
 10
285.4660103414
 20
760.815205495
 30
0.0
 10
285.4660103414
 20
765.088724389
 30
0.0
  0
SPLINE
  5
45D
100
AcDbEntity
  8
0
100
AcDbSpline
 62
7
  6
CONTINUOUS
 70
0
 71
3
 72
9
 73
5
 74
0
 42
0.0000001
 43
0.0000001
 44
0.0000000001
 40
0.0
 40
0.0
 40
0.0
 40
0.0
 40
0.4967645953
 40
1.0
 40
1.0
 40
1.0
 40
1.0
 10
975.8968592727
 20
1326.1220126781
 30
0.0
 10
976.237540225
 20
1325.9439327211
 30
0.0
 10
977.0358468538
 20
1325.8251109751
 30
0.0
 10
977.822349557
 20
1325.9909105276
 30
0.0
 10
978.1596009576
 20
1326.1856215474
 30
0.0
  0
SPLINE
  5
45E
100
AcDbEntity
  8
0
100
AcDbSpline
 62
7
  6
CONTINUOUS
 70
0
 71
3
 72
9
 73
5
 74
0
 42
0.0000001
 43
0.0000001
 44
0.0000000001
 40
0.0
 40
0.0
 40
0.0
 40
0.0
 40
0.2544372655
 40
1.0
 40
1.0
 40
1.0
 40
1.0
 10
935.8038539218
 20
1349.2692094555
 30
0.0
 10
939.1235236022
 20
1347.1713219397
 30
0.0
 10
952.2502882857
 20
1339.0531818353
 30
0.0
 10
965.6988369409
 20
1331.4527180419
 30
0.0
 10
975.8967296278
 20
1326.1220992342
 30
0.0
  0
SPLINE
  5
45F
100
AcDbEntity
  8
0
100
AcDbSpline
 62
7
  6
CONTINUOUS
 70
0
 71
3
 72
9
 73
5
 74
0
 42
0.0000001
 43
0.0000001
 44
0.0000000001
 40
0.0
 40
0.0
 40
0.0
 40
0.0
 40
0.449208313
 40
1.0
 40
1.0
 40
1.0
 40
1.0
 10
941.2576083162
 20
1305.8410675389
 30
0.0
 10
941.2576089992
 20
1305.9655924627
 30
0.0
 10
941.1489666978
 20
1306.2435158841
 30
0.0
 10
940.9218501309
 20
1306.4175901666
 30
0.0
 10
940.7896386336
 20
1306.4939627787
 30
0.0
  0
SPLINE
  5
460
100
AcDbEntity
  8
0
100
AcDbSpline
 62
7
  6
CONTINUOUS
 70
0
 71
3
 72
9
 73
5
 74
0
 42
0.0000001
 43
0.0000001
 44
0.0000000001
 40
0.0
 40
0.0
 40
0.0
 40
0.0
 40
0.449208313
 40
1.0
 40
1.0
 40
1.0
 40
1.0
 10
951.1570620372
 20
1311.5564856931
 30
0.0
 10
951.1570627202
 20
1311.6810106169
 30
0.0
 10
951.0484204188
 20
1311.9589340383
 30
0.0
 10
950.8213038519
 20
1312.1330083208
 30
0.0
 10
950.6890923546
 20
1312.2093809329
 30
0.0
  0
SPLINE
  5
461
100
AcDbEntity
  8
0
100
AcDbSpline
 62
7
  6
CONTINUOUS
 70
0
 71
3
 72
9
 73
5
 74
0
 42
0.0000001
 43
0.0000001
 44
0.0000000001
 40
0.0
 40
0.0
 40
0.0
 40
0.0
 40
0.449208313
 40
1.0
 40
1.0
 40
1.0
 40
1.0
 10
961.0565157582
 20
1317.2719038473
 30
0.0
 10
961.0565164411
 20
1317.3964287711
 30
0.0
 10
960.9478741398
 20
1317.6743521925
 30
0.0
 10
960.7207575729
 20
1317.848426475
 30
0.0
 10
960.5885460756
 20
1317.9247990871
 30
0.0
  0
SPLINE
  5
462
100
AcDbEntity
  8
0
100
AcDbSpline
 62
7
  6
CONTINUOUS
 70
0
 71
3
 72
9
 73
5
 74
0
 42
0.0000001
 43
0.0000001
 44
0.0000000001
 40
0.0
 40
0.0
 40
0.0
 40
0.0
 40
0.449208309
 40
1.0
 40
1.0
 40
1.0
 40
1.0
 10
906.2556768364
 20
1326.0489848877
 30
0.0
 10
906.2556774673
 20
1326.1735098295
 30
0.0
 10
906.147036519
 20
1326.4514345881
 30
0.0
 10
905.9199173965
 20
1326.6255050984
 30
0.0
 10
905.7877072587
 20
1326.701880113
 30
0.0
  0
SPLINE
  5
463
100
AcDbEntity
  8
0
100
AcDbSpline
 62
7
  6
CONTINUOUS
 70
0
 71
3
 72
9
 73
5
 74
0
 42
0.0000001
 43
0.0000001
 44
0.0000000001
 40
0.0
 40
0.0
 40
0.0
 40
0.0
 40
0.449208309
 40
1.0
 40
1.0
 40
1.0
 40
1.0
 10
916.1551305574
 20
1331.7644030419
 30
0.0
 10
916.1551311883
 20
1331.8889279837
 30
0.0
 10
916.0464902401
 20
1332.1668527422
 30
0.0
 10
915.8193711177
 20
1332.3409232524
 30
0.0
 10
915.6871609799
 20
1332.4172982671
 30
0.0
  0
SPLINE
  5
464
100
AcDbEntity
  8
0
100
AcDbSpline
 62
7
  6
CONTINUOUS
 70
0
 71
3
 72
9
 73
5
 74
0
 42
0.0000001
 43
0.0000001
 44
0.0000000001
 40
0.0
 40
0.0
 40
0.0
 40
0.0
 40
0.4492083003
 40
1.0
 40
1.0
 40
1.0
 40
1.0
 10
926.0545842782
 20
1337.4798211961
 30
0.0
 10
926.0545849089
 20
1337.6043461553
 30
0.0
 10
925.9459439295
 20
1337.882270959
 30
0.0
 10
925.7188247487
 20
1338.0563414678
 30
0.0
 10
925.5866145838
 20
1338.1327164889
 30
0.0
  0
SPLINE
  5
465
100
AcDbEntity
  8
0
100
AcDbSpline
 62
7
  6
CONTINUOUS
 70
0
 71
3
 72
11
 73
7
 74
0
 42
0.0000001
 43
0.0000001
 44
0.0000000001
 40
0.0
 40
0.0
 40
0.0
 40
0.0
 40
0.2951791899
 40
0.5553323091
 40
0.7858489103
 40
1.0
 40
1.0
 40
1.0
 40
1.0
 10
1019.504431108
 20
1347.542142062
 30
0.0
 10
1019.7996257997
 20
1347.3906051847
 30
0.0
 10
1020.3347639743
 20
1347.0613474101
 30
0.0
 10
1020.9805524665
 20
1346.4465726423
 30
0.0
 10
1021.3917284176
 20
1345.7549298147
 30
0.0
 10
1021.4874929451
 20
1345.2511058583
 30
0.0
 10
1021.4874936641
 20
1345.0103733275
 30
0.0
  0
SPLINE
  5
466
100
AcDbEntity
  8
0
100
AcDbSpline
 62
7
  6
CONTINUOUS
 70
0
 71
3
 72
9
 73
5
 74
0
 42
0.0000001
 43
0.0000001
 44
0.0000000001
 40
0.0
 40
0.0
 40
0.0
 40
0.0
 40
0.255197949
 40
1.0
 40
1.0
 40
1.0
 40
1.0
 10
972.5523454128
 20
1374.649328134
 30
0.0
 10
976.4352792512
 20
1372.1590905717
 30
0.0
 10
991.7600141728
 20
1362.5732256493
 30
0.0
 10
1007.5275958691
 20
1353.6903971165
 30
0.0
 10
1019.5044311236
 20
1347.5421420537
 30
0.0
  0
SPLINE
  5
467
100
AcDbEntity
  8
0
100
AcDbSpline
 62
7
  6
CONTINUOUS
 70
0
 71
3
 72
11
 73
7
 74
0
 42
0.0000001
 43
0.0000001
 44
0.0000000001
 40
0.0
 40
0.0
 40
0.0
 40
0.0
 40
0.2353893321
 40
0.4963145677
 40
0.7593171297
 40
1.0
 40
1.0
 40
1.0
 40
1.0
 10
962.9772202074
 20
1374.9870263373
 30
0.0
 10
963.6545954825
 20
1375.3781068003
 30
0.0
 10
965.2413826841
 20
1375.9311080722
 30
0.0
 10
967.778333602
 20
1376.1260016428
 30
0.0
 10
970.3105575554
 20
1375.7393881718
 30
0.0
 10
971.8791418942
 20
1375.0810729844
 30
0.0
 10
972.552345413
 20
1374.6493281339
 30
0.0
  0
SPLINE
  5
468
100
AcDbEntity
  8
0
100
AcDbSpline
 62
7
  6
CONTINUOUS
 70
0
 71
3
 72
9
 73
5
 74
0
 42
0.0000001
 43
0.0000001
 44
0.0000000001
 40
0.0
 40
0.0
 40
0.0
 40
0.0
 40
0.4492024863
 40
1.0
 40
1.0
 40
1.0
 40
1.0
 10
970.9559693332
 20
1322.9873220014
 30
0.0
 10
970.9559698892
 20
1323.1118594123
 30
0.0
 10
970.8473053693
 20
1323.389815286
 30
0.0
 10
970.6201471863
 20
1323.5638876315
 30
0.0
 10
970.4879174781
 20
1323.6402665173
 30
0.0
  0
SPLINE
  5
469
100
AcDbEntity
  8
0
100
AcDbSpline
 62
7
  6
CONTINUOUS
 70
0
 71
3
 72
9
 73
5
 74
0
 42
0.0000001
 43
0.0000001
 44
0.0000000001
 40
0.0
 40
0.0
 40
0.0
 40
0.0
 40
0.557890454
 40
1.0
 40
1.0
 40
1.0
 40
1.0
 10
1004.675994883
 20
1341.4947592684
 30
0.0
 10
1004.8073769939
 20
1341.5706123146
 30
0.0
 10
1005.0315533641
 20
1341.7376601421
 30
0.0
 10
1005.1445447331
 20
1342.0086721289
 30
0.0
 10
1005.1445450773
 20
1342.1288946746
 30
0.0
  0
SPLINE
  5
46A
100
AcDbEntity
  8
0
100
AcDbSpline
 62
7
  6
CONTINUOUS
 70
0
 71
3
 72
9
 73
5
 74
0
 42
0.0000001
 43
0.0000001
 44
0.0000000001
 40
0.0
 40
0.0
 40
0.0
 40
0.0
 40
0.449208307
 40
1.0
 40
1.0
 40
1.0
 40
1.0
 10
935.9540380011
 20
1343.1952393503
 30
0.0
 10
935.954038632
 20
1343.3197642956
 30
0.0
 10
935.8453976762
 20
1343.5976890632
 30
0.0
 10
935.6182785415
 20
1343.7717595725
 30
0.0
 10
935.486068398
 20
1343.8481345883
 30
0.0
  0
SPLINE
  5
46B
100
AcDbEntity
  8
0
100
AcDbSpline
 62
7
  6
CONTINUOUS
 70
0
 71
3
 72
9
 73
5
 74
0
 42
0.0000001
 43
0.0000001
 44
0.0000000001
 40
0.0
 40
0.0
 40
0.0
 40
0.0
 40
0.4532709683
 40
1.0
 40
1.0
 40
1.0
 40
1.0
 10
935.3351781319
 20
1349.9669926016
 30
0.0
 10
935.3351775368
 20
1349.8358798623
 30
0.0
 10
935.4419425831
 20
1349.5456260344
 30
0.0
 10
935.6700496939
 20
1349.3537293146
 30
0.0
 10
935.8037378568
 20
1349.2692441836
 30
0.0
  0
SPLINE
  5
46C
100
AcDbEntity
  8
0
100
AcDbSpline
 62
7
  6
CONTINUOUS
 70
0
 71
3
 72
9
 73
5
 74
0
 42
0.0000001
 43
0.0000001
 44
0.0000000001
 40
0.0
 40
0.0
 40
0.0
 40
0.0
 40
0.5508343685
 40
1.0
 40
1.0
 40
1.0
 40
1.0
 10
923.6063654615
 20
1343.8484733904
 30
0.0
 10
923.4740098364
 20
1343.7720482157
 30
0.0
 10
923.2465726775
 20
1343.597975655
 30
0.0
 10
923.137742786
 20
1343.3197964532
 30
0.0
 10
923.1377421033
 20
1343.1951698014
 30
0.0
  0
SPLINE
  5
46D
100
AcDbEntity
  8
0
100
AcDbSpline
 62
7
  6
CONTINUOUS
 70
0
 71
3
 72
9
 73
5
 74
0
 42
0.0000001
 43
0.0000001
 44
0.0000000001
 40
0.0
 40
0.0
 40
0.0
 40
0.0
 40
0.4999533598
 40
1.0
 40
1.0
 40
1.0
 40
1.0
 10
930.6776049571
 20
1346.624223973
 30
0.0
 10
930.3418735017
 20
1346.8181085914
 30
0.0
 10
929.5464105221
 20
1346.9714844416
 30
0.0
 10
928.7508334231
 20
1346.8185128002
 30
0.0
 10
928.4149659705
 20
1346.6247190879
 30
0.0
  0
SPLINE
  5
46E
100
AcDbEntity
  8
0
100
AcDbSpline
 62
7
  6
CONTINUOUS
 70
0
 71
3
 72
10
 73
6
 74
0
 42
0.0000001
 43
0.0000001
 44
0.0000000001
 40
0.0
 40
0.0
 40
0.0
 40
0.0
 40
0.2248043743
 40
0.4609236672
 40
1.0
 40
1.0
 40
1.0
 40
1.0
 10
881.5157262677
 20
1326.2309168451
 30
0.0
 10
881.5157255516
 20
1326.5031681824
 30
0.0
 10
881.6083628484
 20
1327.0653173382
 30
0.0
 10
882.1709094553
 20
1328.1548756498
 30
0.0
 10
882.9333604255
 20
1328.7739581707
 30
0.0
 10
883.4987487027
 20
1329.1003833256
 30
0.0
  0
SPLINE
  5
46F
100
AcDbEntity
  8
0
100
AcDbSpline
 62
7
  6
CONTINUOUS
 70
0
 71
3
 72
9
 73
5
 74
0
 42
0.0000001
 43
0.0000001
 44
0.0000000001
 40
0.0
 40
0.0
 40
0.0
 40
0.0
 40
0.4999570697
 40
1.0
 40
1.0
 40
1.0
 40
1.0
 10
935.9811101937
 20
1309.2700896894
 30
0.0
 10
935.6453808236
 20
1309.4639596935
 30
0.0
 10
934.8499387531
 20
1309.6173050139
 30
0.0
 10
934.0543908095
 20
1309.4643335723
 30
0.0
 10
933.7185362342
 20
1309.2705472959
 30
0.0
  0
SPLINE
  5
470
100
AcDbEntity
  8
0
100
AcDbSpline
 62
7
  6
CONTINUOUS
 70
0
 71
3
 72
9
 73
5
 74
0
 42
0.0000001
 43
0.0000001
 44
0.0000000001
 40
0.0
 40
0.0
 40
0.0
 40
0.0
 40
0.5508343587
 40
1.0
 40
1.0
 40
1.0
 40
1.0
 10
928.9099347114
 20
1306.4943010131
 30
0.0
 10
928.7775793538
 20
1306.4178757948
 30
0.0
 10
928.5501425709
 20
1306.2438033871
 30
0.0
 10
928.4413130525
 20
1305.9656244757
 30
0.0
 10
928.4413124218
 20
1305.8409979899
 30
0.0
  0
SPLINE
  5
471
100
AcDbEntity
  8
0
100
AcDbSpline
 62
7
  6
CONTINUOUS
 70
0
 71
3
 72
9
 73
5
 74
0
 42
0.0000001
 43
0.0000001
 44
0.0000000001
 40
0.0
 40
0.0
 40
0.0
 40
0.0
 40
0.4999904795
 40
1.0
 40
1.0
 40
1.0
 40
1.0
 10
965.6792872786
 20
1326.4164594489
 30
0.0
 10
965.3435005393
 20
1326.6103710064
 30
0.0
 10
964.5479054257
 20
1326.7636448289
 30
0.0
 10
963.7523181031
 20
1326.610423881
 30
0.0
 10
963.4164891585
 20
1326.4165558886
 30
0.0
  0
SPLINE
  5
472
100
AcDbEntity
  8
0
100
AcDbSpline
 62
7
  6
CONTINUOUS
 70
0
 71
3
 72
9
 73
5
 74
0
 42
0.0000001
 43
0.0000001
 44
0.0000000001
 40
0.0
 40
0.0
 40
0.0
 40
0.0
 40
0.5508325114
 40
1.0
 40
1.0
 40
1.0
 40
1.0
 10
958.6082662771
 20
1323.6405364127
 30
0.0
 10
958.4759176123
 20
1323.564113356
 30
0.0
 10
958.2484946774
 20
1323.3900418073
 30
0.0
 10
958.1396741927
 20
1323.1118742612
 30
0.0
 10
958.1396735777
 20
1322.9872524526
 30
0.0
  0
SPLINE
  5
473
100
AcDbEntity
  8
0
100
AcDbSpline
 62
7
  6
CONTINUOUS
 70
0
 71
3
 72
9
 73
5
 74
0
 42
0.0000001
 43
0.0000001
 44
0.0000000001
 40
0.0
 40
0.0
 40
0.0
 40
0.0
 40
0.4999533642
 40
1.0
 40
1.0
 40
1.0
 40
1.0
 10
920.7781511369
 20
1340.9088058769
 30
0.0
 10
920.4424196831
 20
1341.1026904595
 30
0.0
 10
919.6469567549
 20
1341.2560662756
 30
0.0
 10
918.8513797047
 20
1341.1030946433
 30
0.0
 10
918.5155122725
 20
1340.909300948
 30
0.0
  0
SPLINE
  5
474
100
AcDbEntity
  8
0
100
AcDbSpline
 62
7
  6
CONTINUOUS
 70
0
 71
3
 72
9
 73
5
 74
0
 42
0.0000001
 43
0.0000001
 44
0.0000000001
 40
0.0
 40
0.0
 40
0.0
 40
0.0
 40
0.5508343675
 40
1.0
 40
1.0
 40
1.0
 40
1.0
 10
913.7069117305
 20
1338.1330552314
 30
0.0
 10
913.5745561081
 20
1338.0566300569
 30
0.0
 10
913.3471189542
 20
1337.8825574957
 30
0.0
 10
913.2382890666
 20
1337.6043782975
 30
0.0
 10
913.238288384
 20
1337.4797516471
 30
0.0
  0
SPLINE
  5
475
100
AcDbEntity
  8
0
100
AcDbSpline
 62
7
  6
CONTINUOUS
 70
0
 71
3
 72
9
 73
5
 74
0
 42
0.0000001
 43
0.0000001
 44
0.0000000001
 40
0.0
 40
0.0
 40
0.0
 40
0.0
 40
0.5508343676
 40
1.0
 40
1.0
 40
1.0
 40
1.0
 10
903.8074580097
 20
1332.4176370773
 30
0.0
 10
903.6751023872
 20
1332.3412119028
 30
0.0
 10
903.4476652334
 20
1332.1671393416
 30
0.0
 10
903.3388353457
 20
1331.8889601434
 30
0.0
 10
903.3388346631
 20
1331.7643334929
 30
0.0
  0
SPLINE
  5
476
100
AcDbEntity
  8
0
100
AcDbSpline
 62
7
  6
CONTINUOUS
 70
0
 71
3
 72
9
 73
5
 74
0
 42
0.0000001
 43
0.0000001
 44
0.0000000001
 40
0.0
 40
0.0
 40
0.0
 40
0.0
 40
0.4999533589
 40
1.0
 40
1.0
 40
1.0
 40
1.0
 10
910.8786975071
 20
1335.1933876701
 30
0.0
 10
910.5429660557
 20
1335.3872722825
 30
0.0
 10
909.74750309
 20
1335.5406481276
 30
0.0
 10
908.9519260016
 20
1335.3876764994
 30
0.0
 10
908.6160585513
 20
1335.1938827936
 30
0.0
  0
SPLINE
  5
477
100
AcDbEntity
  8
0
100
AcDbSpline
 62
7
  6
CONTINUOUS
 70
0
 71
3
 72
9
 73
5
 74
0
 42
0.0000001
 43
0.0000001
 44
0.0000000001
 40
0.0
 40
0.0
 40
0.0
 40
0.0
 40
0.4999570765
 40
1.0
 40
1.0
 40
1.0
 40
1.0
 10
945.8805639147
 20
1314.9855078436
 30
0.0
 10
945.5448345211
 20
1315.1793778613
 30
0.0
 10
944.7493923987
 20
1315.3327231802
 30
0.0
 10
943.9538444138
 20
1315.1797516885
 30
0.0
 10
943.6179898368
 20
1314.9859653818
 30
0.0
  0
SPLINE
  5
478
100
AcDbEntity
  8
0
100
AcDbSpline
 62
7
  6
CONTINUOUS
 70
0
 71
3
 72
9
 73
5
 74
0
 42
0.0000001
 43
0.0000001
 44
0.0000000001
 40
0.0
 40
0.0
 40
0.0
 40
0.0
 40
0.5508343587
 40
1.0
 40
1.0
 40
1.0
 40
1.0
 10
938.8093884322
 20
1312.2097191671
 30
0.0
 10
938.6770330746
 20
1312.1332939489
 30
0.0
 10
938.4495962918
 20
1311.9592215411
 30
0.0
 10
938.3407667734
 20
1311.6810426298
 30
0.0
 10
938.3407661428
 20
1311.5564161442
 30
0.0
  0
SPLINE
  5
479
100
AcDbEntity
  8
0
100
AcDbSpline
 62
7
  6
CONTINUOUS
 70
0
 71
3
 72
9
 73
5
 74
0
 42
0.0000001
 43
0.0000001
 44
0.0000000001
 40
0.0
 40
0.0
 40
0.0
 40
0.0
 40
0.5508549071
 40
1.0
 40
1.0
 40
1.0
 40
1.0
 10
893.9082803428
 20
1326.7023783031
 30
0.0
 10
893.7758644268
 20
1326.6259314399
 30
0.0
 10
893.5482828404
 20
1326.4518724288
 30
0.0
 10
893.4393828694
 20
1326.1735830596
 30
0.0
 10
893.4393816257
 20
1326.0489153383
 30
0.0
  0
SPLINE
  5
47A
100
AcDbEntity
  8
0
100
AcDbSpline
 62
7
  6
CONTINUOUS
 70
0
 71
3
 72
9
 73
5
 74
0
 42
0.0000001
 43
0.0000001
 44
0.0000000001
 40
0.0
 40
0.0
 40
0.0
 40
0.0
 40
0.4999492977
 40
1.0
 40
1.0
 40
1.0
 40
1.0
 10
900.9793159419
 20
1329.4779278579
 30
0.0
 10
900.6435762899
 20
1329.6718185666
 30
0.0
 10
899.8480988926
 20
1329.8252433343
 30
0.0
 10
899.0524865267
 20
1329.6722665651
 30
0.0
 10
898.7166048266
 20
1329.4784646373
 30
0.0
  0
SPLINE
  5
47B
100
AcDbEntity
  8
0
100
AcDbSpline
 62
7
  6
CONTINUOUS
 70
0
 71
3
 72
9
 73
5
 74
0
 42
0.0000001
 43
0.0000001
 44
0.0000000001
 40
0.0
 40
0.0
 40
0.0
 40
0.0
 40
0.4999570697
 40
1.0
 40
1.0
 40
1.0
 40
1.0
 10
955.7800176357
 20
1320.7009259978
 30
0.0
 10
955.4442882656
 20
1320.8947960019
 30
0.0
 10
954.6488461951
 20
1321.0481413223
 30
0.0
 10
953.8532982515
 20
1320.8951698807
 30
0.0
 10
953.5174436762
 20
1320.7013836043
 30
0.0
  0
SPLINE
  5
47C
100
AcDbEntity
  8
0
100
AcDbSpline
 62
7
  6
CONTINUOUS
 70
0
 71
3
 72
9
 73
5
 74
0
 42
0.0000001
 43
0.0000001
 44
0.0000000001
 40
0.0
 40
0.0
 40
0.0
 40
0.0
 40
0.5508343587
 40
1.0
 40
1.0
 40
1.0
 40
1.0
 10
948.7088421532
 20
1317.9251373213
 30
0.0
 10
948.5764867956
 20
1317.8487121031
 30
0.0
 10
948.3490500128
 20
1317.6746396954
 30
0.0
 10
948.2402204944
 20
1317.396460784
 30
0.0
 10
948.2402198638
 20
1317.2718342984
 30
0.0
  0
SPLINE
  5
47D
100
AcDbEntity
  8
0
100
AcDbSpline
 62
7
  6
CONTINUOUS
 70
0
 71
3
 72
9
 73
5
 74
0
 42
0.0000001
 43
0.0000001
 44
0.0000000001
 40
0.0
 40
0.0
 40
0.0
 40
0.0
 40
0.4978290917
 40
1.0
 40
1.0
 40
1.0
 40
1.0
 10
920.777801287
 20
1333.2905942598
 30
0.0
 10
920.4426666574
 20
1333.0971829161
 30
0.0
 10
919.6402471092
 20
1332.9523066761
 30
0.0
 10
918.8467152231
 20
1333.1302554847
 30
0.0
 10
918.5147744547
 20
1333.3355881515
 30
0.0
  0
SPLINE
  5
47E
100
AcDbEntity
  8
0
100
AcDbSpline
 62
7
  6
CONTINUOUS
 70
0
 71
3
 72
9
 73
5
 74
0
 42
0.0000001
 43
0.0000001
 44
0.0000000001
 40
0.0
 40
0.0
 40
0.0
 40
0.0
 40
0.4492083199
 40
1.0
 40
1.0
 40
1.0
 40
1.0
 10
958.1396735777
 20
1322.9872524526
 30
0.0
 10
958.1396729631
 20
1322.8627275077
 30
0.0
 10
958.2483138789
 20
1322.5848027335
 30
0.0
 10
958.4754330432
 20
1322.4107322776
 30
0.0
 10
958.6076431582
 20
1322.3343572291
 30
0.0
  0
SPLINE
  5
47F
100
AcDbEntity
  8
0
100
AcDbSpline
 62
7
  6
CONTINUOUS
 70
0
 71
3
 72
9
 73
5
 74
0
 42
0.0000001
 43
0.0000001
 44
0.0000000001
 40
0.0
 40
0.0
 40
0.0
 40
0.0
 40
0.4492083089
 40
1.0
 40
1.0
 40
1.0
 40
1.0
 10
948.2402198638
 20
1317.2718342984
 30
0.0
 10
948.2402192337
 20
1317.1473093563
 30
0.0
 10
948.3488601618
 20
1316.869384578
 30
0.0
 10
948.5759793221
 20
1316.6953141236
 30
0.0
 10
948.7081894398
 20
1316.6189390734
 30
0.0
  0
SPLINE
  5
480
100
AcDbEntity
  8
0
100
AcDbSpline
 62
7
  6
CONTINUOUS
 70
0
 71
3
 72
9
 73
5
 74
0
 42
0.0000001
 43
0.0000001
 44
0.0000000001
 40
0.0
 40
0.0
 40
0.0
 40
0.0
 40
0.5466694483
 40
1.0
 40
1.0
 40
1.0
 40
1.0
 10
903.8074092657
 20
1330.6251644739
 30
0.0
 10
903.6737323822
 20
1330.7096012042
 30
0.0
 10
903.4453221755
 20
1330.901162363
 30
0.0
 10
903.3387943155
 20
1331.1915473695
 30
0.0
 10
903.3388564708
 20
1331.3226622756
 30
0.0
  0
SPLINE
  5
481
100
AcDbEntity
  8
0
100
AcDbSpline
 62
7
  6
CONTINUOUS
 70
0
 71
3
 72
9
 73
5
 74
0
 42
0.0000001
 43
0.0000001
 44
0.0000000001
 40
0.0
 40
0.0
 40
0.0
 40
0.0
 40
0.449208311
 40
1.0
 40
1.0
 40
1.0
 40
1.0
 10
923.1377421033
 20
1343.1951698014
 30
0.0
 10
923.1377414212
 20
1343.0706448738
 30
0.0
 10
923.246383709
 20
1342.7927214224
 30
0.0
 10
923.4735003282
 20
1342.6186471998
 30
0.0
 10
923.60571181
 20
1342.5422745489
 30
0.0
  0
SPLINE
  5
482
100
AcDbEntity
  8
0
100
AcDbSpline
 62
7
  6
CONTINUOUS
 70
0
 71
3
 72
9
 73
5
 74
0
 42
0.0000001
 43
0.0000001
 44
0.0000000001
 40
0.0
 40
0.0
 40
0.0
 40
0.0
 40
0.4978290917
 40
1.0
 40
1.0
 40
1.0
 40
1.0
 10
910.8783475661
 20
1327.5751761056
 30
0.0
 10
910.5432129364
 20
1327.3817647619
 30
0.0
 10
909.7407933881
 20
1327.2368885219
 30
0.0
 10
908.9472615021
 20
1327.4148373305
 30
0.0
 10
908.6153207336
 20
1327.6201699973
 30
0.0
  0
SPLINE
  5
483
100
AcDbEntity
  8
0
100
AcDbSpline
 62
7
  6
CONTINUOUS
 70
0
 71
3
 72
9
 73
5
 74
0
 42
0.0000001
 43
0.0000001
 44
0.0000000001
 40
0.0
 40
0.0
 40
0.0
 40
0.0
 40
0.2455782248
 40
1.0
 40
1.0
 40
1.0
 40
1.0
 10
1004.6757961136
 20
1342.737669185
 30
0.0
 10
1001.3167496361
 20
1344.4935024762
 30
0.0
 10
987.7161529931
 20
1351.7909759682
 30
0.0
 10
974.4260931803
 20
1359.6643262122
 30
0.0
 10
964.5830743793
 20
1365.8846870297
 30
0.0
  0
SPLINE
  5
484
100
AcDbEntity
  8
0
100
AcDbSpline
 62
7
  6
CONTINUOUS
 70
0
 71
3
 72
9
 73
5
 74
0
 42
0.0000001
 43
0.0000001
 44
0.0000000001
 40
0.0
 40
0.0
 40
0.0
 40
0.0
 40
0.5031083427
 40
1.0
 40
1.0
 40
1.0
 40
1.0
 10
964.5830184645
 20
1365.884712634
 30
0.0
 10
964.2522146435
 20
1366.0938209127
 30
0.0
 10
963.4605251961
 20
1366.2818293219
 30
0.0
 10
962.6548568792
 20
1366.1416565056
 30
0.0
 10
962.3201223466
 20
1365.948398592
 30
0.0
  0
SPLINE
  5
485
100
AcDbEntity
  8
0
100
AcDbSpline
 62
7
  6
CONTINUOUS
 70
0
 71
3
 72
9
 73
5
 74
0
 42
0.0000001
 43
0.0000001
 44
0.0000000001
 40
0.0
 40
0.0
 40
0.0
 40
0.0
 40
0.5000004817
 40
1.0
 40
1.0
 40
1.0
 40
1.0
 10
964.5828640042
 20
1364.5667427641
 30
0.0
 10
964.247080384
 20
1364.7606560767
 30
0.0
 10
963.4514806528
 20
1364.9138613964
 30
0.0
 10
962.6559268326
 20
1364.7606129703
 30
0.0
 10
962.3201223317
 20
1364.5667373137
 30
0.0
  0
SPLINE
  5
486
100
AcDbEntity
  8
0
100
AcDbSpline
 62
7
  6
CONTINUOUS
 70
0
 71
3
 72
9
 73
5
 74
0
 42
0.0000001
 43
0.0000001
 44
0.0000000001
 40
0.0
 40
0.0
 40
0.0
 40
0.0
 40
0.4538697985
 40
1.0
 40
1.0
 40
1.0
 40
1.0
 10
935.9540213645
 20
1342.4480706042
 30
0.0
 10
935.9539930466
 20
1342.3204891142
 30
0.0
 10
935.847986203
 20
1342.0376637238
 30
0.0
 10
935.6185246741
 20
1341.8588586101
 30
0.0
 10
935.4855806536
 20
1341.782093155
 30
0.0
  0
SPLINE
  5
487
100
AcDbEntity
  8
0
100
AcDbSpline
 62
7
  6
CONTINUOUS
 70
0
 71
3
 72
9
 73
5
 74
0
 42
0.0000001
 43
0.0000001
 44
0.0000000001
 40
0.0
 40
0.0
 40
0.0
 40
0.0
 40
0.4492077965
 40
1.0
 40
1.0
 40
1.0
 40
1.0
 10
893.4393816257
 20
1326.0489153383
 30
0.0
 10
893.4393803833
 20
1325.9243905807
 30
0.0
 10
893.5480223911
 20
1325.6464668127
 30
0.0
 10
893.7751390802
 20
1325.4723927865
 30
0.0
 10
893.907350656
 20
1325.3960200802
 30
0.0
  0
SPLINE
  5
488
100
AcDbEntity
  8
0
100
AcDbSpline
 62
7
  6
CONTINUOUS
 70
0
 71
3
 72
9
 73
5
 74
0
 42
0.0000001
 43
0.0000001
 44
0.0000000001
 40
0.0
 40
0.0
 40
0.0
 40
0.0
 40
0.4492083089
 40
1.0
 40
1.0
 40
1.0
 40
1.0
 10
938.3407661428
 20
1311.5564161442
 30
0.0
 10
938.3407655127
 20
1311.4318912021
 30
0.0
 10
938.4494064408
 20
1311.1539664238
 30
0.0
 10
938.6765256011
 20
1310.9798959693
 30
0.0
 10
938.8087357188
 20
1310.9035209192
 30
0.0
  0
SPLINE
  5
489
100
AcDbEntity
  8
0
100
AcDbSpline
 62
7
  6
CONTINUOUS
 70
0
 71
3
 72
9
 73
5
 74
0
 42
0.0000001
 43
0.0000001
 44
0.0000000001
 40
0.0
 40
0.0
 40
0.0
 40
0.0
 40
0.4538697989
 40
1.0
 40
1.0
 40
1.0
 40
1.0
 10
906.2556602
 20
1325.3018161417
 30
0.0
 10
906.2556318821
 20
1325.1742346519
 30
0.0
 10
906.1496250399
 20
1324.891409262
 30
0.0
 10
905.9201635122
 20
1324.7126041485
 30
0.0
 10
905.7872194928
 20
1324.6358386927
 30
0.0
  0
SPLINE
  5
48A
100
AcDbEntity
  8
0
100
AcDbSpline
 62
7
  6
CONTINUOUS
 70
0
 71
3
 72
9
 73
5
 74
0
 42
0.0000001
 43
0.0000001
 44
0.0000000001
 40
0.0
 40
0.0
 40
0.0
 40
0.0
 40
0.5441657824
 40
1.0
 40
1.0
 40
1.0
 40
1.0
 10
935.8037284215
 20
1350.6392242999
 30
0.0
 10
935.6703941285
 20
1350.5622441674
 30
0.0
 10
935.4399734192
 20
1350.3810522607
 30
0.0
 10
935.3351787172
 20
1350.0959618826
 30
0.0
 10
935.3351781319
 20
1349.9669926016
 30
0.0
  0
SPLINE
  5
48B
100
AcDbEntity
  8
0
100
AcDbSpline
 62
7
  6
CONTINUOUS
 70
0
 71
3
 72
9
 73
5
 74
0
 42
0.0000001
 43
0.0000001
 44
0.0000000001
 40
0.0
 40
0.0
 40
0.0
 40
0.0
 40
0.4445215422
 40
1.0
 40
1.0
 40
1.0
 40
1.0
 10
1005.1445450773
 20
1342.1288946746
 30
0.0
 10
1005.1445454158
 20
1342.2470991062
 30
0.0
 10
1005.0331575751
 20
1342.5132639751
 30
0.0
 10
1004.8067559528
 20
1342.6692037191
 30
0.0
 10
1004.6758442259
 20
1342.737615633
 30
0.0
  0
SPLINE
  5
48C
100
AcDbEntity
  8
0
100
AcDbSpline
 62
7
  6
CONTINUOUS
 70
0
 71
3
 72
9
 73
5
 74
0
 42
0.0000001
 43
0.0000001
 44
0.0000000001
 40
0.0
 40
0.0
 40
0.0
 40
0.0
 40
0.5466695288
 40
1.0
 40
1.0
 40
1.0
 40
1.0
 10
893.9079555462
 20
1324.9097463187
 30
0.0
 10
893.7742786476
 20
1324.9941830585
 30
0.0
 10
893.5458684208
 20
1325.1857441882
 30
0.0
 10
893.4393406289
 20
1325.4761292401
 30
0.0
 10
893.4394028557
 20
1325.6072441184
 30
0.0
  0
SPLINE
  5
48D
100
AcDbEntity
  8
0
100
AcDbSpline
 62
7
  6
CONTINUOUS
 70
0
 71
3
 72
11
 73
7
 74
0
 42
0.0000001
 43
0.0000001
 44
0.0000000001
 40
0.0
 40
0.0
 40
0.0
 40
0.0
 40
0.2109186321
 40
0.4417445246
 40
0.7035884863
 40
1.0
 40
1.0
 40
1.0
 40
1.0
 10
1021.4874936641
 20
1345.0103733275
 30
0.0
 10
1021.4874943907
 20
1344.7670922524
 30
0.0
 10
1021.3893294307
 20
1344.2542850667
 30
0.0
 10
1020.9796109771
 20
1343.5409640393
 30
0.0
 10
1020.3361279864
 20
1342.8868342253
 30
0.0
 10
1019.8005582932
 20
1342.5226862105
 30
0.0
 10
1019.5044710275
 20
1342.3517411683
 30
0.0
  0
SPLINE
  5
48E
100
AcDbEntity
  8
0
100
AcDbSpline
 62
7
  6
CONTINUOUS
 70
0
 71
3
 72
9
 73
5
 74
0
 42
0.0000001
 43
0.0000001
 44
0.0000000001
 40
0.0
 40
0.0
 40
0.0
 40
0.0
 40
0.497829273
 40
1.0
 40
1.0
 40
1.0
 40
1.0
 10
900.9788938452
 20
1321.8597579515
 30
0.0
 10
900.6437585929
 20
1321.6663462483
 30
0.0
 10
899.8413384637
 20
1321.5214713625
 30
0.0
 10
899.0478030629
 20
1321.6994176064
 30
0.0
 10
898.7158639263
 20
1321.9047537518
 30
0.0
  0
SPLINE
  5
48F
100
AcDbEntity
  8
0
100
AcDbSpline
 62
7
  6
CONTINUOUS
 70
0
 71
3
 72
9
 73
5
 74
0
 42
0.0000001
 43
0.0000001
 44
0.0000000001
 40
0.0
 40
0.0
 40
0.0
 40
0.0
 40
0.546669449
 40
1.0
 40
1.0
 40
1.0
 40
1.0
 10
923.6063167157
 20
1342.0560007772
 30
0.0
 10
923.4726398298
 20
1342.1404375074
 30
0.0
 10
923.244229619
 20
1342.3319986669
 30
0.0
 10
923.1377017556
 20
1342.6223836766
 30
0.0
 10
923.1377639109
 20
1342.7534985841
 30
0.0
  0
SPLINE
  5
490
100
AcDbEntity
  8
0
100
AcDbSpline
 62
7
  6
CONTINUOUS
 70
0
 71
3
 72
9
 73
5
 74
0
 42
0.0000001
 43
0.0000001
 44
0.0000000001
 40
0.0
 40
0.0
 40
0.0
 40
0.0
 40
0.5508343623
 40
1.0
 40
1.0
 40
1.0
 40
1.0
 10
935.4854156509
 20
1342.5419362949
 30
0.0
 10
935.6177710245
 20
1342.6183615114
 30
0.0
 10
935.8452078313
 20
1342.7924339254
 30
0.0
 10
935.9540373698
 20
1343.0706128558
 30
0.0
 10
935.9540380011
 20
1343.1952393503
 30
0.0
  0
SPLINE
  5
491
100
AcDbEntity
  8
0
100
AcDbSpline
 62
7
  6
CONTINUOUS
 70
0
 71
3
 72
9
 73
5
 74
0
 42
0.0000001
 43
0.0000001
 44
0.0000000001
 40
0.0
 40
0.0
 40
0.0
 40
0.0
 40
0.4999569466
 40
1.0
 40
1.0
 40
1.0
 40
1.0
 10
928.4142381031
 20
1339.7661488776
 30
0.0
 10
928.7499672238
 20
1339.5722778399
 30
0.0
 10
929.5454104663
 20
1339.4189323411
 30
0.0
 10
930.3409592098
 20
1339.5719035326
 30
0.0
 10
930.6768142089
 20
1339.7656900587
 30
0.0
  0
SPLINE
  5
492
100
AcDbEntity
  8
0
100
AcDbSpline
 62
7
  6
CONTINUOUS
 70
0
 71
3
 72
9
 73
5
 74
0
 42
0.0000001
 43
0.0000001
 44
0.0000000001
 40
0.0
 40
0.0
 40
0.0
 40
0.0
 40
0.4978290919
 40
1.0
 40
1.0
 40
1.0
 40
1.0
 10
930.6772550095
 20
1339.0060124158
 30
0.0
 10
930.3421203794
 20
1338.8126010686
 30
0.0
 10
929.5397008258
 20
1338.6677248291
 30
0.0
 10
928.746168935
 20
1338.8456736398
 30
0.0
 10
928.4142281672
 20
1339.0510063109
 30
0.0
  0
SPLINE
  5
493
100
AcDbEntity
  8
0
100
AcDbSpline
 62
7
  6
CONTINUOUS
 70
0
 71
3
 72
9
 73
5
 74
0
 42
0.0000001
 43
0.0000001
 44
0.0000000001
 40
0.0
 40
0.0
 40
0.0
 40
0.0
 40
0.5538453282
 40
1.0
 40
1.0
 40
1.0
 40
1.0
 10
948.7086684734
 20
1315.9035164043
 30
0.0
 10
948.5773359266
 20
1315.9739612637
 30
0.0
 10
948.3505145325
 20
1316.1350031885
 30
0.0
 10
948.2402074041
 20
1316.404611158
 30
0.0
 10
948.2402359442
 20
1316.5246655952
 30
0.0
  0
SPLINE
  5
494
100
AcDbEntity
  8
0
100
AcDbSpline
 62
7
  6
CONTINUOUS
 70
0
 71
3
 72
9
 73
5
 74
0
 42
0.0000001
 43
0.0000001
 44
0.0000000001
 40
0.0
 40
0.0
 40
0.0
 40
0.0
 40
0.503265969
 40
1.0
 40
1.0
 40
1.0
 40
1.0
 10
955.7797462477
 20
1313.4197770045
 30
0.0
 10
955.4423797576
 20
1313.2250713818
 30
0.0
 10
954.6556605286
 20
1313.0594198208
 30
0.0
 10
953.8572389835
 20
1313.1786419129
 30
0.0
 10
953.5166067986
 20
1313.3569202291
 30
0.0
  0
SPLINE
  5
495
100
AcDbEntity
  8
0
100
AcDbSpline
 62
7
  6
CONTINUOUS
 70
0
 71
3
 72
9
 73
5
 74
0
 42
0.0000001
 43
0.0000001
 44
0.0000000001
 40
0.0
 40
0.0
 40
0.0
 40
0.0
 40
0.449208313
 40
1.0
 40
1.0
 40
1.0
 40
1.0
 10
903.3388346631
 20
1331.7643334929
 30
0.0
 10
903.3388339809
 20
1331.6398085689
 30
0.0
 10
903.4474762612
 20
1331.3618851265
 30
0.0
 10
903.6745928681
 20
1331.187810903
 30
0.0
 10
903.8068043442
 20
1331.1114382533
 30
0.0
  0
SPLINE
  5
496
100
AcDbEntity
  8
0
100
AcDbSpline
 62
7
  6
CONTINUOUS
 70
0
 71
3
 72
9
 73
5
 74
0
 42
0.0000001
 43
0.0000001
 44
0.0000000001
 40
0.0
 40
0.0
 40
0.0
 40
0.0
 40
0.4420600047
 40
1.0
 40
1.0
 40
1.0
 40
1.0
 10
941.2575854514
 20
1305.3993961825
 30
0.0
 10
941.2575226107
 20
1305.2791855545
 30
0.0
 10
941.1443518029
 20
1305.0083501157
 30
0.0
 10
940.9205408983
 20
1304.8408799228
 30
0.0
 10
940.7891495198
 20
1304.7650120215
 30
0.0
  0
SPLINE
  5
497
100
AcDbEntity
  8
0
100
AcDbSpline
 62
7
  6
CONTINUOUS
 70
0
 71
3
 72
9
 73
5
 74
0
 42
0.0000001
 43
0.0000001
 44
0.0000000001
 40
0.0
 40
0.0
 40
0.0
 40
0.0
 40
0.4538697989
 40
1.0
 40
1.0
 40
1.0
 40
1.0
 10
916.155113921
 20
1331.0172342959
 30
0.0
 10
916.1550856031
 20
1330.8896528061
 30
0.0
 10
916.0490787609
 20
1330.6068274162
 30
0.0
 10
915.8196172332
 20
1330.4280223027
 30
0.0
 10
915.6866732138
 20
1330.3512568469
 30
0.0
  0
SPLINE
  5
498
100
AcDbEntity
  8
0
100
AcDbSpline
 62
7
  6
CONTINUOUS
 70
0
 71
3
 72
9
 73
5
 74
0
 42
0.0000001
 43
0.0000001
 44
0.0000000001
 40
0.0
 40
0.0
 40
0.0
 40
0.0
 40
0.4420600047
 40
1.0
 40
1.0
 40
1.0
 40
1.0
 10
951.1570391724
 20
1311.1148143367
 30
0.0
 10
951.1569763317
 20
1310.9946037087
 30
0.0
 10
951.0438055239
 20
1310.7237682699
 30
0.0
 10
950.8199946193
 20
1310.556298077
 30
0.0
 10
950.6886032408
 20
1310.4804301757
 30
0.0
  0
SPLINE
  5
499
100
AcDbEntity
  8
0
100
AcDbSpline
 62
7
  6
CONTINUOUS
 70
0
 71
3
 72
9
 73
5
 74
0
 42
0.0000001
 43
0.0000001
 44
0.0000000001
 40
0.0
 40
0.0
 40
0.0
 40
0.0
 40
0.5538453282
 40
1.0
 40
1.0
 40
1.0
 40
1.0
 10
938.8092147524
 20
1310.18809825
 30
0.0
 10
938.6778822057
 20
1310.2585431095
 30
0.0
 10
938.4510608116
 20
1310.4195850343
 30
0.0
 10
938.3407536831
 20
1310.6891930038
 30
0.0
 10
938.3407822232
 20
1310.809247441
 30
0.0
  0
SPLINE
  5
49A
100
AcDbEntity
  8
0
100
AcDbSpline
 62
7
  6
CONTINUOUS
 70
0
 71
3
 72
9
 73
5
 74
0
 42
0.0000001
 43
0.0000001
 44
0.0000000001
 40
0.0
 40
0.0
 40
0.0
 40
0.0
 40
0.503265969
 40
1.0
 40
1.0
 40
1.0
 40
1.0
 10
945.8802925267
 20
1307.7043588503
 30
0.0
 10
945.5429260365
 20
1307.5096532276
 30
0.0
 10
944.7562068076
 20
1307.3440016666
 30
0.0
 10
943.9577852625
 20
1307.4632237588
 30
0.0
 10
943.6171530775
 20
1307.641502075
 30
0.0
  0
SPLINE
  5
49B
100
AcDbEntity
  8
0
100
AcDbSpline
 62
7
  6
CONTINUOUS
 70
0
 71
3
 72
9
 73
5
 74
0
 42
0.0000001
 43
0.0000001
 44
0.0000000001
 40
0.0
 40
0.0
 40
0.0
 40
0.0
 40
0.5508344803
 40
1.0
 40
1.0
 40
1.0
 40
1.0
 10
970.4873461361
 20
1322.33401842
 30
0.0
 10
970.6197017783
 20
1322.410443606
 30
0.0
 10
970.847138938
 20
1322.584516127
 30
0.0
 10
970.9559687769
 20
1322.8626953892
 30
0.0
 10
970.9559693332
 20
1322.9873220014
 30
0.0
  0
SPLINE
  5
49C
100
AcDbEntity
  8
0
100
AcDbSpline
 62
7
  6
CONTINUOUS
 70
0
 71
3
 72
9
 73
5
 74
0
 42
0.0000001
 43
0.0000001
 44
0.0000000001
 40
0.0
 40
0.0
 40
0.0
 40
0.0
 40
0.4999533597
 40
1.0
 40
1.0
 40
1.0
 40
1.0
 10
963.4161066472
 20
1319.5582678167
 30
0.0
 10
963.7518380989
 20
1319.3643832087
 30
0.0
 10
964.5473010589
 20
1319.2110073678
 30
0.0
 10
965.3428781416
 20
1319.3639789964
 30
0.0
 10
965.6787455893
 20
1319.5577727006
 30
0.0
  0
SPLINE
  5
49D
100
AcDbEntity
  8
0
100
AcDbSpline
 62
7
  6
CONTINUOUS
 70
0
 71
3
 72
9
 73
5
 74
0
 42
0.0000001
 43
0.0000001
 44
0.0000000001
 40
0.0
 40
0.0
 40
0.0
 40
0.0
 40
0.4999533597
 40
1.0
 40
1.0
 40
1.0
 40
1.0
 10
933.7177454842
 20
1302.4120133541
 30
0.0
 10
934.0534769359
 20
1302.2181287461
 30
0.0
 10
934.8489398959
 20
1302.0647529052
 30
0.0
 10
935.6445169787
 20
1302.2177245338
 30
0.0
 10
935.9803844263
 20
1302.411518238
 30
0.0
  0
SPLINE
  5
49E
100
AcDbEntity
  8
0
100
AcDbSpline
 62
7
  6
CONTINUOUS
 70
0
 71
3
 72
9
 73
5
 74
0
 42
0.0000001
 43
0.0000001
 44
0.0000000001
 40
0.0
 40
0.0
 40
0.0
 40
0.0
 40
0.5508343666
 40
1.0
 40
1.0
 40
1.0
 40
1.0
 10
940.7889849683
 20
1305.1877639546
 30
0.0
 10
940.9213405906
 20
1305.264189129
 30
0.0
 10
941.1487777441
 20
1305.4382616905
 30
0.0
 10
941.2576076327
 20
1305.7164408882
 30
0.0
 10
941.2576083162
 20
1305.8410675389
 30
0.0
  0
SPLINE
  5
49F
100
AcDbEntity
  8
0
100
AcDbSpline
 62
7
  6
CONTINUOUS
 70
0
 71
3
 72
9
 73
5
 74
0
 42
0.0000001
 43
0.0000001
 44
0.0000000001
 40
0.0
 40
0.0
 40
0.0
 40
0.0
 40
0.5538455057
 40
1.0
 40
1.0
 40
1.0
 40
1.0
 10
958.6081225363
 20
1321.6189343751
 30
0.0
 10
958.4767898669
 20
1321.6893792869
 30
0.0
 10
958.249968098
 20
1321.8504209889
 30
0.0
 10
958.1396610065
 20
1322.1200292924
 30
0.0
 10
958.139689714
 20
1322.2400837503
 30
0.0
  0
SPLINE
  5
4A0
100
AcDbEntity
  8
0
100
AcDbSpline
 62
7
  6
CONTINUOUS
 70
0
 71
3
 72
9
 73
5
 74
0
 42
0.0000001
 43
0.0000001
 44
0.0000000001
 40
0.0
 40
0.0
 40
0.0
 40
0.0
 40
0.4538697989
 40
1.0
 40
1.0
 40
1.0
 40
1.0
 10
926.054567642
 20
1336.7326524501
 30
0.0
 10
926.0545393242
 20
1336.6050709603
 30
0.0
 10
925.948532482
 20
1336.3222455704
 30
0.0
 10
925.7190709542
 20
1336.1434404569
 30
0.0
 10
925.5861269349
 20
1336.0666750012
 30
0.0
  0
SPLINE
  5
4A1
100
AcDbEntity
  8
0
100
AcDbSpline
 62
7
  6
CONTINUOUS
 70
0
 71
3
 72
9
 73
5
 74
0
 42
0.0000001
 43
0.0000001
 44
0.0000000001
 40
0.0
 40
0.0
 40
0.0
 40
0.0
 40
0.503265969
 40
1.0
 40
1.0
 40
1.0
 40
1.0
 10
965.6791999687
 20
1319.1351951586
 30
0.0
 10
965.3418334786
 20
1318.940489536
 30
0.0
 10
964.5551142497
 20
1318.7748379751
 30
0.0
 10
963.7566927047
 20
1318.8940600671
 30
0.0
 10
963.4160605198
 20
1319.0723383832
 30
0.0
  0
SPLINE
  5
4A2
100
AcDbEntity
  8
0
100
AcDbSpline
 62
7
  6
CONTINUOUS
 70
0
 71
3
 72
9
 73
5
 74
0
 42
0.0000001
 43
0.0000001
 44
0.0000000001
 40
0.0
 40
0.0
 40
0.0
 40
0.0
 40
0.5538453282
 40
1.0
 40
1.0
 40
1.0
 40
1.0
 10
928.9097610313
 20
1304.4726800959
 30
0.0
 10
928.7784284846
 20
1304.5431249554
 30
0.0
 10
928.5516070906
 20
1304.7041668801
 30
0.0
 10
928.4412999621
 20
1304.9737748496
 30
0.0
 10
928.4413285022
 20
1305.0938292868
 30
0.0
  0
SPLINE
  5
4A3
100
AcDbEntity
  8
0
100
AcDbSpline
 62
7
  6
CONTINUOUS
 70
0
 71
3
 72
9
 73
5
 74
0
 42
0.0000001
 43
0.0000001
 44
0.0000000001
 40
0.0
 40
0.0
 40
0.0
 40
0.0
 40
0.5508343614
 40
1.0
 40
1.0
 40
1.0
 40
1.0
 10
925.5859619398
 20
1336.8265181455
 30
0.0
 10
925.7183173109
 20
1336.9029433618
 30
0.0
 10
925.9457541126
 20
1337.0770157763
 30
0.0
 10
926.054583647
 20
1337.3551947031
 30
0.0
 10
926.0545842782
 20
1337.4798211961
 30
0.0
  0
SPLINE
  5
4A4
100
AcDbEntity
  8
0
100
AcDbSpline
 62
7
  6
CONTINUOUS
 70
0
 71
3
 72
9
 73
5
 74
0
 42
0.0000001
 43
0.0000001
 44
0.0000000001
 40
0.0
 40
0.0
 40
0.0
 40
0.0
 40
0.4999569459
 40
1.0
 40
1.0
 40
1.0
 40
1.0
 10
918.5147843935
 20
1334.0507307159
 30
0.0
 10
918.85051351
 20
1333.8568596853
 30
0.0
 10
919.6459567372
 20
1333.7035141928
 30
0.0
 10
920.4415054685
 20
1333.8564853709
 30
0.0
 10
920.7773604646
 20
1334.0502718901
 30
0.0
  0
SPLINE
  5
4A5
100
AcDbEntity
  8
0
100
AcDbSpline
 62
7
  6
CONTINUOUS
 70
0
 71
3
 72
9
 73
5
 74
0
 42
0.0000001
 43
0.0000001
 44
0.0000000001
 40
0.0
 40
0.0
 40
0.0
 40
0.0
 40
0.5032659689
 40
1.0
 40
1.0
 40
1.0
 40
1.0
 10
935.9808388057
 20
1301.988940696
 30
0.0
 10
935.6434723156
 20
1301.7942350734
 30
0.0
 10
934.8567530868
 20
1301.6285835125
 30
0.0
 10
934.0583315418
 20
1301.7478056045
 30
0.0
 10
933.7176993569
 20
1301.9260839205
 30
0.0
  0
SPLINE
  5
4A6
100
AcDbEntity
  8
0
100
AcDbSpline
 62
7
  6
CONTINUOUS
 70
0
 71
3
 72
9
 73
5
 74
0
 42
0.0000001
 43
0.0000001
 44
0.0000000001
 40
0.0
 40
0.0
 40
0.0
 40
0.0
 40
0.5508343613
 40
1.0
 40
1.0
 40
1.0
 40
1.0
 10
915.6865082188
 20
1331.1110999912
 30
0.0
 10
915.8188635898
 20
1331.1875252076
 30
0.0
 10
916.0463003915
 20
1331.3615976221
 30
0.0
 10
916.155129926
 20
1331.6397765488
 30
0.0
 10
916.1551305574
 20
1331.7644030419
 30
0.0
  0
SPLINE
  5
4A7
100
AcDbEntity
  8
0
100
AcDbSpline
 62
7
  6
CONTINUOUS
 70
0
 71
3
 72
9
 73
5
 74
0
 42
0.0000001
 43
0.0000001
 44
0.0000000001
 40
0.0
 40
0.0
 40
0.0
 40
0.0
 40
0.4999569459
 40
1.0
 40
1.0
 40
1.0
 40
1.0
 10
908.6153306724
 20
1328.3353125617
 30
0.0
 10
908.9510597889
 20
1328.1414415311
 30
0.0
 10
909.7465030159
 20
1327.9880960387
 30
0.0
 10
910.5420517473
 20
1328.1410672166
 30
0.0
 10
910.8779067433
 20
1328.3348537357
 30
0.0
  0
SPLINE
  5
4A8
100
AcDbEntity
  8
0
100
AcDbSpline
 62
7
  6
CONTINUOUS
 70
0
 71
3
 72
10
 73
6
 74
0
 42
0.0000001
 43
0.0000001
 44
0.0000000001
 40
0.0
 40
0.0
 40
0.0
 40
0.0
 40
0.5423315956
 40
0.7784803
 40
1.0
 40
1.0
 40
1.0
 40
1.0
 10
883.4987888604
 20
1323.2345400804
 30
0.0
 10
882.9316540659
 20
1323.5982599828
 30
0.0
 10
882.1745052832
 20
1324.2612948228
 30
0.0
 10
881.6107902641
 20
1325.3837108125
 30
0.0
 10
881.5157269916
 20
1325.955719763
 30
0.0
 10
881.5157262677
 20
1326.2309168451
 30
0.0
  0
SPLINE
  5
4A9
100
AcDbEntity
  8
0
100
AcDbSpline
 62
7
  6
CONTINUOUS
 70
0
 71
3
 72
9
 73
5
 74
0
 42
0.0000001
 43
0.0000001
 44
0.0000000001
 40
0.0
 40
0.0
 40
0.0
 40
0.0
 40
0.2448233359
 40
1.0
 40
1.0
 40
1.0
 40
1.0
 10
930.450874519
 20
1296.1273540386
 30
0.0
 10
926.5139542903
 20
1298.1483545123
 30
0.0
 10
910.5391794865
 20
1306.6086173757
 30
0.0
 10
894.9891575338
 20
1315.8654349505
 30
0.0
 10
883.4987888342
 20
1323.2345400969
 30
0.0
  0
SPLINE
  5
4AA
100
AcDbEntity
  8
0
100
AcDbSpline
 62
7
  6
CONTINUOUS
 70
0
 71
3
 72
9
 73
5
 74
0
 42
0.0000001
 43
0.0000001
 44
0.0000000001
 40
0.0
 40
0.0
 40
0.0
 40
0.0
 40
0.4999533597
 40
1.0
 40
1.0
 40
1.0
 40
1.0
 10
943.6171992051
 20
1308.1274315083
 30
0.0
 10
943.9529306568
 20
1307.9335469003
 30
0.0
 10
944.7483936169
 20
1307.7801710594
 30
0.0
 10
945.5439706996
 20
1307.933142688
 30
0.0
 10
945.8798381473
 20
1308.1269363922
 30
0.0
  0
SPLINE
  5
4AB
100
AcDbEntity
  8
0
100
AcDbSpline
 62
7
  6
CONTINUOUS
 70
0
 71
3
 72
11
 73
7
 74
0
 42
0.0000001
 43
0.0000001
 44
0.0000000001
 40
0.0
 40
0.0
 40
0.0
 40
0.0
 40
0.2392073038
 40
0.5038950861
 40
0.7663419194
 40
1.0
 40
1.0
 40
1.0
 40
1.0
 10
940.0259997246
 20
1296.4650982732
 30
0.0
 10
939.3428165289
 20
1296.0706646257
 30
0.0
 10
937.7654543573
 20
1295.4778343807
 30
0.0
 10
935.2463601791
 20
1295.1260634091
 30
0.0
 10
932.7262861799
 20
1295.2899498473
 30
0.0
 10
931.1363952239
 20
1295.7754450364
 30
0.0
 10
930.4508745188
 20
1296.1273540387
 30
0.0
  0
SPLINE
  5
4AC
100
AcDbEntity
  8
0
100
AcDbSpline
 62
7
  6
CONTINUOUS
 70
0
 71
3
 72
9
 73
5
 74
0
 42
0.0000001
 43
0.0000001
 44
0.0000000001
 40
0.0
 40
0.0
 40
0.0
 40
0.0
 40
0.5508343613
 40
1.0
 40
1.0
 40
1.0
 40
1.0
 10
905.7870544978
 20
1325.3956818371
 30
0.0
 10
905.9194098689
 20
1325.4721070534
 30
0.0
 10
906.1468466705
 20
1325.6461794679
 30
0.0
 10
906.2556762051
 20
1325.9243583947
 30
0.0
 10
906.2556768364
 20
1326.0489848877
 30
0.0
  0
SPLINE
  5
4AD
100
AcDbEntity
  8
0
100
AcDbSpline
 62
7
  6
CONTINUOUS
 70
0
 71
3
 72
9
 73
5
 74
0
 42
0.0000001
 43
0.0000001
 44
0.0000000001
 40
0.0
 40
0.0
 40
0.0
 40
0.0
 40
0.4999493394
 40
1.0
 40
1.0
 40
1.0
 40
1.0
 10
898.7157419481
 20
1322.6199723497
 30
0.0
 10
899.05148561
 20
1322.4260885389
 30
0.0
 10
899.8469570315
 20
1322.2726535509
 30
0.0
 10
900.6425713719
 20
1322.4256336822
 30
0.0
 10
900.9784530357
 20
1322.6194355892
 30
0.0
  0
SPLINE
  5
4AE
100
AcDbEntity
  8
0
100
AcDbSpline
 62
7
  6
CONTINUOUS
 70
0
 71
3
 72
9
 73
5
 74
0
 42
0.0000001
 43
0.0000001
 44
0.0000000001
 40
0.0
 40
0.0
 40
0.0
 40
0.0
 40
0.4492083131
 40
1.0
 40
1.0
 40
1.0
 40
1.0
 10
913.238288384
 20
1337.4797516471
 30
0.0
 10
913.2382877018
 20
1337.3552267233
 30
0.0
 10
913.3469299817
 20
1337.0773032816
 30
0.0
 10
913.5740465878
 20
1336.903229058
 30
0.0
 10
913.7062580635
 20
1336.8268564085
 30
0.0
  0
SPLINE
  5
4AF
100
AcDbEntity
  8
0
100
AcDbSpline
 62
7
  6
CONTINUOUS
 70
0
 71
3
 72
9
 73
5
 74
0
 42
0.0000001
 43
0.0000001
 44
0.0000000001
 40
0.0
 40
0.0
 40
0.0
 40
0.0
 40
0.5508343666
 40
1.0
 40
1.0
 40
1.0
 40
1.0
 10
950.6884386893
 20
1310.9031821088
 30
0.0
 10
950.8207943116
 20
1310.9796072832
 30
0.0
 10
951.0482314651
 20
1311.1536798447
 30
0.0
 10
951.1570613537
 20
1311.4318590424
 30
0.0
 10
951.1570620372
 20
1311.5564856931
 30
0.0
  0
SPLINE
  5
4B0
100
AcDbEntity
  8
0
100
AcDbSpline
 62
7
  6
CONTINUOUS
 70
0
 71
3
 72
9
 73
5
 74
0
 42
0.0000001
 43
0.0000001
 44
0.0000000001
 40
0.0
 40
0.0
 40
0.0
 40
0.0
 40
0.4492083089
 40
1.0
 40
1.0
 40
1.0
 40
1.0
 10
928.4413124218
 20
1305.8409979899
 30
0.0
 10
928.4413117917
 20
1305.7164730479
 30
0.0
 10
928.5499527199
 20
1305.4385482696
 30
0.0
 10
928.7770718802
 20
1305.2644778151
 30
0.0
 10
928.9092819979
 20
1305.188102765
 30
0.0
  0
SPLINE
  5
4B1
100
AcDbEntity
  8
0
100
AcDbSpline
 62
7
  6
CONTINUOUS
 70
0
 71
3
 72
9
 73
5
 74
0
 42
0.0000001
 43
0.0000001
 44
0.0000000001
 40
0.0
 40
0.0
 40
0.0
 40
0.0
 40
0.4420600047
 40
1.0
 40
1.0
 40
1.0
 40
1.0
 10
961.0564928934
 20
1316.8302324909
 30
0.0
 10
961.0564300527
 20
1316.7100218629
 30
0.0
 10
960.9432592449
 20
1316.4391864241
 30
0.0
 10
960.7194483403
 20
1316.2717162312
 30
0.0
 10
960.5880569618
 20
1316.1958483299
 30
0.0
  0
SPLINE
  5
4B2
100
AcDbEntity
  8
0
100
AcDbSpline
 62
7
  6
CONTINUOUS
 70
0
 71
3
 72
9
 73
5
 74
0
 42
0.0000001
 43
0.0000001
 44
0.0000000001
 40
0.0
 40
0.0
 40
0.0
 40
0.0
 40
0.4420600041
 40
1.0
 40
1.0
 40
1.0
 40
1.0
 10
970.955946612
 20
1322.545650645
 30
0.0
 10
970.9558837753
 20
1322.4254400174
 30
0.0
 10
970.8427129633
 20
1322.1546045786
 30
0.0
 10
970.6189020616
 20
1321.9871343854
 30
0.0
 10
970.4875106832
 20
1321.911266484
 30
0.0
  0
SPLINE
  5
4B3
100
AcDbEntity
  8
0
100
AcDbSpline
 62
7
  6
CONTINUOUS
 70
0
 71
3
 72
9
 73
5
 74
0
 42
0.0000001
 43
0.0000001
 44
0.0000000001
 40
0.0
 40
0.0
 40
0.0
 40
0.0
 40
0.5508343666
 40
1.0
 40
1.0
 40
1.0
 40
1.0
 10
960.5878924102
 20
1316.618600263
 30
0.0
 10
960.7202480326
 20
1316.6950254374
 30
0.0
 10
960.9476851861
 20
1316.8690979989
 30
0.0
 10
961.0565150747
 20
1317.1472771966
 30
0.0
 10
961.0565157582
 20
1317.2719038473
 30
0.0
  0
SPLINE
  5
4B4
100
AcDbEntity
  8
0
100
AcDbSpline
 62
7
  6
CONTINUOUS
 70
0
 71
3
 72
9
 73
5
 74
0
 42
0.0000001
 43
0.0000001
 44
0.0000000001
 40
0.0
 40
0.0
 40
0.0
 40
0.0
 40
0.4999533597
 40
1.0
 40
1.0
 40
1.0
 40
1.0
 10
953.5166529261
 20
1313.8428496625
 30
0.0
 10
953.8523843778
 20
1313.6489650545
 30
0.0
 10
954.6478473379
 20
1313.4955892136
 30
0.0
 10
955.4434244206
 20
1313.6485608422
 30
0.0
 10
955.7792918683
 20
1313.8423545464
 30
0.0
  0
SPLINE
  5
4B5
100
AcDbEntity
  8
0
100
AcDbSpline
 62
7
  6
CONTINUOUS
 70
0
 71
3
 72
9
 73
5
 74
0
 42
0.0000001
 43
0.0000001
 44
0.0000000001
 40
0.0
 40
0.0
 40
0.0
 40
0.0
 40
0.5466694483
 40
1.0
 40
1.0
 40
1.0
 40
1.0
 10
913.7068629862
 20
1336.3405826284
 30
0.0
 10
913.5731861028
 20
1336.4250193587
 30
0.0
 10
913.3447758964
 20
1336.6165805175
 30
0.0
 10
913.2382480364
 20
1336.9069655238
 30
0.0
 10
913.2383101917
 20
1337.0380804298
 30
0.0
  0
SPLINE
  5
4B6
100
AcDbEntity
  8
0
100
AcDbSpline
 62
7
  6
CONTINUOUS
 70
0
 71
3
 72
16
 73
12
 74
0
 42
0.0000001
 43
0.0000001
 44
0.0000000001
 40
0.0
 40
0.0
 40
0.0
 40
0.0
 40
0.0428778978
 40
0.0875262754
 40
0.1869328112
 40
0.3042487746
 40
0.4379774568
 40
0.5823869245
 40
0.7296063578
 40
0.871260522
 40
1.0
 40
1.0
 40
1.0
 40
1.0
 10
481.5597669936
 20
1185.3809113349
 30
0.0
 10
481.5597538505
 20
1186.0214250725
 30
0.0
 10
481.3884671185
 20
1187.3344636536
 30
0.0
 10
480.3487445601
 20
1189.9523289464
 30
0.0
 10
477.7161182974
 20
1192.9755701021
 30
0.0
 10
473.1969124664
 20
1195.7182128518
 30
0.0
 10
467.5565626891
 20
1197.6061499725
 30
0.0
 10
461.2332990683
 20
1198.4931111428
 30
0.0
 10
454.7322255428
 20
1198.3136846337
 30
0.0
 10
448.5863261829
 20
1197.083750481
 30
0.0
 10
444.8152725452
 20
1195.5278847181
 30
0.0
 10
443.1497980443
 20
1194.5663283064
 30
0.0
  0
SPLINE
  5
4B7
100
AcDbEntity
  8
0
100
AcDbSpline
 62
7
  6
CONTINUOUS
 70
0
 71
3
 72
15
 73
11
 74
0
 42
0.0000001
 43
0.0000001
 44
0.0000000001
 40
0.0
 40
0.0
 40
0.0
 40
0.0
 40
0.0869327083
 40
0.1864047499
 40
0.3037948446
 40
0.4376098866
 40
0.5821126063
 40
0.7294270266
 40
0.8711696688
 40
1.0
 40
1.0
 40
1.0
 40
1.0
 10
531.2853883514
 20
1133.1256765862
 30
0.0
 10
531.2854467792
 20
1132.5488952812
 30
0.0
 10
530.9371748923
 20
1131.3008038841
 30
0.0
 10
529.5767839522
 20
1129.7537846685
 30
0.0
 10
527.5687433157
 20
1128.5301723376
 30
0.0
 10
525.0617886527
 20
1127.6926606738
 30
0.0
 10
522.251534223
 20
1127.2979375144
 30
0.0
 10
519.362201475
 20
1127.3778142616
 30
0.0
 10
516.6306820114
 20
1127.9243659884
 30
0.0
 10
514.9546356007
 20
1128.6158604319
 30
0.0
 10
514.2143843009
 20
1129.0432350506
 30
0.0
  0
SPLINE
  5
4B8
100
AcDbEntity
  8
0
100
AcDbSpline
 62
7
  6
CONTINUOUS
 70
0
 71
3
 72
11
 73
7
 74
0
 42
0.0000001
 43
0.0000001
 44
0.0000000001
 40
0.0
 40
0.0
 40
0.0
 40
0.0
 40
0.2898111984
 40
0.5490481668
 40
0.7822299097
 40
1.0
 40
1.0
 40
1.0
 40
1.0
 10
443.1497980443
 20
1194.5663283064
 30
0.0
 10
442.162151646
 20
1193.9961137962
 30
0.0
 10
440.3706645912
 20
1192.762991368
 30
0.0
 10
438.2307919484
 20
1190.5124531631
 30
0.0
 10
436.8760790856
 20
1188.0243934993
 30
0.0
 10
436.5598675268
 20
1186.2378568751
 30
0.0
 10
436.5598187482
 20
1185.3809112375
 30
0.0
  0
SPLINE
  5
4B9
100
AcDbEntity
  8
0
100
AcDbSpline
 62
7
  6
CONTINUOUS
 70
0
 71
3
 72
11
 73
7
 74
0
 42
0.0000001
 43
0.0000001
 44
0.0000000001
 40
0.0
 40
0.0
 40
0.0
 40
0.0
 40
0.2177679732
 40
0.4509389806
 40
0.7102091312
 40
1.0
 40
1.0
 40
1.0
 40
1.0
 10
531.2853829433
 20
1149.4557249306
 30
0.0
 10
531.2853450144
 20
1149.8365903041
 30
0.0
 10
531.1448044145
 20
1150.6305806076
 30
0.0
 10
530.5427738397
 20
1151.7364845913
 30
0.0
 10
529.5916043254
 20
1152.7366537882
 30
0.0
 10
528.7953910485
 20
1153.284755848
 30
0.0
 10
528.3564610452
 20
1153.5381664706
 30
0.0
  0
SPLINE
  5
4BA
100
AcDbEntity
  8
0
100
AcDbSpline
 62
7
  6
CONTINUOUS
 70
0
 71
3
 72
15
 73
11
 74
0
 42
0.0000001
 43
0.0000001
 44
0.0000000001
 40
0.0
 40
0.0
 40
0.0
 40
0.0
 40
0.1288285069
 40
0.270569037
 40
0.417882836
 40
0.5623878015
 40
0.696204985
 40
0.8135955415
 40
0.9130670894
 40
1.0
 40
1.0
 40
1.0
 40
1.0
 10
514.2143843009
 20
1145.3732833932
 30
0.0
 10
514.9546251061
 20
1144.9459148334
 30
0.0
 10
516.630645392
 20
1144.254428358
 30
0.0
 10
519.3621317345
 20
1143.7078654732
 30
0.0
 10
522.2514610331
 20
1143.6279838838
 30
0.0
 10
525.0617425445
 20
1144.0226932613
 30
0.0
 10
527.5687301908
 20
1144.8602127146
 30
0.0
 10
529.5767808512
 20
1146.0838331236
 30
0.0
 10
530.9371786621
 20
1147.630850303
 30
0.0
 10
531.2854403827
 20
1148.8789422933
 30
0.0
 10
531.2853829433
 20
1149.4557249306
 30
0.0
  0
SPLINE
  5
4BB
100
AcDbEntity
  8
0
100
AcDbSpline
 62
7
  6
CONTINUOUS
 70
0
 71
3
 72
11
 73
7
 74
0
 42
0.0000001
 43
0.0000001
 44
0.0000000001
 40
0.0
 40
0.0
 40
0.0
 40
0.0
 40
0.2177677571
 40
0.450948636
 40
0.7101877408
 40
1.0
 40
1.0
 40
1.0
 40
1.0
 10
481.5596907263
 20
1143.7392881112
 30
0.0
 10
481.5596925525
 20
1142.8823517657
 30
0.0
 10
481.2434460967
 20
1141.0958230065
 30
0.0
 10
479.8887696766
 20
1138.6077601952
 30
0.0
 10
477.7488797727
 20
1136.3572179192
 30
0.0
 10
475.95738556
 20
1135.1240876021
 30
0.0
 10
474.9697356759
 20
1134.5538710794
 30
0.0
  0
SPLINE
  5
4BC
100
AcDbEntity
  8
0
100
AcDbSpline
 62
7
  6
CONTINUOUS
 70
0
 71
3
 72
9
 73
5
 74
0
 42
0.0000001
 43
0.0000001
 44
0.0000000001
 40
0.0
 40
0.0
 40
0.0
 40
0.0
 40
0.4774275243
 40
1.0
 40
1.0
 40
1.0
 40
1.0
 10
474.9697356759
 20
1134.5538710794
 30
0.0
 10
473.5018496188
 20
1133.7063917279
 30
0.0
 10
470.2152864618
 20
1132.2918420486
 30
0.0
 10
466.7419532839
 20
1131.4806370751
 30
0.0
 10
464.9087266805
 20
1131.1956872857
 30
0.0
  0
SPLINE
  5
4BD
100
AcDbEntity
  8
0
100
AcDbSpline
 62
7
  6
CONTINUOUS
 70
0
 71
3
 72
9
 73
5
 74
0
 42
0.0000001
 43
0.0000001
 44
0.0000000001
 40
0.0
 40
0.0
 40
0.0
 40
0.0
 40
0.2489080681
 40
1.0
 40
1.0
 40
1.0
 40
1.0
 10
464.9087266805
 20
1131.1956872857
 30
0.0
 10
463.9492399849
 20
1131.0465483132
 30
0.0
 10
460.07215794
 20
1130.6021227172
 30
0.0
 10
456.1265115232
 20
1130.7441890271
 30
0.0
 10
453.2309581977
 20
1131.1925690528
 30
0.0
  0
SPLINE
  5
4BE
100
AcDbEntity
  8
0
100
AcDbSpline
 62
7
  6
CONTINUOUS
 70
0
 71
3
 72
13
 73
9
 74
0
 42
0.0000001
 43
0.0000001
 44
0.0000000001
 40
0.0
 40
0.0
 40
0.0
 40
0.0
 40
0.3070506889
 40
0.5776413382
 40
0.696646562
 40
0.8050243886
 40
0.9049074175
 40
1.0
 40
1.0
 40
1.0
 40
1.0
 10
453.2309581977
 20
1131.1925690528
 30
0.0
 10
450.9580844277
 20
1131.5445263766
 30
0.0
 10
446.7311227354
 20
1132.6060771951
 30
0.0
 10
442.0243497586
 20
1135.0243847893
 30
0.0
 10
439.2095673838
 20
1137.500453837
 30
0.0
 10
437.7070654882
 20
1139.4616088801
 30
0.0
 10
436.7736611339
 20
1141.5590704042
 30
0.0
 10
436.5598445119
 20
1143.0269971142
 30
0.0
 10
436.559842994
 20
1143.739288001
 30
0.0
  0
SPLINE
  5
4BF
100
AcDbEntity
  8
0
100
AcDbSpline
 62
7
  6
CONTINUOUS
 70
0
 71
3
 72
14
 73
10
 74
0
 42
0.0000001
 43
0.0000001
 44
0.0000000001
 40
0.0
 40
0.0
 40
0.0
 40
0.0
 40
0.0876960322
 40
0.1840998252
 40
0.2943093854
 40
0.4192892359
 40
0.5569441204
 40
0.703228681
 40
1.0
 40
1.0
 40
1.0
 40
1.0
 10
436.5598187482
 20
1185.3809112375
 30
0.0
 10
436.559759673
 20
1184.3430735285
 30
0.0
 10
437.0381376825
 20
1182.1458918546
 30
0.0
 10
439.0217198375
 20
1179.2090988454
 30
0.0
 10
442.0739853333
 20
1176.6796927636
 30
0.0
 10
446.0208608657
 20
1174.6484352303
 30
0.0
 10
450.6616183239
 20
1173.2011672804
 30
0.0
 10
457.4671995486
 20
1172.1458759276
 30
0.0
 10
462.7934079867
 20
1172.399780028
 30
0.0
 10
466.2409806391
 20
1173.0701143252
 30
0.0
  0
SPLINE
  5
4C0
100
AcDbEntity
  8
0
100
AcDbSpline
 62
7
  6
CONTINUOUS
 70
0
 71
3
 72
9
 73
5
 74
0
 42
0.0000001
 43
0.0000001
 44
0.0000000001
 40
0.0
 40
0.0
 40
0.0
 40
0.0
 40
0.4999993603
 40
1.0
 40
1.0
 40
1.0
 40
1.0
 10
1323.1422898369
 20
1102.5021538306
 30
0.0
 10
1322.0928995674
 20
1101.8962916925
 30
0.0
 10
1319.6067596702
 20
1101.4172843499
 30
0.0
 10
1317.1206193486
 20
1101.8962807129
 30
0.0
 10
1316.0712220251
 20
1102.5021368338
 30
0.0
  0
SPLINE
  5
4C1
100
AcDbEntity
  8
0
100
AcDbSpline
 62
7
  6
CONTINUOUS
 70
0
 71
3
 72
9
 73
5
 74
0
 42
0.0000001
 43
0.0000001
 44
0.0000000001
 40
0.0
 40
0.0
 40
0.0
 40
0.0
 40
0.2304804816
 40
1.0
 40
1.0
 40
1.0
 40
1.0
 10
1316.0712220251
 20
1104.9516440852
 30
0.0
 10
1316.2631673478
 20
1104.8408269085
 30
0.0
 10
1317.1299307659
 20
1104.4193906124
 30
0.0
 10
1318.0898405501
 20
1104.2085913563
 30
0.0
 10
1318.8267896833
 20
1104.1414983638
 30
0.0
  0
SPLINE
  5
4C2
100
AcDbEntity
  8
0
100
AcDbSpline
 62
7
  6
CONTINUOUS
 70
0
 71
3
 72
9
 73
5
 74
0
 42
0.0000001
 43
0.0000001
 44
0.0000000001
 40
0.0
 40
0.0
 40
0.0
 40
0.0
 40
0.2672067609
 40
1.0
 40
1.0
 40
1.0
 40
1.0
 10
1320.3864852133
 20
1104.1414794685
 30
0.0
 10
1320.6423013181
 20
1104.1647629848
 30
0.0
 10
1321.5937397662
 20
1104.2956920843
 30
0.0
 10
1322.5322128879
 20
1104.5994350937
 30
0.0
 10
1323.1422898369
 20
1104.9516610819
 30
0.0
  0
SPLINE
  5
4C3
100
AcDbEntity
  8
0
100
AcDbSpline
 62
7
  6
CONTINUOUS
 70
0
 71
3
 72
9
 73
5
 74
0
 42
0.0000001
 43
0.0000001
 44
0.0000000001
 40
0.0
 40
0.0
 40
0.0
 40
0.0
 40
0.4999996218
 40
1.0
 40
1.0
 40
1.0
 40
1.0
 10
1323.1422898369
 20
1104.9516610819
 30
0.0
 10
1322.0929006144
 20
1104.3457995484
 30
0.0
 10
1319.60675891
 20
1103.8668382191
 30
0.0
 10
1317.1206172042
 20
1104.3457892023
 30
0.0
 10
1316.0712220251
 20
1104.9516440852
 30
0.0
  0
SPLINE
  5
4C4
100
AcDbEntity
  8
0
100
AcDbSpline
 62
7
  6
CONTINUOUS
 70
0
 71
3
 72
8
 73
4
 74
0
 42
0.0000001
 43
0.0000001
 44
0.0000000001
 40
0.0
 40
0.0
 40
0.0
 40
0.0
 40
1.0
 40
1.0
 40
1.0
 40
1.0
 10
1393.1209038369
 20
1437.2207868087
 30
0.0
 10
1393.1260222492
 20
1437.3152230775
 30
0.0
 10
1393.1247166582
 20
1437.4103707982
 30
0.0
 10
1393.1150583546
 20
1437.5044512116
 30
0.0
  0
SPLINE
  5
4C5
100
AcDbEntity
  8
0
100
AcDbSpline
 62
7
  6
CONTINUOUS
 70
0
 71
3
 72
9
 73
5
 74
0
 42
0.0000001
 43
0.0000001
 44
0.0000000001
 40
0.0
 40
0.0
 40
0.0
 40
0.0
 40
0.5278239503
 40
1.0
 40
1.0
 40
1.0
 40
1.0
 10
1384.6602942348
 20
1449.9232310172
 30
0.0
 10
1385.7335313282
 20
1449.3036113101
 30
0.0
 10
1387.5746924897
 20
1447.8303804297
 30
0.0
 10
1389.2226789195
 20
1446.1034646574
 30
0.0
 10
1389.7769751078
 20
1445.143379107
 30
0.0
  0
SPLINE
  5
4C6
100
AcDbEntity
  8
0
100
AcDbSpline
 62
7
  6
CONTINUOUS
 70
0
 71
3
 72
9
 73
5
 74
0
 42
0.0000001
 43
0.0000001
 44
0.0000000001
 40
0.0
 40
0.0
 40
0.0
 40
0.0
 40
0.4919534421
 40
1.0
 40
1.0
 40
1.0
 40
1.0
 10
1392.2089516699
 20
1436.4842174964
 30
0.0
 10
1392.2083921724
 20
1436.4738968096
 30
0.0
 10
1392.2049800496
 20
1436.4529826962
 30
0.0
 10
1392.1972791853
 20
1436.4332631756
 30
0.0
 10
1392.1924769939
 20
1436.4237304814
 30
0.0
  0
SPLINE
  5
4C7
100
AcDbEntity
  8
0
100
AcDbSpline
 62
7
  6
CONTINUOUS
 70
0
 71
3
 72
8
 73
4
 74
0
 42
0.0000001
 43
0.0000001
 44
0.0000000001
 40
0.0
 40
0.0
 40
0.0
 40
0.0
 40
1.0
 40
1.0
 40
1.0
 40
1.0
 10
1392.1924769939
 20
1436.4237304814
 30
0.0
 10
1392.1663713391
 20
1436.3719088852
 30
0.0
 10
1392.1150360251
 20
1436.3332241047
 30
0.0
 10
1392.0631932907
 20
1436.3071604531
 30
0.0
  0
SPLINE
  5
4C8
100
AcDbEntity
  8
0
100
AcDbSpline
 62
7
  6
CONTINUOUS
 70
0
 71
3
 72
9
 73
5
 74
0
 42
0.0000001
 43
0.0000001
 44
0.0000000001
 40
0.0
 40
0.0
 40
0.0
 40
0.0
 40
0.3682487992
 40
1.0
 40
1.0
 40
1.0
 40
1.0
 10
1123.4180951111
 20
1598.3702376916
 30
0.0
 10
1123.3133408943
 20
1598.2495808937
 30
0.0
 10
1123.3178664696
 20
1597.7456968774
 30
0.0
 10
1123.5250898729
 20
1597.3756157008
 30
0.0
 10
1123.6621488293
 20
1597.138218572
 30
0.0
  0
SPLINE
  5
4C9
100
AcDbEntity
  8
0
100
AcDbSpline
 62
7
  6
CONTINUOUS
 70
0
 71
3
 72
9
 73
5
 74
0
 42
0.0000001
 43
0.0000001
 44
0.0000000001
 40
0.0
 40
0.0
 40
0.0
 40
0.0
 40
0.3364515386
 40
1.0
 40
1.0
 40
1.0
 40
1.0
 10
1124.3667744102
 20
1599.4656812146
 30
0.0
 10
1124.5384645256
 20
1599.6634358814
 30
0.0
 10
1125.5014858554
 20
1599.5424364849
 30
0.0
 10
1126.1179476441
 20
1599.1893475675
 30
0.0
 10
1126.5652445562
 20
1598.9311064171
 30
0.0
  0
SPLINE
  5
4CA
100
AcDbEntity
  8
0
100
AcDbSpline
 62
7
  6
CONTINUOUS
 70
0
 71
3
 72
9
 73
5
 74
0
 42
0.0000001
 43
0.0000001
 44
0.0000000001
 40
0.0
 40
0.0
 40
0.0
 40
0.0
 40
0.2701245852
 40
1.0
 40
1.0
 40
1.0
 40
1.0
 10
1129.1429593573
 20
1588.8280884815
 30
0.0
 10
1128.9681954989
 20
1588.8275905274
 30
0.0
 10
1128.3230423699
 20
1588.7943946236
 30
0.0
 10
1127.6739742797
 20
1588.6424352055
 30
0.0
 10
1127.2520782441
 20
1588.4303292772
 30
0.0
  0
SPLINE
  5
4CB
100
AcDbEntity
  8
0
100
AcDbSpline
 62
7
  6
CONTINUOUS
 70
0
 71
3
 72
8
 73
4
 74
0
 42
0.0000001
 43
0.0000001
 44
0.0000000001
 40
0.0
 40
0.0
 40
0.0
 40
0.0
 40
1.0
 40
1.0
 40
1.0
 40
1.0
 10
1129.7236275941
 20
1588.145414602
 30
0.0
 10
1129.7265706485
 20
1588.1997148537
 30
0.0
 10
1129.7281908896
 20
1588.2925579564
 30
0.0
 10
1129.6744656252
 20
1588.3009707363
 30
0.0
  0
SPLINE
  5
4CC
100
AcDbEntity
  8
0
100
AcDbSpline
 62
7
  6
CONTINUOUS
 70
0
 71
3
 72
9
 73
5
 74
0
 42
0.0000001
 43
0.0000001
 44
0.0000000001
 40
0.0
 40
0.0
 40
0.0
 40
0.0
 40
0.6635486689
 40
1.0
 40
1.0
 40
1.0
 40
1.0
 10
1125.6165652079
 20
1597.8356629369
 30
0.0
 10
1125.1692681606
 20
1598.0939041653
 30
0.0
 10
1124.5528060864
 20
1598.4469934297
 30
0.0
 10
1123.5897853819
 20
1598.5679920059
 30
0.0
 10
1123.4180951111
 20
1598.3702376916
 30
0.0
  0
SPLINE
  5
4CD
100
AcDbEntity
  8
0
100
AcDbSpline
 62
7
  6
CONTINUOUS
 70
0
 71
3
 72
9
 73
5
 74
0
 42
0.0000001
 43
0.0000001
 44
0.0000000001
 40
0.0
 40
0.0
 40
0.0
 40
0.0
 40
0.4721763953
 40
1.0
 40
1.0
 40
1.0
 40
1.0
 10
1388.8282957594
 20
1444.0479356269
 30
0.0
 10
1388.2739991657
 20
1445.0080218795
 30
0.0
 10
1386.626012504
 20
1446.7349375008
 30
0.0
 10
1384.7848512766
 20
1448.2081682359
 30
0.0
 10
1383.7116148865
 20
1448.827787537
 30
0.0
  0
SPLINE
  5
4CE
100
AcDbEntity
  8
0
100
AcDbSpline
 62
7
  6
CONTINUOUS
 70
0
 71
3
 72
9
 73
5
 74
0
 42
0.0000001
 43
0.0000001
 44
0.0000000001
 40
0.0
 40
0.0
 40
0.0
 40
0.0
 40
0.5000002077
 40
1.0
 40
1.0
 40
1.0
 40
1.0
 10
1316.335873159
 20
1106.0343766374
 30
0.0
 10
1317.3338200168
 20
1105.5365865178
 30
0.0
 10
1319.606743071
 20
1105.1255528756
 30
0.0
 10
1321.8796660728
 20
1105.5365874225
 30
0.0
 10
1322.8776117409
 20
1106.0343778513
 30
0.0
  0
SPLINE
  5
4CF
100
AcDbEntity
  8
0
100
AcDbSpline
 62
7
  6
CONTINUOUS
 70
0
 71
3
 72
8
 73
4
 74
0
 42
0.0000001
 43
0.0000001
 44
0.0000000001
 40
0.0
 40
0.0
 40
0.0
 40
0.0
 40
1.0
 40
1.0
 40
1.0
 40
1.0
 10
1128.3127428318
 20
1587.8179681455
 30
0.0
 10
1128.4494574338
 20
1587.8867006651
 30
0.0
 10
1128.5978994788
 20
1587.9334381961
 30
0.0
 10
1128.7476457181
 20
1587.9649200235
 30
0.0
  0
SPLINE
  5
4D0
100
AcDbEntity
  8
0
100
AcDbSpline
 62
7
  6
CONTINUOUS
 70
0
 71
3
 72
8
 73
4
 74
0
 42
0.0000001
 43
0.0000001
 44
0.0000000001
 40
0.0
 40
0.0
 40
0.0
 40
0.0
 40
1.0
 40
1.0
 40
1.0
 40
1.0
 10
1128.7476457181
 20
1587.9649200235
 30
0.0
 10
1129.0619243323
 20
1588.0309922343
 30
0.0
 10
1129.393984229
 20
1588.0326540563
 30
0.0
 10
1129.7109574899
 20
1587.9810349105
 30
0.0
  0
SPLINE
  5
4D1
100
AcDbEntity
  8
0
100
AcDbSpline
 62
7
  6
CONTINUOUS
 70
0
 71
3
 72
8
 73
4
 74
0
 42
0.0000001
 43
0.0000001
 44
0.0000000001
 40
0.0
 40
0.0
 40
0.0
 40
0.0
 40
1.0
 40
1.0
 40
1.0
 40
1.0
 10
1130.0214179581
 20
1587.9103410153
 30
0.0
 10
1130.0951791401
 20
1587.8884050115
 30
0.0
 10
1130.1679783176
 20
1587.862762262
 30
0.0
 10
1130.2389130881
 20
1587.8329267368
 30
0.0
  0
SPLINE
  5
4D2
100
AcDbEntity
  8
0
100
AcDbSpline
 62
7
  6
CONTINUOUS
 70
0
 71
3
 72
8
 73
4
 74
0
 42
0.0000001
 43
0.0000001
 44
0.0000000001
 40
0.0
 40
0.0
 40
0.0
 40
0.0
 40
1.0
 40
1.0
 40
1.0
 40
1.0
 10
1130.2389130881
 20
1587.8329267368
 30
0.0
 10
1130.3050194319
 20
1587.8051220723
 30
0.0
 10
1130.3697484678
 20
1587.7735937616
 30
0.0
 10
1130.431856476
 20
1587.7377364975
 30
0.0
  0
SPLINE
  5
4D3
100
AcDbEntity
  8
0
100
AcDbSpline
 62
7
  6
CONTINUOUS
 70
0
 71
3
 72
8
 73
4
 74
0
 42
0.0000001
 43
0.0000001
 44
0.0000000001
 40
0.0
 40
0.0
 40
0.0
 40
0.0
 40
1.0
 40
1.0
 40
1.0
 40
1.0
 10
1392.0624547803
 20
1436.6886573249
 30
0.0
 10
1392.114726186
 20
1436.6584790975
 30
0.0
 10
1392.1656528629
 20
1436.6165472679
 30
0.0
 10
1392.1921830296
 20
1436.5623331046
 30
0.0
  0
SPLINE
  5
4D4
100
AcDbEntity
  8
0
100
AcDbSpline
 62
7
  6
CONTINUOUS
 70
0
 71
3
 72
9
 73
5
 74
0
 42
0.0000001
 43
0.0000001
 44
0.0000000001
 40
0.0
 40
0.0
 40
0.0
 40
0.0
 40
0.5122757325
 40
1.0
 40
1.0
 40
1.0
 40
1.0
 10
1392.1921830296
 20
1436.5623331046
 30
0.0
 10
1392.1982294753
 20
1436.5499772458
 30
0.0
 10
1392.2074098361
 20
1436.5244224323
 30
0.0
 10
1392.2096606175
 20
1436.4972949931
 30
0.0
 10
1392.2089516699
 20
1436.4842174964
 30
0.0
  0
SPLINE
  5
4D5
100
AcDbEntity
  8
0
100
AcDbSpline
 62
7
  6
CONTINUOUS
 70
0
 71
3
 72
9
 73
5
 74
0
 42
0.0000001
 43
0.0000001
 44
0.0000000001
 40
0.0
 40
0.0
 40
0.0
 40
0.0
 40
0.6797497267
 40
1.0
 40
1.0
 40
1.0
 40
1.0
 10
1392.0258648776
 20
1436.8764286571
 30
0.0
 10
1392.0476424357
 20
1436.838708176
 30
0.0
 10
1392.0716307752
 20
1436.77255678
 30
0.0
 10
1392.0523210329
 20
1436.7098490275
 30
0.0
 10
1392.0446645057
 20
1436.6908105609
 30
0.0
  0
SPLINE
  5
4D6
100
AcDbEntity
  8
0
100
AcDbSpline
 62
7
  6
CONTINUOUS
 70
0
 71
3
 72
9
 73
5
 74
0
 42
0.0000001
 43
0.0000001
 44
0.0000000001
 40
0.0
 40
0.0
 40
0.0
 40
0.0
 40
0.5461821419
 40
1.0
 40
1.0
 40
1.0
 40
1.0
 10
225.7152503424
 20
1027.7975287511
 30
0.0
 10
222.8274102377
 20
1029.4647862945
 30
0.0
 10
217.8457324571
 20
1033.2030234324
 30
0.0
 10
214.7779079018
 20
1038.8319504954
 30
0.0
 10
214.2490663667
 20
1041.5516775956
 30
0.0
  0
SPLINE
  5
4D7
100
AcDbEntity
  8
0
100
AcDbSpline
 62
7
  6
CONTINUOUS
 70
0
 71
3
 72
11
 73
7
 74
0
 42
0.0000001
 43
0.0000001
 44
0.0000000001
 40
0.0
 40
0.0
 40
0.0
 40
0.0
 40
0.2372279391
 40
0.4999994739
 40
0.762771295
 40
1.0
 40
1.0
 40
1.0
 40
1.0
 10
469.6678700008
 20
919.6138647773
 30
0.0
 10
465.6525061975
 20
917.2956072427
 30
0.0
 10
456.3144368002
 20
913.9123457423
 30
0.0
 10
441.3836432224
 20
912.291684896
 30
0.0
 10
426.4528271165
 20
913.9122776062
 30
0.0
 10
417.1147209913
 20
917.2954927393
 30
0.0
 10
413.0993275063
 20
919.6137288032
 30
0.0
  0
SPLINE
  5
4D8
100
AcDbEntity
  8
0
100
AcDbSpline
 62
7
  6
CONTINUOUS
 70
0
 71
3
 72
9
 73
5
 74
0
 42
0.0000001
 43
0.0000001
 44
0.0000000001
 40
0.0
 40
0.0
 40
0.0
 40
0.0
 40
0.4491641734
 40
1.0
 40
1.0
 40
1.0
 40
1.0
 10
1032.0497680582
 20
1337.3904639479
 30
0.0
 10
1032.0497678849
 20
1336.6116907913
 30
0.0
 10
1031.3697484816
 20
1334.8733800949
 30
0.0
 10
1029.9485273212
 20
1333.7855813891
 30
0.0
 10
1029.1214248392
 20
1333.3080563989
 30
0.0
  0
SPLINE
  5
4D9
100
AcDbEntity
  8
0
100
AcDbSpline
 62
7
  6
CONTINUOUS
 70
0
 71
3
 72
9
 73
5
 74
0
 42
0.0000001
 43
0.0000001
 44
0.0000000001
 40
0.0
 40
0.0
 40
0.0
 40
0.0
 40
0.4492273162
 40
1.0
 40
1.0
 40
1.0
 40
1.0
 10
1273.339484643
 20
1405.0162323425
 30
0.0
 10
1273.3394846031
 20
1408.1318859103
 30
0.0
 10
1270.6159660956
 20
1415.0843409942
 30
0.0
 10
1264.9321072457
 20
1419.4360659313
 30
0.0
 10
1261.623932163
 20
1421.3459984974
 30
0.0
  0
SPLINE
  5
4DA
100
AcDbEntity
  8
0
100
AcDbSpline
 62
7
  6
CONTINUOUS
 70
0
 71
3
 72
9
 73
5
 74
0
 42
0.0000001
 43
0.0000001
 44
0.0000000001
 40
0.0
 40
0.0
 40
0.0
 40
0.0
 40
0.4548072105
 40
1.0
 40
1.0
 40
1.0
 40
1.0
 10
1272.9978941882
 20
1390.1647319604
 30
0.0
 10
1272.39514393
 20
1387.5215270412
 30
0.0
 10
1269.3030447452
 20
1382.1066606972
 30
0.0
 10
1264.4386141168
 20
1378.4722288217
 30
0.0
 10
1261.6241676803
 20
1376.8473171133
 30
0.0
  0
SPLINE
  5
4DB
100
AcDbEntity
  8
0
100
AcDbSpline
 62
7
  6
CONTINUOUS
 70
0
 71
3
 72
9
 73
5
 74
0
 42
0.0000001
 43
0.0000001
 44
0.0000000001
 40
0.0
 40
0.0
 40
0.0
 40
0.0
 40
0.5508366897
 40
1.0
 40
1.0
 40
1.0
 40
1.0
 10
872.7010244932
 20
1324.5176507333
 30
0.0
 10
871.8739067145
 20
1324.9951766024
 30
0.0
 10
870.4526591045
 20
1326.0829786309
 30
0.0
 10
869.7726222216
 20
1327.8213106679
 30
0.0
 10
869.7726223949
 20
1328.6000922682
 30
0.0
  0
SPLINE
  5
4DC
100
AcDbEntity
  8
0
100
AcDbSpline
 62
7
  6
CONTINUOUS
 70
0
 71
3
 72
9
 73
5
 74
0
 42
0.0000001
 43
0.0000001
 44
0.0000000001
 40
0.0
 40
0.0
 40
0.0
 40
0.0
 40
0.4999996218
 40
1.0
 40
1.0
 40
1.0
 40
1.0
 10
950.370090831
 20
1287.8412239106
 30
0.0
 10
948.271312386
 20
1286.6295008434
 30
0.0
 10
943.2990289773
 20
1285.6715781848
 30
0.0
 10
938.3267455656
 20
1286.6294801513
 30
0.0
 10
936.2279552074
 20
1287.8411899171
 30
0.0
  0
SPLINE
  5
4DD
100
AcDbEntity
  8
0
100
AcDbSpline
 62
7
  6
CONTINUOUS
 70
0
 71
3
 72
9
 73
5
 74
0
 42
0.0000001
 43
0.0000001
 44
0.0000000001
 40
0.0
 40
0.0
 40
0.0
 40
0.0
 40
0.5507719853
 40
1.0
 40
1.0
 40
1.0
 40
1.0
 10
225.7150148251
 20
1072.2962101352
 30
0.0
 10
222.4068999318
 20
1070.3862805118
 30
0.0
 10
216.7231477151
 20
1066.0345683935
 30
0.0
 10
213.9996978225
 20
1059.0821986018
 30
0.0
 10
213.9996978624
 20
1055.9665799544
 30
0.0
  0
SPLINE
  5
4DE
100
AcDbEntity
  8
0
100
AcDbSpline
 62
7
  6
CONTINUOUS
 70
0
 71
3
 72
11
 73
7
 74
0
 42
0.0000001
 43
0.0000001
 44
0.0000000001
 40
0.0
 40
0.0
 40
0.0
 40
0.0
 40
0.237228705
 40
0.5000005261
 40
0.7627720609
 40
1.0
 40
1.0
 40
1.0
 40
1.0
 10
1074.239854999
 20
1529.5297984453
 30
0.0
 10
1070.224461514
 20
1531.8480345092
 30
0.0
 10
1060.8863553888
 20
1535.2312496423
 30
0.0
 10
1045.9555392829
 20
1536.8518423525
 30
0.0
 10
1031.0247457051
 20
1535.2311815062
 30
0.0
 10
1021.6866763079
 20
1531.8479200058
 30
0.0
 10
1017.6713125046
 20
1529.5296624712
 30
0.0
  0
SPLINE
  5
4DF
100
AcDbEntity
  8
0
100
AcDbSpline
 62
7
  6
CONTINUOUS
 70
0
 71
3
 72
9
 73
5
 74
0
 42
0.0000001
 43
0.0000001
 44
0.0000000001
 40
0.0
 40
0.0
 40
0.0
 40
0.0
 40
0.2433495691
 40
1.0
 40
1.0
 40
1.0
 40
1.0
 10
213.9996978624
 20
1055.9665799544
 30
0.0
 10
213.9996978705
 20
1055.3355930824
 30
0.0
 10
214.1811837524
 20
1052.7425015723
 30
0.0
 10
215.1299671557
 20
1050.2307010941
 30
0.0
 10
216.1245520701
 20
1048.5395485056
 30
0.0
  0
SPLINE
  5
4E0
100
AcDbEntity
  8
0
100
AcDbSpline
 62
7
  6
CONTINUOUS
 70
0
 71
3
 72
9
 73
5
 74
0
 42
0.0000001
 43
0.0000001
 44
0.0000000001
 40
0.0
 40
0.0
 40
0.0
 40
0.0
 40
0.22709218
 40
1.0
 40
1.0
 40
1.0
 40
1.0
 10
216.1245520701
 20
1048.5395485056
 30
0.0
 10
216.6299985319
 20
1047.6801074667
 30
0.0
 10
219.1790278
 20
1044.0840587204
 30
0.0
 10
222.7764036671
 20
1041.333519334
 30
0.0
 10
225.7152503424
 20
1039.6368137995
 30
0.0
  0
SPLINE
  5
4E1
100
AcDbEntity
  8
0
100
AcDbSpline
 62
7
  6
CONTINUOUS
 70
0
 71
3
 72
9
 73
5
 74
0
 42
0.0000001
 43
0.0000001
 44
0.0000000001
 40
0.0
 40
0.0
 40
0.0
 40
0.0
 40
0.4491641734
 40
1.0
 40
1.0
 40
1.0
 40
1.0
 10
869.7726223949
 20
1328.6000922682
 30
0.0
 10
869.7726225682
 20
1329.3788654248
 30
0.0
 10
870.4526419715
 20
1331.1171761212
 30
0.0
 10
871.8738631319
 20
1332.204974827
 30
0.0
 10
872.7009656139
 20
1332.6824998172
 30
0.0
  0
SPLINE
  5
4E2
100
AcDbEntity
  8
0
100
AcDbSpline
 62
7
  6
CONTINUOUS
 70
0
 71
3
 72
9
 73
5
 74
0
 42
0.0000001
 43
0.0000001
 44
0.0000000001
 40
0.0
 40
0.0
 40
0.0
 40
0.0
 40
0.4999996218
 40
1.0
 40
1.0
 40
1.0
 40
1.0
 10
951.4522996221
 20
1378.1493323055
 30
0.0
 10
953.5510780671
 20
1379.3610553727
 30
0.0
 10
958.5233614758
 20
1380.3189780313
 30
0.0
 10
963.4956448875
 20
1379.3610760648
 30
0.0
 10
965.5944352457
 20
1378.149366299
 30
0.0
  0
SPLINE
  5
4E3
100
AcDbEntity
  8
0
100
AcDbSpline
 62
7
  6
CONTINUOUS
 70
0
 71
3
 72
9
 73
5
 74
0
 42
0.0000001
 43
0.0000001
 44
0.0000000001
 40
0.0
 40
0.0
 40
0.0
 40
0.0
 40
0.5508366897
 40
1.0
 40
1.0
 40
1.0
 40
1.0
 10
1029.1213659599
 20
1341.4729054828
 30
0.0
 10
1029.9484837386
 20
1340.9953796137
 30
0.0
 10
1031.3697313486
 20
1339.9075775852
 30
0.0
 10
1032.0497682315
 20
1338.1692455482
 30
0.0
 10
1032.0497680582
 20
1337.3904639479
 30
0.0
  0
SPLINE
  5
4E4
100
AcDbEntity
  8
0
100
AcDbSpline
 62
7
  6
CONTINUOUS
 70
0
 71
3
 72
9
 73
5
 74
0
 42
0.0000001
 43
0.0000001
 44
0.0000000001
 40
0.0
 40
0.0
 40
0.0
 40
0.0
 40
0.2432806212
 40
1.0
 40
1.0
 40
1.0
 40
1.0
 10
413.0993275063
 20
931.4530138516
 30
0.0
 10
413.4534405182
 20
931.248571234
 30
0.0
 10
414.92275845
 20
930.4321297021
 30
0.0
 10
416.4432314772
 20
929.7087340039
 30
0.0
 10
417.6130385985
 20
929.2095791877
 30
0.0
  0
SPLINE
  5
4E5
100
AcDbEntity
  8
0
100
AcDbSpline
 62
7
  6
CONTINUOUS
 70
0
 71
3
 72
9
 73
5
 74
0
 42
0.0000001
 43
0.0000001
 44
0.0000000001
 40
0.0
 40
0.0
 40
0.0
 40
0.0
 40
0.5000003883
 40
1.0
 40
1.0
 40
1.0
 40
1.0
 10
420.1397428311
 20
928.2152191727
 30
0.0
 10
426.8893378914
 20
925.7720311567
 30
0.0
 10
441.3836379703
 20
923.6064741547
 30
0.0
 10
455.8779312635
 20
925.7720971129
 30
0.0
 10
462.6275013738
 20
928.2153213007
 30
0.0
  0
SPLINE
  5
4E6
100
AcDbEntity
  8
0
100
AcDbSpline
 62
7
  6
CONTINUOUS
 70
0
 71
3
 72
9
 73
5
 74
0
 42
0.0000001
 43
0.0000001
 44
0.0000000001
 40
0.0
 40
0.0
 40
0.0
 40
0.0
 40
0.2566418804
 40
1.0
 40
1.0
 40
1.0
 40
1.0
 10
465.1541296799
 20
929.2096671839
 30
0.0
 10
465.5508685197
 20
929.3789572819
 30
0.0
 10
467.0874274907
 20
930.0600726862
 30
0.0
 10
468.585864835
 20
930.8284575808
 30
0.0
 10
469.6678700008
 20
931.4531498257
 30
0.0
  0
SPLINE
  5
4E7
100
AcDbEntity
  8
0
100
AcDbSpline
 62
7
  6
CONTINUOUS
 70
0
 71
3
 72
9
 73
5
 74
0
 42
0.0000001
 43
0.0000001
 44
0.0000000001
 40
0.0
 40
0.0
 40
0.0
 40
0.0
 40
0.2719241864
 40
1.0
 40
1.0
 40
1.0
 40
1.0
 10
1261.6241676803
 20
1388.6866021617
 30
0.0
 10
1262.5429204051
 20
1389.2170411284
 30
0.0
 10
1265.8327605667
 20
1391.3057064383
 30
0.0
 10
1268.7804030065
 20
1394.0188985754
 30
0.0
 10
1270.412186734
 20
1396.3439301127
 30
0.0
  0
SPLINE
  5
4E8
100
AcDbEntity
  8
0
100
AcDbSpline
 62
7
  6
CONTINUOUS
 70
0
 71
3
 72
9
 73
5
 74
0
 42
0.0000001
 43
0.0000001
 44
0.0000000001
 40
0.0
 40
0.0
 40
0.0
 40
0.0
 40
0.2655775075
 40
1.0
 40
1.0
 40
1.0
 40
1.0
 10
1270.412186734
 20
1396.3439301127
 30
0.0
 10
1270.8817334845
 20
1397.012959338
 30
0.0
 10
1272.4931514872
 20
1399.6343050511
 30
0.0
 10
1273.3394846719
 20
1402.7559273376
 30
0.0
 10
1273.339484643
 20
1405.0162323425
 30
0.0
  0
SPLINE
  5
4E9
100
AcDbEntity
  8
0
100
AcDbSpline
 62
7
  6
CONTINUOUS
 70
0
 71
3
 72
12
 73
8
 74
0
 42
0.0000001
 43
0.0000001
 44
0.0000000001
 40
0.0
 40
0.0
 40
0.0
 40
0.0
 40
0.2644700419
 40
0.5523478505
 40
0.6877002619
 40
0.8089520753
 40
1.0
 40
1.0
 40
1.0
 40
1.0
 10
456.9400009309
 20
715.0801362708
 30
0.0
 10
456.9400009309
 20
718.1019724033
 30
0.0
 10
458.5218187597
 20
724.3985366878
 30
0.0
 10
462.6696098507
 20
731.2017937921
 30
0.0
 10
467.1681389409
 20
735.5734213268
 30
0.0
 10
471.4190508924
 20
738.3698037204
 30
0.0
 10
475.3062923231
 20
739.2041628815
 30
0.0
 10
477.3945451401
 20
738.568304073
 30
0.0
  0
SPLINE
  5
4EA
100
AcDbEntity
  8
0
100
AcDbSpline
 62
7
  6
CONTINUOUS
 70
0
 71
3
 72
12
 73
8
 74
0
 42
0.0000001
 43
0.0000001
 44
0.0000000001
 40
0.0
 40
0.0
 40
0.0
 40
0.0
 40
0.2644700419
 40
0.5523478505
 40
0.6877002619
 40
0.8089520753
 40
1.0
 40
1.0
 40
1.0
 40
1.0
 10
1248.8962986104
 20
1172.3135886069
 30
0.0
 10
1248.8962986104
 20
1175.3354247394
 30
0.0
 10
1250.4781164392
 20
1181.6319890239
 30
0.0
 10
1254.6259075302
 20
1188.4352461282
 30
0.0
 10
1259.1244366204
 20
1192.8068736629
 30
0.0
 10
1263.3753485719
 20
1195.6032560564
 30
0.0
 10
1267.2625900027
 20
1196.4376152176
 30
0.0
 10
1269.3508428196
 20
1195.8017564091
 30
0.0
  0
SPLINE
  5
4EB
100
AcDbEntity
  8
0
100
AcDbSpline
 62
7
  6
CONTINUOUS
 70
0
 71
3
 72
9
 73
5
 74
0
 42
0.0000001
 43
0.0000001
 44
0.0000000001
 40
0.0
 40
0.0
 40
0.0
 40
0.0
 40
0.2430135856
 40
1.0
 40
1.0
 40
1.0
 40
1.0
 10
215.0465109659
 20
860.0991334904
 30
0.0
 10
215.1760869775
 20
860.6258600633
 30
0.0
 10
215.7796657589
 20
862.7756880383
 30
0.0
 10
216.6455105756
 20
864.8496332831
 30
0.0
 10
217.4197637015
 20
866.3514698828
 30
0.0
  0
SPLINE
  5
4EC
100
AcDbEntity
  8
0
100
AcDbSpline
 62
7
  6
CONTINUOUS
 70
0
 71
3
 72
12
 73
8
 74
0
 42
0.0000001
 43
0.0000001
 44
0.0000000001
 40
0.0
 40
0.0
 40
0.0
 40
0.0
 40
0.1910012317
 40
0.3122358559
 40
0.4475819033
 40
0.7354912875
 40
1.0
 40
1.0
 40
1.0
 40
1.0
 10
1252.4770352204
 20
1164.3405941972
 30
0.0
 10
1254.5644954836
 20
1163.7026220146
 30
0.0
 10
1258.4528046416
 20
1164.5344419057
 30
0.0
 10
1262.704690579
 20
1167.329526347
 30
0.0
 10
1267.2051937984
 20
1171.7009325104
 30
0.0
 10
1271.3550440312
 20
1178.5055727584
 30
0.0
 10
1272.9378172998
 20
1184.8040386785
 30
0.0
 10
1272.9378172998
 20
1187.8268596553
 30
0.0
  0
SPLINE
  5
4ED
100
AcDbEntity
  8
0
100
AcDbSpline
 62
7
  6
CONTINUOUS
 70
0
 71
3
 72
9
 73
5
 74
0
 42
0.0000001
 43
0.0000001
 44
0.0000000001
 40
0.0
 40
0.0
 40
0.0
 40
0.0
 40
0.2211323511
 40
1.0
 40
1.0
 40
1.0
 40
1.0
 10
1251.4921720031
 20
1164.9176813175
 30
0.0
 10
1251.0642137597
 20
1165.3202855397
 30
0.0
 10
1249.3839199347
 20
1167.4212120542
 30
0.0
 10
1248.8962986104
 20
1170.2440623506
 30
0.0
 10
1248.8962986104
 20
1172.3135886069
 30
0.0
  0
SPLINE
  5
4EE
100
AcDbEntity
  8
0
100
AcDbSpline
 62
7
  6
CONTINUOUS
 70
0
 71
3
 72
12
 73
8
 74
0
 42
0.0000001
 43
0.0000001
 44
0.0000000001
 40
0.0
 40
0.0
 40
0.0
 40
0.0
 40
0.1910012317
 40
0.3122358559
 40
0.4475819033
 40
0.7354912875
 40
1.0
 40
1.0
 40
1.0
 40
1.0
 10
460.5207375409
 20
707.1071418611
 30
0.0
 10
462.6081978041
 20
706.4691696786
 30
0.0
 10
466.4965069621
 20
707.3009895696
 30
0.0
 10
470.7483928994
 20
710.096074011
 30
0.0
 10
475.2488961189
 20
714.4674801743
 30
0.0
 10
479.3987463516
 20
721.2721204224
 30
0.0
 10
480.9815196203
 20
727.5705863425
 30
0.0
 10
480.9815196203
 20
730.5934073192
 30
0.0
  0
SPLINE
  5
4EF
100
AcDbEntity
  8
0
100
AcDbSpline
 62
7
  6
CONTINUOUS
 70
0
 71
3
 72
9
 73
5
 74
0
 42
0.0000001
 43
0.0000001
 44
0.0000000001
 40
0.0
 40
0.0
 40
0.0
 40
0.0
 40
0.2211323511
 40
1.0
 40
1.0
 40
1.0
 40
1.0
 10
459.5358743235
 20
707.6842289814
 30
0.0
 10
459.1079160802
 20
708.0868332036
 30
0.0
 10
457.4276222552
 20
710.1877597181
 30
0.0
 10
456.9400009309
 20
713.0106100145
 30
0.0
 10
456.9400009309
 20
715.0801362708
 30
0.0
  0
SPLINE
  5
4F0
100
AcDbEntity
  8
0
100
AcDbSpline
 62
7
  6
CONTINUOUS
 70
0
 71
3
 72
8
 73
4
 74
0
 42
0.0000001
 43
0.0000001
 44
0.0000000001
 40
0.0
 40
0.0
 40
0.0
 40
0.0
 40
1.0
 40
1.0
 40
1.0
 40
1.0
 10
421.5977343975
 20
615.1296891574
 30
0.0
 10
421.564615654
 20
614.9442286068
 30
0.0
 10
421.5039533348
 20
614.7622861829
 30
0.0
 10
421.4228449499
 20
614.5922453146
 30
0.0
  0
SPLINE
  5
4F1
100
AcDbEntity
  8
0
100
AcDbSpline
 62
7
  6
CONTINUOUS
 70
0
 71
3
 72
9
 73
5
 74
0
 42
0.0000001
 43
0.0000001
 44
0.0000000001
 40
0.0
 40
0.0
 40
0.0
 40
0.0
 40
0.4940898068
 40
1.0
 40
1.0
 40
1.0
 40
1.0
 10
421.4228449499
 20
614.5922453146
 30
0.0
 10
421.3990488817
 20
614.5423576967
 30
0.0
 10
421.3472542534
 20
614.4430877634
 30
0.0
 10
421.2888201045
 20
614.3475874339
 30
0.0
 10
421.2577396982
 20
614.3002909397
 30
0.0
  0
SPLINE
  5
4F2
100
AcDbEntity
  8
0
100
AcDbSpline
 62
7
  6
CONTINUOUS
 70
0
 71
3
 72
9
 73
5
 74
0
 42
0.0000001
 43
0.0000001
 44
0.0000000001
 40
0.0
 40
0.0
 40
0.0
 40
0.0
 40
0.7275939832
 40
1.0
 40
1.0
 40
1.0
 40
1.0
 10
421.2577396982
 20
614.3002909397
 30
0.0
 10
421.0246153421
 20
613.9455348067
 30
0.0
 10
420.5867942486
 20
613.5331359961
 30
0.0
 10
420.0959876313
 20
613.2192872589
 30
0.0
 10
419.9583507196
 20
613.1398230253
 30
0.0
  0
SPLINE
  5
4F3
100
AcDbEntity
  8
0
100
AcDbSpline
 62
7
  6
CONTINUOUS
 70
0
 71
3
 72
9
 73
5
 74
0
 42
0.0000001
 43
0.0000001
 44
0.0000000001
 40
0.0
 40
0.0
 40
0.0
 40
0.0
 40
0.2249853588
 40
1.0
 40
1.0
 40
1.0
 40
1.0
 10
421.4202967444
 20
614.7127219635
 30
0.0
 10
421.3536007921
 20
614.8519292299
 30
0.0
 10
420.9946156079
 20
615.4412200566
 30
0.0
 10
420.433522444
 20
615.8841813132
 30
0.0
 10
419.9739344674
 20
616.1516037462
 30
0.0
  0
SPLINE
  5
4F4
100
AcDbEntity
  8
0
100
AcDbSpline
 62
7
  6
CONTINUOUS
 70
0
 71
3
 72
9
 73
5
 74
0
 42
0.0000001
 43
0.0000001
 44
0.0000000001
 40
0.0
 40
0.0
 40
0.0
 40
0.0
 40
0.4997042732
 40
1.0
 40
1.0
 40
1.0
 40
1.0
 10
419.9739344674
 20
616.1516037462
 30
0.0
 10
418.7781800894
 20
616.84738249
 30
0.0
 10
415.9376203243
 20
617.3988169167
 30
0.0
 10
413.096823414
 20
616.8533039095
 30
0.0
 10
411.8972998529
 20
616.1607627925
 30
0.0
  0
SPLINE
  5
4F5
100
AcDbEntity
  8
0
100
AcDbSpline
 62
7
  6
CONTINUOUS
 70
0
 71
3
 72
8
 73
4
 74
0
 42
0.0000001
 43
0.0000001
 44
0.0000000001
 40
0.0
 40
0.0
 40
0.0
 40
0.0
 40
1.0
 40
1.0
 40
1.0
 40
1.0
 10
253.6439921726
 20
918.9273655032
 30
0.0
 10
253.1459114025
 20
918.4394225476
 30
0.0
 10
252.6916652208
 20
917.9033489365
 30
0.0
 10
252.2865819007
 20
917.3358277604
 30
0.0
  0
SPLINE
  5
4F6
100
AcDbEntity
  8
0
100
AcDbSpline
 62
7
  6
CONTINUOUS
 70
0
 71
3
 72
9
 73
5
 74
0
 42
0.0000001
 43
0.0000001
 44
0.0000000001
 40
0.0
 40
0.0
 40
0.0
 40
0.0
 40
0.2243381135
 40
1.0
 40
1.0
 40
1.0
 40
1.0
 10
252.2865819007
 20
917.3358277604
 30
0.0
 10
251.7731666745
 20
916.6165337324
 30
0.0
 10
249.821471463
 20
913.1661844744
 30
0.0
 10
249.2266369277
 20
909.0924662508
 30
0.0
 10
249.2266369277
 20
906.0369183762
 30
0.0
  0
SPLINE
  5
4F7
100
AcDbEntity
  8
0
100
AcDbSpline
 62
7
  6
CONTINUOUS
 70
0
 71
3
 72
13
 73
9
 74
0
 42
0.0000001
 43
0.0000001
 44
0.0000000001
 40
0.0
 40
0.0
 40
0.0
 40
0.0
 40
0.08714391
 40
0.1868569539
 40
0.3045313596
 40
0.4386686425
 40
0.7301226347
 40
1.0
 40
1.0
 40
1.0
 40
1.0
 10
251.206320992
 20
917.9179413318
 30
0.0
 10
252.7921644637
 20
918.8336828036
 30
0.0
 10
256.7767889725
 20
919.8573584876
 30
0.0
 10
263.1897666624
 20
918.5727996794
 30
0.0
 10
269.7431742133
 20
914.9948556045
 30
0.0
 10
278.3392662777
 20
907.3696525927
 30
0.0
 10
286.4134785348
 20
894.8886988931
 30
0.0
 10
289.5319295326
 20
883.1312753717
 30
0.0
 10
289.5319295326
 20
877.460043464
 30
0.0
  0
SPLINE
  5
4F8
100
AcDbEntity
  8
0
100
AcDbSpline
 62
7
  6
CONTINUOUS
 70
0
 71
3
 72
9
 73
5
 74
0
 42
0.0000001
 43
0.0000001
 44
0.0000000001
 40
0.0
 40
0.0
 40
0.0
 40
0.0
 40
0.231772665
 40
1.0
 40
1.0
 40
1.0
 40
1.0
 10
371.8978262538
 20
918.4543270367
 30
0.0
 10
371.8101656001
 20
918.2414191315
 30
0.0
 10
371.4893136404
 20
917.2992194936
 30
0.0
 10
371.3798419468
 20
916.2937388121
 30
0.0
 10
371.3798419468
 20
915.5305649115
 30
0.0
  0
SPLINE
  5
4F9
100
AcDbEntity
  8
0
100
AcDbSpline
 62
7
  6
CONTINUOUS
 70
0
 71
3
 72
12
 73
8
 74
0
 42
0.0000001
 43
0.0000001
 44
0.0000000001
 40
0.0
 40
0.0
 40
0.0
 40
0.0
 40
0.1832723971
 40
0.3014704885
 40
0.436197174
 40
0.7288937184
 40
1.0
 40
1.0
 40
1.0
 40
1.0
 10
369.0621327176
 20
917.9122171296
 30
0.0
 10
370.2130744285
 20
918.5756255759
 30
0.0
 10
372.7317877469
 20
918.4482856183
 30
0.0
 10
375.4711106491
 20
916.895506935
 30
0.0
 10
378.4706250784
 20
914.2608463662
 30
0.0
 10
381.2566517115
 20
909.9332825252
 30
0.0
 10
382.3400809581
 20
905.860794228
 30
0.0
 10
382.3400809581
 20
903.8956813119
 30
0.0
  0
SPLINE
  5
4FA
100
AcDbEntity
  8
0
100
AcDbSpline
 62
7
  6
CONTINUOUS
 70
0
 71
3
 72
9
 73
5
 74
0
 42
0.0000001
 43
0.0000001
 44
0.0000000001
 40
0.0
 40
0.0
 40
0.0
 40
0.0
 40
0.229590468
 40
1.0
 40
1.0
 40
1.0
 40
1.0
 10
221.4790573861
 20
852.983983444
 30
0.0
 10
221.5375471611
 20
852.7656156498
 30
0.0
 10
221.6303283932
 20
851.7642605434
 30
0.0
 10
221.011542733
 20
850.819102052
 30
0.0
 10
220.4439704119
 20
850.315806502
 30
0.0
  0
SPLINE
  5
4FB
100
AcDbEntity
  8
0
100
AcDbSpline
 62
7
  6
CONTINUOUS
 70
0
 71
3
 72
8
 73
4
 74
0
 42
0.0000001
 43
0.0000001
 44
0.0000000001
 40
0.0
 40
0.0
 40
0.0
 40
0.0
 40
1.0
 40
1.0
 40
1.0
 40
1.0
 10
215.6136815421
 20
842.588003458
 30
0.0
 10
215.2847730135
 20
842.7005321667
 30
0.0
 10
214.9636476185
 20
842.8420055288
 30
0.0
 10
214.6625933493
 20
843.01581536
 30
0.0
  0
SPLINE
  5
4FC
100
AcDbEntity
  8
0
100
AcDbSpline
 62
7
  6
CONTINUOUS
 70
0
 71
3
 72
8
 73
4
 74
0
 42
0.0000001
 43
0.0000001
 44
0.0000000001
 40
0.0
 40
0.0
 40
0.0
 40
0.0
 40
1.0
 40
1.0
 40
1.0
 40
1.0
 10
351.932243968
 20
862.1819006249
 30
0.0
 10
351.434163198
 20
861.6939576693
 30
0.0
 10
350.9799170162
 20
861.1578840581
 30
0.0
 10
350.5748336962
 20
860.5903628821
 30
0.0
  0
SPLINE
  5
4FD
100
AcDbEntity
  8
0
100
AcDbSpline
 62
7
  6
CONTINUOUS
 70
0
 71
3
 72
9
 73
5
 74
0
 42
0.0000001
 43
0.0000001
 44
0.0000000001
 40
0.0
 40
0.0
 40
0.0
 40
0.0
 40
0.2243381135
 40
1.0
 40
1.0
 40
1.0
 40
1.0
 10
350.5748336962
 20
860.5903628821
 30
0.0
 10
350.0614184699
 20
859.871068854
 30
0.0
 10
348.1097232585
 20
856.4207195961
 30
0.0
 10
347.5148887231
 20
852.3470013724
 30
0.0
 10
347.5148887231
 20
849.2914534978
 30
0.0
  0
SPLINE
  5
4FE
100
AcDbEntity
  8
0
100
AcDbSpline
 62
7
  6
CONTINUOUS
 70
0
 71
3
 72
13
 73
9
 74
0
 42
0.0000001
 43
0.0000001
 44
0.0000000001
 40
0.0
 40
0.0
 40
0.0
 40
0.0
 40
0.08714391
 40
0.1868569539
 40
0.3045313596
 40
0.4386686425
 40
0.7301226347
 40
1.0
 40
1.0
 40
1.0
 40
1.0
 10
349.4945727874
 20
861.1724764535
 30
0.0
 10
351.0804162591
 20
862.0882179253
 30
0.0
 10
355.0650407679
 20
863.1118936092
 30
0.0
 10
361.4780184578
 20
861.8273348011
 30
0.0
 10
368.0314260087
 20
858.2493907262
 30
0.0
 10
376.6275180731
 20
850.6241877144
 30
0.0
 10
384.7017303303
 20
838.1432340147
 30
0.0
 10
387.820181328
 20
826.3858104934
 30
0.0
 10
387.820181328
 20
820.7145785856
 30
0.0
  0
SPLINE
  5
4FF
100
AcDbEntity
  8
0
100
AcDbSpline
 62
7
  6
CONTINUOUS
 70
0
 71
3
 72
9
 73
5
 74
0
 42
0.0000001
 43
0.0000001
 44
0.0000000001
 40
0.0
 40
0.0
 40
0.0
 40
0.0
 40
0.2407818172
 40
1.0
 40
1.0
 40
1.0
 40
1.0
 10
278.9123162839
 20
760.0577053158
 30
0.0
 10
279.1700009951
 20
758.4368704389
 30
0.0
 10
280.4583238901
 20
751.7407345937
 30
0.0
 10
282.5560462262
 20
745.2093764057
 30
0.0
 10
284.5039899683
 20
740.4150978465
 30
0.0
  0
SPLINE
  5
500
100
AcDbEntity
  8
0
100
AcDbSpline
 62
7
  6
CONTINUOUS
 70
0
 71
3
 72
9
 73
5
 74
0
 42
0.0000001
 43
0.0000001
 44
0.0000000001
 40
0.0
 40
0.0
 40
0.0
 40
0.0
 40
0.2524456319
 40
1.0
 40
1.0
 40
1.0
 40
1.0
 10
290.0542549073
 20
728.851020689
 30
0.0
 10
290.8867568272
 20
727.3556748844
 30
0.0
 10
294.3252032269
 20
721.5120366679
 30
0.0
 10
298.3184454563
 20
715.9919273508
 30
0.0
 10
301.5947021249
 20
712.1252014326
 30
0.0
  0
SPLINE
  5
501
100
AcDbEntity
  8
0
100
AcDbSpline
 62
7
  6
CONTINUOUS
 70
0
 71
3
 72
11
 73
7
 74
0
 42
0.0000001
 43
0.0000001
 44
0.0000000001
 40
0.0
 40
0.0
 40
0.0
 40
0.0
 40
0.302968753
 40
0.5700387915
 40
0.7988795695
 40
1.0
 40
1.0
 40
1.0
 40
1.0
 10
307.1537584977
 20
706.1119165084
 30
0.0
 10
310.7371868334
 20
702.5672275475
 30
0.0
 10
318.0659003557
 20
696.4403968961
 30
0.0
 10
329.9635104273
 20
690.2355545279
 30
0.0
 10
341.5512427622
 20
687.9396629169
 30
0.0
 10
348.8215749567
 20
689.5192365473
 30
0.0
 10
351.8123582906
 20
691.0195239644
 30
0.0
  0
SPLINE
  5
502
100
AcDbEntity
  8
0
100
AcDbSpline
 62
7
  6
CONTINUOUS
 70
0
 71
3
 72
9
 73
5
 74
0
 42
0.0000001
 43
0.0000001
 44
0.0000000001
 40
0.0
 40
0.0
 40
0.0
 40
0.0
 40
0.5488024582
 40
1.0
 40
1.0
 40
1.0
 40
1.0
 10
364.6622995579
 20
719.3657598827
 30
0.0
 10
364.6622995579
 20
713.8087175821
 30
0.0
 10
363.3611240248
 20
703.5068374524
 30
0.0
 10
357.1916703476
 20
694.6874254002
 30
0.0
 10
353.467715414
 20
692.0406639042
 30
0.0
  0
SPLINE
  5
503
100
AcDbEntity
  8
0
100
AcDbSpline
 62
7
  6
CONTINUOUS
 70
0
 71
3
 72
9
 73
5
 74
0
 42
0.0000001
 43
0.0000001
 44
0.0000000001
 40
0.0
 40
0.0
 40
0.0
 40
0.0
 40
0.4511934692
 40
1.0
 40
1.0
 40
1.0
 40
1.0
 10
289.2394372955
 20
797.9275574523
 30
0.0
 10
285.514454366
 20
795.2812447144
 30
0.0
 10
279.3428494814
 20
786.461190035
 30
0.0
 10
278.0413493955
 20
776.1578164721
 30
0.0
 10
278.0413493955
 20
770.599979674
 30
0.0
  0
SPLINE
  5
504
100
AcDbEntity
  8
0
100
AcDbSpline
 62
7
  6
CONTINUOUS
 70
0
 71
3
 72
11
 73
7
 74
0
 42
0.0000001
 43
0.0000001
 44
0.0000000001
 40
0.0
 40
0.0
 40
0.0
 40
0.0
 40
0.2011874373
 40
0.4300443071
 40
0.6970782836
 40
1.0
 40
1.0
 40
1.0
 40
1.0
 10
290.8921345202
 20
798.9466906712
 30
0.0
 10
293.8783422922
 20
800.4445464074
 30
0.0
 10
301.1350968999
 20
802.0238996675
 30
0.0
 10
312.7033636288
 20
799.7417367265
 30
0.0
 10
324.5833830053
 20
793.5602928335
 30
0.0
 10
331.9033694441
 20
787.45331504
 30
0.0
 10
335.4832684081
 20
783.9196523956
 30
0.0
  0
SPLINE
  5
505
100
AcDbEntity
  8
0
100
AcDbSpline
 62
7
  6
CONTINUOUS
 70
0
 71
3
 72
9
 73
5
 74
0
 42
0.0000001
 43
0.0000001
 44
0.0000000001
 40
0.0
 40
0.0
 40
0.0
 40
0.0
 40
0.2465949489
 40
1.0
 40
1.0
 40
1.0
 40
1.0
 10
340.8711104294
 20
778.1201323817
 30
0.0
 10
341.9613511331
 20
776.8431608267
 30
0.0
 10
346.2482421431
 20
771.5512716751
 30
0.0
 10
350.006545786
 20
765.8336673832
 30
0.0
 10
352.5135216941
 20
761.3580100301
 30
0.0
  0
SPLINE
  5
506
100
AcDbEntity
  8
0
100
AcDbSpline
 62
7
  6
CONTINUOUS
 70
0
 71
3
 72
9
 73
5
 74
0
 42
0.0000001
 43
0.0000001
 44
0.0000000001
 40
0.0
 40
0.0
 40
0.0
 40
0.0
 40
0.2589479688
 40
1.0
 40
1.0
 40
1.0
 40
1.0
 10
356.9372153841
 20
752.5227537606
 30
0.0
 10
357.7543238612
 20
750.6795892588
 30
0.0
 10
360.7015023979
 20
743.4733693648
 30
0.0
 10
362.8130555498
 20
735.9084182087
 30
0.0
 10
363.7420619023
 20
730.2138793545
 30
0.0
  0
SPLINE
  5
507
100
AcDbEntity
  8
0
100
AcDbSpline
 62
7
  6
CONTINUOUS
 70
0
 71
3
 72
8
 73
4
 74
0
 42
0.0000001
 43
0.0000001
 44
0.0000000001
 40
0.0
 40
0.0
 40
0.0
 40
0.0
 40
1.0
 40
1.0
 40
1.0
 40
1.0
 10
214.4445833713
 20
735.0813366652
 30
0.0
 10
214.4447188648
 20
734.7819266774
 30
0.0
 10
214.3685987676
 20
734.4770275815
 30
0.0
 10
214.2396954818
 20
734.206786389
 30
0.0
  0
SPLINE
  5
508
100
AcDbEntity
  8
0
100
AcDbSpline
 62
7
  6
CONTINUOUS
 70
0
 71
3
 72
9
 73
5
 74
0
 42
0.0000001
 43
0.0000001
 44
0.0000000001
 40
0.0
 40
0.0
 40
0.0
 40
0.0
 40
0.4940898068
 40
1.0
 40
1.0
 40
1.0
 40
1.0
 10
214.2396954818
 20
734.206786389
 30
0.0
 10
214.2158994136
 20
734.1568987712
 30
0.0
 10
214.1641047854
 20
734.0576288378
 30
0.0
 10
214.1056706365
 20
733.9621285084
 30
0.0
 10
214.0745902301
 20
733.9148320141
 30
0.0
  0
SPLINE
  5
509
100
AcDbEntity
  8
0
100
AcDbSpline
 62
7
  6
CONTINUOUS
 70
0
 71
3
 72
9
 73
5
 74
0
 42
0.0000001
 43
0.0000001
 44
0.0000000001
 40
0.0
 40
0.0
 40
0.0
 40
0.0
 40
0.7275939832
 40
1.0
 40
1.0
 40
1.0
 40
1.0
 10
214.0745902301
 20
733.9148320141
 30
0.0
 10
213.8414658741
 20
733.5600758812
 30
0.0
 10
213.4036447806
 20
733.1476770706
 30
0.0
 10
212.9128381632
 20
732.8338283334
 30
0.0
 10
212.7752012515
 20
732.7543640997
 30
0.0
  0
SPLINE
  5
50A
100
AcDbEntity
  8
0
100
AcDbSpline
 62
7
  6
CONTINUOUS
 70
0
 71
3
 72
9
 73
5
 74
0
 42
0.0000001
 43
0.0000001
 44
0.0000000001
 40
0.0
 40
0.0
 40
0.0
 40
0.0
 40
0.2249853588
 40
1.0
 40
1.0
 40
1.0
 40
1.0
 10
214.2371472763
 20
734.327263038
 30
0.0
 10
214.1704513241
 20
734.4664703044
 30
0.0
 10
213.8114661399
 20
735.0557611311
 30
0.0
 10
213.2503729759
 20
735.4987223876
 30
0.0
 10
212.7907849993
 20
735.7661448206
 30
0.0
  0
SPLINE
  5
50B
100
AcDbEntity
  8
0
100
AcDbSpline
 62
7
  6
CONTINUOUS
 70
0
 71
3
 72
9
 73
5
 74
0
 42
0.0000001
 43
0.0000001
 44
0.0000000001
 40
0.0
 40
0.0
 40
0.0
 40
0.0
 40
0.4997042732
 40
1.0
 40
1.0
 40
1.0
 40
1.0
 10
212.7907849993
 20
735.7661448206
 30
0.0
 10
211.5950306214
 20
736.4619235645
 30
0.0
 10
208.7544708563
 20
737.0133579912
 30
0.0
 10
205.9136739459
 20
736.4678449839
 30
0.0
 10
204.7141503849
 20
735.775303867
 30
0.0
  0
SPLINE
  5
50C
100
AcDbEntity
  8
0
100
AcDbSpline
 62
7
  6
CONTINUOUS
 70
0
 71
3
 72
11
 73
7
 74
0
 42
0.0000001
 43
0.0000001
 44
0.0000000001
 40
0.0
 40
0.0
 40
0.0
 40
0.0
 40
0.2580880282
 40
0.5408742319
 40
0.7993828147
 40
1.0
 40
1.0
 40
1.0
 40
1.0
 10
347.5148887231
 20
849.2914534978
 30
0.0
 10
347.5148887231
 20
844.3068082352
 30
0.0
 10
349.9669416433
 20
833.8685535046
 30
0.0
 10
357.8085634797
 20
820.3514087568
 30
0.0
 10
368.2539041166
 20
810.3037918557
 30
0.0
 10
377.2020051761
 20
807.0811839567
 30
0.0
 10
381.0645323765
 20
807.387677154
 30
0.0
  0
SPLINE
  5
50D
100
AcDbEntity
  8
0
100
AcDbSpline
 62
7
  6
CONTINUOUS
 70
0
 71
3
 72
8
 73
4
 74
0
 42
0.0000001
 43
0.0000001
 44
0.0000000001
 40
0.0
 40
0.0
 40
0.0
 40
0.0
 40
1.0
 40
1.0
 40
1.0
 40
1.0
 10
381.0645323765
 20
807.387677154
 30
0.0
 10
381.8495451587
 20
807.4499682565
 30
0.0
 10
382.6330260374
 20
807.5858543022
 30
0.0
 10
383.3905173005
 20
807.8011035436
 30
0.0
  0
SPLINE
  5
50E
100
AcDbEntity
  8
0
100
AcDbSpline
 62
7
  6
CONTINUOUS
 70
0
 71
3
 72
11
 73
7
 74
0
 42
0.0000001
 43
0.0000001
 44
0.0000000001
 40
0.0
 40
0.0
 40
0.0
 40
0.0
 40
0.2580880282
 40
0.5408742319
 40
0.7993828147
 40
1.0
 40
1.0
 40
1.0
 40
1.0
 10
249.2266369277
 20
906.0369183762
 30
0.0
 10
249.2266369277
 20
901.0522731136
 30
0.0
 10
251.6786898479
 20
890.6140183829
 30
0.0
 10
259.5203116842
 20
877.0968736351
 30
0.0
 10
269.9656523212
 20
867.049256734
 30
0.0
 10
278.9137533807
 20
863.826648835
 30
0.0
 10
282.7762805811
 20
864.1331420324
 30
0.0
  0
SPLINE
  5
50F
100
AcDbEntity
  8
0
100
AcDbSpline
 62
7
  6
CONTINUOUS
 70
0
 71
3
 72
8
 73
4
 74
0
 42
0.0000001
 43
0.0000001
 44
0.0000000001
 40
0.0
 40
0.0
 40
0.0
 40
0.0
 40
1.0
 40
1.0
 40
1.0
 40
1.0
 10
282.7762805811
 20
864.1331420324
 30
0.0
 10
283.5612933632
 20
864.1954331348
 30
0.0
 10
284.344774242
 20
864.3313191805
 30
0.0
 10
285.102265505
 20
864.5465684219
 30
0.0
  0
SPLINE
  5
510
100
AcDbEntity
  8
0
100
AcDbSpline
 62
7
  6
CONTINUOUS
 70
0
 71
3
 72
9
 73
5
 74
0
 42
0.0000001
 43
0.0000001
 44
0.0000000001
 40
0.0
 40
0.0
 40
0.0
 40
0.0
 40
0.5122982975
 40
1.0
 40
1.0
 40
1.0
 40
1.0
 10
371.3798419468
 20
915.5305649115
 30
0.0
 10
371.3798419468
 20
912.5623027514
 30
0.0
 10
373.5256527797
 20
906.885884163
 30
0.0
 10
377.8333798061
 20
902.4287124852
 30
0.0
 10
380.4758385123
 20
901.4275778404
 30
0.0
  0
SPLINE
  5
511
100
AcDbEntity
  8
0
100
AcDbSpline
 62
7
  6
CONTINUOUS
 70
0
 71
3
 72
9
 73
5
 74
0
 42
0.0000001
 43
0.0000001
 44
0.0000000001
 40
0.0
 40
0.0
 40
0.0
 40
0.0
 40
0.5508447784
 40
1.0
 40
1.0
 40
1.0
 40
1.0
 10
382.3400809581
 20
903.8956813119
 30
0.0
 10
382.3400809581
 20
902.845054078
 30
0.0
 10
382.085268174
 20
900.8931214591
 30
0.0
 10
380.8038208161
 20
899.2882530243
 30
0.0
 10
380.0616152454
 20
898.8604420936
 30
0.0
  0
SPLINE
  5
512
100
AcDbEntity
  8
0
100
AcDbSpline
 62
7
  6
CONTINUOUS
 70
0
 71
3
 72
9
 73
5
 74
0
 42
0.0000001
 43
0.0000001
 44
0.0000000001
 40
0.0
 40
0.0
 40
0.0
 40
0.0
 40
0.5507896974
 40
1.0
 40
1.0
 40
1.0
 40
1.0
 10
387.820181328
 20
820.7145785856
 30
0.0
 10
387.820181328
 20
817.6823377991
 30
0.0
 10
387.0843992044
 20
812.047907212
 30
0.0
 10
383.3859300072
 20
807.4166348008
 30
0.0
 10
381.2443223218
 20
806.1799686299
 30
0.0
  0
SPLINE
  5
513
100
AcDbEntity
  8
0
100
AcDbSpline
 62
7
  6
CONTINUOUS
 70
0
 71
3
 72
9
 73
5
 74
0
 42
0.0000001
 43
0.0000001
 44
0.0000000001
 40
0.0
 40
0.0
 40
0.0
 40
0.0
 40
0.2866990048
 40
1.0
 40
1.0
 40
1.0
 40
1.0
 10
289.5319295326
 20
877.460043464
 30
0.0
 10
289.5319295326
 20
876.1434193818
 30
0.0
 10
289.2523776201
 20
871.5891896045
 30
0.0
 10
287.4719788987
 20
866.8930642926
 30
0.0
 10
285.1390111591
 20
864.5935675207
 30
0.0
  0
SPLINE
  5
514
100
AcDbEntity
  8
0
100
AcDbSpline
 62
7
  6
CONTINUOUS
 70
0
 71
3
 72
8
 73
4
 74
0
 42
0.0000001
 43
0.0000001
 44
0.0000000001
 40
0.0
 40
0.0
 40
0.0
 40
0.0
 40
1.0
 40
1.0
 40
1.0
 40
1.0
 10
285.1390111591
 20
864.5935675207
 30
0.0
 10
284.4867941296
 20
863.9507078153
 30
0.0
 10
283.7491271035
 20
863.3833821078
 30
0.0
 10
282.9560705264
 20
862.9254335082
 30
0.0
  0
SPLINE
  5
515
100
AcDbEntity
  8
0
100
AcDbSpline
 62
7
  6
CONTINUOUS
 70
0
 71
3
 72
9
 73
5
 74
0
 42
0.0000001
 43
0.0000001
 44
0.0000000001
 40
0.0
 40
0.0
 40
0.0
 40
0.0
 40
0.2579802802
 40
1.0
 40
1.0
 40
1.0
 40
1.0
 10
220.4439704119
 20
850.315806502
 30
0.0
 10
220.0711571026
 20
849.9852137783
 30
0.0
 10
218.4373986451
 20
848.956142012
 30
0.0
 10
216.1246699988
 20
848.8095515343
 30
0.0
 10
214.8834920783
 20
849.5261297297
 30
0.0
  0
SPLINE
  5
516
100
AcDbEntity
  8
0
100
AcDbSpline
 62
7
  6
CONTINUOUS
 70
0
 71
3
 72
8
 73
4
 74
0
 42
0.0000001
 43
0.0000001
 44
0.0000000001
 40
0.0
 40
0.0
 40
0.0
 40
0.0
 40
1.0
 40
1.0
 40
1.0
 40
1.0
 10
220.3197833688
 20
840.2329021179
 30
0.0
 10
222.5755925111
 20
842.2332440316
 30
0.0
 10
224.8287010247
 20
844.2366307203
 30
0.0
 10
227.0812936673
 20
846.2405940543
 30
0.0
  0
SPLINE
  5
517
100
AcDbEntity
  8
0
100
AcDbSpline
 62
7
  6
CONTINUOUS
 70
0
 71
3
 72
8
 73
4
 74
0
 42
0.0000001
 43
0.0000001
 44
0.0000000001
 40
0.0
 40
0.0
 40
0.0
 40
0.0
 40
1.0
 40
1.0
 40
1.0
 40
1.0
 10
227.0812936673
 20
846.2405940543
 30
0.0
 10
230.3973127984
 20
849.1906084637
 30
0.0
 10
233.7122149036
 20
852.1418854292
 30
0.0
 10
237.0329690117
 20
855.0865687816
 30
0.0
  0
SPLINE
  5
518
100
AcDbEntity
  8
0
100
AcDbSpline
 62
7
  6
CONTINUOUS
 70
0
 71
3
 72
8
 73
4
 74
0
 42
0.0000001
 43
0.0000001
 44
0.0000000001
 40
0.0
 40
0.0
 40
0.0
 40
0.0
 40
1.0
 40
1.0
 40
1.0
 40
1.0
 10
214.6625933493
 20
843.01581536
 30
0.0
 10
214.3014796962
 20
843.2242997083
 30
0.0
 10
213.9635941337
 20
843.4837083252
 30
0.0
 10
213.6782720461
 20
843.7877808499
 30
0.0
  0
SPLINE
  5
519
100
AcDbEntity
  8
0
100
AcDbSpline
 62
7
  6
CONTINUOUS
 70
0
 71
3
 72
8
 73
4
 74
0
 42
0.0000001
 43
0.0000001
 44
0.0000000001
 40
0.0
 40
0.0
 40
0.0
 40
0.0
 40
1.0
 40
1.0
 40
1.0
 40
1.0
 10
220.1911480626
 20
849.7406334002
 30
0.0
 10
219.466882657
 20
849.818681505
 30
0.0
 10
218.7126914799
 20
849.7294970701
 30
0.0
 10
218.017919521
 20
849.5105363212
 30
0.0
  0
SPLINE
  5
51A
100
AcDbEntity
  8
0
100
AcDbSpline
 62
7
  6
CONTINUOUS
 70
0
 71
3
 72
9
 73
5
 74
0
 42
0.0000001
 43
0.0000001
 44
0.0000000001
 40
0.0
 40
0.0
 40
0.0
 40
0.0
 40
0.2874804114
 40
1.0
 40
1.0
 40
1.0
 40
1.0
 10
1272.9378172998
 20
1187.8268596553
 30
0.0
 10
1272.9378172998
 20
1188.5886356669
 30
0.0
 10
1272.7741576282
 20
1191.2150514721
 30
0.0
 10
1271.7167359953
 20
1193.9296173412
 30
0.0
 10
1270.3414692096
 20
1195.2232218733
 30
0.0
  0
SPLINE
  5
51B
100
AcDbEntity
  8
0
100
AcDbSpline
 62
7
  6
CONTINUOUS
 70
0
 71
3
 72
9
 73
5
 74
0
 42
0.0000001
 43
0.0000001
 44
0.0000000001
 40
0.0
 40
0.0
 40
0.0
 40
0.0
 40
0.2874804114
 40
1.0
 40
1.0
 40
1.0
 40
1.0
 10
480.9815196203
 20
730.5934073192
 30
0.0
 10
480.9815196203
 20
731.3551833308
 30
0.0
 10
480.8178599487
 20
733.981599136
 30
0.0
 10
479.7604383158
 20
736.6961650051
 30
0.0
 10
478.3851715301
 20
737.9897695372
 30
0.0
  0
SPLINE
  5
51C
100
AcDbEntity
  8
0
100
AcDbSpline
 62
7
  6
CONTINUOUS
 70
0
 71
3
 72
9
 73
5
 74
0
 42
0.0000001
 43
0.0000001
 44
0.0000000001
 40
0.0
 40
0.0
 40
0.0
 40
0.0
 40
0.4492280147
 40
1.0
 40
1.0
 40
1.0
 40
1.0
 10
1271.9252769685
 20
1227.8352219347
 30
0.0
 10
1271.9252770084
 20
1224.7196032873
 30
0.0
 10
1269.2018271158
 20
1217.7672334957
 30
0.0
 10
1263.5180748991
 20
1213.4155213774
 30
0.0
 10
1260.2099600059
 20
1211.505591754
 30
0.0
  0
SPLINE
  5
51D
100
AcDbEntity
  8
0
100
AcDbSpline
 62
7
  6
CONTINUOUS
 70
0
 71
3
 72
9
 73
5
 74
0
 42
0.0000001
 43
0.0000001
 44
0.0000000001
 40
0.0
 40
0.0
 40
0.0
 40
0.0
 40
0.229590468
 40
1.0
 40
1.0
 40
1.0
 40
1.0
 10
213.7520056364
 20
850.9135555962
 30
0.0
 10
213.6935158613
 20
851.1319233904
 30
0.0
 10
213.6007346292
 20
852.1332784968
 30
0.0
 10
214.2195202895
 20
853.0784369881
 30
0.0
 10
214.7870926106
 20
853.5817325382
 30
0.0
  0
SPLINE
  5
51E
100
AcDbEntity
  8
0
100
AcDbSpline
 62
7
  6
CONTINUOUS
 70
0
 71
3
 72
10
 73
6
 74
0
 42
0.0000001
 43
0.0000001
 44
0.0000000001
 40
0.0
 40
0.0
 40
0.0
 40
0.0
 40
0.2776477383
 40
0.5773673644
 40
1.0
 40
1.0
 40
1.0
 40
1.0
 10
204.7141503849
 20
737.4083087012
 30
0.0
 10
205.5960476318
 20
737.9174692749
 30
0.0
 10
207.7471209893
 20
738.4611124356
 30
0.0
 10
211.2364957193
 20
738.4189462658
 30
0.0
 10
214.4438819033
 20
736.6314218041
 30
0.0
 10
214.4445833713
 20
735.0813366652
 30
0.0
  0
SPLINE
  5
51F
100
AcDbEntity
  8
0
100
AcDbSpline
 62
7
  6
CONTINUOUS
 70
0
 71
3
 72
13
 73
9
 74
0
 42
0.0000001
 43
0.0000001
 44
0.0000000001
 40
0.0
 40
0.0
 40
0.0
 40
0.0
 40
0.2698713503
 40
0.5613142991
 40
0.6954586824
 40
0.813136848
 40
0.9128521826
 40
1.0
 40
1.0
 40
1.0
 40
1.0
 10
482.3957390706
 20
729.7769258102
 30
0.0
 10
482.3957390706
 20
726.5618293512
 30
0.0
 10
480.6280461382
 20
719.896413082
 30
0.0
 10
476.0507437195
 20
712.8206659699
 30
0.0
 10
471.1775513427
 20
708.4975872383
 30
0.0
 10
467.4621048269
 20
706.4690145711
 30
0.0
 10
463.8264192581
 20
705.7407366419
 30
0.0
 10
461.5671450698
 20
706.3208481687
 30
0.0
 10
460.6682123744
 20
706.8403117065
 30
0.0
  0
SPLINE
  5
520
100
AcDbEntity
  8
0
100
AcDbSpline
 62
7
  6
CONTINUOUS
 70
0
 71
3
 72
9
 73
5
 74
0
 42
0.0000001
 43
0.0000001
 44
0.0000000001
 40
0.0
 40
0.0
 40
0.0
 40
0.0
 40
0.4518280682
 40
1.0
 40
1.0
 40
1.0
 40
1.0
 10
213.9996978607
 20
1042.4942900718
 30
0.0
 10
213.9996978976
 20
1039.5085700085
 30
0.0
 10
216.4740010516
 20
1032.8729305987
 30
0.0
 10
221.7650816532
 20
1028.5757720903
 30
0.0
 10
224.8512547786
 20
1026.6791720358
 30
0.0
  0
SPLINE
  5
521
100
AcDbEntity
  8
0
100
AcDbSpline
 62
7
  6
CONTINUOUS
 70
0
 71
3
 72
13
 73
9
 74
0
 42
0.0000001
 43
0.0000001
 44
0.0000000001
 40
0.0
 40
0.0
 40
0.0
 40
0.0
 40
0.08714391
 40
0.1868569539
 40
0.3045313596
 40
0.4386686425
 40
0.7301226347
 40
1.0
 40
1.0
 40
1.0
 40
1.0
 10
381.2443223218
 20
806.1799686299
 30
0.0
 10
379.6584788501
 20
805.2642271581
 30
0.0
 10
375.6738543413
 20
804.2405514741
 30
0.0
 10
369.2608766514
 20
805.5251102823
 30
0.0
 10
362.7074691005
 20
809.1030543571
 30
0.0
 10
354.1113770361
 20
816.7282573689
 30
0.0
 10
346.037164779
 20
829.2092110686
 30
0.0
 10
342.9187137812
 20
840.9666345899
 30
0.0
 10
342.9187137812
 20
846.6378664977
 30
0.0
  0
SPLINE
  5
522
100
AcDbEntity
  8
0
100
AcDbSpline
 62
7
  6
CONTINUOUS
 70
0
 71
3
 72
9
 73
5
 74
0
 42
0.0000001
 43
0.0000001
 44
0.0000000001
 40
0.0
 40
0.0
 40
0.0
 40
0.0
 40
0.2358879818
 40
1.0
 40
1.0
 40
1.0
 40
1.0
 10
1270.6238253067
 20
1195.2502027106
 30
0.0
 10
1270.9981259584
 20
1195.0339067167
 30
0.0
 10
1272.4898619738
 20
1193.9453869179
 30
0.0
 10
1273.4252469705
 20
1192.221310601
 30
0.0
 10
1273.8283969
 20
1190.8802415453
 30
0.0
  0
SPLINE
  5
523
100
AcDbEntity
  8
0
100
AcDbSpline
 62
7
  6
CONTINUOUS
 70
0
 71
3
 72
8
 73
4
 74
0
 42
0.0000001
 43
0.0000001
 44
0.0000000001
 40
0.0
 40
0.0
 40
0.0
 40
0.0
 40
1.0
 40
1.0
 40
1.0
 40
1.0
 10
1273.8283969
 20
1190.8802415453
 30
0.0
 10
1274.1025090396
 20
1189.9684137581
 30
0.0
 10
1274.2546013553
 20
1189.0160855731
 30
0.0
 10
1274.3176346609
 20
1188.0660360055
 30
0.0
  0
SPLINE
  5
524
100
AcDbEntity
  8
0
100
AcDbSpline
 62
7
  6
CONTINUOUS
 70
0
 71
3
 72
13
 73
9
 74
0
 42
0.0000001
 43
0.0000001
 44
0.0000000001
 40
0.0
 40
0.0
 40
0.0
 40
0.0
 40
0.2698713503
 40
0.5613142991
 40
0.6954586824
 40
0.813136848
 40
0.9128521826
 40
1.0
 40
1.0
 40
1.0
 40
1.0
 10
1274.3520367501
 20
1187.0103781462
 30
0.0
 10
1274.3520367501
 20
1183.7952816872
 30
0.0
 10
1272.5843438177
 20
1177.1298654181
 30
0.0
 10
1268.007041399
 20
1170.054118306
 30
0.0
 10
1263.1338490222
 20
1165.7310395743
 30
0.0
 10
1259.4184025064
 20
1163.7024669071
 30
0.0
 10
1255.7827169376
 20
1162.974188978
 30
0.0
 10
1253.5234427493
 20
1163.5543005048
 30
0.0
 10
1252.6245100539
 20
1164.0737640425
 30
0.0
  0
SPLINE
  5
525
100
AcDbEntity
  8
0
100
AcDbSpline
 62
7
  6
CONTINUOUS
 70
0
 71
3
 72
9
 73
5
 74
0
 42
0.0000001
 43
0.0000001
 44
0.0000000001
 40
0.0
 40
0.0
 40
0.0
 40
0.0
 40
0.5508447784
 40
1.0
 40
1.0
 40
1.0
 40
1.0
 10
366.7836670049
 20
912.8769779113
 30
0.0
 10
366.7836670049
 20
913.9276051452
 30
0.0
 10
367.038479789
 20
915.8795377641
 30
0.0
 10
368.319927147
 20
917.4844061989
 30
0.0
 10
369.0621327176
 20
917.9122171296
 30
0.0
  0
SPLINE
  5
526
100
AcDbEntity
  8
0
100
AcDbSpline
 62
7
  6
CONTINUOUS
 70
0
 71
3
 72
9
 73
5
 74
0
 42
0.0000001
 43
0.0000001
 44
0.0000000001
 40
0.0
 40
0.0
 40
0.0
 40
0.0
 40
0.5507896974
 40
1.0
 40
1.0
 40
1.0
 40
1.0
 10
342.9187137812
 20
846.6378664977
 30
0.0
 10
342.9187137812
 20
849.6701072842
 30
0.0
 10
343.6544959048
 20
855.3045378713
 30
0.0
 10
347.352965102
 20
859.9358102825
 30
0.0
 10
349.4945727874
 20
861.1724764535
 30
0.0
  0
SPLINE
  5
527
100
AcDbEntity
  8
0
100
AcDbSpline
 62
7
  6
CONTINUOUS
 70
0
 71
3
 72
9
 73
5
 74
0
 42
0.0000001
 43
0.0000001
 44
0.0000000001
 40
0.0
 40
0.0
 40
0.0
 40
0.0
 40
0.5507896974
 40
1.0
 40
1.0
 40
1.0
 40
1.0
 10
244.6304619858
 20
903.383331376
 30
0.0
 10
244.6304619858
 20
906.4155721625
 30
0.0
 10
245.3662441094
 20
912.0500027497
 30
0.0
 10
249.0647133066
 20
916.6812751609
 30
0.0
 10
251.206320992
 20
917.9179413318
 30
0.0
  0
SPLINE
  5
528
100
AcDbEntity
  8
0
100
AcDbSpline
 62
7
  6
CONTINUOUS
 70
0
 71
3
 72
9
 73
5
 74
0
 42
0.0000001
 43
0.0000001
 44
0.0000000001
 40
0.0
 40
0.0
 40
0.0
 40
0.0
 40
0.53699284
 40
1.0
 40
1.0
 40
1.0
 40
1.0
 10
221.5988717537
 20
866.0601786138
 30
0.0
 10
219.3684707974
 20
867.8383628389
 30
0.0
 10
215.6000588765
 20
871.787490607
 30
0.0
 10
213.9996971516
 20
877.1425884134
 30
0.0
 10
213.9996975134
 20
879.6020578539
 30
0.0
  0
SPLINE
  5
529
100
AcDbEntity
  8
0
100
AcDbSpline
 62
7
  6
CONTINUOUS
 70
0
 71
3
 72
9
 73
5
 74
0
 42
0.0000001
 43
0.0000001
 44
0.0000000001
 40
0.0
 40
0.0
 40
0.0
 40
0.0
 40
0.2579802802
 40
1.0
 40
1.0
 40
1.0
 40
1.0
 10
214.7870926106
 20
853.5817325382
 30
0.0
 10
215.1599059198
 20
853.9123252618
 30
0.0
 10
216.7936643774
 20
854.9413970282
 30
0.0
 10
219.1063930236
 20
855.0879875059
 30
0.0
 10
220.3475709442
 20
854.3714093105
 30
0.0
  0
SPLINE
  5
52A
100
AcDbEntity
  8
0
100
AcDbSpline
 62
7
  6
CONTINUOUS
 70
0
 71
3
 72
9
 73
5
 74
0
 42
0.0000001
 43
0.0000001
 44
0.0000000001
 40
0.0
 40
0.0
 40
0.0
 40
0.0
 40
0.5399135163
 40
1.0
 40
1.0
 40
1.0
 40
1.0
 10
1262.4821257065
 20
1375.8251441831
 30
0.0
 10
1264.8297449159
 20
1377.4301332566
 30
0.0
 10
1268.8667600522
 20
1380.9665180058
 30
0.0
 10
1271.2610962646
 20
1385.8992313996
 30
0.0
 10
1271.700640839
 20
1388.2823920396
 30
0.0
  0
SPLINE
  5
52B
100
AcDbEntity
  8
0
100
AcDbSpline
 62
7
  6
CONTINUOUS
 70
0
 71
3
 72
11
 73
7
 74
0
 42
0.0000001
 43
0.0000001
 44
0.0000000001
 40
0.0
 40
0.0
 40
0.0
 40
0.0
 40
0.237228705
 40
0.5000005261
 40
0.7627720609
 40
1.0
 40
1.0
 40
1.0
 40
1.0
 10
413.0993275063
 20
917.980723969
 30
0.0
 10
417.1147209913
 20
915.662487905
 30
0.0
 10
426.4528271165
 20
912.279272772
 30
0.0
 10
441.3836432224
 20
910.6586800617
 30
0.0
 10
456.3144368002
 20
912.2793409081
 30
0.0
 10
465.6525061975
 20
915.6626024084
 30
0.0
 10
469.6678700008
 20
917.980859943
 30
0.0
  0
SPLINE
  5
52C
100
AcDbEntity
  8
0
100
AcDbSpline
 62
7
  6
CONTINUOUS
 70
0
 71
3
 72
13
 73
9
 74
0
 42
0.0000001
 43
0.0000001
 44
0.0000000001
 40
0.0
 40
0.0
 40
0.0
 40
0.0
 40
0.08714391
 40
0.1868569539
 40
0.3045313596
 40
0.4386686425
 40
0.7301226347
 40
1.0
 40
1.0
 40
1.0
 40
1.0
 10
282.9560705264
 20
862.9254335082
 30
0.0
 10
281.3702270547
 20
862.0096920364
 30
0.0
 10
277.3856025459
 20
860.9860163524
 30
0.0
 10
270.972624856
 20
862.2705751606
 30
0.0
 10
264.4192173051
 20
865.8485192354
 30
0.0
 10
255.8231252407
 20
873.4737222472
 30
0.0
 10
247.7489129835
 20
885.9546759469
 30
0.0
 10
244.6304619858
 20
897.7120994683
 30
0.0
 10
244.6304619858
 20
903.383331376
 30
0.0
  0
SPLINE
  5
52D
100
AcDbEntity
  8
0
100
AcDbSpline
 62
7
  6
CONTINUOUS
 70
0
 71
3
 72
12
 73
8
 74
0
 42
0.0000001
 43
0.0000001
 44
0.0000000001
 40
0.0
 40
0.0
 40
0.0
 40
0.0
 40
0.1832723971
 40
0.3014704885
 40
0.436197174
 40
0.7288937184
 40
1.0
 40
1.0
 40
1.0
 40
1.0
 10
380.0616152454
 20
898.8604420936
 30
0.0
 10
378.9106735345
 20
898.1970336473
 30
0.0
 10
376.3919602162
 20
898.3243736048
 30
0.0
 10
373.652637314
 20
899.8771522881
 30
0.0
 10
370.6531228847
 20
902.511812857
 30
0.0
 10
367.8670962515
 20
906.839376698
 30
0.0
 10
366.7836670049
 20
910.9118649952
 30
0.0
 10
366.7836670049
 20
912.8769779113
 30
0.0
  0
SPLINE
  5
52E
100
AcDbEntity
  8
0
100
AcDbSpline
 62
7
  6
CONTINUOUS
 70
0
 71
3
 72
9
 73
5
 74
0
 42
0.0000001
 43
0.0000001
 44
0.0000000001
 40
0.0
 40
0.0
 40
0.0
 40
0.0
 40
0.2358879818
 40
1.0
 40
1.0
 40
1.0
 40
1.0
 10
478.6675276271
 20
738.0167503745
 30
0.0
 10
479.0418282789
 20
737.8004543807
 30
0.0
 10
480.5335642943
 20
736.7119345818
 30
0.0
 10
481.468949291
 20
734.987858265
 30
0.0
 10
481.8720992205
 20
733.6467892093
 30
0.0
  0
SPLINE
  5
52F
100
AcDbEntity
  8
0
100
AcDbSpline
 62
7
  6
CONTINUOUS
 70
0
 71
3
 72
8
 73
4
 74
0
 42
0.0000001
 43
0.0000001
 44
0.0000000001
 40
0.0
 40
0.0
 40
0.0
 40
0.0
 40
1.0
 40
1.0
 40
1.0
 40
1.0
 10
481.8720992205
 20
733.6467892093
 30
0.0
 10
482.1462113601
 20
732.734961422
 30
0.0
 10
482.2983036758
 20
731.782633237
 30
0.0
 10
482.3613369814
 20
730.8325836694
 30
0.0
  0
SPLINE
  5
530
100
AcDbEntity
  8
0
100
AcDbSpline
 62
7
  6
CONTINUOUS
 70
0
 71
3
 72
10
 73
6
 74
0
 42
0.0000001
 43
0.0000001
 44
0.0000000001
 40
0.0
 40
0.0
 40
0.0
 40
0.0
 40
0.5463023996
 40
0.7805770579
 40
1.0
 40
1.0
 40
1.0
 40
1.0
 10
276.9879340583
 20
770.9001288395
 30
0.0
 10
277.0794089489
 20
776.6409518915
 30
0.0
 10
278.4352257926
 20
785.0815883281
 30
0.0
 10
284.0817405219
 20
794.0983394022
 30
0.0
 10
287.8246959322
 20
797.2169415909
 30
0.0
 10
289.8218494413
 20
798.3699710559
 30
0.0
  0
SPLINE
  5
531
100
AcDbEntity
  8
0
100
AcDbSpline
 62
7
  6
CONTINUOUS
 70
0
 71
3
 72
11
 73
7
 74
0
 42
0.0000001
 43
0.0000001
 44
0.0000000001
 40
0.0
 40
0.0
 40
0.0
 40
0.0
 40
0.2372279391
 40
0.4999994739
 40
0.762771295
 40
1.0
 40
1.0
 40
1.0
 40
1.0
 10
469.6678700008
 20
755.0886277257
 30
0.0
 10
465.6525061975
 20
752.7703701911
 30
0.0
 10
456.3144368002
 20
749.3871086907
 30
0.0
 10
441.3836432224
 20
747.7664478444
 30
0.0
 10
426.4528271165
 20
749.3870405546
 30
0.0
 10
417.1147209913
 20
752.7702556877
 30
0.0
 10
413.0993275063
 20
755.0884917517
 30
0.0
  0
SPLINE
  5
532
100
AcDbEntity
  8
0
100
AcDbSpline
 62
7
  6
CONTINUOUS
 70
0
 71
3
 72
13
 73
9
 74
0
 42
0.0000001
 43
0.0000001
 44
0.0000000001
 40
0.0
 40
0.0
 40
0.0
 40
0.0
 40
0.0884798235
 40
0.1849322391
 40
0.2942902888
 40
0.4178682651
 40
0.6991646553
 40
1.0
 40
1.0
 40
1.0
 40
1.0
 10
351.8211437562
 20
690.98340227
 30
0.0
 10
349.4790777078
 20
689.6312422329
 30
0.0
 10
343.9610415891
 20
687.7933291862
 30
0.0
 10
334.8271651011
 20
688.1700850842
 30
0.0
 10
325.1744445805
 20
691.366526104
 30
0.0
 10
311.5750931097
 20
699.4254623912
 30
0.0
 10
296.2320925217
 20
715.0688015839
 30
0.0
 10
287.2325677724
 20
730.6528403072
 30
0.0
 10
283.7123255198
 20
739.1472764331
 30
0.0
  0
SPLINE
  5
533
100
AcDbEntity
  8
0
100
AcDbSpline
 62
7
  6
CONTINUOUS
 70
0
 71
3
 72
9
 73
5
 74
0
 42
0.0000001
 43
0.0000001
 44
0.0000000001
 40
0.0
 40
0.0
 40
0.0
 40
0.0
 40
0.2654732555
 40
1.0
 40
1.0
 40
1.0
 40
1.0
 10
283.7123255198
 20
739.1472764331
 30
0.0
 10
282.6866697443
 20
741.6222104992
 30
0.0
 10
279.1948338695
 20
751.0845309522
 30
0.0
 10
277.1740089279
 20
761.1653476682
 30
0.0
 10
276.9976235337
 20
768.5757782179
 30
0.0
  0
SPLINE
  5
534
100
AcDbEntity
  8
0
100
AcDbSpline
 62
7
  6
CONTINUOUS
 70
0
 71
3
 72
10
 73
6
 74
0
 42
0.0000001
 43
0.0000001
 44
0.0000000001
 40
0.0
 40
0.0
 40
0.0
 40
0.0
 40
0.2776477383
 40
0.5773673644
 40
1.0
 40
1.0
 40
1.0
 40
1.0
 10
411.8972998529
 20
617.7937676268
 30
0.0
 10
412.7791970999
 20
618.3029282004
 30
0.0
 10
414.9302704574
 20
618.8465713612
 30
0.0
 10
418.4196451874
 20
618.8044051913
 30
0.0
 10
421.6270313714
 20
617.0168807297
 30
0.0
 10
421.6277328393
 20
615.4667955908
 30
0.0
  0
ENDSEC
  0
SECTION
  2
OBJECTS
  0
DICTIONARY
  5
C
100
AcDbDictionary
280
0
281
1
  3
ACAD_GROUP
350
D
  3
ACAD_MLINESTYLE
350
17
  3
ACAD_LAYOUT
350
1A
  3
ACAD_PLOTSETTINGS
350
19
  3
ACAD_PLOTSTYLENAME
350
E
  0
DICTIONARY
  5
D
102
{ACAD_REACTORS
330
C
102
}
100
AcDbDictionary
280
0
281
1
  0
ACDBDICTIONARYWDFLT
  5
E
102
{ACAD_REACTORS
330
C
102
}
100
AcDbDictionary
281
1
  3
Normal
350
F
100
AcDbDictionaryWithDefault
340
F
  0
DICTIONARY
  5
17
102
{ACAD_REACTORS
330
C
102
}
100
AcDbDictionary
280
0
281
1
  3
Standard
350
18
  0
DICTIONARY
  5
19
102
{ACAD_REACTORS
330
C
102
}
100
AcDbDictionary
281
1
  0
DICTIONARY
  5
1A
102
{ACAD_REACTORS
330
C
102
}
100
AcDbDictionary
281
1
  3
Model
350
535
  3
Layout1
350
536
  0
ACDBPLACEHOLDER
  5
F
102
{ACAD_REACTORS
330
E
102
}
  0
MLINESTYLE
  5
18
102
{ACAD_REACTORS
330
17
102
}
100
AcDbMlineStyle
  2
STANDARD
 70
0
  3

 62
256
 51
90.0
 52
90.0
 71
2
 49
0.5
 62
256
  6
BYLAYER
 49
-0.5
 62
256
  6
BYLAYER
  0
LAYOUT
  5
535
102
{ACAD_REACTORS
330
1A
102
}
100
AcDbPlotSettings
  1

  2
none_device
  4

  6

 40
0.0
 41
0.0
 42
0.0
 43
0.0
 44
210.0
 45
297.0
 46
0.0
 47
0.0
 48
0.0
 49
0.0
140
0.0
141
0.0
142
1.0
143
1.0
 70
1024
 72
1
 73
0
 74
0
  7

 75
0
147
1.0
148
0.0
149
0.0
100
AcDbLayout
  1
Model
 70
0
 71
0
 10
0.0
 20
0.0
 11
210.0
 21
297.0
 12
0.0
 22
0.0
 32
0.0
 14
0.0
 24
0.0
 34
0.0
 15
0.0
 25
0.0
 35
0.0
146
0.0
 13
0.0
 23
0.0
 33
0.0
 16
1.0
 26
0.0
 36
0.0
 17
0.0
 27
1.0
 37
0.0
 76
0
330
210
345
0
346
0
  0
LAYOUT
  5
536
102
{ACAD_REACTORS
330
1A
102
}
100
AcDbPlotSettings
  1

  2
none_device
  4

  6

 40
0.0
 41
0.0
 42
0.0
 43
0.0
 44
210.0
 45
297.0
 46
0.0
 47
0.0
 48
0.0
 49
0.0
140
0.0
141
0.0
142
1.0
143
1.0
 70
0
 72
1
 73
0
 74
0
  7

 75
0
147
1.0
148
0.0
149
0.0
100
AcDbLayout
  1
Layout1
 70
0
 71
1
 10
0.0
 20
0.0
 11
210.0
 21
297.0
 12
0.0
 22
0.0
 32
0.0
 14
0.0
 24
0.0
 34
0.0
 15
0.0
 25
0.0
 35
0.0
146
0.0
 13
0.0
 23
0.0
 33
0.0
 16
1.0
 26
0.0
 36
0.0
 17
0.0
 27
1.0
 37
0.0
 76
0
330
211
345
0
346
0
  0
ENDSEC
  0
EOF
