999
DXF file: C:\Users\sesa63760\Dev\_Creo\CAD\MCADUE0001462_3D-CAD\drw0001_4.dxf
999
Pro/ENGINEER 2019471 by Parametric Technology Corporation
  0
SECTION
  2
HEADER
  9
$ACADVER
  1
AC1024
  9
$DWGCODEPAGE
  3
ANSI_1252
  9
$EXTMAX
 10
1038.9869922244
 20
1469.4244604317
 30
0.0
  9
$EXTMIN
 10
0.0
 20
0.0
 30
0.0
  9
$LIMMIN
 10
0.0
 20
0.0
  9
$LIMMAX
 10
1038.9869922244
 20
1469.4244604317
  9
$VIEWCTR
 10
519.4934961122
 20
734.7122302158
  9
$VIEWSIZE
 40
1469.4244604317
  9
$CLAYER
  8
0
  9
$LTSCALE
 40
95.7847055689
  9
$CELTYPE
  6
BYLAYER
  9
$DIMSCALE
 40
1.0
  9
$DIMASZ
 40
12.3688927646
  9
$DIMEXO
 40
1.0
  9
$DIMDLI
 40
66.1785238476
  9
$DIMEXE
 40
1.0
  9
$DIMCEN
 40
15.6738609113
  9
$DIMLFAC
 40
1.0
  9
$DIMBLK
  1
_FILLED
  9
$DIMALT
 70
0
  9
$DIMALTF
 40
0.0393700787
  9
$DIMTXT
 40
17.3164498704
  9
$DIMTOL
 70
1
  9
$DIMLIM
 70
0
  9
$DIMTFAC
 40
1.0
  9
$DIMTP
 40
0.01
  9
$DIMTM
 40
0.01
  9
$DIMGAP
 40
0.625
  9
$DIMDSEP
 70
46
  9
$AUNITS
 70
0
  9
$PDMODE
 70
3
  9
$PDSIZE
 40
0.3125
  9
$HANDSEED
  5
28A
  9
$TILEMODE
 70
1
  9
$MEASUREMENT
 70
1
  9
$INSUNITS
 70
4
  0
ENDSEC
  0
SECTION
  2
CLASSES
  0
CLASS
  1
ACDBDICTIONARYWDFLT
  2
AcDbDictionaryWithDefault
  3
AutoCAD 2000
 90
0
 91
1
280
0
281
0
  0
CLASS
  1
ACDBPLACEHOLDER
  2
AcDbPlaceHolder
  3
AutoCAD 2000
 90
0
 91
1
280
0
281
0
  0
CLASS
  1
LAYOUT
  2
AcDbLayout
  3
AutoCAD 2000
 90
0
 91
0
280
0
281
0
  0
ENDSEC
  0
SECTION
  2
TABLES
  0
TABLE
  2
VPORT
  5
8
100
AcDbSymbolTable
 70
2
  0
VPORT
  5
1F4
100
AcDbSymbolTableRecord
100
AcDbViewportTableRecord
  2
*ACTIVE
 70
0
 10
0.0
 20
0.0
 11
1.0
 21
1.0
 12
519.4934961122
 22
734.7122302158
 13
0.0
 23
0.0
 14
1.0
 24
1.0
 15
0.0
 25
0.0
 16
0.0
 26
0.0
 36
1.0
 17
0.0
 27
0.0
 37
0.0
 40
1469.4244604317
 41
0.7070707071
 42
50.0
 43
0.0
 44
0.0
 50
0.0
 51
0.0
 71
0
 72
100
 73
1
 74
1
 75
0
 76
0
 77
0
 78
0
  0
ENDTAB
  0
TABLE
  2
LTYPE
  5
5
100
AcDbSymbolTable
 70
6
  0
LTYPE
  5
14
100
AcDbSymbolTableRecord
100
AcDbLinetypeTableRecord
  2
BYBLOCK
 70
0
  3

 72
65
 73
0
 40
0.0
  0
LTYPE
  5
15
100
AcDbSymbolTableRecord
100
AcDbLinetypeTableRecord
  2
BYLAYER
 70
0
  3

 72
65
 73
0
 40
0.0
  0
LTYPE
  5
16
100
AcDbSymbolTableRecord
100
AcDbLinetypeTableRecord
  2
CONTINUOUS
 70
64
  3
Solid line
 72
65
 73
0
 40
0.0
  0
LTYPE
  5
1F5
100
AcDbSymbolTableRecord
100
AcDbLinetypeTableRecord
  2
CENTER
 70
64
  3
____ _ ____ _ ____ _ ____ _ ____ _ ____ _ ____
 72
65
 73
4
 40
0.6
 49
0.375
 74
0
 49
-0.075
 74
0
 49
0.075
 74
0
 49
-0.075
 74
0
  0
LTYPE
  5
1F6
100
AcDbSymbolTableRecord
100
AcDbLinetypeTableRecord
  2
HIDDEN
 70
64
  3
- - - - - - - - - - - - - - - - - - - -
 72
65
 73
2
 40
0.2
 49
0.1
 74
0
 49
-0.1
 74
0
  0
LTYPE
  5
1F7
100
AcDbSymbolTableRecord
100
AcDbLinetypeTableRecord
  2
PHANTOM
 70
64
  3
_____ _ _ _____ _ _ _____ _ _ _____
 72
65
 73
6
 40
0.8
 49
0.45
 74
0
 49
-0.05
 74
0
 49
0.1
 74
0
 49
-0.05
 74
0
 49
0.1
 74
0
 49
-0.05
 74
0
  0
LTYPE
  5
1F8
100
AcDbSymbolTableRecord
100
AcDbLinetypeTableRecord
  2
DOT
 70
64
  3
. . . . . . . . . . . . . . . . . . . .
 72
65
 73
2
 40
0.2
 49
0.1
 74
0
 49
-0.1
 74
0
  0
LTYPE
  5
1F9
100
AcDbSymbolTableRecord
100
AcDbLinetypeTableRecord
  2
DASHED
 70
64
  3
- - - - - - - - - - - - - - - - - - - -
 72
65
 73
2
 40
0.2
 49
0.1
 74
0
 49
-0.1
 74
0
  0
ENDTAB
  0
TABLE
  2
LAYER
  5
2
100
AcDbSymbolTable
 70
36
  0
LAYER
  5
10
100
AcDbSymbolTableRecord
100
AcDbLayerTableRecord
  2
0
 70
0
 62
7
  6
CONTINUOUS
370
-3
390
F
  0
LAYER
  5
1FA
100
AcDbSymbolTableRecord
100
AcDbLayerTableRecord
  2
DEFAULT_1
 70
0
 62
7
  6
CENTER
370
-3
390
F
  0
LAYER
  5
1FB
100
AcDbSymbolTableRecord
100
AcDbLayerTableRecord
  2
DEFAULT_2
 70
0
 62
8
  6
HIDDEN
370
-3
390
F
  0
LAYER
  5
1FC
100
AcDbSymbolTableRecord
100
AcDbLayerTableRecord
  2
DEFAULT_3
 70
0
 62
7
  6
PHANTOM
370
-3
390
F
  0
LAYER
  5
1FD
100
AcDbSymbolTableRecord
100
AcDbLayerTableRecord
  2
00_COMPONENTS
 70
0
 62
7
  6
CONTINUOUS
370
-3
390
F
  0
LAYER
  5
1FE
100
AcDbSymbolTableRecord
100
AcDbLayerTableRecord
  2
01_1_DEFAULT_DATUMS
 70
0
 62
7
  6
CONTINUOUS
370
-3
390
F
  0
LAYER
  5
1FF
100
AcDbSymbolTableRecord
100
AcDbLayerTableRecord
  2
01_PLANES
 70
0
 62
7
  6
CONTINUOUS
370
-3
390
F
  0
LAYER
  5
200
100
AcDbSymbolTableRecord
100
AcDbLayerTableRecord
  2
02_COORD_SYS
 70
0
 62
7
  6
CONTINUOUS
370
-3
390
F
  0
LAYER
  5
201
100
AcDbSymbolTableRecord
100
AcDbLayerTableRecord
  2
03_AXES
 70
0
 62
7
  6
CONTINUOUS
370
-3
390
F
  0
LAYER
  5
202
100
AcDbSymbolTableRecord
100
AcDbLayerTableRecord
  2
04_POINTS
 70
0
 62
7
  6
CONTINUOUS
370
-3
390
F
  0
LAYER
  5
203
100
AcDbSymbolTableRecord
100
AcDbLayerTableRecord
  2
05_CURVES
 70
0
 62
7
  6
CONTINUOUS
370
-3
390
F
  0
LAYER
  5
204
100
AcDbSymbolTableRecord
100
AcDbLayerTableRecord
  2
06_SURFS
 70
0
 62
7
  6
CONTINUOUS
370
-3
390
F
  0
LAYER
  5
205
100
AcDbSymbolTableRecord
100
AcDbLayerTableRecord
  2
07_COSMETICS
 70
0
 62
7
  6
CONTINUOUS
370
-3
390
F
  0
LAYER
  5
206
100
AcDbSymbolTableRecord
100
AcDbLayerTableRecord
  2
10_NOTES
 70
0
 62
7
  6
CONTINUOUS
370
-3
390
F
  0
LAYER
  5
207
100
AcDbSymbolTableRecord
100
AcDbLayerTableRecord
  2
11_NOTES_PUB
 70
0
 62
7
  6
CONTINUOUS
370
-3
390
F
  0
LAYER
  5
208
100
AcDbSymbolTableRecord
100
AcDbLayerTableRecord
  2
13_REF_GTOL
 70
0
 62
7
  6
CONTINUOUS
370
-3
390
F
  0
LAYER
  5
209
100
AcDbSymbolTableRecord
100
AcDbLayerTableRecord
  2
16_MISC
 70
0
 62
7
  6
CONTINUOUS
370
-3
390
F
  0
LAYER
  5
20A
100
AcDbSymbolTableRecord
100
AcDbLayerTableRecord
  2
17_NO_PRINT
 70
0
 62
7
  6
CONTINUOUS
370
-3
390
F
  0
LAYER
  5
20B
100
AcDbSymbolTableRecord
100
AcDbLayerTableRecord
  2
18_DATUM_CAMS_JOINTS
 70
0
 62
7
  6
CONTINUOUS
370
-3
390
F
  0
LAYER
  5
20C
100
AcDbSymbolTableRecord
100
AcDbLayerTableRecord
  2
19_DATUM_FUNCTIONAL
 70
0
 62
7
  6
CONTINUOUS
370
-3
390
F
  0
LAYER
  5
20D
100
AcDbSymbolTableRecord
100
AcDbLayerTableRecord
  2
20_DATUM_KINEMATIC_SCHEME
 70
0
 62
7
  6
CONTINUOUS
370
-3
390
F
  0
ENDTAB
  0
TABLE
  2
STYLE
  5
3
100
AcDbSymbolTable
 70
1
  0
STYLE
  5
11
100
AcDbSymbolTableRecord
100
AcDbTextStyleTableRecord
  2
STANDARD
 70
0
 40
0.0
 41
0.8
 50
0.0
 71
0
 42
0.2
  3
txt
  4

  0
STYLE
  5
20E
100
AcDbSymbolTableRecord
100
AcDbTextStyleTableRecord
  2
TEXTSTYLE_1
 70
0
 40
0.0
 41
0.8
 50
0.0
 71
0
 42
0.2
  3
gdt
  4

  0
ENDTAB
  0
TABLE
  2
VIEW
  5
6
100
AcDbSymbolTable
 70
0
  0
ENDTAB
  0
TABLE
  2
UCS
  5
7
100
AcDbSymbolTable
 70
0
  0
ENDTAB
  0
TABLE
  2
APPID
  5
9
100
AcDbSymbolTable
 70
1
  0
APPID
  5
20F
100
AcDbSymbolTableRecord
100
AcDbRegAppTableRecord
  2
ACAD
 70
0
  0
ENDTAB
  0
TABLE
  2
BLOCK_RECORD
  5
1
100
AcDbSymbolTable
 70
0
  0
BLOCK_RECORD
  5
210
100
AcDbSymbolTableRecord
100
AcDbBlockTableRecord
  2
*Model_Space
  0
BLOCK_RECORD
  5
211
100
AcDbSymbolTableRecord
100
AcDbBlockTableRecord
  2
*Paper_Space
  0
BLOCK_RECORD
  5
212
100
AcDbSymbolTableRecord
100
AcDbBlockTableRecord
  2
_FILLED
  0
ENDTAB
  0
TABLE
  2
DIMSTYLE
  5
A
100
AcDbSymbolTable
 70
1
100
AcDbDimStyleTable
 71
0
  0
DIMSTYLE
105
213
100
AcDbSymbolTableRecord
100
AcDbDimStyleTableRecord
  2
STANDARD
 70
0
  3

  4

 40
1.0
 41
12.3688927646
 42
1.0
 43
0.38
 44
1.0
 45
0.0
 46
0.0
 47
0.01
 48
0.01
140
17.3164498704
141
0.09
142
0.0
143
25.4
144
1.0
145
0.0
146
1.0
147
0.625
 71
1
 72
0
 73
0
 74
0
 75
0
 76
0
 77
1
 78
8
 79
2
170
0
171
1
172
0
173
0
174
0
175
0
176
0
177
0
178
0
270
2
179
2
271
2
272
2
273
2
274
2
275
0
280
0
281
0
282
0
283
1
284
8
285
0
286
0
287
3
288
0
340
11
278
46
341
212
342
212
343
212
344
212
  0
ENDTAB
  0
ENDSEC
  0
SECTION
  2
BLOCKS
  0
BLOCK
  5
20
100
AcDbEntity
  8
0
100
AcDbBlockBegin
  2
*Model_Space
 70
0
 10
0.0
 20
0.0
 30
0.0
  3
*Model_Space
  1

  0
ENDBLK
  5
21
100
AcDbEntity
  8
0
100
AcDbBlockEnd
  0
BLOCK
  5
1C
100
AcDbEntity
  8
0
100
AcDbBlockBegin
  2
*Paper_Space
 70
0
 10
0.0
 20
0.0
 30
0.0
  3
*Paper_Space
  1

  0
ENDBLK
  5
1D
100
AcDbEntity
  8
0
100
AcDbBlockEnd
  0
BLOCK
  5
214
100
AcDbEntity
  8
0
100
AcDbBlockBegin
  2
_FILLED
 70
64
 10
0.0
 20
0.0
  3
_FILLED
  1

  0
SOLID
  5
215
100
AcDbEntity
  8
0
  6
BYBLOCK
 62
0
100
AcDbTrace
 10
0.0
 20
0.0
 11
-1.0
 21
0.25
 12
-1.0
 22
-0.25
 13
-1.0
 23
-0.25
  0
ENDBLK
  5
216
100
AcDbEntity
  8
0
  6
BYBLOCK
 62
0
100
AcDbBlockEnd
  0
ENDSEC
  0
SECTION
  2
ENTITIES
  0
LINE
  5
217
100
AcDbEntity
  8
0
100
AcDbLine
 62
7
  6
CONTINUOUS
 10
157.9827047453
 20
105.2158273381
 11
907.9827047453
 21
105.2158273381
  0
LINE
  5
218
100
AcDbEntity
  8
0
100
AcDbLine
 62
7
  6
CONTINUOUS
 10
906.0527047453
 20
107.1558273381
 11
159.9127047453
 21
107.1558273381
  0
LINE
  5
219
100
AcDbEntity
  8
0
100
AcDbLine
 62
7
  6
CONTINUOUS
 10
906.4827047453
 20
110.216331015
 11
159.4827047453
 21
110.216331015
  0
LINE
  5
21A
100
AcDbEntity
  8
0
100
AcDbLine
 62
7
  6
CONTINUOUS
 10
160.2688431171
 20
110.9961156224
 11
905.6965663735
 21
110.9961156224
  0
LINE
  5
21B
100
AcDbEntity
  8
0
100
AcDbLine
 62
7
  6
CONTINUOUS
 10
905.1566801213
 20
114.7842114604
 11
160.8087293693
 21
114.7842114604
  0
LINE
  5
21C
100
AcDbEntity
  8
0
100
AcDbLine
 62
7
  6
CONTINUOUS
 10
850.7327047453
 20
154.1753248207
 11
215.2327047453
 21
154.1753248207
  0
LINE
  5
21D
100
AcDbEntity
  8
0
100
AcDbLine
 62
7
  6
CONTINUOUS
 10
901.6273785349
 20
155.206331015
 11
850.7327047453
 21
155.206331015
  0
LINE
  5
21E
100
AcDbEntity
  8
0
100
AcDbLine
 62
7
  6
CONTINUOUS
 10
215.2327047453
 20
155.206331015
 11
164.3380309533
 21
155.206331015
  0
LINE
  5
21F
100
AcDbEntity
  8
0
100
AcDbLine
 62
7
  6
CONTINUOUS
 10
158.0289298628
 20
192.2658273381
 11
159.4827047453
 21
192.2658273381
  0
LINE
  5
220
100
AcDbEntity
  8
0
100
AcDbLine
 62
7
  6
CONTINUOUS
 10
906.4827047453
 20
192.2658273381
 11
907.9364796278
 21
192.2658273381
  0
LINE
  5
221
100
AcDbEntity
  8
0
100
AcDbLine
 62
7
  6
CONTINUOUS
 10
907.9364796278
 20
218.1658273381
 11
906.4827047453
 21
218.1658273381
  0
LINE
  5
222
100
AcDbEntity
  8
0
100
AcDbLine
 62
7
  6
CONTINUOUS
 10
159.4827047453
 20
218.1658273381
 11
158.0289298628
 21
218.1658273381
  0
LINE
  5
223
100
AcDbEntity
  8
0
100
AcDbLine
 62
7
  6
CONTINUOUS
 10
158.0289298628
 20
192.2658273381
 11
158.005817304
 21
197.2158273381
  0
LINE
  5
224
100
AcDbEntity
  8
0
100
AcDbLine
 62
7
  6
CONTINUOUS
 10
158.0289298628
 20
567.2658273381
 11
158.005817304
 21
572.2158273381
  0
LINE
  5
225
100
AcDbEntity
  8
0
100
AcDbLine
 62
7
  6
CONTINUOUS
 10
158.0289298628
 20
867.2658273381
 11
158.005817304
 21
872.2158273381
  0
LINE
  5
226
100
AcDbEntity
  8
0
100
AcDbLine
 62
7
  6
CONTINUOUS
 10
158.0289298628
 20
1242.2658273381
 11
158.005817304
 21
1247.2158273381
  0
LINE
  5
227
100
AcDbEntity
  8
0
100
AcDbLine
 62
7
  6
CONTINUOUS
 10
157.9827047453
 20
105.2158273381
 11
157.9827047453
 21
197.2158273381
  0
LINE
  5
228
100
AcDbEntity
  8
0
100
AcDbLine
 62
7
  6
CONTINUOUS
 10
157.9827047453
 20
213.2158273381
 11
157.9827047453
 21
572.2158273381
  0
LINE
  5
229
100
AcDbEntity
  8
0
100
AcDbLine
 62
7
  6
CONTINUOUS
 10
157.9827047453
 20
588.2158273381
 11
157.9827047453
 21
872.2158273381
  0
LINE
  5
22A
100
AcDbEntity
  8
0
100
AcDbLine
 62
7
  6
CONTINUOUS
 10
157.9827047453
 20
888.2158273381
 11
157.9827047453
 21
1247.2158273381
  0
LINE
  5
22B
100
AcDbEntity
  8
0
100
AcDbLine
 62
7
  6
CONTINUOUS
 10
157.9827047453
 20
1263.2158273381
 11
157.9827047453
 21
1355.2158273381
  0
LINE
  5
22C
100
AcDbEntity
  8
0
100
AcDbLine
 62
7
  6
CONTINUOUS
 10
158.005817304
 20
1263.2158273381
 11
158.005817304
 21
1247.2158273381
  0
LINE
  5
22D
100
AcDbEntity
  8
0
100
AcDbLine
 62
7
  6
CONTINUOUS
 10
158.005817304
 20
888.2158273381
 11
158.005817304
 21
872.2158273381
  0
LINE
  5
22E
100
AcDbEntity
  8
0
100
AcDbLine
 62
7
  6
CONTINUOUS
 10
158.005817304
 20
588.2158273381
 11
158.005817304
 21
572.2158273381
  0
LINE
  5
22F
100
AcDbEntity
  8
0
100
AcDbLine
 62
7
  6
CONTINUOUS
 10
158.005817304
 20
213.2158273381
 11
158.005817304
 21
197.2158273381
  0
LINE
  5
230
100
AcDbEntity
  8
0
100
AcDbLine
 62
7
  6
CONTINUOUS
 10
159.4827047453
 20
110.216331015
 11
159.4827047453
 21
1350.216331015
  0
LINE
  5
231
100
AcDbEntity
  8
0
100
AcDbLine
 62
7
  6
CONTINUOUS
 10
159.9127047453
 20
107.1558273382
 11
159.9127047453
 21
110.216331015
  0
LINE
  5
232
100
AcDbEntity
  8
0
100
AcDbLine
 62
7
  6
CONTINUOUS
 10
159.9127047453
 20
1350.216331015
 11
159.9127047453
 21
1353.2758273382
  0
LINE
  5
233
100
AcDbEntity
  8
0
100
AcDbLine
 62
7
  6
CONTINUOUS
 10
160.3427047453
 20
1348.7329845257
 11
160.3427047453
 21
111.6896797918
  0
LINE
  5
234
100
AcDbEntity
  8
0
100
AcDbLine
 62
7
  6
CONTINUOUS
 10
163.4827047453
 20
600.2558273381
 11
163.4827047453
 21
860.1758273381
  0
LINE
  5
235
100
AcDbEntity
  8
0
100
AcDbLine
 62
7
  6
CONTINUOUS
 10
164.333580644
 20
155.206331015
 11
164.333580644
 21
600.2558273381
  0
LINE
  5
236
100
AcDbEntity
  8
0
100
AcDbLine
 62
7
  6
CONTINUOUS
 10
164.333580644
 20
860.1758273381
 11
164.333580644
 21
1305.216331015
  0
LINE
  5
237
100
AcDbEntity
  8
0
100
AcDbLine
 62
7
  6
CONTINUOUS
 10
195.4827047453
 20
860.1758273381
 11
195.4827047453
 21
600.2558273381
  0
LINE
  5
238
100
AcDbEntity
  8
0
100
AcDbLine
 62
7
  6
CONTINUOUS
 10
158.005817304
 20
1263.2158273381
 11
158.0289298628
 21
1268.1658273381
  0
LINE
  5
239
100
AcDbEntity
  8
0
100
AcDbLine
 62
7
  6
CONTINUOUS
 10
158.005817304
 20
888.2158273381
 11
158.0289298628
 21
893.1658273381
  0
LINE
  5
23A
100
AcDbEntity
  8
0
100
AcDbLine
 62
7
  6
CONTINUOUS
 10
158.005817304
 20
588.2158273381
 11
158.0289298628
 21
593.1658273381
  0
LINE
  5
23B
100
AcDbEntity
  8
0
100
AcDbLine
 62
7
  6
CONTINUOUS
 10
158.005817304
 20
213.2158273381
 11
158.0289298628
 21
218.1658273381
  0
LINE
  5
23C
100
AcDbEntity
  8
0
100
AcDbLine
 62
7
  6
CONTINUOUS
 10
215.2327047453
 20
1306.2577090586
 11
215.2327047453
 21
1305.216331015
  0
LINE
  5
23D
100
AcDbEntity
  8
0
100
AcDbLine
 62
7
  6
CONTINUOUS
 10
215.2327047453
 20
155.206331015
 11
215.2327047453
 21
154.1739456177
  0
LINE
  5
23E
100
AcDbEntity
  8
0
100
AcDbLine
 62
7
  6
CONTINUOUS
 10
905.696504524
 20
1349.426487033
 11
906.4827047453
 21
1350.216331015
  0
LINE
  5
23F
100
AcDbEntity
  8
0
100
AcDbLine
 62
7
  6
CONTINUOUS
 10
902.9902338457
 20
1350.216331015
 11
906.0527047453
 21
1353.2758273381
  0
LINE
  5
240
100
AcDbEntity
  8
0
100
AcDbLine
 62
7
  6
CONTINUOUS
 10
158.0289298628
 20
567.2658273381
 11
159.4827047453
 21
567.2658273381
  0
LINE
  5
241
100
AcDbEntity
  8
0
100
AcDbLine
 62
7
  6
CONTINUOUS
 10
906.4827047453
 20
567.2658273381
 11
907.9364796278
 21
567.2658273381
  0
LINE
  5
242
100
AcDbEntity
  8
0
100
AcDbLine
 62
7
  6
CONTINUOUS
 10
906.4827047453
 20
110.216331015
 11
905.6965663735
 21
110.9961156224
  0
LINE
  5
243
100
AcDbEntity
  8
0
100
AcDbLine
 62
7
  6
CONTINUOUS
 10
906.0527047453
 20
107.1558273381
 11
902.9891588183
 21
110.216331015
  0
LINE
  5
244
100
AcDbEntity
  8
0
100
AcDbLine
 62
7
  6
CONTINUOUS
 10
907.9364796278
 20
593.1658273381
 11
906.4827047453
 21
593.1658273381
  0
LINE
  5
245
100
AcDbEntity
  8
0
100
AcDbLine
 62
7
  6
CONTINUOUS
 10
159.4827047453
 20
593.1658273381
 11
158.0289298628
 21
593.1658273381
  0
LINE
  5
246
100
AcDbEntity
  8
0
100
AcDbLine
 62
7
  6
CONTINUOUS
 10
195.4827047453
 20
600.2558273381
 11
163.4827047453
 21
600.2558273381
  0
LINE
  5
247
100
AcDbEntity
  8
0
100
AcDbLine
 62
7
  6
CONTINUOUS
 10
163.4827047453
 20
600.6758273381
 11
195.4827047453
 21
600.6758273381
  0
LINE
  5
248
100
AcDbEntity
  8
0
100
AcDbLine
 62
7
  6
CONTINUOUS
 10
195.4827047453
 20
604.4958273381
 11
163.4827047453
 21
604.4958273381
  0
LINE
  5
249
100
AcDbEntity
  8
0
100
AcDbLine
 62
7
  6
CONTINUOUS
 10
195.4827047453
 20
855.9458273381
 11
163.4827047453
 21
855.9458273381
  0
LINE
  5
24A
100
AcDbEntity
  8
0
100
AcDbLine
 62
7
  6
CONTINUOUS
 10
195.4827047453
 20
859.7558273381
 11
163.4827047453
 21
859.7558273381
  0
LINE
  5
24B
100
AcDbEntity
  8
0
100
AcDbLine
 62
7
  6
CONTINUOUS
 10
195.4827047453
 20
860.1758273381
 11
163.4827047453
 21
860.1758273381
  0
LINE
  5
24C
100
AcDbEntity
  8
0
100
AcDbLine
 62
7
  6
CONTINUOUS
 10
158.0289298628
 20
867.2658273381
 11
159.4827047453
 21
867.2658273381
  0
LINE
  5
24D
100
AcDbEntity
  8
0
100
AcDbLine
 62
7
  6
CONTINUOUS
 10
906.4827047453
 20
867.2658273381
 11
907.9364796278
 21
867.2658273381
  0
LINE
  5
24E
100
AcDbEntity
  8
0
100
AcDbLine
 62
7
  6
CONTINUOUS
 10
162.976183978
 20
110.216331015
 11
159.9127047453
 21
107.1558273381
  0
LINE
  5
24F
100
AcDbEntity
  8
0
100
AcDbLine
 62
7
  6
CONTINUOUS
 10
160.2688431171
 20
110.9961156224
 11
159.4827047453
 21
110.216331015
  0
LINE
  5
250
100
AcDbEntity
  8
0
100
AcDbLine
 62
7
  6
CONTINUOUS
 10
907.9364796278
 20
893.1658273381
 11
906.4827047453
 21
893.1658273381
  0
LINE
  5
251
100
AcDbEntity
  8
0
100
AcDbLine
 62
7
  6
CONTINUOUS
 10
159.4827047453
 20
893.1658273381
 11
158.0289298628
 21
893.1658273381
  0
LINE
  5
252
100
AcDbEntity
  8
0
100
AcDbLine
 62
7
  6
CONTINUOUS
 10
159.9127047453
 20
1353.2758273381
 11
162.9752423173
 21
1350.216331015
  0
LINE
  5
253
100
AcDbEntity
  8
0
100
AcDbLine
 62
7
  6
CONTINUOUS
 10
159.4827047453
 20
1350.216331015
 11
160.2689049666
 21
1349.426487033
  0
LINE
  5
254
100
AcDbEntity
  8
0
100
AcDbLine
 62
7
  6
CONTINUOUS
 10
850.7327047453
 20
1306.2563176159
 11
850.7327047453
 21
1305.216331015
  0
LINE
  5
255
100
AcDbEntity
  8
0
100
AcDbLine
 62
7
  6
CONTINUOUS
 10
850.7327047453
 20
155.206331015
 11
850.7327047453
 21
154.1753248207
  0
LINE
  5
256
100
AcDbEntity
  8
0
100
AcDbLine
 62
7
  6
CONTINUOUS
 10
907.9364796278
 20
218.1658273381
 11
907.9595921866
 21
213.2158273381
  0
LINE
  5
257
100
AcDbEntity
  8
0
100
AcDbLine
 62
7
  6
CONTINUOUS
 10
907.9364796278
 20
593.1658273381
 11
907.9595921866
 21
588.2158273381
  0
LINE
  5
258
100
AcDbEntity
  8
0
100
AcDbLine
 62
7
  6
CONTINUOUS
 10
907.9364796278
 20
893.1658273381
 11
907.9595921866
 21
888.2158273381
  0
LINE
  5
259
100
AcDbEntity
  8
0
100
AcDbLine
 62
7
  6
CONTINUOUS
 10
907.9364796278
 20
1268.1658273381
 11
907.9595921866
 21
1263.2158273381
  0
LINE
  5
25A
100
AcDbEntity
  8
0
100
AcDbLine
 62
7
  6
CONTINUOUS
 10
901.6318288509
 20
1305.216331015
 11
901.6318288509
 21
155.206331015
  0
LINE
  5
25B
100
AcDbEntity
  8
0
100
AcDbLine
 62
7
  6
CONTINUOUS
 10
905.6227047453
 20
111.6896797919
 11
905.6227047453
 21
1348.7329845257
  0
LINE
  5
25C
100
AcDbEntity
  8
0
100
AcDbLine
 62
7
  6
CONTINUOUS
 10
906.0527047453
 20
1353.2758273381
 11
906.0527047453
 21
1350.216331015
  0
LINE
  5
25D
100
AcDbEntity
  8
0
100
AcDbLine
 62
7
  6
CONTINUOUS
 10
906.0527047453
 20
110.216331015
 11
906.0527047453
 21
107.1558273381
  0
LINE
  5
25E
100
AcDbEntity
  8
0
100
AcDbLine
 62
7
  6
CONTINUOUS
 10
906.4827047453
 20
1350.216331015
 11
906.4827047453
 21
110.216331015
  0
LINE
  5
25F
100
AcDbEntity
  8
0
100
AcDbLine
 62
7
  6
CONTINUOUS
 10
907.9595921866
 20
197.2158273381
 11
907.9595921866
 21
213.2158273381
  0
LINE
  5
260
100
AcDbEntity
  8
0
100
AcDbLine
 62
7
  6
CONTINUOUS
 10
907.9595921866
 20
572.2158273381
 11
907.9595921866
 21
588.2158273381
  0
LINE
  5
261
100
AcDbEntity
  8
0
100
AcDbLine
 62
7
  6
CONTINUOUS
 10
907.9595921866
 20
872.2158273381
 11
907.9595921866
 21
888.2158273381
  0
LINE
  5
262
100
AcDbEntity
  8
0
100
AcDbLine
 62
7
  6
CONTINUOUS
 10
907.9595921866
 20
1247.2158273381
 11
907.9595921866
 21
1263.2158273381
  0
LINE
  5
263
100
AcDbEntity
  8
0
100
AcDbLine
 62
7
  6
CONTINUOUS
 10
907.9827047453
 20
1247.2158273381
 11
907.9827047453
 21
888.2158273381
  0
LINE
  5
264
100
AcDbEntity
  8
0
100
AcDbLine
 62
7
  6
CONTINUOUS
 10
907.9827047453
 20
872.2158273381
 11
907.9827047453
 21
588.2158273381
  0
LINE
  5
265
100
AcDbEntity
  8
0
100
AcDbLine
 62
7
  6
CONTINUOUS
 10
907.9827047453
 20
572.2158273381
 11
907.9827047453
 21
213.2158273381
  0
LINE
  5
266
100
AcDbEntity
  8
0
100
AcDbLine
 62
7
  6
CONTINUOUS
 10
907.9827047453
 20
105.2158273381
 11
907.9827047453
 21
197.2158273381
  0
LINE
  5
267
100
AcDbEntity
  8
0
100
AcDbLine
 62
7
  6
CONTINUOUS
 10
907.9827047453
 20
1263.2158273381
 11
907.9827047453
 21
1355.2158273381
  0
LINE
  5
268
100
AcDbEntity
  8
0
100
AcDbLine
 62
7
  6
CONTINUOUS
 10
907.9595921866
 20
1247.2158273381
 11
907.9364796278
 21
1242.2658273381
  0
LINE
  5
269
100
AcDbEntity
  8
0
100
AcDbLine
 62
7
  6
CONTINUOUS
 10
907.9595921866
 20
872.2158273381
 11
907.9364796278
 21
867.2658273381
  0
LINE
  5
26A
100
AcDbEntity
  8
0
100
AcDbLine
 62
7
  6
CONTINUOUS
 10
907.9595921866
 20
572.2158273381
 11
907.9364796278
 21
567.2658273381
  0
LINE
  5
26B
100
AcDbEntity
  8
0
100
AcDbLine
 62
7
  6
CONTINUOUS
 10
907.9595921866
 20
197.2158273381
 11
907.9364796278
 21
192.2658273381
  0
LINE
  5
26C
100
AcDbEntity
  8
0
100
AcDbLine
 62
7
  6
CONTINUOUS
 10
158.0289298628
 20
1242.2658273381
 11
159.4827047453
 21
1242.2658273381
  0
LINE
  5
26D
100
AcDbEntity
  8
0
100
AcDbLine
 62
7
  6
CONTINUOUS
 10
906.4827047453
 20
1242.2658273381
 11
907.9364796278
 21
1242.2658273381
  0
LINE
  5
26E
100
AcDbEntity
  8
0
100
AcDbLine
 62
7
  6
CONTINUOUS
 10
907.9364796278
 20
1268.1658273381
 11
906.4827047453
 21
1268.1658273381
  0
LINE
  5
26F
100
AcDbEntity
  8
0
100
AcDbLine
 62
7
  6
CONTINUOUS
 10
159.4827047453
 20
1268.1658273381
 11
158.0289298628
 21
1268.1658273381
  0
LINE
  5
270
100
AcDbEntity
  8
0
100
AcDbLine
 62
7
  6
CONTINUOUS
 10
901.6318288509
 20
1305.216331015
 11
850.7327047453
 21
1305.216331015
  0
LINE
  5
271
100
AcDbEntity
  8
0
100
AcDbLine
 62
7
  6
CONTINUOUS
 10
215.2327047453
 20
1305.216331015
 11
164.333580644
 21
1305.216331015
  0
LINE
  5
272
100
AcDbEntity
  8
0
100
AcDbLine
 62
7
  6
CONTINUOUS
 10
850.7327047453
 20
1306.2577090586
 11
215.2327047453
 21
1306.2577090586
  0
LINE
  5
273
100
AcDbEntity
  8
0
100
AcDbLine
 62
7
  6
CONTINUOUS
 10
160.8087293031
 20
1345.638452942
 11
905.1566801875
 21
1345.638452942
  0
LINE
  5
274
100
AcDbEntity
  8
0
100
AcDbLine
 62
7
  6
CONTINUOUS
 10
905.696504524
 20
1349.426487033
 11
160.2689049666
 21
1349.426487033
  0
LINE
  5
275
100
AcDbEntity
  8
0
100
AcDbLine
 62
7
  6
CONTINUOUS
 10
906.4827047453
 20
1350.216331015
 11
159.4827047453
 21
1350.216331015
  0
LINE
  5
276
100
AcDbEntity
  8
0
100
AcDbLine
 62
7
  6
CONTINUOUS
 10
159.9127047453
 20
1353.2758273381
 11
906.0527047453
 21
1353.2758273381
  0
LINE
  5
277
100
AcDbEntity
  8
0
100
AcDbLine
 62
7
  6
CONTINUOUS
 10
907.9827047453
 20
1355.2158273381
 11
157.9827047453
 21
1355.2158273381
  0
SPLINE
  5
278
100
AcDbEntity
  8
0
100
AcDbSpline
 62
7
  6
CONTINUOUS
 70
0
 71
3
 72
11
 73
7
 74
0
 42
0.0000001
 43
0.0000001
 44
0.0000000001
 40
0.0
 40
0.0
 40
0.0
 40
0.0
 40
0.3350911422
 40
0.6464138237
 40
0.894933779
 40
1.0
 40
1.0
 40
1.0
 40
1.0
 10
906.0527074687
 20
1353.2758273381
 30
0.0
 10
906.2716565727
 20
1353.4892251081
 30
0.0
 10
906.6785412752
 20
1353.913471735
 30
0.0
 10
907.2830196458
 20
1354.4756775395
 30
0.0
 10
907.6440134009
 20
1354.9440375008
 30
0.0
 10
907.9579341589
 20
1355.1234949719
 30
0.0
 10
907.9837129295
 20
1355.2158273381
 30
0.0
  0
SPLINE
  5
279
100
AcDbEntity
  8
0
100
AcDbSpline
 62
7
  6
CONTINUOUS
 70
0
 71
3
 72
11
 73
7
 74
0
 42
0.0000001
 43
0.0000001
 44
0.0000000001
 40
0.0
 40
0.0
 40
0.0
 40
0.0
 40
0.1050719718
 40
0.3536028208
 40
0.6649201601
 40
1.0
 40
1.0
 40
1.0
 40
1.0
 10
157.9816949928
 20
1355.2158273381
 30
0.0
 10
158.0074751844
 20
1355.1234898825
 30
0.0
 10
158.3214141899
 20
1354.9440271122
 30
0.0
 10
158.6824028669
 20
1354.4756479181
 30
0.0
 10
159.286906044
 20
1353.9134741566
 30
0.0
 10
159.6937602179
 20
1353.4892179927
 30
0.0
 10
159.9127020215
 20
1353.2758273381
 30
0.0
  0
SPLINE
  5
27A
100
AcDbEntity
  8
0
100
AcDbSpline
 62
7
  6
CONTINUOUS
 70
0
 71
3
 72
11
 73
7
 74
0
 42
0.0000001
 43
0.0000001
 44
0.0000000001
 40
0.0
 40
0.0
 40
0.0
 40
0.0
 40
0.3350911422
 40
0.6464138237
 40
0.894933779
 40
1.0
 40
1.0
 40
1.0
 40
1.0
 10
159.9127020219
 20
107.1558273381
 30
0.0
 10
159.6937529178
 20
106.9424295682
 30
0.0
 10
159.2868682154
 20
106.5181829413
 30
0.0
 10
158.6823898448
 20
105.9559771367
 30
0.0
 10
158.3213960897
 20
105.4876171755
 30
0.0
 10
158.0074753317
 20
105.3081597044
 30
0.0
 10
157.9816965611
 20
105.2158273381
 30
0.0
  0
SPLINE
  5
27B
100
AcDbEntity
  8
0
100
AcDbSpline
 62
7
  6
CONTINUOUS
 70
0
 71
3
 72
11
 73
7
 74
0
 42
0.0000001
 43
0.0000001
 44
0.0000000001
 40
0.0
 40
0.0
 40
0.0
 40
0.0
 40
0.1050719718
 40
0.3536028208
 40
0.6649201601
 40
1.0
 40
1.0
 40
1.0
 40
1.0
 10
907.9837144978
 20
105.2158273381
 30
0.0
 10
907.9579343062
 20
105.3081647938
 30
0.0
 10
907.6439953007
 20
105.4876275641
 30
0.0
 10
907.2830066237
 20
105.9560067581
 30
0.0
 10
906.6785034466
 20
106.5181805197
 30
0.0
 10
906.2716492726
 20
106.9424366835
 30
0.0
 10
906.0527074691
 20
107.1558273381
 30
0.0
  0
SPLINE
  5
27C
100
AcDbEntity
  8
0
100
AcDbSpline
 62
7
  6
CONTINUOUS
 70
0
 71
3
 72
20
 73
16
 74
0
 42
0.0000001
 43
0.0000001
 44
0.0000000001
 40
0.0
 40
0.0
 40
0.0
 40
0.0
 40
0.2500714953
 40
0.3751077809
 40
0.5001440225
 40
0.6251800982
 40
0.6876985302
 40
0.7502169411
 40
0.8127351624
 40
0.875252404
 40
0.9065117221
 40
0.937770268
 40
0.9690192968
 40
0.9846230335
 40
1.0
 40
1.0
 40
1.0
 40
1.0
 10
905.1566801213
 20
114.7842114604
 30
0.0
 10
905.0618425405
 20
118.1830102709
 30
0.0
 10
904.89418876
 20
123.2806012117
 30
0.0
 10
904.6012973859
 20
130.0746038399
 30
0.0
 10
904.3383225319
 20
135.1680953242
 30
0.0
 10
904.0721672982
 20
139.4100532812
 30
0.0
 10
903.8178631101
 20
142.8007547041
 30
0.0
 10
903.6004550299
 20
145.3415241216
 30
0.0
 10
903.3464503751
 20
147.879506186
 30
0.0
 10
903.0908343269
 20
149.9879815935
 30
0.0
 10
902.8367847983
 20
151.6722225199
 30
0.0
 10
902.6114079328
 20
152.9177309563
 30
0.0
 10
902.3591563902
 20
153.9807911319
 30
0.0
 10
902.0957277454
 20
154.7244695971
 30
0.0
 10
901.8364035059
 20
155.2017832634
 30
0.0
 10
901.6273785349
 20
155.206331015
 30
0.0
  0
SPLINE
  5
27D
100
AcDbEntity
  8
0
100
AcDbSpline
 62
7
  6
CONTINUOUS
 70
0
 71
3
 72
9
 73
5
 74
0
 42
0.0000001
 43
0.0000001
 44
0.0000000001
 40
0.0
 40
0.0
 40
0.0
 40
0.0
 40
0.7133323694
 40
1.0
 40
1.0
 40
1.0
 40
1.0
 10
160.3427047453
 20
111.6896797918
 30
0.0
 10
160.3342091506
 20
111.5237918859
 30
0.0
 10
160.2912428722
 20
111.3120489436
 30
0.0
 10
160.316235686
 20
111.0431251528
 30
0.0
 10
160.2688431171
 20
110.9961156224
 30
0.0
  0
SPLINE
  5
27E
100
AcDbEntity
  8
0
100
AcDbSpline
 62
7
  6
CONTINUOUS
 70
0
 71
3
 72
9
 73
5
 74
0
 42
0.0000001
 43
0.0000001
 44
0.0000000001
 40
0.0
 40
0.0
 40
0.0
 40
0.0
 40
0.2866676306
 40
1.0
 40
1.0
 40
1.0
 40
1.0
 10
905.6965663735
 20
110.9961156224
 30
0.0
 10
905.6491738046
 20
111.0431251528
 30
0.0
 10
905.6741666184
 20
111.3120489436
 30
0.0
 10
905.63120034
 20
111.5237918859
 30
0.0
 10
905.6227047453
 20
111.6896797919
 30
0.0
  0
SPLINE
  5
27F
100
AcDbEntity
  8
0
100
AcDbSpline
 62
7
  6
CONTINUOUS
 70
0
 71
3
 72
9
 73
5
 74
0
 42
0.0000001
 43
0.0000001
 44
0.0000000001
 40
0.0
 40
0.0
 40
0.0
 40
0.0
 40
0.4355795329
 40
1.0
 40
1.0
 40
1.0
 40
1.0
 10
905.6227765916
 20
111.6883527655
 30
0.0
 10
905.5997938558
 20
112.1424614726
 30
0.0
 10
905.3243085327
 20
113.1579508656
 30
0.0
 10
905.1731700407
 20
114.195257139
 30
0.0
 10
905.1567362928
 20
114.7842114604
 30
0.0
  0
SPLINE
  5
280
100
AcDbEntity
  8
0
100
AcDbSpline
 62
7
  6
CONTINUOUS
 70
0
 71
3
 72
9
 73
5
 74
0
 42
0.0000001
 43
0.0000001
 44
0.0000000001
 40
0.0
 40
0.0
 40
0.0
 40
0.0
 40
0.5644204615
 40
1.0
 40
1.0
 40
1.0
 40
1.0
 10
160.8086731978
 20
114.7842114604
 30
0.0
 10
160.79223945
 20
114.1952571451
 30
0.0
 10
160.641100958
 20
113.1579508721
 30
0.0
 10
160.3656156351
 20
112.1424614795
 30
0.0
 10
160.342632899
 20
111.6883527668
 30
0.0
  0
SPLINE
  5
281
100
AcDbEntity
  8
0
100
AcDbSpline
 62
7
  6
CONTINUOUS
 70
0
 71
3
 72
20
 73
16
 74
0
 42
0.0000001
 43
0.0000001
 44
0.0000000001
 40
0.0
 40
0.0
 40
0.0
 40
0.0
 40
0.2500714964
 40
0.3751077827
 40
0.5001440248
 40
0.6251801009
 40
0.6876985331
 40
0.7502169444
 40
0.812735166
 40
0.875252408
 40
0.9065117259
 40
0.9377702719
 40
0.9690193005
 40
0.9846230627
 40
1.0
 40
1.0
 40
1.0
 40
1.0
 10
905.1566801875
 20
1345.638452942
 30
0.0
 10
905.0618426097
 20
1342.2396539468
 30
0.0
 10
904.8941897376
 20
1337.1420626925
 30
0.0
 10
904.6012973926
 20
1330.3480597415
 30
0.0
 10
904.3383229386
 20
1325.2545679451
 30
0.0
 10
904.0721655076
 20
1321.0126099281
 30
0.0
 10
903.8178648022
 20
1317.6219080433
 30
0.0
 10
903.6004531551
 20
1315.081138806
 30
0.0
 10
903.3464521925
 20
1312.5431562154
 30
0.0
 10
903.0908337498
 20
1310.434681009
 30
0.0
 10
902.8367842818
 20
1308.7504399153
 30
0.0
 10
902.6114061153
 20
1307.5049318631
 30
0.0
 10
902.3591586686
 20
1306.4418698752
 30
0.0
 10
902.0957259953
 20
1305.6981932099
 30
0.0
 10
901.8364031229
 20
1305.2208787582
 30
0.0
 10
901.6273785375
 20
1305.216331015
 30
0.0
  0
SPLINE
  5
282
100
AcDbEntity
  8
0
100
AcDbSpline
 62
7
  6
CONTINUOUS
 70
0
 71
3
 72
20
 73
16
 74
0
 42
0.0000001
 43
0.0000001
 44
0.0000000001
 40
0.0
 40
0.0
 40
0.0
 40
0.0
 40
0.2500714953
 40
0.3751077809
 40
0.5001440225
 40
0.6251800982
 40
0.6876985302
 40
0.7502169411
 40
0.8127351624
 40
0.875252404
 40
0.9065117221
 40
0.937770268
 40
0.9690192968
 40
0.9846230335
 40
1.0
 40
1.0
 40
1.0
 40
1.0
 10
160.8087293031
 20
1345.638452942
 30
0.0
 10
160.9035668813
 20
1342.2396539338
 30
0.0
 10
161.0712206596
 20
1337.1420626961
 30
0.0
 10
161.3641120341
 20
1330.3480596722
 30
0.0
 10
161.6270868905
 20
1325.254567891
 30
0.0
 10
161.8932421281
 20
1321.0126096867
 30
0.0
 10
162.1475463209
 20
1317.6219080659
 30
0.0
 10
162.3649544056
 20
1315.0811384999
 30
0.0
 10
162.6189590661
 20
1312.543156287
 30
0.0
 10
162.8745751205
 20
1310.4346807561
 30
0.0
 10
163.1286246555
 20
1308.7504397301
 30
0.0
 10
163.3540015271
 20
1307.5049312211
 30
0.0
 10
163.6062530755
 20
1306.4418709784
 30
0.0
 10
163.8696817288
 20
1305.6981924739
 30
0.0
 10
164.1290059728
 20
1305.2208787626
 30
0.0
 10
164.3380309559
 20
1305.216331015
 30
0.0
  0
SPLINE
  5
283
100
AcDbEntity
  8
0
100
AcDbSpline
 62
7
  6
CONTINUOUS
 70
0
 71
3
 72
20
 73
16
 74
0
 42
0.0000001
 43
0.0000001
 44
0.0000000001
 40
0.0
 40
0.0
 40
0.0
 40
0.0
 40
0.2500714964
 40
0.3751077827
 40
0.5001440248
 40
0.6251801009
 40
0.6876985331
 40
0.7502169444
 40
0.812735166
 40
0.875252408
 40
0.9065117259
 40
0.9377702719
 40
0.9690193005
 40
0.9846230626
 40
1.0
 40
1.0
 40
1.0
 40
1.0
 10
160.8087293693
 20
114.7842114604
 30
0.0
 10
160.9035669497
 20
118.1830102578
 30
0.0
 10
161.0712198241
 20
123.2806012154
 30
0.0
 10
161.3641121686
 20
130.0746037707
 30
0.0
 10
161.6270866202
 20
135.1680952703
 30
0.0
 10
161.8932440473
 20
139.41005304
 30
0.0
 10
162.147544748
 20
142.8007547269
 30
0.0
 10
162.3649563906
 20
145.3415238157
 30
0.0
 10
162.6189573475
 20
147.8795062579
 30
0.0
 10
162.874575784
 20
149.9879813407
 30
0.0
 10
163.1286252457
 20
151.6722223352
 30
0.0
 10
163.3540034061
 20
152.9177303138
 30
0.0
 10
163.6062508468
 20
153.9807922376
 30
0.0
 10
163.869683512
 20
154.7244688574
 30
0.0
 10
164.1290063798
 20
155.2017832763
 30
0.0
 10
164.3380309533
 20
155.206331015
 30
0.0
  0
SPLINE
  5
284
100
AcDbEntity
  8
0
100
AcDbSpline
 62
7
  6
CONTINUOUS
 70
0
 71
3
 72
9
 73
5
 74
0
 42
0.0000001
 43
0.0000001
 44
0.0000000001
 40
0.0
 40
0.0
 40
0.0
 40
0.0
 40
0.564420455
 40
1.0
 40
1.0
 40
1.0
 40
1.0
 10
905.156736359
 20
1345.638452942
 30
0.0
 10
905.1731701046
 20
1346.2274072291
 30
0.0
 10
905.3243085731
 20
1347.2647134655
 30
0.0
 10
905.5997938544
 20
1348.2802028275
 30
0.0
 10
905.6227765877
 20
1348.7343115305
 30
0.0
  0
SPLINE
  5
285
100
AcDbEntity
  8
0
100
AcDbSpline
 62
7
  6
CONTINUOUS
 70
0
 71
3
 72
9
 73
5
 74
0
 42
0.0000001
 43
0.0000001
 44
0.0000000001
 40
0.0
 40
0.0
 40
0.0
 40
0.0
 40
0.7130098315
 40
1.0
 40
1.0
 40
1.0
 40
1.0
 10
905.6227047453
 20
1348.7329845257
 30
0.0
 10
905.6311956064
 20
1348.8987800186
 30
0.0
 10
905.6738504092
 20
1349.1108674218
 30
0.0
 10
905.649364304
 20
1349.3791283347
 30
0.0
 10
905.696504524
 20
1349.426487033
 30
0.0
  0
SPLINE
  5
286
100
AcDbEntity
  8
0
100
AcDbSpline
 62
7
  6
CONTINUOUS
 70
0
 71
3
 72
9
 73
5
 74
0
 42
0.0000001
 43
0.0000001
 44
0.0000000001
 40
0.0
 40
0.0
 40
0.0
 40
0.0
 40
0.2869901685
 40
1.0
 40
1.0
 40
1.0
 40
1.0
 10
160.2689049666
 20
1349.4264870329
 30
0.0
 10
160.3160451866
 20
1349.3791283347
 30
0.0
 10
160.2915590814
 20
1349.1108674218
 30
0.0
 10
160.3342138842
 20
1348.8987800186
 30
0.0
 10
160.3427047453
 20
1348.7329845257
 30
0.0
  0
SPLINE
  5
287
100
AcDbEntity
  8
0
100
AcDbSpline
 62
7
  6
CONTINUOUS
 70
0
 71
3
 72
9
 73
5
 74
0
 42
0.0000001
 43
0.0000001
 44
0.0000000001
 40
0.0
 40
0.0
 40
0.0
 40
0.0
 40
0.4355795394
 40
1.0
 40
1.0
 40
1.0
 40
1.0
 10
160.3426329028
 20
1348.7343115317
 30
0.0
 10
160.3656156359
 20
1348.2802028344
 30
0.0
 10
160.6411009174
 20
1347.264713472
 30
0.0
 10
160.7922393859
 20
1346.2274072351
 30
0.0
 10
160.8086731316
 20
1345.638452942
 30
0.0
  0
ENDSEC
  0
SECTION
  2
OBJECTS
  0
DICTIONARY
  5
C
100
AcDbDictionary
280
0
281
1
  3
ACAD_GROUP
350
D
  3
ACAD_MLINESTYLE
350
17
  3
ACAD_LAYOUT
350
1A
  3
ACAD_PLOTSETTINGS
350
19
  3
ACAD_PLOTSTYLENAME
350
E
  0
DICTIONARY
  5
D
102
{ACAD_REACTORS
330
C
102
}
100
AcDbDictionary
280
0
281
1
  0
ACDBDICTIONARYWDFLT
  5
E
102
{ACAD_REACTORS
330
C
102
}
100
AcDbDictionary
281
1
  3
Normal
350
F
100
AcDbDictionaryWithDefault
340
F
  0
DICTIONARY
  5
17
102
{ACAD_REACTORS
330
C
102
}
100
AcDbDictionary
280
0
281
1
  3
Standard
350
18
  0
DICTIONARY
  5
19
102
{ACAD_REACTORS
330
C
102
}
100
AcDbDictionary
281
1
  0
DICTIONARY
  5
1A
102
{ACAD_REACTORS
330
C
102
}
100
AcDbDictionary
281
1
  3
Model
350
288
  3
Layout1
350
289
  0
ACDBPLACEHOLDER
  5
F
102
{ACAD_REACTORS
330
E
102
}
  0
MLINESTYLE
  5
18
102
{ACAD_REACTORS
330
17
102
}
100
AcDbMlineStyle
  2
STANDARD
 70
0
  3

 62
256
 51
90.0
 52
90.0
 71
2
 49
0.5
 62
256
  6
BYLAYER
 49
-0.5
 62
256
  6
BYLAYER
  0
LAYOUT
  5
288
102
{ACAD_REACTORS
330
1A
102
}
100
AcDbPlotSettings
  1

  2
none_device
  4

  6

 40
0.0
 41
0.0
 42
0.0
 43
0.0
 44
210.0
 45
297.0
 46
0.0
 47
0.0
 48
0.0
 49
0.0
140
0.0
141
0.0
142
1.0
143
1.0
 70
1024
 72
1
 73
0
 74
0
  7

 75
0
147
1.0
148
0.0
149
0.0
100
AcDbLayout
  1
Model
 70
0
 71
0
 10
0.0
 20
0.0
 11
210.0
 21
297.0
 12
0.0
 22
0.0
 32
0.0
 14
0.0
 24
0.0
 34
0.0
 15
0.0
 25
0.0
 35
0.0
146
0.0
 13
0.0
 23
0.0
 33
0.0
 16
1.0
 26
0.0
 36
0.0
 17
0.0
 27
1.0
 37
0.0
 76
0
330
210
345
0
346
0
  0
LAYOUT
  5
289
102
{ACAD_REACTORS
330
1A
102
}
100
AcDbPlotSettings
  1

  2
none_device
  4

  6

 40
0.0
 41
0.0
 42
0.0
 43
0.0
 44
210.0
 45
297.0
 46
0.0
 47
0.0
 48
0.0
 49
0.0
140
0.0
141
0.0
142
1.0
143
1.0
 70
0
 72
1
 73
0
 74
0
  7

 75
0
147
1.0
148
0.0
149
0.0
100
AcDbLayout
  1
Layout1
 70
0
 71
1
 10
0.0
 20
0.0
 11
210.0
 21
297.0
 12
0.0
 22
0.0
 32
0.0
 14
0.0
 24
0.0
 34
0.0
 15
0.0
 25
0.0
 35
0.0
146
0.0
 13
0.0
 23
0.0
 33
0.0
 16
1.0
 26
0.0
 36
0.0
 17
0.0
 27
1.0
 37
0.0
 76
0
330
211
345
0
346
0
  0
ENDSEC
  0
EOF
