999
DXF file: C:\Gen2D\CAD\NSYFMPLA_3D-CAD\drw0001_1.dxf
999
Pro/ENGINEER 2019471 by Parametric Technology Corporation
  0
SECTION
  2
HEADER
  9
$ACADVER
  1
AC1024
  9
$DWGCODEPAGE
  3
ANSI_1252
  9
$EXTMAX
 10
67.2916492815
 20
95.1696182695
 30
0.0
  9
$EXTMIN
 10
0.0
 20
0.0
 30
0.0
  9
$LIMMIN
 10
0.0
 20
0.0
  9
$LIMMAX
 10
67.2916492815
 20
95.1696182695
  9
$VIEWCTR
 10
33.6458246407
 20
47.5848091347
  9
$VIEWSIZE
 40
95.1696182695
  9
$CLAYER
  8
0
  9
$LTSCALE
 40
6.2036491909
  9
$CELTYPE
  6
BYLAYER
  9
$DIMSCALE
 40
1.0
  9
$DIMASZ
 40
0.8010910629
  9
$DIMEXO
 40
1.0
  9
$DIMDLI
 40
4.2861576228
  9
$DIMEXE
 40
1.0
  9
$DIMCEN
 40
1.0151425949
  9
$DIMLFAC
 40
1.0
  9
$DIMBLK
  1
_FILLED
  9
$DIMALT
 70
0
  9
$DIMALTF
 40
0.0393700787
  9
$DIMTXT
 40
1.121527488
  9
$DIMTOL
 70
1
  9
$DIMLIM
 70
0
  9
$DIMTFAC
 40
1.0
  9
$DIMTP
 40
0.01
  9
$DIMTM
 40
0.01
  9
$DIMGAP
 40
0.625
  9
$DIMDSEP
 70
46
  9
$AUNITS
 70
0
  9
$PDMODE
 70
3
  9
$PDSIZE
 40
0.3125
  9
$HANDSEED
  5
2CA
  9
$TILEMODE
 70
1
  9
$MEASUREMENT
 70
1
  9
$INSUNITS
 70
4
  0
ENDSEC
  0
SECTION
  2
CLASSES
  0
CLASS
  1
ACDBDICTIONARYWDFLT
  2
AcDbDictionaryWithDefault
  3
AutoCAD 2000
 90
0
 91
1
280
0
281
0
  0
CLASS
  1
ACDBPLACEHOLDER
  2
AcDbPlaceHolder
  3
AutoCAD 2000
 90
0
 91
1
280
0
281
0
  0
CLASS
  1
LAYOUT
  2
AcDbLayout
  3
AutoCAD 2000
 90
0
 91
0
280
0
281
0
  0
ENDSEC
  0
SECTION
  2
TABLES
  0
TABLE
  2
VPORT
  5
8
100
AcDbSymbolTable
 70
2
  0
VPORT
  5
1F4
100
AcDbSymbolTableRecord
100
AcDbViewportTableRecord
  2
*ACTIVE
 70
0
 10
0.0
 20
0.0
 11
1.0
 21
1.0
 12
33.6458246407
 22
47.5848091347
 13
0.0
 23
0.0
 14
1.0
 24
1.0
 15
0.0
 25
0.0
 16
0.0
 26
0.0
 36
1.0
 17
0.0
 27
0.0
 37
0.0
 40
95.1696182695
 41
0.7070707071
 42
50.0
 43
0.0
 44
0.0
 50
0.0
 51
0.0
 71
0
 72
100
 73
1
 74
1
 75
0
 76
0
 77
0
 78
0
  0
ENDTAB
  0
TABLE
  2
LTYPE
  5
5
100
AcDbSymbolTable
 70
6
  0
LTYPE
  5
14
100
AcDbSymbolTableRecord
100
AcDbLinetypeTableRecord
  2
BYBLOCK
 70
0
  3

 72
65
 73
0
 40
0.0
  0
LTYPE
  5
15
100
AcDbSymbolTableRecord
100
AcDbLinetypeTableRecord
  2
BYLAYER
 70
0
  3

 72
65
 73
0
 40
0.0
  0
LTYPE
  5
16
100
AcDbSymbolTableRecord
100
AcDbLinetypeTableRecord
  2
CONTINUOUS
 70
64
  3
Solid line
 72
65
 73
0
 40
0.0
  0
LTYPE
  5
1F5
100
AcDbSymbolTableRecord
100
AcDbLinetypeTableRecord
  2
CENTER
 70
64
  3
____ _ ____ _ ____ _ ____ _ ____ _ ____ _ ____
 72
65
 73
4
 40
0.6
 49
0.375
 74
0
 49
-0.075
 74
0
 49
0.075
 74
0
 49
-0.075
 74
0
  0
LTYPE
  5
1F6
100
AcDbSymbolTableRecord
100
AcDbLinetypeTableRecord
  2
HIDDEN
 70
64
  3
- - - - - - - - - - - - - - - - - - - -
 72
65
 73
2
 40
0.2
 49
0.1
 74
0
 49
-0.1
 74
0
  0
LTYPE
  5
1F7
100
AcDbSymbolTableRecord
100
AcDbLinetypeTableRecord
  2
PHANTOM
 70
64
  3
_____ _ _ _____ _ _ _____ _ _ _____
 72
65
 73
6
 40
0.8
 49
0.45
 74
0
 49
-0.05
 74
0
 49
0.1
 74
0
 49
-0.05
 74
0
 49
0.1
 74
0
 49
-0.05
 74
0
  0
LTYPE
  5
1F8
100
AcDbSymbolTableRecord
100
AcDbLinetypeTableRecord
  2
DOT
 70
64
  3
. . . . . . . . . . . . . . . . . . . .
 72
65
 73
2
 40
0.2
 49
0.1
 74
0
 49
-0.1
 74
0
  0
LTYPE
  5
1F9
100
AcDbSymbolTableRecord
100
AcDbLinetypeTableRecord
  2
DASHED
 70
64
  3
- - - - - - - - - - - - - - - - - - - -
 72
65
 73
2
 40
0.2
 49
0.1
 74
0
 49
-0.1
 74
0
  0
ENDTAB
  0
TABLE
  2
LAYER
  5
2
100
AcDbSymbolTable
 70
36
  0
LAYER
  5
10
100
AcDbSymbolTableRecord
100
AcDbLayerTableRecord
  2
0
 70
0
 62
7
  6
CONTINUOUS
370
-3
390
F
  0
LAYER
  5
1FA
100
AcDbSymbolTableRecord
100
AcDbLayerTableRecord
  2
DEFAULT_1
 70
0
 62
7
  6
CENTER
370
-3
390
F
  0
LAYER
  5
1FB
100
AcDbSymbolTableRecord
100
AcDbLayerTableRecord
  2
DEFAULT_2
 70
0
 62
8
  6
HIDDEN
370
-3
390
F
  0
LAYER
  5
1FC
100
AcDbSymbolTableRecord
100
AcDbLayerTableRecord
  2
DEFAULT_3
 70
0
 62
7
  6
PHANTOM
370
-3
390
F
  0
LAYER
  5
1FD
100
AcDbSymbolTableRecord
100
AcDbLayerTableRecord
  2
00_COMPONENTS
 70
0
 62
7
  6
CONTINUOUS
370
-3
390
F
  0
LAYER
  5
1FE
100
AcDbSymbolTableRecord
100
AcDbLayerTableRecord
  2
00_COMPONENTS_2
 70
0
 62
7
  6
CONTINUOUS
370
-3
390
F
  0
LAYER
  5
1FF
100
AcDbSymbolTableRecord
100
AcDbLayerTableRecord
  2
01_1_DEFAULT_DATUMS
 70
0
 62
7
  6
CONTINUOUS
370
-3
390
F
  0
LAYER
  5
200
100
AcDbSymbolTableRecord
100
AcDbLayerTableRecord
  2
01_PLANES
 70
0
 62
7
  6
CONTINUOUS
370
-3
390
F
  0
LAYER
  5
201
100
AcDbSymbolTableRecord
100
AcDbLayerTableRecord
  2
02_COORD_SYS
 70
0
 62
7
  6
CONTINUOUS
370
-3
390
F
  0
LAYER
  5
202
100
AcDbSymbolTableRecord
100
AcDbLayerTableRecord
  2
03_AXES
 70
0
 62
7
  6
CONTINUOUS
370
-3
390
F
  0
LAYER
  5
203
100
AcDbSymbolTableRecord
100
AcDbLayerTableRecord
  2
04_POINTS
 70
0
 62
7
  6
CONTINUOUS
370
-3
390
F
  0
LAYER
  5
204
100
AcDbSymbolTableRecord
100
AcDbLayerTableRecord
  2
05_CURVES
 70
0
 62
7
  6
CONTINUOUS
370
-3
390
F
  0
LAYER
  5
205
100
AcDbSymbolTableRecord
100
AcDbLayerTableRecord
  2
06_SURFS
 70
0
 62
7
  6
CONTINUOUS
370
-3
390
F
  0
LAYER
  5
206
100
AcDbSymbolTableRecord
100
AcDbLayerTableRecord
  2
07_COSMETICS
 70
0
 62
7
  6
CONTINUOUS
370
-3
390
F
  0
LAYER
  5
207
100
AcDbSymbolTableRecord
100
AcDbLayerTableRecord
  2
07_COSMETICS_3
 70
0
 62
7
  6
CONTINUOUS
370
-3
390
F
  0
LAYER
  5
208
100
AcDbSymbolTableRecord
100
AcDbLayerTableRecord
  2
10_NOTES
 70
0
 62
7
  6
CONTINUOUS
370
-3
390
F
  0
LAYER
  5
209
100
AcDbSymbolTableRecord
100
AcDbLayerTableRecord
  2
11_NOTES_PUB
 70
0
 62
7
  6
CONTINUOUS
370
-3
390
F
  0
LAYER
  5
20A
100
AcDbSymbolTableRecord
100
AcDbLayerTableRecord
  2
13_REF_GTOL
 70
0
 62
7
  6
CONTINUOUS
370
-3
390
F
  0
LAYER
  5
20B
100
AcDbSymbolTableRecord
100
AcDbLayerTableRecord
  2
16_MISC
 70
0
 62
7
  6
CONTINUOUS
370
-3
390
F
  0
LAYER
  5
20C
100
AcDbSymbolTableRecord
100
AcDbLayerTableRecord
  2
17_NO_PRINT
 70
0
 62
7
  6
CONTINUOUS
370
-3
390
F
  0
LAYER
  5
20D
100
AcDbSymbolTableRecord
100
AcDbLayerTableRecord
  2
18_DATUM_CAMS_JOINTS
 70
0
 62
7
  6
CONTINUOUS
370
-3
390
F
  0
LAYER
  5
20E
100
AcDbSymbolTableRecord
100
AcDbLayerTableRecord
  2
19_DATUM_FUNCTIONAL
 70
0
 62
7
  6
CONTINUOUS
370
-3
390
F
  0
LAYER
  5
20F
100
AcDbSymbolTableRecord
100
AcDbLayerTableRecord
  2
20_DATUM_KINEMATIC_SCHEME
 70
0
 62
7
  6
CONTINUOUS
370
-3
390
F
  0
LAYER
  5
210
100
AcDbSymbolTableRecord
100
AcDbLayerTableRecord
  2
246156000901
 70
0
 62
7
  6
CONTINUOUS
370
-3
390
F
  0
LAYER
  5
211
100
AcDbSymbolTableRecord
100
AcDbLayerTableRecord
  2
346115000901
 70
0
 62
7
  6
CONTINUOUS
370
-3
390
F
  0
LAYER
  5
212
100
AcDbSymbolTableRecord
100
AcDbLayerTableRecord
  2
8115012811
 70
0
 62
7
  6
CONTINUOUS
370
-3
390
F
  0
LAYER
  5
213
100
AcDbSymbolTableRecord
100
AcDbLayerTableRecord
  2
COLOR45
 70
0
 62
7
  6
CONTINUOUS
370
-3
390
F
  0
LAYER
  5
214
100
AcDbSymbolTableRecord
100
AcDbLayerTableRecord
  2
COLOR69
 70
0
 62
7
  6
CONTINUOUS
370
-3
390
F
  0
LAYER
  5
215
100
AcDbSymbolTableRecord
100
AcDbLayerTableRecord
  2
COLOR70
 70
0
 62
7
  6
CONTINUOUS
370
-3
390
F
  0
LAYER
  5
216
100
AcDbSymbolTableRecord
100
AcDbLayerTableRecord
  2
INTFCLR_29
 70
0
 62
7
  6
CONTINUOUS
370
-3
390
F
  0
LAYER
  5
217
100
AcDbSymbolTableRecord
100
AcDbLayerTableRecord
  2
INTFCLR_35
 70
0
 62
7
  6
CONTINUOUS
370
-3
390
F
  0
LAYER
  5
218
100
AcDbSymbolTableRecord
100
AcDbLayerTableRecord
  2
INTF_BLANK
 70
0
 62
7
  6
CONTINUOUS
370
-3
390
F
  0
LAYER
  5
219
100
AcDbSymbolTableRecord
100
AcDbLayerTableRecord
  2
NHA1178001-CERRADO
 70
0
 62
7
  6
CONTINUOUS
370
-3
390
F
  0
LAYER
  5
21A
100
AcDbSymbolTableRecord
100
AcDbLayerTableRecord
  2
_BLACK_HOLE
 70
0
 62
7
  6
CONTINUOUS
370
-3
390
F
  0
ENDTAB
  0
TABLE
  2
STYLE
  5
3
100
AcDbSymbolTable
 70
1
  0
STYLE
  5
11
100
AcDbSymbolTableRecord
100
AcDbTextStyleTableRecord
  2
STANDARD
 70
0
 40
0.0
 41
0.8
 50
0.0
 71
0
 42
0.2
  3
txt
  4

  0
STYLE
  5
21B
100
AcDbSymbolTableRecord
100
AcDbTextStyleTableRecord
  2
TEXTSTYLE_1
 70
0
 40
0.0
 41
0.8
 50
0.0
 71
0
 42
0.2
  3
gdt
  4

  0
ENDTAB
  0
TABLE
  2
VIEW
  5
6
100
AcDbSymbolTable
 70
0
  0
ENDTAB
  0
TABLE
  2
UCS
  5
7
100
AcDbSymbolTable
 70
0
  0
ENDTAB
  0
TABLE
  2
APPID
  5
9
100
AcDbSymbolTable
 70
1
  0
APPID
  5
21C
100
AcDbSymbolTableRecord
100
AcDbRegAppTableRecord
  2
ACAD
 70
0
  0
ENDTAB
  0
TABLE
  2
BLOCK_RECORD
  5
1
100
AcDbSymbolTable
 70
0
  0
BLOCK_RECORD
  5
21D
100
AcDbSymbolTableRecord
100
AcDbBlockTableRecord
  2
*Model_Space
  0
BLOCK_RECORD
  5
21E
100
AcDbSymbolTableRecord
100
AcDbBlockTableRecord
  2
*Paper_Space
  0
BLOCK_RECORD
  5
21F
100
AcDbSymbolTableRecord
100
AcDbBlockTableRecord
  2
_FILLED
  0
ENDTAB
  0
TABLE
  2
DIMSTYLE
  5
A
100
AcDbSymbolTable
 70
1
100
AcDbDimStyleTable
 71
0
  0
DIMSTYLE
105
220
100
AcDbSymbolTableRecord
100
AcDbDimStyleTableRecord
  2
STANDARD
 70
0
  3

  4

 40
1.0
 41
0.8010910629
 42
1.0
 43
0.38
 44
1.0
 45
0.0
 46
0.0
 47
0.01
 48
0.01
140
1.121527488
141
0.09
142
0.0
143
25.4
144
1.0
145
0.0
146
1.0
147
0.625
 71
1
 72
0
 73
0
 74
0
 75
0
 76
0
 77
1
 78
8
 79
2
170
0
171
1
172
0
173
0
174
0
175
0
176
0
177
0
178
0
270
2
179
2
271
2
272
2
273
2
274
2
275
0
280
0
281
0
282
0
283
1
284
8
285
0
286
0
287
3
288
0
340
11
278
46
341
21F
342
21F
343
21F
344
21F
  0
ENDTAB
  0
ENDSEC
  0
SECTION
  2
BLOCKS
  0
BLOCK
  5
20
100
AcDbEntity
  8
0
100
AcDbBlockBegin
  2
*Model_Space
 70
0
 10
0.0
 20
0.0
 30
0.0
  3
*Model_Space
  1

  0
ENDBLK
  5
21
100
AcDbEntity
  8
0
100
AcDbBlockEnd
  0
BLOCK
  5
1C
100
AcDbEntity
  8
0
100
AcDbBlockBegin
  2
*Paper_Space
 70
0
 10
0.0
 20
0.0
 30
0.0
  3
*Paper_Space
  1

  0
ENDBLK
  5
1D
100
AcDbEntity
  8
0
100
AcDbBlockEnd
  0
BLOCK
  5
221
100
AcDbEntity
  8
0
100
AcDbBlockBegin
  2
_FILLED
 70
64
 10
0.0
 20
0.0
  3
_FILLED
  1

  0
SOLID
  5
222
100
AcDbEntity
  8
0
  6
BYBLOCK
 62
0
100
AcDbTrace
 10
0.0
 20
0.0
 11
-1.0
 21
0.25
 12
-1.0
 22
-0.25
 13
-1.0
 23
-0.25
  0
ENDBLK
  5
223
100
AcDbEntity
  8
0
  6
BYBLOCK
 62
0
100
AcDbBlockEnd
  0
ENDSEC
  0
SECTION
  2
ENTITIES
  0
LINE
  5
224
100
AcDbEntity
  8
0
100
AcDbLine
 62
7
  6
CONTINUOUS
 10
9.0492794498
 20
11.2134763117
 11
11.1706086253
 21
9.9887540481
  0
LINE
  5
225
100
AcDbEntity
  8
0
100
AcDbLine
 62
7
  6
CONTINUOUS
 10
7.8066055255
 20
13.9601931986
 11
9.9279347009
 21
12.735470935
  0
LINE
  5
226
100
AcDbEntity
  8
0
100
AcDbLine
 62
7
  6
CONTINUOUS
 10
21.3073365195
 20
12.7676200959
 11
18.2667647013
 21
14.5230553403
  0
LINE
  5
227
100
AcDbEntity
  8
0
100
AcDbLine
 62
7
  6
CONTINUOUS
 10
18.0596523806
 20
14.9808414881
 11
21.1002241987
 21
13.2254062437
  0
LINE
  5
228
100
AcDbEntity
  8
0
100
AcDbLine
 62
7
  6
CONTINUOUS
 10
38.8938694034
 20
85.4467813738
 11
36.7725578917
 21
84.2220489122
  0
LINE
  5
229
100
AcDbEntity
  8
0
100
AcDbLine
 62
7
  6
CONTINUOUS
 10
41.3938582112
 20
85.1991599787
 11
39.2725466995
 21
83.9744275171
  0
LWPOLYLINE
  5
22A
100
AcDbEntity
  8
0
100
AcDbPolyline
 62
7
  6
CONTINUOUS
 90
3
 70
0
 10
17.0523379851
 20
25.0752090055
 10
17.3003347734
 20
24.9449609836
 10
18.0596523806
 20
24.8404625036
  0
LINE
  5
22B
100
AcDbEntity
  8
0
100
AcDbLine
 62
7
  6
CONTINUOUS
 10
28.3282307467
 20
17.9878695559
 11
23.7320175333
 21
20.6414344603
  0
LWPOLYLINE
  5
22C
100
AcDbEntity
  8
0
100
AcDbPolyline
 62
7
  6
CONTINUOUS
 90
3
 70
0
 10
15.6919393032
 20
25.9431410877
 10
17.4118612987
 20
24.3034620181
 10
18.0596523806
 20
24.2131022469
  0
LINE
  5
22D
100
AcDbEntity
  8
0
100
AcDbLine
 62
7
  6
CONTINUOUS
 10
7.8066055255
 20
13.9601931986
 11
7.8066055255
 21
41.721275381
  0
LINE
  5
22E
100
AcDbEntity
  8
0
100
AcDbLine
 62
7
  6
CONTINUOUS
 10
18.0596523806
 20
24.9326024409
 11
17.0945209535
 21
25.0644457825
  0
LINE
  5
22F
100
AcDbEntity
  8
0
100
AcDbLine
 62
7
  6
CONTINUOUS
 10
22.0316033347
 20
22.6136401862
 11
23.4802623825
 21
20.9333196857
  0
LINE
  5
230
100
AcDbEntity
  8
0
100
AcDbLine
 62
7
  6
CONTINUOUS
 10
9.9279347009
 20
40.4965531174
 11
9.9279347009
 21
12.735470935
  0
LINE
  5
231
100
AcDbEntity
  8
0
100
AcDbLine
 62
7
  6
CONTINUOUS
 10
36.4483894171
 20
20.3821652205
 11
41.2851761394
 21
17.7781570473
  0
LINE
  5
232
100
AcDbEntity
  8
0
100
AcDbLine
 62
7
  6
CONTINUOUS
 10
9.9279347009
 20
40.4965531174
 11
7.8066055255
 21
41.721275381
  0
LINE
  5
233
100
AcDbEntity
  8
0
100
AcDbLine
 62
7
  6
CONTINUOUS
 10
18.0596523806
 20
14.9808414881
 11
18.0596523806
 21
41.1089188363
  0
LWPOLYLINE
  5
234
100
AcDbEntity
  8
0
100
AcDbPolyline
 62
7
  6
CONTINUOUS
 90
4
 70
0
 10
15.6919226451
 20
33.9444941699
 10
14.9102632973
 20
30.3138653808
 10
14.91125973
 20
28.6593615158
 10
15.6919393032
 20
25.9431410877
  0
LINE
  5
235
100
AcDbEntity
  8
0
100
AcDbLine
 62
7
  6
CONTINUOUS
 10
42.0165326805
 20
23.0999294174
 11
39.5479716465
 21
24.4289425572
  0
LINE
  5
236
100
AcDbEntity
  8
0
100
AcDbLine
 62
7
  6
CONTINUOUS
 10
40.4522549887
 20
26.3103360114
 11
44.0625186259
 21
24.3666579957
  0
LINE
  5
237
100
AcDbEntity
  8
0
100
AcDbLine
 62
7
  6
CONTINUOUS
 10
21.1002241987
 20
39.3534835918
 11
21.1002241987
 21
28.9665271204
  0
LINE
  5
238
100
AcDbEntity
  8
0
100
AcDbLine
 62
7
  6
CONTINUOUS
 10
21.1002241987
 20
23.6123627151
 11
21.1002241987
 21
13.2254062437
  0
LINE
  5
239
100
AcDbEntity
  8
0
100
AcDbLine
 62
7
  6
CONTINUOUS
 10
12.0492285487
 20
49.069754807
 11
31.1652937525
 21
60.1063543186
  0
LINE
  5
23A
100
AcDbEntity
  8
0
100
AcDbLine
 62
7
  6
CONTINUOUS
 10
21.1002241987
 20
39.3534835918
 11
18.0596523806
 21
41.1089188363
  0
LINE
  5
23B
100
AcDbEntity
  8
0
100
AcDbLine
 62
7
  6
CONTINUOUS
 10
18.7667562178
 20
42.3336654073
 11
21.8073280359
 21
40.5782301628
  0
LINE
  5
23C
100
AcDbEntity
  8
0
100
AcDbLine
 62
7
  6
CONTINUOUS
 10
33.286622928
 20
58.8816320551
 11
14.1705577242
 21
47.8450325434
  0
LINE
  5
23D
100
AcDbEntity
  8
0
100
AcDbLine
 62
7
  6
CONTINUOUS
 10
56.4444480471
 20
71.6110054085
 11
38.1993862589
 21
61.0772769516
  0
LINE
  5
23E
100
AcDbEntity
  8
0
100
AcDbLine
 62
7
  6
CONTINUOUS
 10
12.0492285487
 20
49.069754807
 11
14.1705577242
 21
47.8450325434
  0
LINE
  5
23F
100
AcDbEntity
  8
0
100
AcDbLine
 62
7
  6
CONTINUOUS
 10
27.640934693
 20
14.5521574156
 11
27.640934693
 21
18.3846711407
  0
LWPOLYLINE
  5
240
100
AcDbEntity
  8
0
100
AcDbPolyline
 62
7
  6
CONTINUOUS
 90
3
 70
0
 10
18.0596523806
 20
38.4101690882
 10
17.4219246574
 20
37.5866045904
 10
15.6919226451
 20
33.9444941699
  0
LINE
  5
241
100
AcDbEntity
  8
0
100
AcDbLine
 62
7
  6
CONTINUOUS
 10
36.9724322891
 20
60.0273820711
 11
37.4842563374
 21
60.5392037235
  0
LINE
  5
242
100
AcDbEntity
  8
0
100
AcDbLine
 62
7
  6
CONTINUOUS
 10
40.3672614274
 20
59.8794278692
 11
58.9193291411
 21
70.5904052219
  0
LINE
  5
243
100
AcDbEntity
  8
0
100
AcDbLine
 62
7
  6
CONTINUOUS
 10
39.3280441094
 20
37.0405361931
 11
34.731830896
 21
39.6941010974
  0
LINE
  5
244
100
AcDbEntity
  8
0
100
AcDbLine
 62
7
  6
CONTINUOUS
 10
29.0551541432
 20
17.7901375131
 11
29.0551541432
 21
13.7356759066
  0
LINE
  5
245
100
AcDbEntity
  8
0
100
AcDbLine
 62
7
  6
CONTINUOUS
 10
30.8229137363
 20
14.7562862912
 11
30.8229137363
 21
17.4687728353
  0
LINE
  5
246
100
AcDbEntity
  8
0
100
AcDbLine
 62
7
  6
CONTINUOUS
 10
40.0494259068
 20
59.6402842123
 11
39.2242149561
 21
58.8150771245
  0
LINE
  5
247
100
AcDbEntity
  8
0
100
AcDbLine
 62
7
  6
CONTINUOUS
 10
43.3311620848
 20
56.6039968135
 11
41.2851761394
 21
55.3372682353
  0
LINE
  5
248
100
AcDbEntity
  8
0
100
AcDbLine
 62
7
  6
CONTINUOUS
 10
33.286622928
 20
53.1661151352
 11
32.6196313659
 21
52.7810296759
  0
LINE
  5
249
100
AcDbEntity
  8
0
100
AcDbLine
 62
7
  6
CONTINUOUS
 10
18.7667562178
 20
42.3336654073
 11
32.2017291249
 21
50.0903043308
  0
LINE
  5
24A
100
AcDbEntity
  8
0
100
AcDbLine
 62
7
  6
CONTINUOUS
 10
57.8231396273
 20
48.6584715149
 11
58.9193291412
 21
48.9655832682
  0
LINE
  5
24B
100
AcDbEntity
  8
0
100
AcDbLine
 62
7
  6
CONTINUOUS
 10
32.6196313659
 20
50.1734189844
 11
32.6196313659
 21
52.7810296759
  0
LINE
  5
24C
100
AcDbEntity
  8
0
100
AcDbLine
 62
7
  6
CONTINUOUS
 10
33.286622928
 20
53.1661151352
 11
33.286622928
 21
58.8816320551
  0
LINE
  5
24D
100
AcDbEntity
  8
0
100
AcDbLine
 62
7
  6
CONTINUOUS
 10
44.0625186259
 20
55.3937498466
 11
42.0165326805
 21
54.1270212683
  0
LINE
  5
24E
100
AcDbEntity
  8
0
100
AcDbLine
 62
7
  6
CONTINUOUS
 10
35.242300943
 20
48.3348690864
 11
21.8073280359
 21
40.5782301628
  0
LINE
  5
24F
100
AcDbEntity
  8
0
100
AcDbLine
 62
7
  6
CONTINUOUS
 10
34.6757279682
 20
58.89563416
 11
34.6757279682
 21
53.1801172401
  0
LINE
  5
250
100
AcDbEntity
  8
0
100
AcDbLine
 62
7
  6
CONTINUOUS
 10
34.9239388907
 20
53.0464865245
 11
34.9239388907
 21
48.8568629356
  0
LINE
  5
251
100
AcDbEntity
  8
0
100
AcDbLine
 62
7
  6
CONTINUOUS
 10
35.7369980738
 20
81.933119204
 11
35.7369980738
 21
63.9700660272
  0
LINE
  5
252
100
AcDbEntity
  8
0
100
AcDbLine
 62
7
  6
CONTINUOUS
 10
35.9494047802
 20
38.9911503905
 11
35.9494047802
 21
47.9266108231
  0
LINE
  5
253
100
AcDbEntity
  8
0
100
AcDbLine
 62
7
  6
CONTINUOUS
 10
58.9193291411
 20
66.0871498274
 11
57.8231396273
 21
65.1284985145
  0
LINE
  5
254
100
AcDbEntity
  8
0
100
AcDbLine
 62
7
  6
CONTINUOUS
 10
42.0165326805
 20
49.2280067656
 11
44.0625186259
 21
50.4947353439
  0
LINE
  5
255
100
AcDbEntity
  8
0
100
AcDbLine
 62
7
  6
CONTINUOUS
 10
35.242300943
 20
48.3348690864
 11
32.2017291249
 21
50.0903043308
  0
LINE
  5
256
100
AcDbEntity
  8
0
100
AcDbLine
 62
7
  6
CONTINUOUS
 10
35.7422924595
 20
48.3843969709
 11
32.7017206414
 21
50.1398322154
  0
LINE
  5
257
100
AcDbEntity
  8
0
100
AcDbLine
 62
7
  6
CONTINUOUS
 10
40.0494259068
 20
36.2757057777
 11
40.0494259068
 21
50.2870491444
  0
LINE
  5
258
100
AcDbEntity
  8
0
100
AcDbLine
 62
7
  6
CONTINUOUS
 10
40.0494259068
 20
58.3708036464
 11
40.0494259068
 21
59.6402842123
  0
LINE
  5
259
100
AcDbEntity
  8
0
100
AcDbLine
 62
7
  6
CONTINUOUS
 10
40.3672614274
 20
59.8794278692
 11
40.3672614274
 21
58.1996887428
  0
LINE
  5
25A
100
AcDbEntity
  8
0
100
AcDbLine
 62
7
  6
CONTINUOUS
 10
40.3672614274
 20
50.1159342408
 11
40.3672614274
 21
35.9387271151
  0
LWPOLYLINE
  5
25B
100
AcDbEntity
  8
0
100
AcDbPolyline
 62
7
  6
CONTINUOUS
 90
7
 70
0
 10
29.2319242146
 20
39.1492943673
 10
26.5202416555
 20
37.0202186444
 10
24.1544813003
 20
34.0402210593
 10
22.4151299775
 20
30.5573876156
 10
21.5361714171
 20
27.0283651032
 10
21.4578448703
 20
25.3895299879
 10
22.0316033347
 20
22.6136401862
  0
LINE
  5
25C
100
AcDbEntity
  8
0
100
AcDbLine
 62
7
  6
CONTINUOUS
 10
34.6757279682
 20
53.1801172401
 11
42.0165326805
 21
49.2280067656
  0
LINE
  5
25D
100
AcDbEntity
  8
0
100
AcDbLine
 62
7
  6
CONTINUOUS
 10
42.0165326805
 20
54.1270212684
 11
42.0165326805
 21
49.2280067656
  0
LINE
  5
25E
100
AcDbEntity
  8
0
100
AcDbLine
 62
7
  6
CONTINUOUS
 10
42.0165326805
 20
18.2009149146
 11
42.0165326805
 21
23.0999294174
  0
LINE
  5
25F
100
AcDbEntity
  8
0
100
AcDbLine
 62
7
  6
CONTINUOUS
 10
57.8231396273
 20
63.3555150233
 11
58.9193291411
 21
63.6626267765
  0
LINE
  5
260
100
AcDbEntity
  8
0
100
AcDbLine
 62
7
  6
CONTINUOUS
 10
44.0625186259
 20
24.3666579957
 11
44.0625186259
 21
19.4676434929
  0
LINE
  5
261
100
AcDbEntity
  8
0
100
AcDbLine
 62
7
  6
CONTINUOUS
 10
44.0625186259
 20
50.4947353439
 11
44.0625186259
 21
55.3937498467
  0
LINE
  5
262
100
AcDbEntity
  8
0
100
AcDbLine
 62
7
  6
CONTINUOUS
 10
41.2851761394
 20
55.3372682353
 11
34.6757279682
 21
58.89563416
  0
LINE
  5
263
100
AcDbEntity
  8
0
100
AcDbLine
 62
7
  6
CONTINUOUS
 10
36.7217139137
 20
60.1623627383
 11
43.3311620848
 21
56.6039968135
  0
LINE
  5
264
100
AcDbEntity
  8
0
100
AcDbLine
 62
7
  6
CONTINUOUS
 10
58.9193291411
 20
51.3901063191
 11
57.8231396273
 21
50.4314550062
  0
LINE
  5
265
100
AcDbEntity
  8
0
100
AcDbLine
 62
7
  6
CONTINUOUS
 10
41.2563956336
 20
34.2646893302
 11
58.9193291411
 21
44.4623278737
  0
LINE
  5
266
100
AcDbEntity
  8
0
100
AcDbLine
 62
7
  6
CONTINUOUS
 10
56.4444303833
 20
71.6110054085
 11
56.4444303833
 21
74.0604601337
  0
LINE
  5
267
100
AcDbEntity
  8
0
100
AcDbLine
 62
7
  6
CONTINUOUS
 10
57.8231396273
 20
48.6584715149
 11
57.8231396273
 21
50.4314550062
  0
LINE
  5
268
100
AcDbEntity
  8
0
100
AcDbLine
 62
7
  6
CONTINUOUS
 10
57.8231396273
 20
63.3555150233
 11
57.8231396273
 21
65.1284985145
  0
LINE
  5
269
100
AcDbEntity
  8
0
100
AcDbLine
 62
7
  6
CONTINUOUS
 10
58.9193291411
 20
44.4623278737
 11
58.9193291412
 21
48.9655832682
  0
LINE
  5
26A
100
AcDbEntity
  8
0
100
AcDbLine
 62
7
  6
CONTINUOUS
 10
58.9193291411
 20
51.3901063191
 11
58.9193291411
 21
63.6626267765
  0
LINE
  5
26B
100
AcDbEntity
  8
0
100
AcDbLine
 62
7
  6
CONTINUOUS
 10
58.9193291411
 20
66.0871498274
 11
58.9193291411
 21
70.5904052219
  0
LINE
  5
26C
100
AcDbEntity
  8
0
100
AcDbLine
 62
7
  6
CONTINUOUS
 10
44.0625186259
 20
24.3666579957
 11
42.0165326805
 21
23.0999294174
  0
LINE
  5
26D
100
AcDbEntity
  8
0
100
AcDbLine
 62
7
  6
CONTINUOUS
 10
14.1705577242
 20
10.2859213555
 11
19.8881622875
 21
13.5869621847
  0
LINE
  5
26E
100
AcDbEntity
  8
0
100
AcDbLine
 62
7
  6
CONTINUOUS
 10
27.640934693
 20
16.1851622499
 11
21.8073280359
 21
12.8171479804
  0
LINE
  5
26F
100
AcDbEntity
  8
0
100
AcDbLine
 62
7
  6
CONTINUOUS
 10
60.5302256528
 20
46.7076520236
 11
60.5302256528
 21
50.732172231
  0
LINE
  5
270
100
AcDbEntity
  8
0
100
AcDbLine
 62
7
  6
CONTINUOUS
 10
60.5302256528
 20
54.114165656
 11
60.5302256528
 21
65.4292157394
  0
LINE
  5
271
100
AcDbEntity
  8
0
100
AcDbLine
 62
7
  6
CONTINUOUS
 10
60.5302256528
 20
68.8112091643
 11
60.5302256528
 21
72.8357293717
  0
LINE
  5
272
100
AcDbEntity
  8
0
100
AcDbLine
 62
7
  6
CONTINUOUS
 10
29.0551541432
 20
13.7356759066
 11
30.8229137363
 21
14.7562862912
  0
LINE
  5
273
100
AcDbEntity
  8
0
100
AcDbLine
 62
7
  6
CONTINUOUS
 10
28.8480421797
 20
13.2778899649
 11
30.6158017727
 21
14.2985003496
  0
LINE
  5
274
100
AcDbEntity
  8
0
100
AcDbLine
 62
7
  6
CONTINUOUS
 10
47.1657736338
 20
70.0275961192
 11
44.5758696381
 21
71.5228440612
  0
LINE
  5
275
100
AcDbEntity
  8
0
100
AcDbLine
 62
7
  6
CONTINUOUS
 10
42.0165326805
 20
18.2009149146
 11
44.0625186259
 21
19.4676434929
  0
LINE
  5
276
100
AcDbEntity
  8
0
100
AcDbLine
 62
7
  6
CONTINUOUS
 10
43.8575665251
 20
19.0111537425
 11
41.8115805797
 21
17.7444251642
  0
LINE
  5
277
100
AcDbEntity
  8
0
100
AcDbLine
 62
7
  6
CONTINUOUS
 10
39.2725466995
 20
83.9744275171
 11
56.4444303833
 21
74.0604601337
  0
LINE
  5
278
100
AcDbEntity
  8
0
100
AcDbLine
 62
7
  6
CONTINUOUS
 10
58.9192967575
 20
75.081072218
 11
41.3938582112
 21
85.1991599787
  0
ARC
  5
279
100
AcDbEntity
  8
0
100
AcDbCircle
 62
7
  6
CONTINUOUS
 10
28.699045978
 20
27.8161917299
 40
10.7507805045
100
AcDbArc
 50
301.118554396
 51
301.3169553356
  0
ARC
  5
27A
100
AcDbEntity
  8
0
100
AcDbCircle
 62
7
  6
CONTINUOUS
 10
28.79628939
 20
27.6545631415
 40
10.562153886
100
AcDbArc
 50
300.0048231102
 51
301.1200803657
  0
ARC
  5
27B
100
AcDbEntity
  8
0
100
AcDbCircle
 62
7
  6
CONTINUOUS
 10
39.0317991643
 20
27.4827189169
 40
10.4073269656
100
AcDbArc
 50
119.9999888973
 51
120.2330826197
  0
ARC
  5
27C
100
AcDbEntity
  8
0
100
AcDbCircle
 62
7
  6
CONTINUOUS
 10
39.1488239471
 20
27.2800296301
 40
9.9342666473
100
AcDbArc
 50
119.9999888973
 51
120.2330826197
  0
ARC
  5
27D
100
AcDbEntity
  8
0
100
AcDbCircle
 62
7
  6
CONTINUOUS
 10
29.2145606352
 20
27.3401353627
 40
9.9342666453
100
AcDbArc
 50
299.9999888973
 51
300.2330826198
  0
ARC
  5
27E
100
AcDbEntity
  8
0
100
AcDbCircle
 62
7
  6
CONTINUOUS
 10
29.3212896231
 20
27.1548432814
 40
9.7204345042
100
AcDbArc
 50
298.8813786789
 51
300.0012619878
  0
ARC
  5
27F
100
AcDbEntity
  8
0
100
AcDbCircle
 62
7
  6
CONTINUOUS
 10
32.861948565
 20
36.4372715946
 40
3.7559362974
100
AcDbArc
 50
67.1388011697
 51
71.7028316682
  0
ARC
  5
280
100
AcDbEntity
  8
0
100
AcDbCircle
 62
7
  6
CONTINUOUS
 10
32.8796278538
 20
36.4800375599
 40
3.7096612636
100
AcDbArc
 50
66.3416984366
 51
67.1337966635
  0
ARC
  5
281
100
AcDbEntity
  8
0
100
AcDbCircle
 62
7
  6
CONTINUOUS
 10
32.8903259741
 20
36.5039372813
 40
3.6834772479
100
AcDbArc
 50
60.0045404023
 51
66.3449413779
  0
ARC
  5
282
100
AcDbEntity
  8
0
100
AcDbCircle
 62
7
  6
CONTINUOUS
 10
25.2156916322
 20
24.0285534583
 40
3.6751600134
100
AcDbArc
 50
240.0064286459
 51
243.5819666398
  0
ARC
  5
283
100
AcDbEntity
  8
0
100
AcDbCircle
 62
7
  6
CONTINUOUS
 10
25.5693769205
 20
23.823848483
 40
3.6747122355
100
AcDbArc
 50
234.2589129102
 51
240.000110678
  0
ARC
  5
284
100
AcDbEntity
  8
0
100
AcDbCircle
 62
7
  6
CONTINUOUS
 10
32.5420342654
 20
36.7179593527
 40
3.6722798952
100
AcDbArc
 50
58.7034877028
 51
59.9984248367
  0
ARC
  5
285
100
AcDbEntity
  8
0
100
AcDbCircle
 62
7
  6
CONTINUOUS
 10
18.5952791988
 20
28.2379644417
 40
3.5104837261
100
AcDbArc
 50
243.5667878451
 51
244.6905142493
  0
ARC
  5
286
100
AcDbEntity
  8
0
100
AcDbCircle
 62
7
  6
CONTINUOUS
 10
18.5921915273
 20
28.2317333406
 40
3.5035295723
100
AcDbArc
 50
239.9960985535
 51
243.566641739
  0
ARC
  5
287
100
AcDbEntity
  8
0
100
AcDbCircle
 62
7
  6
CONTINUOUS
 10
18.6348601429
 20
27.8156829239
 40
3.164581122
100
AcDbArc
 50
236.0488927228
 51
239.9951580657
  0
SPLINE
  5
288
100
AcDbEntity
  8
0
100
AcDbSpline
 62
7
  6
CONTINUOUS
 70
0
 71
3
 72
19
 73
15
 74
0
 42
0.0000001
 43
0.0000001
 44
0.0000000001
 40
0.0
 40
0.0
 40
0.0
 40
0.0
 40
0.1545886065
 40
0.3075979937
 40
0.4545021087
 40
0.5244091132
 40
0.5913230135
 40
0.6548720681
 40
0.7147671903
 40
0.8228688903
 40
0.8713599419
 40
0.9165266102
 40
0.9591176527
 40
1.0
 40
1.0
 40
1.0
 40
1.0
 10
18.0151028974
 20
38.3293001072
 30
0.0
 10
17.5967121851
 20
37.7215029035
 30
0.0
 10
16.8365804572
 20
36.4604907422
 30
0.0
 10
15.9422148274
 20
34.4787796175
 30
0.0
 10
15.4192332846
 20
32.7868141041
 30
0.0
 10
15.1579383
 20
31.456901631
 30
0.0
 10
15.0444688197
 20
30.506307584
 30
0.0
 10
15.0110594382
 20
29.596953814
 30
0.0
 10
15.0708520785
 20
28.4927016711
 30
0.0
 10
15.278510182
 20
27.4691357915
 30
0.0
 10
15.654122835
 20
26.5793459106
 30
0.0
 10
15.9933019587
 20
26.0213067532
 30
0.0
 10
16.3950555917
 20
25.5532529171
 30
0.0
 10
16.7056133879
 20
25.2995935141
 30
0.0
 10
16.8674882642
 20
25.1906171495
 30
0.0
  0
SPLINE
  5
289
100
AcDbEntity
  8
0
100
AcDbSpline
 62
7
  6
CONTINUOUS
 70
0
 71
3
 72
11
 73
7
 74
0
 42
0.0000001
 43
0.0000001
 44
0.0000000001
 40
0.0
 40
0.0
 40
0.0
 40
0.0
 40
0.2895411595
 40
0.5491183966
 40
0.7822559144
 40
1.0
 40
1.0
 40
1.0
 40
1.0
 10
18.0596523806
 20
14.9808414881
 30
0.0
 10
18.0596523806
 20
14.9302026362
 30
0.0
 10
18.0673844221
 20
14.8338457839
 30
0.0
 10
18.1063375302
 20
14.7014346206
 30
0.0
 10
18.1720440948
 20
14.5939534837
 30
0.0
 10
18.2338124964
 20
14.5421444771
 30
0.0
 10
18.266792677
 20
14.5231037974
 30
0.0
  0
SPLINE
  5
28A
100
AcDbEntity
  8
0
100
AcDbSpline
 62
7
  6
CONTINUOUS
 70
0
 71
3
 72
13
 73
9
 74
0
 42
0.0000001
 43
0.0000001
 44
0.0000000001
 40
0.0
 40
0.0
 40
0.0
 40
0.0
 40
0.114175582
 40
0.23756922
 40
0.49999856
 40
0.7624286893
 40
0.8858231943
 40
1.0
 40
1.0
 40
1.0
 40
1.0
 10
18.7667562178
 20
42.3336654073
 30
0.0
 10
18.7183839949
 20
42.305737858
 30
0.0
 10
18.6227864721
 20
42.2386574168
 30
0.0
 10
18.4436940727
 20
42.0711956793
 30
0.0
 10
18.2546960685
 20
41.8128085126
 30
0.0
 10
18.1254267078
 20
41.519936816
 30
0.0
 10
18.0699470469
 20
41.2811058878
 30
0.0
 10
18.0596523806
 20
41.1647747834
 30
0.0
 10
18.0596523806
 20
41.1089188363
 30
0.0
  0
SPLINE
  5
28B
100
AcDbEntity
  8
0
100
AcDbSpline
 62
7
  6
CONTINUOUS
 70
0
 71
3
 72
11
 73
7
 74
0
 42
0.0000001
 43
0.0000001
 44
0.0000000001
 40
0.0
 40
0.0
 40
0.0
 40
0.0
 40
0.2895396729
 40
0.5491163863
 40
0.7822545095
 40
1.0
 40
1.0
 40
1.0
 40
1.0
 10
21.8073280359
 20
12.8171479804
 30
0.0
 10
21.7634754007
 20
12.7918298008
 30
0.0
 10
21.6761655931
 20
12.7503495131
 30
0.0
 10
21.5420231851
 20
12.7178796853
 30
0.0
 10
21.4160933009
 20
12.7210420281
 30
0.0
 10
21.3403435726
 20
12.7486284868
 30
0.0
 10
21.3073644958
 20
12.7676685526
 30
0.0
  0
SPLINE
  5
28C
100
AcDbEntity
  8
0
100
AcDbSpline
 62
7
  6
CONTINUOUS
 70
0
 71
3
 72
11
 73
7
 74
0
 42
0.0000001
 43
0.0000001
 44
0.0000000001
 40
0.0
 40
0.0
 40
0.0
 40
0.0
 40
0.2769957435
 40
0.5371329088
 40
0.7783483853
 40
1.0
 40
1.0
 40
1.0
 40
1.0
 10
21.1002241987
 20
28.9665271204
 30
0.0
 10
20.9863917321
 20
28.4798611728
 30
0.0
 10
20.812066459
 20
27.5243191628
 30
0.0
 10
20.717339096
 20
26.1196951639
 30
0.0
 10
20.7988248665
 20
24.8137481669
 30
0.0
 10
20.9781757727
 20
23.9932256679
 30
0.0
 10
21.1002241987
 20
23.6123627151
 30
0.0
  0
SPLINE
  5
28D
100
AcDbEntity
  8
0
100
AcDbSpline
 62
7
  6
CONTINUOUS
 70
0
 71
3
 72
11
 73
7
 74
0
 42
0.0000001
 43
0.0000001
 44
0.0000000001
 40
0.0
 40
0.0
 40
0.0
 40
0.0
 40
0.2192958403
 40
0.4532322232
 40
0.7123643868
 40
1.0
 40
1.0
 40
1.0
 40
1.0
 10
41.8115517018
 20
17.7444719244
 30
0.0
 10
41.7773081714
 20
17.7232794407
 30
0.0
 10
41.6983954963
 20
17.6915509045
 30
0.0
 10
41.5660189771
 20
17.6835236426
 30
0.0
 10
41.424325602
 20
17.7126560749
 30
0.0
 10
41.3316847807
 20
17.7531179276
 30
0.0
 10
41.2851761394
 20
17.7781570473
 30
0.0
  0
SPLINE
  5
28E
100
AcDbEntity
  8
0
100
AcDbSpline
 62
7
  6
CONTINUOUS
 70
0
 71
3
 72
11
 73
7
 74
0
 42
0.0000001
 43
0.0000001
 44
0.0000000001
 40
0.0
 40
0.0
 40
0.0
 40
0.0
 40
0.22116234
 40
0.4559189499
 40
0.7143649506
 40
1.0
 40
1.0
 40
1.0
 40
1.0
 10
43.8575376437
 20
19.011200507
 30
0.0
 10
43.8902182994
 20
19.0314257882
 30
0.0
 10
43.9510601091
 20
19.0846198741
 30
0.0
 10
44.0161253881
 20
19.1922136846
 30
0.0
 10
44.0547778334
 20
19.3231454014
 30
0.0
 10
44.0625186259
 20
19.4180067362
 30
0.0
 10
44.0625186259
 20
19.467643493
 30
0.0
  0
SPLINE
  5
28F
100
AcDbEntity
  8
0
100
AcDbSpline
 62
7
  6
CONTINUOUS
 70
0
 71
3
 72
9
 73
5
 74
0
 42
0.0000001
 43
0.0000001
 44
0.0000000001
 40
0.0
 40
0.0
 40
0.0
 40
0.0
 40
0.5149839059
 40
1.0
 40
1.0
 40
1.0
 40
1.0
 10
51.4598762721
 20
68.7766640195
 30
0.0
 10
51.2658100486
 20
68.9534822227
 30
0.0
 10
50.8726135343
 20
69.2794171116
 30
0.0
 10
50.4468827577
 20
69.5621689681
 30
0.0
 10
50.2327474393
 20
69.685797255
 30
0.0
  0
SPLINE
  5
290
100
AcDbEntity
  8
0
100
AcDbSpline
 62
7
  6
CONTINUOUS
 70
0
 71
3
 72
14
 73
10
 74
0
 42
0.0000001
 43
0.0000001
 44
0.0000000001
 40
0.0
 40
0.0
 40
0.0
 40
0.0
 40
0.2892725412
 40
0.4225555544
 40
0.5484991078
 40
0.6678879603
 40
0.7818686775
 40
0.8919530679
 40
1.0
 40
1.0
 40
1.0
 40
1.0
 10
14.1705577242
 20
10.2859213555
 30
0.0
 10
13.9071960973
 20
10.1338703569
 30
0.0
 10
13.5028455383
 20
9.9414160127
 30
0.0
 10
12.948330754
 20
9.779742682
 30
0.0
 10
12.5547435203
 20
9.7136966456
 30
0.0
 10
12.1760445151
 20
9.7005959354
 30
0.0
 10
11.8157825004
 20
9.740695511
 30
0.0
 10
11.4778542431
 20
9.8342072605
 30
0.0
 10
11.2689830425
 20
9.9319706793
 30
0.0
 10
11.1706137468
 20
9.9887629191
 30
0.0
  0
SPLINE
  5
291
100
AcDbEntity
  8
0
100
AcDbSpline
 62
7
  6
CONTINUOUS
 70
0
 71
3
 72
15
 73
11
 74
0
 42
0.0000001
 43
0.0000001
 44
0.0000000001
 40
0.0
 40
0.0
 40
0.0
 40
0.0
 40
0.1441506965
 40
0.2818358211
 40
0.4130694298
 40
0.5384046115
 40
0.6586348112
 40
0.774799458
 40
0.8880807081
 40
1.0
 40
1.0
 40
1.0
 40
1.0
 10
34.0781363089
 20
18.5079141466
 30
0.0
 10
33.8266230078
 20
18.3627037413
 30
0.0
 10
33.322637898
 20
18.0992123352
 30
0.0
 10
32.5508432587
 20
17.7843626168
 30
0.0
 10
31.7862473668
 20
17.5631017749
 30
0.0
 10
31.0353156073
 20
17.4390856459
 30
0.0
 10
30.3045791838
 20
17.4157069456
 30
0.0
 10
29.6019014571
 20
17.496038326
 30
0.0
 10
28.9365829993
 20
17.6813545674
 30
0.0
 10
28.5235076925
 20
17.8751289092
 30
0.0
 10
28.3282307467
 20
17.9878695559
 30
0.0
  0
SPLINE
  5
292
100
AcDbEntity
  8
0
100
AcDbSpline
 62
7
  6
CONTINUOUS
 70
0
 71
3
 72
13
 73
9
 74
0
 42
0.0000001
 43
0.0000001
 44
0.0000000001
 40
0.0
 40
0.0
 40
0.0
 40
0.0
 40
0.1137560641
 40
0.236545124
 40
0.4978529017
 40
0.7603298236
 40
0.8844918515
 40
1.0
 40
1.0
 40
1.0
 40
1.0
 10
33.286622928
 20
53.1661151352
 30
0.0
 10
33.3338787786
 20
53.1933981504
 30
0.0
 10
33.4371440888
 20
53.2416787758
 30
0.0
 10
33.665823692
 20
53.3123893293
 30
0.0
 10
33.9767240244
 20
53.3484880131
 30
0.0
 10
34.2888578651
 20
53.3184389004
 30
0.0
 10
34.5210730581
 20
53.25247764
 30
0.0
 10
34.6269422114
 20
53.2063823034
 30
0.0
 10
34.6757279682
 20
53.1801172401
 30
0.0
  0
SPLINE
  5
293
100
AcDbEntity
  8
0
100
AcDbSpline
 62
7
  6
CONTINUOUS
 70
0
 71
3
 72
25
 73
21
 74
0
 42
0.0000001
 43
0.0000001
 44
0.0000000001
 40
0.0
 40
0.0
 40
0.0
 40
0.0
 40
0.0228643147
 40
0.04586129
 40
0.0691733626
 40
0.0929619516
 40
0.1424057934
 40
0.1951266341
 40
0.2516481565
 40
0.3121094988
 40
0.3763096932
 40
0.4437692802
 40
0.5137977974
 40
0.5855546705
 40
0.658104504
 40
0.7304693537
 40
0.8016846626
 40
0.8708363585
 40
0.9371487203
 40
1.0
 40
1.0
 40
1.0
 40
1.0
 10
39.3280441094
 20
37.0405361931
 30
0.0
 10
39.4716183213
 20
36.9576454584
 30
0.0
 10
39.7494950681
 20
36.7731602545
 30
0.0
 10
40.13102148
 20
36.4457789549
 30
0.0
 10
40.4751552803
 20
36.0701013422
 30
0.0
 10
40.8869234574
 20
35.502395199
 30
0.0
 10
41.2988193352
 20
34.6796168703
 30
0.0
 10
41.6164487619
 20
33.5682128743
 30
0.0
 10
41.7666381162
 20
32.3425825433
 30
0.0
 10
41.7512163236
 20
31.0256090515
 30
0.0
 10
41.5736428215
 20
29.6411722303
 30
0.0
 10
41.2389801865
 20
28.2151798007
 30
0.0
 10
40.7547078973
 20
26.7751607441
 30
0.0
 10
40.1309594031
 20
25.3496257781
 30
0.0
 10
39.3805359374
 20
23.9672824998
 30
0.0
 10
38.5187523287
 20
22.6561512825
 30
0.0
 10
37.5629843067
 20
21.4429868775
 30
0.0
 10
36.5321833341
 20
20.3521852456
 30
0.0
 10
35.446327577
 20
19.4060394583
 30
0.0
 10
34.6763254803
 20
18.8686160474
 30
0.0
 10
34.2870000827
 20
18.6317456182
 30
0.0
  0
SPLINE
  5
294
100
AcDbEntity
  8
0
100
AcDbSpline
 62
7
  6
CONTINUOUS
 70
0
 71
3
 72
14
 73
10
 74
0
 42
0.0000001
 43
0.0000001
 44
0.0000000001
 40
0.0
 40
0.0
 40
0.0
 40
0.0
 40
0.2892749824
 40
0.422558598
 40
0.5485023015
 40
0.6678908559
 40
0.7818708695
 40
0.8919542479
 40
1.0
 40
1.0
 40
1.0
 40
1.0
 10
58.9192967575
 20
75.081072218
 30
0.0
 10
59.1607183548
 20
74.9416905471
 30
0.0
 10
59.4988375409
 20
74.7089015422
 30
0.0
 10
59.8813482317
 20
74.3427934747
 30
0.0
 10
60.1141804725
 20
74.0606105966
 30
0.0
 10
60.2981559524
 20
73.7659800979
 30
0.0
 10
60.4314455869
 20
73.4616024305
 30
0.0
 10
60.5120949929
 20
73.1504741017
 30
0.0
 10
60.5302162607
 20
72.9398507366
 30
0.0
 10
60.5302162632
 20
72.8357293717
 30
0.0
  0
SPLINE
  5
295
100
AcDbEntity
  8
0
100
AcDbSpline
 62
7
  6
CONTINUOUS
 70
0
 71
3
 72
13
 73
9
 74
0
 42
0.0000001
 43
0.0000001
 44
0.0000000001
 40
0.0
 40
0.0
 40
0.0
 40
0.0
 40
0.1079279804
 40
0.2191697466
 40
0.3348085246
 40
0.4556786293
 40
0.715105816
 40
1.0
 40
1.0
 40
1.0
 40
1.0
 10
34.0411079883
 20
40.0033114884
 30
0.0
 10
33.8694859319
 20
40.0601166553
 30
0.0
 10
33.5123299298
 20
40.1507853366
 30
0.0
 10
32.953726379
 20
40.2149993671
 30
0.0
 10
32.3698482491
 20
40.2089820053
 30
0.0
 10
31.5440758224
 20
40.1054179739
 30
0.0
 10
30.467572844
 20
39.7906782522
 30
0.0
 10
29.6451888068
 20
39.3878913666
 30
0.0
 10
29.2319242146
 20
39.1492943673
 30
0.0
  0
SPLINE
  5
296
100
AcDbEntity
  8
0
100
AcDbSpline
 62
7
  6
CONTINUOUS
 70
0
 71
3
 72
9
 73
5
 74
0
 42
0.0000001
 43
0.0000001
 44
0.0000000001
 40
0.0
 40
0.0
 40
0.0
 40
0.0
 40
0.2366975963
 40
1.0
 40
1.0
 40
1.0
 40
1.0
 10
37.4842563374
 20
60.5392037235
 30
0.0
 10
37.5342683657
 20
60.5892155177
 30
0.0
 10
37.7536903667
 20
60.7923531098
 30
0.0
 10
38.0018610579
 20
60.9632364044
 30
0.0
 10
38.1993862589
 20
61.0772769516
 30
0.0
  0
SPLINE
  5
297
100
AcDbEntity
  8
0
100
AcDbSpline
 62
7
  6
CONTINUOUS
 70
0
 71
3
 72
12
 73
8
 74
0
 42
0.0000001
 43
0.0000001
 44
0.0000000001
 40
0.0
 40
0.0
 40
0.0
 40
0.0
 40
0.2895577052
 40
0.5486551371
 40
0.7816333826
 40
0.8918396704
 40
1.0
 40
1.0
 40
1.0
 40
1.0
 10
56.4444480471
 20
71.6110054085
 30
0.0
 10
56.5761179457
 20
71.6870246062
 30
0.0
 10
56.8149601222
 20
71.851553428
 30
0.0
 10
57.1003606863
 20
72.1512475622
 30
0.0
 10
57.2535062424
 20
72.4337225015
 30
0.0
 10
57.313248692
 20
72.6640352087
 30
0.0
 10
57.32309682
 20
72.7789355499
 30
0.0
 10
57.3230968193
 20
72.8357276721
 30
0.0
  0
SPLINE
  5
298
100
AcDbEntity
  8
0
100
AcDbSpline
 62
7
  6
CONTINUOUS
 70
0
 71
3
 72
11
 73
7
 74
0
 42
0.0000001
 43
0.0000001
 44
0.0000000001
 40
0.0
 40
0.0
 40
0.0
 40
0.0
 40
0.2655030866
 40
0.5252167069
 40
0.7720270136
 40
1.0
 40
1.0
 40
1.0
 40
1.0
 10
36.9036402482
 20
60.265943765
 30
0.0
 10
36.7210377636
 20
60.5617072246
 30
0.0
 10
36.3945565794
 20
61.1690646335
 30
0.0
 10
36.0263081479
 20
62.1130933301
 30
0.0
 10
35.7954223626
 20
63.0494244451
 30
0.0
 10
35.7369980738
 20
63.6716084047
 30
0.0
 10
35.7369980738
 20
63.9700660272
 30
0.0
  0
SPLINE
  5
299
100
AcDbEntity
  8
0
100
AcDbSpline
 62
7
  6
CONTINUOUS
 70
0
 71
3
 72
14
 73
10
 74
0
 42
0.0000001
 43
0.0000001
 44
0.0000000001
 40
0.0
 40
0.0
 40
0.0
 40
0.0
 40
0.2892474877
 40
0.422571007
 40
0.5485181942
 40
0.667892638
 40
0.7818650293
 40
0.8919543638
 40
1.0
 40
1.0
 40
1.0
 40
1.0
 10
35.7369980738
 20
81.933119204
 30
0.0
 10
35.7369980738
 20
82.1865254766
 30
0.0
 10
35.7666336816
 20
82.5585466018
 30
0.0
 10
35.8809444641
 20
83.0261480878
 30
0.0
 10
35.9973193375
 20
83.3377358115
 30
0.0
 10
36.145624431
 20
83.6165134923
 30
0.0
 10
36.32476172
 20
83.8597218367
 30
0.0
 10
36.5329532819
 20
84.0647471813
 30
0.0
 10
36.6906003543
 20
84.1746885457
 30
0.0
 10
36.7725762686
 20
84.2220170823
 30
0.0
  0
SPLINE
  5
29A
100
AcDbEntity
  8
0
100
AcDbSpline
 62
7
  6
CONTINUOUS
 70
0
 71
3
 72
11
 73
7
 74
0
 42
0.0000001
 43
0.0000001
 44
0.0000000001
 40
0.0
 40
0.0
 40
0.0
 40
0.0
 40
0.2177239861
 40
0.4508730345
 40
0.7104683317
 40
1.0
 40
1.0
 40
1.0
 40
1.0
 10
30.6157799886
 20
14.2985382256
 30
0.0
 10
30.6487577968
 20
14.3175761656
 30
0.0
 10
30.7105125559
 20
14.3693993477
 30
0.0
 10
30.7762290785
 20
14.4768735252
 30
0.0
 10
30.81518074
 20
14.6092911182
 30
0.0
 10
30.8229137363
 20
14.7056489784
 30
0.0
 10
30.8229137363
 20
14.7562862912
 30
0.0
  0
SPLINE
  5
29B
100
AcDbEntity
  8
0
100
AcDbSpline
 62
7
  6
CONTINUOUS
 70
0
 71
3
 72
14
 73
10
 74
0
 42
0.0000001
 43
0.0000001
 44
0.0000000001
 40
0.0
 40
0.0
 40
0.0
 40
0.0
 40
0.2892446362
 40
0.4225664439
 40
0.5485143005
 40
0.6678904766
 40
0.7818646928
 40
0.8919548005
 40
1.0
 40
1.0
 40
1.0
 40
1.0
 10
44.5758696381
 20
71.5228440612
 30
0.0
 10
44.3783647901
 20
71.6368709587
 30
0.0
 10
44.0750779317
 20
71.7811768929
 30
0.0
 10
43.6591909531
 20
71.9024927266
 30
0.0
 10
43.3639707883
 20
71.9520020047
 30
0.0
 10
43.0799515625
 20
71.961858427
 30
0.0
 10
42.8097808886
 20
71.9316803278
 30
0.0
 10
42.5562981314
 20
71.8616722254
 30
0.0
 10
42.399670976
 20
71.7882716126
 30
0.0
 10
42.3258951305
 20
71.7456766098
 30
0.0
  0
SPLINE
  5
29C
100
AcDbEntity
  8
0
100
AcDbSpline
 62
7
  6
CONTINUOUS
 70
0
 71
3
 72
14
 73
10
 74
0
 42
0.0000001
 43
0.0000001
 44
0.0000000001
 40
0.0
 40
0.0
 40
0.0
 40
0.0
 40
0.2886794693
 40
0.4219592015
 40
0.5480541525
 40
0.6676759744
 40
0.7819072655
 40
0.8921521656
 40
1.0
 40
1.0
 40
1.0
 40
1.0
 10
50.2327474393
 20
69.685797255
 30
0.0
 10
49.9644810385
 20
69.8406774299
 30
0.0
 10
49.552844066
 20
70.0374609069
 30
0.0
 10
48.9884093203
 20
70.2058804241
 30
0.0
 10
48.5870285243
 20
70.2773613789
 30
0.0
 10
48.2001192416
 20
70.2963596545
 30
0.0
 10
47.83107514
 20
70.2624930484
 30
0.0
 10
47.4837808809
 20
70.1755291277
 30
0.0
 10
47.2677869475
 20
70.082237259
 30
0.0
 10
47.1657736338
 20
70.0275961192
 30
0.0
  0
SPLINE
  5
29D
100
AcDbEntity
  8
0
100
AcDbSpline
 62
7
  6
CONTINUOUS
 70
0
 71
3
 72
17
 73
13
 74
0
 42
0.0000001
 43
0.0000001
 44
0.0000000001
 40
0.0
 40
0.0
 40
0.0
 40
0.0
 40
0.0428570455
 40
0.087485165
 40
0.1353123244
 40
0.1872781392
 40
0.3045378316
 40
0.4381995438
 40
0.5825378192
 40
0.7296849502
 40
0.8713141218
 40
1.0
 40
1.0
 40
1.0
 40
1.0
 10
28.8480216403
 20
13.2779255894
 30
0.0
 10
28.8233701349
 20
13.2636925183
 30
0.0
 10
28.7690469988
 20
13.2410538113
 30
0.0
 10
28.679336255
 20
13.2279690005
 30
0.0
 10
28.583003659
 20
13.2349989181
 30
0.0
 10
28.4430447086
 20
13.2722915109
 30
0.0
 10
28.2641038082
 20
13.3700864423
 30
0.0
 10
28.0664089303
 20
13.5451656927
 30
0.0
 10
27.8916719972
 20
13.7688312035
 30
0.0
 10
27.7540995366
 20
14.0230327149
 30
0.0
 10
27.6648666828
 20
14.286942117
 30
0.0
 10
27.640934693
 20
14.4666851083
 30
0.0
 10
27.640934693
 20
14.5521574156
 30
0.0
  0
SPLINE
  5
29E
100
AcDbEntity
  8
0
100
AcDbSpline
 62
7
  6
CONTINUOUS
 70
0
 71
3
 72
11
 73
7
 74
0
 42
0.0000001
 43
0.0000001
 44
0.0000000001
 40
0.0
 40
0.0
 40
0.0
 40
0.0
 40
0.2177456295
 40
0.4508837762
 40
0.7104602913
 40
1.0
 40
1.0
 40
1.0
 40
1.0
 10
32.7016926657
 20
50.1397837582
 30
0.0
 10
32.6687135572
 20
50.1588238189
 30
0.0
 10
32.5929638116
 20
50.1864103168
 30
0.0
 10
32.4670339282
 20
50.1895725969
 30
0.0
 10
32.332891529
 20
50.1571028455
 30
0.0
 10
32.2455817662
 20
50.115622514
 30
0.0
 10
32.2017291249
 20
50.0903043308
 30
0.0
  0
SPLINE
  5
29F
100
AcDbEntity
  8
0
100
AcDbSpline
 62
7
  6
CONTINUOUS
 70
0
 71
3
 72
11
 73
7
 74
0
 42
0.0000001
 43
0.0000001
 44
0.0000000001
 40
0.0
 40
0.0
 40
0.0
 40
0.0
 40
0.2177442246
 40
0.4508817658
 40
0.7104588047
 40
1.0
 40
1.0
 40
1.0
 40
1.0
 10
35.7422644831
 20
48.3843485142
 30
0.0
 10
35.7752446752
 20
48.3653078045
 30
0.0
 10
35.8370131194
 20
48.3134988024
 30
0.0
 10
35.9027196292
 20
48.2060176349
 30
0.0
 10
35.9416727991
 20
48.0736065175
 30
0.0
 10
35.9494047802
 20
47.9772496821
 30
0.0
 10
35.9494047802
 20
47.9266108231
 30
0.0
  0
SPLINE
  5
2A0
100
AcDbEntity
  8
0
100
AcDbSpline
 62
7
  6
CONTINUOUS
 70
0
 71
3
 72
14
 73
10
 74
0
 42
0.0000001
 43
0.0000001
 44
0.0000000001
 40
0.0
 40
0.0
 40
0.0
 40
0.0
 40
0.2892745128
 40
0.4225579986
 40
0.54850166
 40
0.667890265
 40
0.7818704175
 40
0.891954003
 40
1.0
 40
1.0
 40
1.0
 40
1.0
 10
58.9193291411
 20
44.4623278737
 30
0.0
 10
59.160746225
 20
44.6017092601
 30
0.0
 10
59.4988589027
 20
44.8344973135
 30
0.0
 10
59.8813618123
 20
45.2006027193
 30
0.0
 10
60.1141892736
 20
45.4827832538
 30
0.0
 10
60.2981609052
 20
45.7774110199
 30
0.0
 10
60.4314477111
 20
46.0817856379
 30
0.0
 10
60.5120953878
 20
46.3929106926
 30
0.0
 10
60.5302162562
 20
46.6035317669
 30
0.0
 10
60.5302162632
 20
46.7076520236
 30
0.0
  0
SPLINE
  5
2A1
100
AcDbEntity
  8
0
100
AcDbSpline
 62
7
  6
CONTINUOUS
 70
0
 71
3
 72
14
 73
10
 74
0
 42
0.0000001
 43
0.0000001
 44
0.0000000001
 40
0.0
 40
0.0
 40
0.0
 40
0.0
 40
0.2892465103
 40
0.4225697622
 40
0.5485168638
 40
0.6678914139
 40
0.7818640907
 40
0.891953856
 40
1.0
 40
1.0
 40
1.0
 40
1.0
 10
41.3938582112
 20
85.1991599787
 30
0.0
 10
41.174407321
 20
85.3258571429
 30
0.0
 10
40.8374182946
 20
85.4861945151
 30
0.0
 10
40.3753205248
 20
85.6209914141
 30
0.0
 10
40.0472988213
 20
85.6759977649
 30
0.0
 10
39.7317258717
 20
85.6869485707
 30
0.0
 10
39.4315401022
 20
85.6534150839
 30
0.0
 10
39.149893745
 20
85.5756303012
 30
0.0
 10
38.9758618838
 20
85.4940770351
 30
0.0
 10
38.8938877803
 20
85.4467495439
 30
0.0
  0
SPLINE
  5
2A2
100
AcDbEntity
  8
0
100
AcDbSpline
 62
7
  6
CONTINUOUS
 70
0
 71
3
 72
15
 73
11
 74
0
 42
0.0000001
 43
0.0000001
 44
0.0000000001
 40
0.0
 40
0.0
 40
0.0
 40
0.0
 40
0.1236976323
 40
0.2552915559
 40
0.3911816544
 40
0.5272718433
 40
0.6594730052
 40
0.7840543942
 40
0.8980938641
 40
1.0
 40
1.0
 40
1.0
 40
1.0
 10
46.2763503843
 20
65.6743464958
 30
0.0
 10
46.041972261
 20
65.8457573589
 30
0.0
 10
45.5876606387
 20
66.2407239394
 30
0.0
 10
44.9829240386
 20
66.9349462743
 30
0.0
 10
44.4539168138
 20
67.7238069163
 30
0.0
 10
44.0243460502
 20
68.5724485014
 30
0.0
 10
43.7130522032
 20
69.4432862635
 30
0.0
 10
43.5338999376
 20
70.2984075585
 30
0.0
 10
43.4948084692
 20
71.1003581573
 30
0.0
 10
43.5688907851
 20
71.6069044922
 30
0.0
 10
43.6341874317
 20
71.8370366304
 30
0.0
  0
SPLINE
  5
2A3
100
AcDbEntity
  8
0
100
AcDbSpline
 62
7
  6
CONTINUOUS
 70
0
 71
3
 72
14
 73
10
 74
0
 42
0.0000001
 43
0.0000001
 44
0.0000000001
 40
0.0
 40
0.0
 40
0.0
 40
0.0
 40
0.2892739853
 40
0.4225573976
 40
0.5485010804
 40
0.6678897775
 40
0.7818700675
 40
0.8919538208
 40
1.0
 40
1.0
 40
1.0
 40
1.0
 10
7.8066055255
 20
13.9601931986
 30
0.0
 10
7.8066055255
 20
13.6560762494
 30
0.0
 10
7.8421110471
 20
13.2096514114
 30
0.0
 10
7.979360901
 20
12.6485664725
 30
0.0
 10
8.1189630895
 20
12.2746718289
 30
0.0
 10
8.2969750824
 20
11.940146238
 30
0.0
 10
8.5118431759
 20
11.6481908451
 30
0.0
 10
8.7618022844
 20
11.4022866451
 30
0.0
 10
8.9509120612
 20
11.2702792901
 30
0.0
 10
9.0492845714
 20
11.2134851826
 30
0.0
  0
SPLINE
  5
2A4
100
AcDbEntity
  8
0
100
AcDbSpline
 62
7
  6
CONTINUOUS
 70
0
 71
3
 72
15
 73
11
 74
0
 42
0.0000001
 43
0.0000001
 44
0.0000000001
 40
0.0
 40
0.0
 40
0.0
 40
0.0
 40
0.1141543519
 40
0.237325601
 40
0.366974755
 40
0.4999984147
 40
0.6330222943
 40
0.7626720931
 40
0.8858443543
 40
1.0
 40
1.0
 40
1.0
 40
1.0
 10
12.0492285487
 20
49.069754807
 30
0.0
 10
11.7587868164
 20
48.9020691956
 30
0.0
 10
11.1851123937
 20
48.4999274812
 30
0.0
 10
10.3957677122
 20
47.7614314776
 30
0.0
 10
9.6683439313
 20
46.8884740973
 30
0.0
 10
9.0302398547
 20
45.9138027658
 30
0.0
 10
8.5052060369
 20
44.8738484892
 30
0.0
 10
8.1129172288
 20
43.8073955513
 30
0.0
 10
7.8680339932
 20
42.7545459991
 30
0.0
 10
7.8066055255
 20
42.0566519062
 30
0.0
 10
7.8066055255
 20
41.721275381
 30
0.0
  0
SPLINE
  5
2A5
100
AcDbEntity
  8
0
100
AcDbSpline
 62
7
  6
CONTINUOUS
 70
0
 71
3
 72
15
 73
11
 74
0
 42
0.0000001
 43
0.0000001
 44
0.0000000001
 40
0.0
 40
0.0
 40
0.0
 40
0.0
 40
0.1137288269
 40
0.2363226873
 40
0.3653338198
 40
0.4978571455
 40
0.6306769691
 40
0.7605550821
 40
0.8845189963
 40
1.0
 40
1.0
 40
1.0
 40
1.0
 10
31.1652937525
 20
60.1063543186
 30
0.0
 10
31.3544341453
 20
60.2155539235
 30
0.0
 10
31.7673631859
 20
60.4088108998
 30
0.0
 10
32.439357544
 20
60.6164510363
 30
0.0
 10
33.1670958607
 20
60.7471778796
 30
0.0
 10
33.9243382073
 20
60.7964059158
 30
0.0
 10
34.6840692184
 20
60.7622827432
 30
0.0
 10
35.4191652339
 20
60.6461266895
 30
0.0
 10
36.1031019764
 20
60.4520062419
 30
0.0
 10
36.5264492428
 20
60.2674884815
 30
0.0
 10
36.7217139137
 20
60.1623627383
 30
0.0
  0
SPLINE
  5
2A6
100
AcDbEntity
  8
0
100
AcDbSpline
 62
7
  6
CONTINUOUS
 70
0
 71
3
 72
13
 73
9
 74
0
 42
0.0000001
 43
0.0000001
 44
0.0000000001
 40
0.0
 40
0.0
 40
0.0
 40
0.0
 40
0.1137459596
 40
0.2365168414
 40
0.4978256962
 40
0.7603275818
 40
0.8844914807
 40
1.0
 40
1.0
 40
1.0
 40
1.0
 10
44.0625186259
 20
55.3937498467
 30
0.0
 10
44.0625186259
 20
55.4495260082
 30
0.0
 10
44.0518933795
 20
55.5656244568
 30
0.0
 10
43.9944646239
 20
55.8035394149
 30
0.0
 10
43.8603628557
 20
56.0944264517
 30
0.0
 10
43.6646820096
 20
56.3487742478
 30
0.0
 10
43.4796966058
 20
56.5122319027
 30
0.0
 10
43.3810341482
 20
56.5771469092
 30
0.0
 10
43.3311620849
 20
56.6039968135
 30
0.0
  0
SPLINE
  5
2A7
100
AcDbEntity
  8
0
100
AcDbSpline
 62
7
  6
CONTINUOUS
 70
0
 71
3
 72
11
 73
7
 74
0
 42
0.0000001
 43
0.0000001
 44
0.0000000001
 40
0.0
 40
0.0
 40
0.0
 40
0.0
 40
0.2895453772
 40
0.5491366158
 40
0.7822776227
 40
1.0
 40
1.0
 40
1.0
 40
1.0
 10
29.0551541432
 20
13.7356759066
 30
0.0
 10
29.0551541432
 20
13.6850360803
 30
0.0
 10
29.0474217453
 20
13.5886760569
 30
0.0
 10
29.0084675656
 20
13.4562587543
 30
0.0
 10
28.9427524361
 20
13.3487859321
 30
0.0
 10
28.8809981981
 20
13.2969653066
 30
0.0
 10
28.8480216403
 20
13.2779255894
 30
0.0
  0
SPLINE
  5
2A8
100
AcDbEntity
  8
0
100
AcDbSpline
 62
7
  6
CONTINUOUS
 70
0
 71
3
 72
14
 73
10
 74
0
 42
0.0000001
 43
0.0000001
 44
0.0000000001
 40
0.0
 40
0.0
 40
0.0
 40
0.0
 40
0.1080461851
 40
0.2181299428
 40
0.3321102356
 40
0.4514989376
 40
0.5774426208
 40
0.7107260235
 40
1.0
 40
1.0
 40
1.0
 40
1.0
 10
11.1706137468
 20
9.9887629191
 30
0.0
 10
11.072241226
 20
10.0455570208
 30
0.0
 10
10.8831314476
 20
10.1775643953
 30
0.0
 10
10.633172327
 20
10.4234686007
 30
0.0
 10
10.418304227
 20
10.7154240066
 30
0.0
 10
10.2402922451
 20
11.0499496133
 30
0.0
 10
10.100690062
 20
11.4238442538
 30
0.0
 10
9.9634402127
 20
11.9849291751
 30
0.0
 10
9.9279347009
 20
12.4313539947
 30
0.0
 10
9.9279347009
 20
12.735470935
 30
0.0
  0
SPLINE
  5
2A9
100
AcDbEntity
  8
0
100
AcDbSpline
 62
7
  6
CONTINUOUS
 70
0
 71
3
 72
9
 73
5
 74
0
 42
0.0000001
 43
0.0000001
 44
0.0000000001
 40
0.0
 40
0.0
 40
0.0
 40
0.0
 40
0.2638124676
 40
1.0
 40
1.0
 40
1.0
 40
1.0
 10
40.3672614274
 20
59.8794278692
 30
0.0
 10
40.3369233219
 20
59.8619122604
 30
0.0
 10
40.2238368237
 20
59.792355217
 30
0.0
 10
40.1185510969
 20
59.7094090789
 30
0.0
 10
40.0494259068
 20
59.6402842123
 30
0.0
  0
SPLINE
  5
2AA
100
AcDbEntity
  8
0
100
AcDbSpline
 62
7
  6
CONTINUOUS
 70
0
 71
3
 72
11
 73
7
 74
0
 42
0.0000001
 43
0.0000001
 44
0.0000000001
 40
0.0
 40
0.0
 40
0.0
 40
0.0
 40
0.2702753029
 40
0.5239979854
 40
0.7652934184
 40
1.0
 40
1.0
 40
1.0
 40
1.0
 10
21.1002241987
 20
23.6123627151
 30
0.0
 10
21.1902780226
 20
23.3313417598
 30
0.0
 10
21.4037171461
 20
22.7976290074
 30
0.0
 10
21.840946051
 20
22.0804895775
 30
0.0
 10
22.379219307
 20
21.4863347209
 30
0.0
 10
22.8029910893
 20
21.1778282477
 30
0.0
 10
23.0249138544
 20
21.0496856822
 30
0.0
  0
SPLINE
  5
2AB
100
AcDbEntity
  8
0
100
AcDbSpline
 62
7
  6
CONTINUOUS
 70
0
 71
3
 72
20
 73
16
 74
0
 42
0.0000001
 43
0.0000001
 44
0.0000000001
 40
0.0
 40
0.0
 40
0.0
 40
0.0
 40
0.0427916159
 40
0.0871672579
 40
0.1344364126
 40
0.1854893055
 40
0.2407808305
 40
0.3003722862
 40
0.3640230088
 40
0.4312469838
 40
0.5734828986
 40
0.7205677886
 40
0.7936585781
 40
0.8651636783
 40
1.0
 40
1.0
 40
1.0
 40
1.0
 10
42.3258951305
 20
71.7456766098
 30
0.0
 10
42.2212508226
 20
71.6852594832
 30
0.0
 10
42.0224195211
 20
71.5354684943
 30
0.0
 10
41.7789129558
 20
71.2403256798
 30
0.0
 10
41.591707605
 20
70.8805778711
 30
0.0
 10
41.4633464826
 20
70.4641537294
 30
0.0
 10
41.3953288564
 20
69.9989688102
 30
0.0
 10
41.3881949856
 20
69.4936470229
 30
0.0
 10
41.4418754926
 20
68.957450576
 30
0.0
 10
41.5960060238
 20
68.2007167236
 30
0.0
 10
41.9331848003
 20
67.2463726791
 30
0.0
 10
42.4257586007
 20
66.3443058827
 30
0.0
 10
42.9046192561
 20
65.6730543203
 30
0.0
 10
43.4146689943
 20
65.070445075
 30
0.0
 10
43.8480843123
 20
64.6740600033
 30
0.0
 10
44.1554315733
 20
64.4493277552
 30
0.0
  0
SPLINE
  5
2AC
100
AcDbEntity
  8
0
100
AcDbSpline
 62
7
  6
CONTINUOUS
 70
0
 71
3
 72
25
 73
21
 74
0
 42
0.0000001
 43
0.0000001
 44
0.0000000001
 40
0.0
 40
0.0
 40
0.0
 40
0.0
 40
0.021330549
 40
0.0428883166
 40
0.0648897217
 40
0.0875275705
 40
0.135281074
 40
0.1871476275
 40
0.2435398671
 40
0.3044353551
 40
0.3694688877
 40
0.4380149326
 40
0.5092584985
 40
0.5822542027
 40
0.655976829
 40
0.7293687562
 40
0.8013887455
 40
0.8710473946
 40
0.9374972013
 40
1.0
 40
1.0
 40
1.0
 40
1.0
 10
28.3282412847
 20
17.9878878074
 30
0.0
 10
28.1933739139
 20
18.065767501
 30
0.0
 10
27.9319126348
 20
18.2398873557
 30
0.0
 10
27.5729360912
 20
18.5508578032
 30
0.0
 10
27.2483207142
 20
18.9105428078
 30
0.0
 10
26.8566665912
 20
19.4613794831
 30
0.0
 10
26.4643666644
 20
20.2708115126
 30
0.0
 10
26.164611275
 20
21.3751514004
 30
0.0
 10
26.0300163103
 20
22.6071600625
 30
0.0
 10
26.0621365056
 20
23.9412785503
 30
0.0
 10
26.2595349717
 20
25.350187498
 30
0.0
 10
26.6178034882
 20
26.8045266553
 30
0.0
 10
27.1292698878
 20
28.2737442865
 30
0.0
 10
27.7830883442
 20
29.7267693416
 30
0.0
 10
28.5653837608
 20
31.132763306
 30
0.0
 10
29.4595526269
 20
32.4618606544
 30
0.0
 10
30.4465901894
 20
33.6857410379
 30
0.0
 10
31.5056235721
 20
34.7787317479
 30
0.0
 10
32.614189796
 20
35.7172503755
 30
0.0
 10
33.3972380614
 20
36.2447077932
 30
0.0
 10
33.7915133847
 20
36.4744851236
 30
0.0
  0
SPLINE
  5
2AD
100
AcDbEntity
  8
0
100
AcDbSpline
 62
7
  6
CONTINUOUS
 70
0
 71
3
 72
14
 73
10
 74
0
 42
0.0000001
 43
0.0000001
 44
0.0000000001
 40
0.0
 40
0.0
 40
0.0
 40
0.0
 40
0.1080460029
 40
0.2181295928
 40
0.3321097481
 40
0.451498358
 40
0.5774420198
 40
0.7107254959
 40
1.0
 40
1.0
 40
1.0
 40
1.0
 10
60.5302162632
 20
72.8357293717
 30
0.0
 10
60.5302162657
 20
72.7316091092
 30
0.0
 10
60.5120953824
 20
72.5209880248
 30
0.0
 10
60.431447707
 20
72.209862958
 30
0.0
 10
60.2981608938
 20
71.9054883289
 30
0.0
 10
60.1141892446
 20
71.6108605642
 30
0.0
 10
59.8813617833
 20
71.3286800354
 30
0.0
 10
59.4988588855
 20
70.9625746414
 30
0.0
 10
59.1607462179
 20
70.7297866041
 30
0.0
 10
58.9193291411
 20
70.5904052219
 30
0.0
  0
SPLINE
  5
2AE
100
AcDbEntity
  8
0
100
AcDbSpline
 62
7
  6
CONTINUOUS
 70
0
 71
3
 72
15
 73
11
 74
0
 42
0.0000001
 43
0.0000001
 44
0.0000000001
 40
0.0
 40
0.0
 40
0.0
 40
0.0
 40
0.1114448091
 40
0.2304007401
 40
0.3553431735
 40
0.4844458221
 40
0.6156299942
 40
0.7467079474
 40
0.8755297562
 40
1.0
 40
1.0
 40
1.0
 40
1.0
 10
28.5248144895
 20
39.5575351218
 30
0.0
 10
28.0983834341
 20
39.3113365068
 30
0.0
 10
27.2521817775
 20
38.7395414412
 30
0.0
 10
26.0611914402
 20
37.7120379351
 30
0.0
 10
24.9311247969
 20
36.5085597582
 30
0.0
 10
23.889810567
 20
35.1590361726
 30
0.0
 10
22.9628624165
 20
33.696467078
 30
0.0
 10
22.1729454036
 20
32.1568995701
 30
0.0
 10
21.5398225603
 20
30.5785029313
 30
0.0
 10
21.2254782557
 20
29.5020235927
 30
0.0
 10
21.1002241987
 20
28.9665271204
 30
0.0
  0
SPLINE
  5
2AF
100
AcDbEntity
  8
0
100
AcDbSpline
 62
7
  6
CONTINUOUS
 70
0
 71
3
 72
15
 73
11
 74
0
 42
0.0000001
 43
0.0000001
 44
0.0000000001
 40
0.0
 40
0.0
 40
0.0
 40
0.0
 40
0.1080141079
 40
0.2180627664
 40
0.3320027442
 40
0.4513606152
 40
0.5772653779
 40
0.7104923615
 40
0.8514537055
 40
1.0
 40
1.0
 40
1.0
 40
1.0
 10
34.0246968568
 20
40.1022997883
 30
0.0
 10
33.8443587023
 20
40.2064358701
 30
0.0
 10
33.4614583019
 20
40.3857551347
 30
0.0
 10
32.841893124
 20
40.557070586
 30
0.0
 10
32.181426734
 20
40.6306973938
 30
0.0
 10
31.4871169373
 20
40.6065687572
 30
0.0
 10
30.7656148131
 20
40.4855421807
 30
0.0
 10
30.0235439186
 20
40.269244784
 30
0.0
 10
29.2681237971
 20
39.9599338607
 30
0.0
 10
28.7728353275
 20
39.7007291647
 30
0.0
 10
28.5248144895
 20
39.5575351218
 30
0.0
  0
SPLINE
  5
2B0
100
AcDbEntity
  8
0
100
AcDbSpline
 62
7
  6
CONTINUOUS
 70
0
 71
3
 72
13
 73
9
 74
0
 42
0.0000001
 43
0.0000001
 44
0.0000000001
 40
0.0
 40
0.0
 40
0.0
 40
0.0
 40
0.114176888
 40
0.2375715548
 40
0.5000017735
 40
0.762431024
 40
0.8858245003
 40
1.0
 40
1.0
 40
1.0
 40
1.0
 10
21.1002241987
 20
39.3534835918
 30
0.0
 10
21.1002241987
 20
39.4093395792
 30
0.0
 10
21.1105189298
 20
39.5256707983
 30
0.0
 10
21.1659985968
 20
39.7645018901
 30
0.0
 10
21.2952680955
 20
40.0573736299
 30
0.0
 10
21.4842661314
 20
40.3157606555
 30
0.0
 10
21.663358392
 20
40.4832223059
 30
0.0
 10
21.7589558479
 20
40.5503026337
 30
0.0
 10
21.8073280359
 20
40.5782301628
 30
0.0
  0
SPLINE
  5
2B1
100
AcDbEntity
  8
0
100
AcDbSpline
 62
7
  6
CONTINUOUS
 70
0
 71
3
 72
25
 73
21
 74
0
 42
0.0000001
 43
0.0000001
 44
0.0000000001
 40
0.0
 40
0.0
 40
0.0
 40
0.0
 40
0.0213319014
 40
0.0428925572
 40
0.0648977194
 40
0.087542838
 40
0.1353178246
 40
0.1872186274
 40
0.2436565296
 40
0.3046048509
 40
0.369692842
 40
0.4382901669
 40
0.5095766684
 40
0.5826011626
 40
0.6563329593
 40
0.7297096719
 40
0.8016871765
 40
0.8712754341
 40
0.9376220579
 40
1.0
 40
1.0
 40
1.0
 40
1.0
 10
23.3784687485
 20
20.8455653654
 30
0.0
 10
23.2433202821
 20
20.9235791452
 30
0.0
 10
22.9813426645
 20
21.0980920204
 30
0.0
 10
22.6218126809
 20
21.4099100504
 30
0.0
 10
22.2966150365
 20
21.7704729088
 30
0.0
 10
21.904622034
 20
22.3229727872
 30
0.0
 10
21.5121091477
 20
23.1347466569
 30
0.0
 10
21.2129381736
 20
24.2423260941
 30
0.0
 10
21.0796120052
 20
25.4778598513
 30
0.0
 10
21.1136880413
 20
26.8156320045
 30
0.0
 10
21.3136258246
 20
28.2281307451
 30
0.0
 10
21.6749731999
 20
29.6858123506
 30
0.0
 10
22.1899818926
 20
31.1579326543
 30
0.0
 10
22.8476913067
 20
32.6132330193
 30
0.0
 10
23.634094593
 20
34.0206911161
 30
0.0
 10
24.5323984804
 20
35.3503115833
 30
0.0
 10
25.5234514329
 20
36.5736597039
 30
0.0
 10
26.5862272887
 20
37.6649299477
 30
0.0
 10
27.6980801041
 20
38.6005478448
 30
0.0
 10
28.4831907193
 20
39.1252596165
 30
0.0
 10
28.878369352
 20
39.3534147446
 30
0.0
  0
SPLINE
  5
2B2
100
AcDbEntity
  8
0
100
AcDbSpline
 62
7
  6
CONTINUOUS
 70
0
 71
3
 72
12
 73
8
 74
0
 42
0.0000001
 43
0.0000001
 44
0.0000000001
 40
0.0
 40
0.0
 40
0.0
 40
0.0
 40
0.108160086
 40
0.2183661675
 40
0.4513442184
 40
0.7104418196
 40
1.0
 40
1.0
 40
1.0
 40
1.0
 10
57.3230968193
 20
72.8357276721
 30
0.0
 10
57.3230968186
 20
72.8925203987
 30
0.0
 10
57.3132484773
 20
73.0074219892
 30
0.0
 10
57.2535047285
 20
73.2377371997
 30
0.0
 10
57.1003558146
 20
73.5202149815
 30
0.0
 10
56.8149494533
 20
73.8199113277
 30
0.0
 10
56.5761027442
 20
73.9844407804
 30
0.0
 10
56.4444303833
 20
74.0604601337
 30
0.0
  0
SPLINE
  5
2B3
100
AcDbEntity
  8
0
100
AcDbSpline
 62
7
  6
CONTINUOUS
 70
0
 71
3
 72
11
 73
7
 74
0
 42
0.0000001
 43
0.0000001
 44
0.0000000001
 40
0.0
 40
0.0
 40
0.0
 40
0.0
 40
0.2177442246
 40
0.4508817658
 40
0.7104588047
 40
1.0
 40
1.0
 40
1.0
 40
1.0
 10
21.3073644958
 20
12.7676685526
 30
0.0
 10
21.2743843038
 20
12.7867092623
 30
0.0
 10
21.2126158596
 20
12.8385182644
 30
0.0
 10
21.1469093497
 20
12.9459994319
 30
0.0
 10
21.1079561798
 20
13.0784105493
 30
0.0
 10
21.1002241987
 20
13.1747673847
 30
0.0
 10
21.1002241987
 20
13.2254062437
 30
0.0
  0
SPLINE
  5
2B4
100
AcDbEntity
  8
0
100
AcDbSpline
 62
7
  6
CONTINUOUS
 70
0
 71
3
 72
14
 73
10
 74
0
 42
0.0000001
 43
0.0000001
 44
0.0000000001
 40
0.0
 40
0.0
 40
0.0
 40
0.0
 40
0.108046144
 40
0.2181359093
 40
0.3321085861
 40
0.4514831362
 40
0.5774302378
 40
0.7107534897
 40
1.0
 40
1.0
 40
1.0
 40
1.0
 10
36.7725762686
 20
84.2220170823
 30
0.0
 10
36.8545503722
 20
84.2693445734
 30
0.0
 10
37.0285822334
 20
84.3508978396
 30
0.0
 10
37.3102285906
 20
84.4286826223
 30
0.0
 10
37.61041436
 20
84.4622161091
 30
0.0
 10
37.9259873096
 20
84.4512653033
 30
0.0
 10
38.2540090132
 20
84.3962589524
 30
0.0
 10
38.7161067829
 20
84.2614620534
 30
0.0
 10
39.0530958094
 20
84.1011246813
 30
0.0
 10
39.2725466995
 20
83.9744275171
 30
0.0
  0
SPLINE
  5
2B5
100
AcDbEntity
  8
0
100
AcDbSpline
 62
7
  6
CONTINUOUS
 70
0
 71
3
 72
11
 73
7
 74
0
 42
0.0000001
 43
0.0000001
 44
0.0000000001
 40
0.0
 40
0.0
 40
0.0
 40
0.0
 40
0.2895396729
 40
0.5491163863
 40
0.7822545095
 40
1.0
 40
1.0
 40
1.0
 40
1.0
 10
35.242300943
 20
48.3348690864
 30
0.0
 10
35.2861535782
 20
48.360187266
 30
0.0
 10
35.3734633858
 20
48.4016675536
 30
0.0
 10
35.5076057939
 20
48.4341373815
 30
0.0
 10
35.6335356781
 20
48.4309750387
 30
0.0
 10
35.7092854063
 20
48.40338858
 30
0.0
 10
35.7422644831
 20
48.3843485142
 30
0.0
  0
SPLINE
  5
2B6
100
AcDbEntity
  8
0
100
AcDbSpline
 62
7
  6
CONTINUOUS
 70
0
 71
3
 72
15
 73
11
 74
0
 42
0.0000001
 43
0.0000001
 44
0.0000000001
 40
0.0
 40
0.0
 40
0.0
 40
0.0
 40
0.1485495398
 40
0.2895065882
 40
0.4227314344
 40
0.5486376693
 40
0.6679975234
 40
0.7819378013
 40
0.8919874882
 40
1.0
 40
1.0
 40
1.0
 40
1.0
 10
28.878369352
 20
39.3534147446
 30
0.0
 10
29.1263960436
 20
39.4966121669
 30
0.0
 10
29.621679896
 20
39.7558240775
 30
0.0
 10
30.3770990385
 20
40.0651242827
 30
0.0
 10
31.1191599822
 20
40.281428041
 30
0.0
 10
31.8406658871
 20
40.4024470471
 30
0.0
 10
32.5349845939
 20
40.42660723
 30
0.0
 10
33.1954545589
 20
40.3529462237
 30
0.0
 10
33.8150260007
 20
40.1816522033
 30
0.0
 10
34.1979208315
 20
40.0023226063
 30
0.0
 10
34.3782616441
 20
39.8981965518
 30
0.0
  0
SPLINE
  5
2B7
100
AcDbEntity
  8
0
100
AcDbSpline
 62
7
  6
CONTINUOUS
 70
0
 71
3
 72
15
 73
11
 74
0
 42
0.0000001
 43
0.0000001
 44
0.0000000001
 40
0.0
 40
0.0
 40
0.0
 40
0.0
 40
0.1485414351
 40
0.2895047237
 40
0.4227340318
 40
0.5486388539
 40
0.6679960929
 40
0.7819381199
 40
0.8919876547
 40
1.0
 40
1.0
 40
1.0
 40
1.0
 10
33.8281374281
 20
36.4957294629
 30
0.0
 10
34.0761504888
 20
36.6389190155
 30
0.0
 10
34.5714364059
 20
36.8981173323
 30
0.0
 10
35.3268522644
 20
37.2074393134
 30
0.0
 10
36.0689322666
 20
37.423736676
 30
0.0
 10
36.7904369751
 20
37.5447820918
 30
0.0
 10
37.4847499157
 20
37.5688885718
 30
0.0
 10
38.1452266862
 20
37.4952894219
 30
0.0
 10
38.7647815934
 20
37.3239318602
 30
0.0
 10
39.1476985029
 20
37.144653136
 30
0.0
 10
39.3280335715
 20
37.0405179416
 30
0.0
  0
SPLINE
  5
2B8
100
AcDbEntity
  8
0
100
AcDbSpline
 62
7
  6
CONTINUOUS
 70
0
 71
3
 72
23
 73
19
 74
0
 42
0.0000001
 43
0.0000001
 44
0.0000000001
 40
0.0
 40
0.0
 40
0.0
 40
0.0
 40
0.0686433806
 40
0.1328166196
 40
0.1926441576
 40
0.2486365351
 40
0.3016195696
 40
0.352759135
 40
0.4034631714
 40
0.4551967969
 40
0.5092852558
 40
0.5667670101
 40
0.6283265863
 40
0.6943093375
 40
0.7647638367
 40
0.8394874407
 40
0.9180834798
 40
1.0
 40
1.0
 40
1.0
 40
1.0
 10
34.0162383837
 20
18.6434213623
 30
0.0
 10
33.7258948602
 20
18.4832946635
 30
0.0
 10
33.1474323636
 20
18.2021571271
 30
0.0
 10
32.2649584249
 20
17.8990472407
 30
0.0
 10
31.408108516
 20
17.7334337981
 30
0.0
 10
30.5890856144
 20
17.7089180001
 30
0.0
 10
29.8199720972
 20
17.8276285013
 30
0.0
 10
29.1136692363
 20
18.0894943089
 30
0.0
 10
28.4832636888
 20
18.4910061187
 30
0.0
 10
27.9401219736
 20
19.0244341259
 30
0.0
 10
27.4925122311
 20
19.6794069177
 30
0.0
 10
27.1460185931
 20
20.4445871418
 30
0.0
 10
26.9041065287
 20
21.3080462204
 30
0.0
 10
26.7691569476
 20
22.2573071427
 30
0.0
 10
26.7425455241
 20
23.2789154187
 30
0.0
 10
26.8241824457
 20
24.3584081929
 30
0.0
 10
27.0127133814
 20
25.4803226164
 30
0.0
 10
27.2045235666
 20
26.2325571681
 30
0.0
 10
27.3167556823
 20
26.6119926179
 30
0.0
  0
SPLINE
  5
2B9
100
AcDbEntity
  8
0
100
AcDbSpline
 62
7
  6
CONTINUOUS
 70
0
 71
3
 72
11
 73
7
 74
0
 42
0.0000001
 43
0.0000001
 44
0.0000000001
 40
0.0
 40
0.0
 40
0.0
 40
0.0
 40
0.2467218796
 40
0.4999317165
 40
0.7531716911
 40
1.0
 40
1.0
 40
1.0
 40
1.0
 10
27.3167556823
 20
26.6119926179
 30
0.0
 10
27.50618321
 20
27.2524110826
 30
0.0
 10
27.9733995353
 20
28.5265795331
 30
0.0
 10
28.8927909822
 20
30.3509029568
 30
0.0
 10
30.0110456624
 20
32.0609158759
 30
0.0
 10
30.8798344077
 20
33.1039782668
 30
0.0
 10
31.3392452761
 20
33.5891021031
 30
0.0
  0
SPLINE
  5
2BA
100
AcDbEntity
  8
0
100
AcDbSpline
 62
7
  6
CONTINUOUS
 70
0
 71
3
 72
10
 73
6
 74
0
 42
0.0000001
 43
0.0000001
 44
0.0000000001
 40
0.0
 40
0.0
 40
0.0
 40
0.0
 40
0.5185156658
 40
0.764545419
 40
1.0
 40
1.0
 40
1.0
 40
1.0
 10
31.3392452761
 20
33.5891021031
 30
0.0
 10
31.7698381442
 20
34.0437950119
 30
0.0
 10
32.4462017114
 20
34.6776924091
 30
0.0
 10
33.4109758905
 20
35.4054577616
 30
0.0
 10
33.9010466267
 20
35.7198971281
 30
0.0
 10
34.1467329766
 20
35.8630791896
 30
0.0
  0
SPLINE
  5
2BB
100
AcDbEntity
  8
0
100
AcDbSpline
 62
7
  6
CONTINUOUS
 70
0
 71
3
 72
31
 73
27
 74
0
 42
0.0000001
 43
0.0000001
 44
0.0000000001
 40
0.0
 40
0.0
 40
0.0
 40
0.0
 40
0.0309894389
 40
0.0604003417
 40
0.0882001842
 40
0.1144737918
 40
0.1393822536
 40
0.1631604115
 40
0.1861243444
 40
0.2086599174
 40
0.2311910397
 40
0.2541408132
 40
0.2778952523
 40
0.302774413
 40
0.329016428
 40
0.3567780528
 40
0.4170341962
 40
0.483489857
 40
0.555209515
 40
0.6307241921
 40
0.7082345989
 40
0.7857792131
 40
0.8613995621
 40
0.9332833457
 40
0.9673805832
 40
1.0
 40
1.0
 40
1.0
 40
1.0
 10
34.1816922906
 20
35.8833578771
 30
0.0
 10
34.4180893329
 20
36.0198409584
 30
0.0
 10
34.8901800805
 20
36.2669365172
 30
0.0
 10
35.6102085798
 20
36.5619462846
 30
0.0
 10
36.3175640447
 20
36.7684297213
 30
0.0
 10
37.0053598393
 20
36.8842709849
 30
0.0
 10
37.6673217567
 20
36.9078511588
 30
0.0
 10
38.2970751792
 20
36.8384798337
 30
0.0
 10
38.8881000765
 20
36.6759925306
 30
0.0
 10
39.4339082129
 20
36.4217091094
 30
0.0
 10
39.9283415817
 20
36.0782551069
 30
0.0
 10
40.3659557268
 20
35.6495942911
 30
0.0
 10
40.7425027197
 20
35.1407926856
 30
0.0
 10
41.0545576558
 20
34.5573643536
 30
0.0
 10
41.2998425435
 20
33.905331363
 30
0.0
 10
41.5415124348
 20
32.9263347155
 30
0.0
 10
41.6531662724
 20
31.5611216785
 30
0.0
 10
41.5025754198
 20
29.8134602238
 30
0.0
 10
41.0785157524
 20
27.9738983317
 30
0.0
 10
40.3969243688
 20
26.1103725601
 30
0.0
 10
39.4832322103
 20
24.2917360958
 30
0.0
 10
38.3714761487
 20
22.5857629395
 30
0.0
 10
37.1033151913
 20
21.0564551981
 30
0.0
 10
35.9345448217
 20
19.9566416247
 30
0.0
 10
34.9600225875
 20
19.2197431247
 30
0.0
 10
34.4648961129
 20
18.90175872
 30
0.0
 10
34.2166516047
 20
18.7570858049
 30
0.0
  0
SPLINE
  5
2BC
100
AcDbEntity
  8
0
100
AcDbSpline
 62
7
  6
CONTINUOUS
 70
0
 71
3
 72
11
 73
7
 74
0
 42
0.0000001
 43
0.0000001
 44
0.0000000001
 40
0.0
 40
0.0
 40
0.0
 40
0.0
 40
0.2856350079
 40
0.5440812038
 40
0.7788377988
 40
1.0
 40
1.0
 40
1.0
 40
1.0
 10
42.0165326805
 20
18.2009149146
 30
0.0
 10
42.0165326805
 20
18.1512781659
 30
0.0
 10
42.0087918273
 20
18.0564168161
 30
0.0
 10
41.9701394457
 20
17.9254850527
 30
0.0
 10
41.9050741075
 20
17.8178912748
 30
0.0
 10
41.8442323465
 20
17.7646971763
 30
0.0
 10
41.8115517018
 20
17.7444719244
 30
0.0
  0
SPLINE
  5
2BD
100
AcDbEntity
  8
0
100
AcDbSpline
 62
7
  6
CONTINUOUS
 70
0
 71
3
 72
15
 73
11
 74
0
 42
0.0000001
 43
0.0000001
 44
0.0000000001
 40
0.0
 40
0.0
 40
0.0
 40
0.0
 40
0.114155658
 40
0.2373279333
 40
0.3669777387
 40
0.5000016213
 40
0.633025278
 40
0.7626744253
 40
0.8858456604
 40
1.0
 40
1.0
 40
1.0
 40
1.0
 10
9.9279347009
 20
40.4965531174
 30
0.0
 10
9.9279347009
 20
40.8319296788
 30
0.0
 10
9.9893631888
 20
41.5298238485
 30
0.0
 10
10.23424646
 20
42.5826734924
 30
0.0
 10
10.626535328
 20
43.6491264832
 30
0.0
 10
11.1515691809
 20
44.6890807633
 30
0.0
 10
11.789673272
 20
45.6637520627
 30
0.0
 10
12.517097037
 20
46.5367093647
 30
0.0
 10
13.3064416569
 20
47.2752052915
 30
0.0
 10
13.8801160231
 20
47.6773469501
 30
0.0
 10
14.1705577242
 20
47.8450325434
 30
0.0
  0
SPLINE
  5
2BE
100
AcDbEntity
  8
0
100
AcDbSpline
 62
7
  6
CONTINUOUS
 70
0
 71
3
 72
13
 73
9
 74
0
 42
0.0000001
 43
0.0000001
 44
0.0000000001
 40
0.0
 40
0.0
 40
0.0
 40
0.0
 40
0.1155082238
 40
0.2396704005
 40
0.5021474023
 40
0.7634550981
 40
0.8862440106
 40
1.0
 40
1.0
 40
1.0
 40
1.0
 10
34.6757279682
 20
58.89563416
 30
0.0
 10
34.6269421796
 20
58.9218992404
 30
0.0
 10
34.5210729087
 20
58.9679945772
 30
0.0
 10
34.2888575846
 20
59.0339559027
 30
0.0
 10
33.9767236513
 20
59.0640049298
 30
0.0
 10
33.6658234146
 20
59.0279061606
 30
0.0
 10
33.4371439408
 20
58.9571956755
 30
0.0
 10
33.3338787475
 20
58.9089150524
 30
0.0
 10
33.286622928
 20
58.8816320551
 30
0.0
  0
SPLINE
  5
2BF
100
AcDbEntity
  8
0
100
AcDbSpline
 62
7
  6
CONTINUOUS
 70
0
 71
3
 72
13
 73
9
 74
0
 42
0.0000001
 43
0.0000001
 44
0.0000000001
 40
0.0
 40
0.0
 40
0.0
 40
0.0
 40
0.1155086016
 40
0.2396726631
 40
0.5021746364
 40
0.7634834012
 40
0.886254122
 40
1.0
 40
1.0
 40
1.0
 40
1.0
 10
41.2851761394
 20
55.3372682353
 30
0.0
 10
41.3350482384
 20
55.3104183118
 30
0.0
 10
41.4337107663
 20
55.2455031927
 30
0.0
 10
41.6186963114
 20
55.0820454552
 30
0.0
 10
41.8143771274
 20
54.8276975153
 30
0.0
 10
41.9484787518
 20
54.5368105191
 30
0.0
 10
42.005907501
 20
54.2988957246
 30
0.0
 10
42.0165326805
 20
54.1827973898
 30
0.0
 10
42.0165326805
 20
54.1270212684
 30
0.0
  0
SPLINE
  5
2C0
100
AcDbEntity
  8
00_COMPONENTS_2
100
AcDbSpline
 62
7
  6
CONTINUOUS
 70
0
 71
3
 72
20
 73
16
 74
0
 42
0.0000001
 43
0.0000001
 44
0.0000000001
 40
0.0
 40
0.0
 40
0.0
 40
0.0
 40
0.0827736006
 40
0.1730409069
 40
0.2678043815
 40
0.3634948851
 40
0.4564325458
 40
0.543273101
 40
0.6214997057
 40
0.690038041
 40
0.7500490978
 40
0.8055647991
 40
0.8626478527
 40
0.9266036405
 40
1.0
 40
1.0
 40
1.0
 40
1.0
 10
31.2825424175
 20
31.5966773256
 30
0.0
 10
31.0901428613
 20
31.485596053
 30
0.0
 10
30.712777229
 20
31.2093137475
 30
0.0
 10
30.2093465736
 20
30.6927054094
 30
0.0
 10
29.7657775168
 20
30.0804943111
 30
0.0
 10
29.407127894
 20
29.4070279366
 30
0.0
 10
29.1533078322
 20
28.7098122593
 30
0.0
 10
29.0184759775
 20
28.0273477013
 30
0.0
 10
29.0105928985
 20
27.3960779532
 30
0.0
 10
29.1327634211
 20
26.8481039076
 30
0.0
 10
29.3878379161
 20
26.4125072637
 30
0.0
 10
29.7725691357
 20
26.1293036003
 30
0.0
 10
30.2499321668
 20
26.0330642897
 30
0.0
 10
30.7731011799
 20
26.1179461818
 30
0.0
 10
31.1119393884
 20
26.2725647391
 30
0.0
 10
31.2825424175
 20
26.371061856
 30
0.0
  0
SPLINE
  5
2C1
100
AcDbEntity
  8
00_COMPONENTS_2
100
AcDbSpline
 62
7
  6
CONTINUOUS
 70
0
 71
3
 72
20
 73
16
 74
0
 42
0.0000001
 43
0.0000001
 44
0.0000000001
 40
0.0
 40
0.0
 40
0.0
 40
0.0
 40
0.0733963595
 40
0.1373521473
 40
0.1944352009
 40
0.2499509022
 40
0.309961959
 40
0.3785002943
 40
0.456726899
 40
0.5435674542
 40
0.6365051149
 40
0.7321956185
 40
0.8269590931
 40
0.9172263994
 40
1.0
 40
1.0
 40
1.0
 40
1.0
 10
19.9687868152
 20
32.9029139283
 30
0.0
 10
19.7981837861
 20
32.8044168114
 30
0.0
 10
19.4593455776
 20
32.6497982542
 30
0.0
 10
18.9361765645
 20
32.564916362
 30
0.0
 10
18.4588135333
 20
32.6611556726
 30
0.0
 10
18.0740823138
 20
32.944359336
 30
0.0
 10
17.8190078187
 20
33.37995598
 30
0.0
 10
17.6968372962
 20
33.9279300255
 30
0.0
 10
17.7047203751
 20
34.5591997736
 30
0.0
 10
17.8395522298
 20
35.2416643316
 30
0.0
 10
18.0933722917
 20
35.9388800089
 30
0.0
 10
18.4520219144
 20
36.6123463834
 30
0.0
 10
18.8955909713
 20
37.2245574817
 30
0.0
 10
19.3990216266
 20
37.7411658198
 30
0.0
 10
19.7763872589
 20
38.0174481254
 30
0.0
 10
19.9687868152
 20
38.1285293979
 30
0.0
  0
SPLINE
  5
2C2
100
AcDbEntity
  8
00_COMPONENTS_2
100
AcDbSpline
 62
7
  6
CONTINUOUS
 70
0
 71
3
 72
20
 73
16
 74
0
 42
0.0000001
 43
0.0000001
 44
0.0000000001
 40
0.0
 40
0.0
 40
0.0
 40
0.0
 40
0.0827736006
 40
0.1730409069
 40
0.2678043815
 40
0.3634948851
 40
0.4564325458
 40
0.543273101
 40
0.6214997057
 40
0.690038041
 40
0.7500490978
 40
0.8055647991
 40
0.8626478527
 40
0.9266036405
 40
1.0
 40
1.0
 40
1.0
 40
1.0
 10
31.2825424175
 20
26.371061856
 30
0.0
 10
31.4749419738
 20
26.4821431285
 30
0.0
 10
31.8523076061
 20
26.758425434
 30
0.0
 10
32.3557382615
 20
27.2750337721
 30
0.0
 10
32.7993073183
 20
27.8872448704
 30
0.0
 10
33.1579569411
 20
28.560711245
 30
0.0
 10
33.4117770029
 20
29.2579269222
 30
0.0
 10
33.5466088576
 20
29.9403914802
 30
0.0
 10
33.5544919366
 20
30.5716612283
 30
0.0
 10
33.432321414
 20
31.1196352739
 30
0.0
 10
33.177246919
 20
31.5552319178
 30
0.0
 10
32.7925156994
 20
31.8384355812
 30
0.0
 10
32.3151526682
 20
31.9346748918
 30
0.0
 10
31.7919836552
 20
31.8497929997
 30
0.0
 10
31.4531454467
 20
31.6951744424
 30
0.0
 10
31.2825424175
 20
31.5966773256
 30
0.0
  0
SPLINE
  5
2C3
100
AcDbEntity
  8
00_COMPONENTS_2
100
AcDbSpline
 62
7
  6
CONTINUOUS
 70
0
 71
3
 72
20
 73
16
 74
0
 42
0.0000001
 43
0.0000001
 44
0.0000000001
 40
0.0
 40
0.0
 40
0.0
 40
0.0
 40
0.0733963595
 40
0.1373521473
 40
0.1944352009
 40
0.2499509022
 40
0.309961959
 40
0.3785002943
 40
0.456726899
 40
0.5435674542
 40
0.6365051149
 40
0.7321956185
 40
0.8269590931
 40
0.9172263994
 40
1.0
 40
1.0
 40
1.0
 40
1.0
 10
19.9687868152
 20
38.1285293979
 30
0.0
 10
20.1393898443
 20
38.2270265147
 30
0.0
 10
20.4782280528
 20
38.381645072
 30
0.0
 10
21.0013970659
 20
38.4665269642
 30
0.0
 10
21.4787600971
 20
38.3702876536
 30
0.0
 10
21.8634913166
 20
38.0870839902
 30
0.0
 10
22.1185658117
 20
37.6514873462
 30
0.0
 10
22.2407363342
 20
37.1035133007
 30
0.0
 10
22.2328532553
 20
36.4722435525
 30
0.0
 10
22.0980214006
 20
35.7897789945
 30
0.0
 10
21.8442013387
 20
35.0925633173
 30
0.0
 10
21.485551716
 20
34.4190969427
 30
0.0
 10
21.0419826591
 20
33.8068858445
 30
0.0
 10
20.5385520037
 20
33.2902775064
 30
0.0
 10
20.1611863715
 20
33.0139952008
 30
0.0
 10
19.9687868152
 20
32.9029139283
 30
0.0
  0
ELLIPSE
  5
2C4
100
AcDbEntity
  8
0
100
AcDbEllipse
 62
7
  6
CONTINUOUS
 10
55.0302256528
 20
52.4796614877
 30
0.0
 11
5.3753575466
 21
2.2696476713
 31
0.0
 40
0.5129751435
 41
-0.9986937032
 42
-0.2132999737
  0
ELLIPSE
  5
2C5
100
AcDbEntity
  8
0
100
AcDbEllipse
 62
7
  6
CONTINUOUS
 10
55.0302256528
 20
67.1767049961
 30
0.0
 11
5.3753575466
 21
2.2696476713
 31
0.0
 40
0.5129751435
 41
-0.9986937032
 42
-0.2132997032
  0
ELLIPSE
  5
2C6
100
AcDbEntity
  8
0
100
AcDbEllipse
 62
7
  6
CONTINUOUS
 10
55.0302256528
 20
67.0637199076
 30
0.0
 11
5.3753593164
 21
-2.2696405987
 31
0.0
 40
0.5129731419
 41
-0.5720958169
 42
0.7046612225
  0
ELLIPSE
  5
2C7
100
AcDbEntity
  8
0
100
AcDbEllipse
 62
7
  6
CONTINUOUS
 10
55.0302256528
 20
52.3666763993
 30
0.0
 11
5.3753593164
 21
-2.2696405987
 31
0.0
 40
0.5129731419
 41
-0.5720958169
 42
0.7052679631
  0
ENDSEC
  0
SECTION
  2
OBJECTS
  0
DICTIONARY
  5
C
100
AcDbDictionary
280
0
281
1
  3
ACAD_GROUP
350
D
  3
ACAD_MLINESTYLE
350
17
  3
ACAD_LAYOUT
350
1A
  3
ACAD_PLOTSETTINGS
350
19
  3
ACAD_PLOTSTYLENAME
350
E
  0
DICTIONARY
  5
D
102
{ACAD_REACTORS
330
C
102
}
100
AcDbDictionary
280
0
281
1
  0
ACDBDICTIONARYWDFLT
  5
E
102
{ACAD_REACTORS
330
C
102
}
100
AcDbDictionary
281
1
  3
Normal
350
F
100
AcDbDictionaryWithDefault
340
F
  0
DICTIONARY
  5
17
102
{ACAD_REACTORS
330
C
102
}
100
AcDbDictionary
280
0
281
1
  3
Standard
350
18
  0
DICTIONARY
  5
19
102
{ACAD_REACTORS
330
C
102
}
100
AcDbDictionary
281
1
  0
DICTIONARY
  5
1A
102
{ACAD_REACTORS
330
C
102
}
100
AcDbDictionary
281
1
  3
Model
350
2C8
  3
Layout1
350
2C9
  0
ACDBPLACEHOLDER
  5
F
102
{ACAD_REACTORS
330
E
102
}
  0
MLINESTYLE
  5
18
102
{ACAD_REACTORS
330
17
102
}
100
AcDbMlineStyle
  2
STANDARD
 70
0
  3

 62
256
 51
90.0
 52
90.0
 71
2
 49
0.5
 62
256
  6
BYLAYER
 49
-0.5
 62
256
  6
BYLAYER
  0
LAYOUT
  5
2C8
102
{ACAD_REACTORS
330
1A
102
}
100
AcDbPlotSettings
  1

  2
none_device
  4

  6

 40
0.0
 41
0.0
 42
0.0
 43
0.0
 44
210.0
 45
297.0
 46
0.0
 47
0.0
 48
0.0
 49
0.0
140
0.0
141
0.0
142
1.0
143
1.0
 70
1024
 72
1
 73
0
 74
0
  7

 75
0
147
1.0
148
0.0
149
0.0
100
AcDbLayout
  1
Model
 70
0
 71
0
 10
0.0
 20
0.0
 11
210.0
 21
297.0
 12
0.0
 22
0.0
 32
0.0
 14
0.0
 24
0.0
 34
0.0
 15
0.0
 25
0.0
 35
0.0
146
0.0
 13
0.0
 23
0.0
 33
0.0
 16
1.0
 26
0.0
 36
0.0
 17
0.0
 27
1.0
 37
0.0
 76
0
330
21D
345
0
346
0
  0
LAYOUT
  5
2C9
102
{ACAD_REACTORS
330
1A
102
}
100
AcDbPlotSettings
  1

  2
none_device
  4

  6

 40
0.0
 41
0.0
 42
0.0
 43
0.0
 44
210.0
 45
297.0
 46
0.0
 47
0.0
 48
0.0
 49
0.0
140
0.0
141
0.0
142
1.0
143
1.0
 70
0
 72
1
 73
0
 74
0
  7

 75
0
147
1.0
148
0.0
149
0.0
100
AcDbLayout
  1
Layout1
 70
0
 71
1
 10
0.0
 20
0.0
 11
210.0
 21
297.0
 12
0.0
 22
0.0
 32
0.0
 14
0.0
 24
0.0
 34
0.0
 15
0.0
 25
0.0
 35
0.0
146
0.0
 13
0.0
 23
0.0
 33
0.0
 16
1.0
 26
0.0
 36
0.0
 17
0.0
 27
1.0
 37
0.0
 76
0
330
21E
345
0
346
0
  0
ENDSEC
  0
EOF
