999
DXF file: C:\Users\sesa63760\Dev\_Creo\CAD\MCADPP0003178_3D-CAD\drw0001_7.dxf
999
Pro/ENGINEER 2019471 by Parametric Technology Corporation
  0
SECTION
  2
HEADER
  9
$ACADVER
  1
AC1024
  9
$DWGCODEPAGE
  3
ANSI_1252
  9
$EXTMAX
 10
521.34123461
 20
737.325460377
 30
0.0
  9
$EXTMIN
 10
0.0
 20
0.0
 30
0.0
  9
$LIMMIN
 10
0.0
 20
0.0
  9
$LIMMAX
 10
521.34123461
 20
737.325460377
  9
$VIEWCTR
 10
260.670617305
 20
368.6627301885
  9
$VIEWSIZE
 40
737.325460377
  9
$CLAYER
  8
0
  9
$LTSCALE
 40
48.0626966764
  9
$CELTYPE
  6
BYLAYER
  9
$DIMSCALE
 40
1.0
  9
$DIMASZ
 40
6.2064432692
  9
$DIMEXO
 40
1.0
  9
$DIMDLI
 40
33.2069540674
  9
$DIMEXE
 40
1.0
  9
$DIMCEN
 40
7.8648049107
  9
$DIMLFAC
 40
1.0
  9
$DIMBLK
  1
_FILLED
  9
$DIMALT
 70
0
  9
$DIMALTF
 40
0.0393700787
  9
$DIMTXT
 40
8.6890205768
  9
$DIMTOL
 70
1
  9
$DIMLIM
 70
0
  9
$DIMTFAC
 40
1.0
  9
$DIMTP
 40
0.01
  9
$DIMTM
 40
0.01
  9
$DIMGAP
 40
0.625
  9
$DIMDSEP
 70
46
  9
$AUNITS
 70
0
  9
$PDMODE
 70
3
  9
$PDSIZE
 40
0.3125
  9
$HANDSEED
  5
561
  9
$TILEMODE
 70
1
  9
$MEASUREMENT
 70
1
  9
$INSUNITS
 70
4
  0
ENDSEC
  0
SECTION
  2
CLASSES
  0
CLASS
  1
ACDBDICTIONARYWDFLT
  2
AcDbDictionaryWithDefault
  3
AutoCAD 2000
 90
0
 91
1
280
0
281
0
  0
CLASS
  1
ACDBPLACEHOLDER
  2
AcDbPlaceHolder
  3
AutoCAD 2000
 90
0
 91
1
280
0
281
0
  0
CLASS
  1
LAYOUT
  2
AcDbLayout
  3
AutoCAD 2000
 90
0
 91
0
280
0
281
0
  0
ENDSEC
  0
SECTION
  2
TABLES
  0
TABLE
  2
VPORT
  5
8
100
AcDbSymbolTable
 70
2
  0
VPORT
  5
1F4
100
AcDbSymbolTableRecord
100
AcDbViewportTableRecord
  2
*ACTIVE
 70
0
 10
0.0
 20
0.0
 11
1.0
 21
1.0
 12
260.670617305
 22
368.6627301885
 13
0.0
 23
0.0
 14
1.0
 24
1.0
 15
0.0
 25
0.0
 16
0.0
 26
0.0
 36
1.0
 17
0.0
 27
0.0
 37
0.0
 40
737.325460377
 41
0.7070707071
 42
50.0
 43
0.0
 44
0.0
 50
0.0
 51
0.0
 71
0
 72
100
 73
1
 74
1
 75
0
 76
0
 77
0
 78
0
  0
ENDTAB
  0
TABLE
  2
LTYPE
  5
5
100
AcDbSymbolTable
 70
6
  0
LTYPE
  5
14
100
AcDbSymbolTableRecord
100
AcDbLinetypeTableRecord
  2
BYBLOCK
 70
0
  3

 72
65
 73
0
 40
0.0
  0
LTYPE
  5
15
100
AcDbSymbolTableRecord
100
AcDbLinetypeTableRecord
  2
BYLAYER
 70
0
  3

 72
65
 73
0
 40
0.0
  0
LTYPE
  5
16
100
AcDbSymbolTableRecord
100
AcDbLinetypeTableRecord
  2
CONTINUOUS
 70
64
  3
Solid line
 72
65
 73
0
 40
0.0
  0
LTYPE
  5
1F5
100
AcDbSymbolTableRecord
100
AcDbLinetypeTableRecord
  2
CENTER
 70
64
  3
____ _ ____ _ ____ _ ____ _ ____ _ ____ _ ____
 72
65
 73
4
 40
0.6
 49
0.375
 74
0
 49
-0.075
 74
0
 49
0.075
 74
0
 49
-0.075
 74
0
  0
LTYPE
  5
1F6
100
AcDbSymbolTableRecord
100
AcDbLinetypeTableRecord
  2
HIDDEN
 70
64
  3
- - - - - - - - - - - - - - - - - - - -
 72
65
 73
2
 40
0.2
 49
0.1
 74
0
 49
-0.1
 74
0
  0
LTYPE
  5
1F7
100
AcDbSymbolTableRecord
100
AcDbLinetypeTableRecord
  2
PHANTOM
 70
64
  3
_____ _ _ _____ _ _ _____ _ _ _____
 72
65
 73
6
 40
0.8
 49
0.45
 74
0
 49
-0.05
 74
0
 49
0.1
 74
0
 49
-0.05
 74
0
 49
0.1
 74
0
 49
-0.05
 74
0
  0
LTYPE
  5
1F8
100
AcDbSymbolTableRecord
100
AcDbLinetypeTableRecord
  2
DOT
 70
64
  3
. . . . . . . . . . . . . . . . . . . .
 72
65
 73
2
 40
0.2
 49
0.1
 74
0
 49
-0.1
 74
0
  0
LTYPE
  5
1F9
100
AcDbSymbolTableRecord
100
AcDbLinetypeTableRecord
  2
DASHED
 70
64
  3
- - - - - - - - - - - - - - - - - - - -
 72
65
 73
2
 40
0.2
 49
0.1
 74
0
 49
-0.1
 74
0
  0
ENDTAB
  0
TABLE
  2
LAYER
  5
2
100
AcDbSymbolTable
 70
36
  0
LAYER
  5
10
100
AcDbSymbolTableRecord
100
AcDbLayerTableRecord
  2
0
 70
0
 62
7
  6
CONTINUOUS
370
-3
390
F
  0
LAYER
  5
1FA
100
AcDbSymbolTableRecord
100
AcDbLayerTableRecord
  2
DEFAULT_1
 70
0
 62
7
  6
CENTER
370
-3
390
F
  0
LAYER
  5
1FB
100
AcDbSymbolTableRecord
100
AcDbLayerTableRecord
  2
DEFAULT_2
 70
0
 62
8
  6
HIDDEN
370
-3
390
F
  0
LAYER
  5
1FC
100
AcDbSymbolTableRecord
100
AcDbLayerTableRecord
  2
DEFAULT_3
 70
0
 62
7
  6
PHANTOM
370
-3
390
F
  0
LAYER
  5
1FD
100
AcDbSymbolTableRecord
100
AcDbLayerTableRecord
  2
00_COMPONENTS
 70
0
 62
7
  6
CONTINUOUS
370
-3
390
F
  0
LAYER
  5
1FE
100
AcDbSymbolTableRecord
100
AcDbLayerTableRecord
  2
01_1_DEFAULT_DATUMS
 70
0
 62
7
  6
CONTINUOUS
370
-3
390
F
  0
LAYER
  5
1FF
100
AcDbSymbolTableRecord
100
AcDbLayerTableRecord
  2
01_PLANES
 70
0
 62
7
  6
CONTINUOUS
370
-3
390
F
  0
LAYER
  5
200
100
AcDbSymbolTableRecord
100
AcDbLayerTableRecord
  2
02_COORD_SYS
 70
0
 62
7
  6
CONTINUOUS
370
-3
390
F
  0
LAYER
  5
201
100
AcDbSymbolTableRecord
100
AcDbLayerTableRecord
  2
03_AXES
 70
0
 62
7
  6
CONTINUOUS
370
-3
390
F
  0
LAYER
  5
202
100
AcDbSymbolTableRecord
100
AcDbLayerTableRecord
  2
04_POINTS
 70
0
 62
7
  6
CONTINUOUS
370
-3
390
F
  0
LAYER
  5
203
100
AcDbSymbolTableRecord
100
AcDbLayerTableRecord
  2
05_CURVES
 70
0
 62
7
  6
CONTINUOUS
370
-3
390
F
  0
LAYER
  5
204
100
AcDbSymbolTableRecord
100
AcDbLayerTableRecord
  2
06_SURFS
 70
0
 62
7
  6
CONTINUOUS
370
-3
390
F
  0
LAYER
  5
205
100
AcDbSymbolTableRecord
100
AcDbLayerTableRecord
  2
07_COSMETICS
 70
0
 62
7
  6
CONTINUOUS
370
-3
390
F
  0
LAYER
  5
206
100
AcDbSymbolTableRecord
100
AcDbLayerTableRecord
  2
10_NOTES
 70
0
 62
7
  6
CONTINUOUS
370
-3
390
F
  0
LAYER
  5
207
100
AcDbSymbolTableRecord
100
AcDbLayerTableRecord
  2
11_NOTES_PUB
 70
0
 62
7
  6
CONTINUOUS
370
-3
390
F
  0
LAYER
  5
208
100
AcDbSymbolTableRecord
100
AcDbLayerTableRecord
  2
13_REF_GTOL
 70
0
 62
7
  6
CONTINUOUS
370
-3
390
F
  0
LAYER
  5
209
100
AcDbSymbolTableRecord
100
AcDbLayerTableRecord
  2
16_MISC
 70
0
 62
7
  6
CONTINUOUS
370
-3
390
F
  0
LAYER
  5
20A
100
AcDbSymbolTableRecord
100
AcDbLayerTableRecord
  2
17_NO_PRINT
 70
0
 62
7
  6
CONTINUOUS
370
-3
390
F
  0
LAYER
  5
20B
100
AcDbSymbolTableRecord
100
AcDbLayerTableRecord
  2
18_DATUM_CAMS_JOINTS
 70
0
 62
7
  6
CONTINUOUS
370
-3
390
F
  0
LAYER
  5
20C
100
AcDbSymbolTableRecord
100
AcDbLayerTableRecord
  2
19_DATUM_FUNCTIONAL
 70
0
 62
7
  6
CONTINUOUS
370
-3
390
F
  0
LAYER
  5
20D
100
AcDbSymbolTableRecord
100
AcDbLayerTableRecord
  2
20_DATUM_KINEMATIC_SCHEME
 70
0
 62
7
  6
CONTINUOUS
370
-3
390
F
  0
ENDTAB
  0
TABLE
  2
STYLE
  5
3
100
AcDbSymbolTable
 70
1
  0
STYLE
  5
11
100
AcDbSymbolTableRecord
100
AcDbTextStyleTableRecord
  2
STANDARD
 70
0
 40
0.0
 41
0.8
 50
0.0
 71
0
 42
0.2
  3
txt
  4

  0
STYLE
  5
20E
100
AcDbSymbolTableRecord
100
AcDbTextStyleTableRecord
  2
TEXTSTYLE_1
 70
0
 40
0.0
 41
0.8
 50
0.0
 71
0
 42
0.2
  3
gdt
  4

  0
ENDTAB
  0
TABLE
  2
VIEW
  5
6
100
AcDbSymbolTable
 70
0
  0
ENDTAB
  0
TABLE
  2
UCS
  5
7
100
AcDbSymbolTable
 70
0
  0
ENDTAB
  0
TABLE
  2
APPID
  5
9
100
AcDbSymbolTable
 70
1
  0
APPID
  5
20F
100
AcDbSymbolTableRecord
100
AcDbRegAppTableRecord
  2
ACAD
 70
0
  0
ENDTAB
  0
TABLE
  2
BLOCK_RECORD
  5
1
100
AcDbSymbolTable
 70
0
  0
BLOCK_RECORD
  5
210
100
AcDbSymbolTableRecord
100
AcDbBlockTableRecord
  2
*Model_Space
  0
BLOCK_RECORD
  5
211
100
AcDbSymbolTableRecord
100
AcDbBlockTableRecord
  2
*Paper_Space
  0
BLOCK_RECORD
  5
212
100
AcDbSymbolTableRecord
100
AcDbBlockTableRecord
  2
_FILLED
  0
ENDTAB
  0
TABLE
  2
DIMSTYLE
  5
A
100
AcDbSymbolTable
 70
1
100
AcDbDimStyleTable
 71
0
  0
DIMSTYLE
105
213
100
AcDbSymbolTableRecord
100
AcDbDimStyleTableRecord
  2
STANDARD
 70
0
  3

  4

 40
1.0
 41
6.2064432692
 42
1.0
 43
0.38
 44
1.0
 45
0.0
 46
0.0
 47
0.01
 48
0.01
140
8.6890205768
141
0.09
142
0.0
143
25.4
144
1.0
145
0.0
146
1.0
147
0.625
 71
1
 72
0
 73
0
 74
0
 75
0
 76
0
 77
1
 78
8
 79
2
170
0
171
1
172
0
173
0
174
0
175
0
176
0
177
0
178
0
270
2
179
2
271
2
272
2
273
2
274
2
275
0
280
0
281
0
282
0
283
1
284
8
285
0
286
0
287
3
288
0
340
11
278
46
341
212
342
212
343
212
344
212
  0
ENDTAB
  0
ENDSEC
  0
SECTION
  2
BLOCKS
  0
BLOCK
  5
20
100
AcDbEntity
  8
0
100
AcDbBlockBegin
  2
*Model_Space
 70
0
 10
0.0
 20
0.0
 30
0.0
  3
*Model_Space
  1

  0
ENDBLK
  5
21
100
AcDbEntity
  8
0
100
AcDbBlockEnd
  0
BLOCK
  5
1C
100
AcDbEntity
  8
0
100
AcDbBlockBegin
  2
*Paper_Space
 70
0
 10
0.0
 20
0.0
 30
0.0
  3
*Paper_Space
  1

  0
ENDBLK
  5
1D
100
AcDbEntity
  8
0
100
AcDbBlockEnd
  0
BLOCK
  5
214
100
AcDbEntity
  8
0
100
AcDbBlockBegin
  2
_FILLED
 70
64
 10
0.0
 20
0.0
  3
_FILLED
  1

  0
SOLID
  5
215
100
AcDbEntity
  8
0
  6
BYBLOCK
 62
0
100
AcDbTrace
 10
0.0
 20
0.0
 11
-1.0
 21
0.25
 12
-1.0
 22
-0.25
 13
-1.0
 23
-0.25
  0
ENDBLK
  5
216
100
AcDbEntity
  8
0
  6
BYBLOCK
 62
0
100
AcDbBlockEnd
  0
ENDSEC
  0
SECTION
  2
ENTITIES
  0
LINE
  5
217
100
AcDbEntity
  8
0
100
AcDbLine
 62
7
  6
CONTINUOUS
 10
66.1601594857
 20
477.4105001379
 11
66.1936067791
 21
477.4687525411
  0
LINE
  5
218
100
AcDbEntity
  8
0
100
AcDbLine
 62
7
  6
CONTINUOUS
 10
55.4758268376
 20
474.2868724542
 11
56.2346925209
 21
475.0478252895
  0
LINE
  5
219
100
AcDbEntity
  8
0
100
AcDbLine
 62
7
  6
CONTINUOUS
 10
70.1699211794
 20
466.3438768138
 11
70.136473886
 21
466.2856244106
  0
LINE
  5
21A
100
AcDbEntity
  8
0
100
AcDbLine
 62
7
  6
CONTINUOUS
 10
69.9057224858
 20
468.6793685263
 11
69.9054001953
 21
468.6881366636
  0
LINE
  5
21B
100
AcDbEntity
  8
0
100
AcDbLine
 62
7
  6
CONTINUOUS
 10
69.9077389855
 20
468.7064847408
 11
69.9074246048
 21
468.7152477319
  0
LINE
  5
21C
100
AcDbEntity
  8
0
100
AcDbLine
 62
7
  6
CONTINUOUS
 10
56.2434009466
 20
475.0521884759
 11
56.2346925209
 21
475.0478252895
  0
LINE
  5
21D
100
AcDbEntity
  8
0
100
AcDbLine
 62
7
  6
CONTINUOUS
 10
78.8915886807
 20
441.9051884759
 11
78.8915886807
 21
478.6081884759
  0
LINE
  5
21E
100
AcDbEntity
  8
0
100
AcDbLine
 62
7
  6
CONTINUOUS
 10
70.1364069667
 20
466.2856247092
 11
70.1279538262
 21
466.3289101872
  0
LINE
  5
21F
100
AcDbEntity
  8
0
100
AcDbLine
 62
7
  6
CONTINUOUS
 10
132.2079086231
 20
459.5091084183
 11
132.7395886807
 21
460.0407884759
  0
LINE
  5
220
100
AcDbEntity
  8
0
100
AcDbLine
 62
7
  6
CONTINUOUS
 10
70.1699211518
 20
466.3438825785
 11
70.1279538262
 21
466.3289101872
  0
LINE
  5
221
100
AcDbEntity
  8
0
100
AcDbLine
 62
7
  6
CONTINUOUS
 10
70.1534908247
 20
475.4280865806
 11
70.1266316894
 21
475.4185140795
  0
LINE
  5
222
100
AcDbEntity
  8
0
100
AcDbLine
 62
7
  6
CONTINUOUS
 10
109.1175886807
 20
285.9745884759
 11
109.1175886807
 21
370.5057884759
  0
LINE
  5
223
100
AcDbEntity
  8
0
100
AcDbLine
 62
7
  6
CONTINUOUS
 10
111.3549978726
 20
467.3066778287
 11
111.3549978726
 21
467.6861884759
  0
LINE
  5
224
100
AcDbEntity
  8
0
100
AcDbLine
 62
7
  6
CONTINUOUS
 10
113.6895886807
 20
468.7021884759
 11
113.6895886807
 21
467.6861884759
  0
LINE
  5
225
100
AcDbEntity
  8
0
100
AcDbLine
 62
7
  6
CONTINUOUS
 10
115.9755886807
 20
461.9625578442
 11
115.9755886807
 21
461.7044884759
  0
LINE
  5
226
100
AcDbEntity
  8
0
100
AcDbLine
 62
7
  6
CONTINUOUS
 10
120.4050450308
 20
392.8831884759
 11
120.4050450308
 21
389.6827884759
  0
LINE
  5
227
100
AcDbEntity
  8
0
100
AcDbLine
 62
7
  6
CONTINUOUS
 10
120.4050450308
 20
263.5971884759
 11
120.4050450308
 21
266.7975884759
  0
LINE
  5
228
100
AcDbEntity
  8
0
100
AcDbLine
 62
7
  6
CONTINUOUS
 10
128.7613892106
 20
392.8831884759
 11
128.7613892106
 21
389.6827884759
  0
LINE
  5
229
100
AcDbEntity
  8
0
100
AcDbLine
 62
7
  6
CONTINUOUS
 10
128.7613892106
 20
266.7975884759
 11
128.7613892106
 21
263.5971884759
  0
LINE
  5
22A
100
AcDbEntity
  8
0
100
AcDbLine
 62
7
  6
CONTINUOUS
 10
129.6169350703
 20
383.7391884759
 11
129.6169350703
 21
386.3807884759
  0
LINE
  5
22B
100
AcDbEntity
  8
0
100
AcDbLine
 62
7
  6
CONTINUOUS
 10
132.7395886807
 20
460.6436249538
 11
132.7395886807
 21
460.0407884759
  0
LINE
  5
22C
100
AcDbEntity
  8
0
100
AcDbLine
 62
7
  6
CONTINUOUS
 10
134.2470302863
 20
461.7044884759
 11
134.2470302863
 21
462.1314616751
  0
LINE
  5
22D
100
AcDbEntity
  8
0
100
AcDbLine
 62
7
  6
CONTINUOUS
 10
134.3921350703
 20
386.3807884759
 11
134.3921350703
 21
383.7391884759
  0
LINE
  5
22E
100
AcDbEntity
  8
0
100
AcDbLine
 62
7
  6
CONTINUOUS
 10
134.508921634
 20
462.2494906612
 11
134.508921634
 21
461.7044884759
  0
LINE
  5
22F
100
AcDbEntity
  8
0
100
AcDbLine
 62
7
  6
CONTINUOUS
 10
136.3495756039
 20
383.7391884759
 11
136.3495756039
 21
386.3807884759
  0
LINE
  5
230
100
AcDbEntity
  8
0
100
AcDbLine
 62
7
  6
CONTINUOUS
 10
134.5739942952
 20
408.0018744651
 11
134.802550827
 21
408.4039007869
  0
LINE
  5
231
100
AcDbEntity
  8
0
100
AcDbLine
 62
7
  6
CONTINUOUS
 10
134.8024282491
 20
408.4039138869
 11
135.1417522037
 21
408.9255933422
  0
LINE
  5
232
100
AcDbEntity
  8
0
100
AcDbLine
 62
7
  6
CONTINUOUS
 10
159.6127886807
 20
456.7895884759
 11
160.0699886807
 21
457.2467884759
  0
LINE
  5
233
100
AcDbEntity
  8
0
100
AcDbLine
 62
7
  6
CONTINUOUS
 10
140.8367958067
 20
386.3807884759
 11
140.8367958067
 21
383.7391884759
  0
LINE
  5
234
100
AcDbEntity
  8
0
100
AcDbLine
 62
7
  6
CONTINUOUS
 10
140.8675886807
 20
270.0995884759
 11
140.8675886807
 21
279.6245884759
  0
LINE
  5
235
100
AcDbEntity
  8
0
100
AcDbLine
 62
7
  6
CONTINUOUS
 10
140.8675886807
 20
376.8557884759
 11
140.8675886807
 21
383.7391884759
  0
LINE
  5
236
100
AcDbEntity
  8
0
100
AcDbLine
 62
7
  6
CONTINUOUS
 10
141.3536877567
 20
271.5981884759
 11
141.3536877567
 21
384.8821884759
  0
LINE
  5
237
100
AcDbEntity
  8
0
100
AcDbLine
 62
7
  6
CONTINUOUS
 10
147.3699886807
 20
460.3201884759
 11
147.3699886807
 21
459.9391884759
  0
LINE
  5
238
100
AcDbEntity
  8
0
100
AcDbLine
 62
7
  6
CONTINUOUS
 10
147.3699886807
 20
458.7707884759
 11
147.3699886807
 21
457.2467884759
  0
LINE
  5
239
100
AcDbEntity
  8
0
100
AcDbLine
 62
7
  6
CONTINUOUS
 10
148.6907886807
 20
458.8723884759
 11
148.6907886807
 21
458.7707884759
  0
LINE
  5
23A
100
AcDbEntity
  8
0
100
AcDbLine
 62
7
  6
CONTINUOUS
 10
148.8006048689
 20
398.6961206882
 11
148.8006048689
 21
399.3347884759
  0
LINE
  5
23B
100
AcDbEntity
  8
0
100
AcDbLine
 62
7
  6
CONTINUOUS
 10
149.3955504212
 20
399.3347884759
 11
149.3955504212
 21
398.6961206882
  0
LINE
  5
23C
100
AcDbEntity
  8
0
100
AcDbLine
 62
7
  6
CONTINUOUS
 10
153.2877840407
 20
337.7651884759
 11
153.2877840407
 21
318.7151884759
  0
LINE
  5
23D
100
AcDbEntity
  8
0
100
AcDbLine
 62
7
  6
CONTINUOUS
 10
154.3823853074
 20
337.7651884759
 11
154.3823853074
 21
318.7151884759
  0
LINE
  5
23E
100
AcDbEntity
  8
0
100
AcDbLine
 62
7
  6
CONTINUOUS
 10
138.6680803874
 20
397.0177024866
 11
138.4395238556
 21
396.6156761648
  0
LINE
  5
23F
100
AcDbEntity
  8
0
100
AcDbLine
 62
7
  6
CONTINUOUS
 10
138.1003224789
 20
396.0939836095
 11
138.4396464875
 21
396.6156630592
  0
LINE
  5
240
100
AcDbEntity
  8
0
100
AcDbLine
 62
7
  6
CONTINUOUS
 10
123.950965214
 20
404.9135358641
 11
124.7042552177
 21
405.6726139867
  0
LINE
  5
241
100
AcDbEntity
  8
0
100
AcDbLine
 62
7
  6
CONTINUOUS
 10
179.7041977822
 20
261.7175884759
 11
184.3269795791
 21
261.7175884759
  0
LINE
  5
242
100
AcDbEntity
  8
0
100
AcDbLine
 62
7
  6
CONTINUOUS
 10
120.4050766907
 20
263.5971884759
 11
201.1177103112
 21
263.5971884759
  0
LINE
  5
243
100
AcDbEntity
  8
0
100
AcDbLine
 62
7
  6
CONTINUOUS
 10
173.6337401627
 20
301.6804264195
 11
173.4955357125
 21
301.8012179731
  0
LINE
  5
244
100
AcDbEntity
  8
0
100
AcDbLine
 62
7
  6
CONTINUOUS
 10
172.2784782458
 20
305.9121139788
 11
172.2718972843
 21
305.9178972885
  0
LINE
  5
245
100
AcDbEntity
  8
0
100
AcDbLine
 62
7
  6
CONTINUOUS
 10
172.9451916292
 20
305.3641493288
 11
172.4388708046
 21
305.9029646961
  0
LINE
  5
246
100
AcDbEntity
  8
0
100
AcDbLine
 62
7
  6
CONTINUOUS
 10
172.9451916292
 20
300.3162276229
 11
172.8678050819
 21
300.4704363369
  0
LINE
  5
247
100
AcDbEntity
  8
0
100
AcDbLine
 62
7
  6
CONTINUOUS
 10
171.8184832999
 20
299.3362789864
 11
171.8070879904
 21
299.4598708387
  0
LINE
  5
248
100
AcDbEntity
  8
0
100
AcDbLine
 62
7
  6
CONTINUOUS
 10
171.8184832999
 20
350.1362789864
 11
171.8070879904
 21
350.2598708387
  0
LINE
  5
249
100
AcDbEntity
  8
0
100
AcDbLine
 62
7
  6
CONTINUOUS
 10
154.9464351538
 20
398.6961206882
 11
154.9464351538
 21
399.3347884759
  0
LINE
  5
24A
100
AcDbEntity
  8
0
100
AcDbLine
 62
7
  6
CONTINUOUS
 10
156.9457886807
 20
452.4461884759
 11
156.9457886807
 21
459.8121884759
  0
LINE
  5
24B
100
AcDbEntity
  8
0
100
AcDbLine
 62
7
  6
CONTINUOUS
 10
157.1378309818
 20
398.6961206882
 11
157.1378309818
 21
397.2991206882
  0
LINE
  5
24C
100
AcDbEntity
  8
0
100
AcDbLine
 62
7
  6
CONTINUOUS
 10
158.0001676968
 20
462.1536722185
 11
158.0001676968
 21
462.9871884759
  0
LINE
  5
24D
100
AcDbEntity
  8
0
100
AcDbLine
 62
7
  6
CONTINUOUS
 10
159.5254309818
 20
408.0941206882
 11
159.5254309818
 21
406.3034206882
  0
LINE
  5
24E
100
AcDbEntity
  8
0
100
AcDbLine
 62
7
  6
CONTINUOUS
 10
159.6127886807
 20
452.4461884759
 11
159.6127886807
 21
459.8121884759
  0
LINE
  5
24F
100
AcDbEntity
  8
0
100
AcDbLine
 62
7
  6
CONTINUOUS
 10
160.0699886807
 20
460.303666938
 11
160.0699886807
 21
459.9391884759
  0
LINE
  5
250
100
AcDbEntity
  8
0
100
AcDbLine
 62
7
  6
CONTINUOUS
 10
160.0699886807
 20
458.7707884759
 11
160.0699886807
 21
457.2467884759
  0
LINE
  5
251
100
AcDbEntity
  8
0
100
AcDbLine
 62
7
  6
CONTINUOUS
 10
161.5774302863
 20
458.8723884759
 11
161.5774302863
 21
459.9391884759
  0
LINE
  5
252
100
AcDbEntity
  8
0
100
AcDbLine
 62
7
  6
CONTINUOUS
 10
161.839321634
 20
459.9391884759
 11
161.839321634
 21
458.8723884759
  0
LINE
  5
253
100
AcDbEntity
  8
0
100
AcDbLine
 62
7
  6
CONTINUOUS
 10
163.5897423912
 20
462.9871884759
 11
163.5897423912
 21
465.1461884759
  0
LINE
  5
254
100
AcDbEntity
  8
0
100
AcDbLine
 62
7
  6
CONTINUOUS
 10
165.4916299653
 20
355.5248252241
 11
165.4916299653
 21
351.7523092393
  0
LINE
  5
255
100
AcDbEntity
  8
0
100
AcDbLine
 62
7
  6
CONTINUOUS
 10
165.4916299653
 20
340.9401884759
 11
165.4916299653
 21
315.5401884759
  0
LINE
  5
256
100
AcDbEntity
  8
0
100
AcDbLine
 62
7
  6
CONTINUOUS
 10
165.4916299653
 20
304.7248252241
 11
165.4916299653
 21
300.9523092393
  0
LINE
  5
257
100
AcDbEntity
  8
0
100
AcDbLine
 62
7
  6
CONTINUOUS
 10
166.1852065322
 20
356.002758344
 11
166.1852065322
 21
355.4804163078
  0
LINE
  5
258
100
AcDbEntity
  8
0
100
AcDbLine
 62
7
  6
CONTINUOUS
 10
166.1852065322
 20
351.8004134235
 11
166.1852065322
 21
351.2781650174
  0
LINE
  5
259
100
AcDbEntity
  8
0
100
AcDbLine
 62
7
  6
CONTINUOUS
 10
166.1852065322
 20
340.9401884759
 11
166.1852065322
 21
315.5401884759
  0
LINE
  5
25A
100
AcDbEntity
  8
0
100
AcDbLine
 62
7
  6
CONTINUOUS
 10
166.1852065322
 20
305.202758344
 11
166.1852065322
 21
304.6804163078
  0
LINE
  5
25B
100
AcDbEntity
  8
0
100
AcDbLine
 62
7
  6
CONTINUOUS
 10
166.1852065322
 20
301.0004134235
 11
166.1852065322
 21
300.4781650174
  0
LINE
  5
25C
100
AcDbEntity
  8
0
100
AcDbLine
 62
7
  6
CONTINUOUS
 10
166.4199886807
 20
465.1461884759
 11
166.4199886807
 21
462.9871884759
  0
LINE
  5
25D
100
AcDbEntity
  8
0
100
AcDbLine
 62
7
  6
CONTINUOUS
 10
169.798512675
 20
401.1345206882
 11
169.798512675
 21
398.6961206882
  0
LINE
  5
25E
100
AcDbEntity
  8
0
100
AcDbLine
 62
7
  6
CONTINUOUS
 10
159.5254309818
 20
408.0941206882
 11
160.2874309818
 21
408.8561206882
  0
LINE
  5
25F
100
AcDbEntity
  8
0
100
AcDbLine
 62
7
  6
CONTINUOUS
 10
124.7042552177
 20
405.6726139867
 11
124.7284650355
 21
405.6847884759
  0
LINE
  5
260
100
AcDbEntity
  8
0
100
AcDbLine
 62
7
  6
CONTINUOUS
 10
201.1177103112
 20
266.7975884759
 11
179.8924797754
 21
266.7975884759
  0
LINE
  5
261
100
AcDbEntity
  8
0
100
AcDbLine
 62
7
  6
CONTINUOUS
 10
141.9199956118
 20
266.7975884759
 11
120.405068372
 21
266.7975884759
  0
LINE
  5
262
100
AcDbEntity
  8
0
100
AcDbLine
 62
7
  6
CONTINUOUS
 10
140.8675886807
 20
270.0995884759
 11
141.4117265827
 21
270.0995884759
  0
LINE
  5
263
100
AcDbEntity
  8
0
100
AcDbLine
 62
7
  6
CONTINUOUS
 10
178.388077555
 20
270.0995884759
 11
261.6445886807
 21
270.0995884759
  0
LINE
  5
264
100
AcDbEntity
  8
0
100
AcDbLine
 62
7
  6
CONTINUOUS
 10
141.3536877567
 20
271.5981884759
 11
177.1559766086
 21
271.5981884759
  0
LINE
  5
265
100
AcDbEntity
  8
0
100
AcDbLine
 62
7
  6
CONTINUOUS
 10
141.3536877567
 20
272.7411884759
 11
140.8675886807
 21
272.7411884759
  0
LINE
  5
266
100
AcDbEntity
  8
0
100
AcDbLine
 62
7
  6
CONTINUOUS
 10
178.2505778753
 20
272.7411884759
 11
261.6445886807
 21
272.7411884759
  0
LINE
  5
267
100
AcDbEntity
  8
0
100
AcDbLine
 62
7
  6
CONTINUOUS
 10
140.8675886807
 20
276.7035884759
 11
141.3536877567
 21
276.7035884759
  0
LINE
  5
268
100
AcDbEntity
  8
0
100
AcDbLine
 62
7
  6
CONTINUOUS
 10
178.2505778753
 20
276.7035884759
 11
261.6445886807
 21
276.7035884759
  0
LINE
  5
269
100
AcDbEntity
  8
0
100
AcDbLine
 62
7
  6
CONTINUOUS
 10
171.8184832999
 20
306.3440979653
 11
171.1569432622
 21
306.6357027408
  0
LINE
  5
26A
100
AcDbEntity
  8
0
100
AcDbLine
 62
7
  6
CONTINUOUS
 10
172.2713619633
 20
305.9029646961
 11
172.2641539405
 21
305.9078955011
  0
LINE
  5
26B
100
AcDbEntity
  8
0
100
AcDbLine
 62
7
  6
CONTINUOUS
 10
66.1623344168
 20
466.3400203758
 11
66.1709841577
 21
466.3289101871
  0
LINE
  5
26C
100
AcDbEntity
  8
0
100
AcDbLine
 62
7
  6
CONTINUOUS
 10
70.1590965073
 20
477.4254667646
 11
70.1699209393
 21
477.4104498246
  0
LINE
  5
26D
100
AcDbEntity
  8
0
100
AcDbLine
 62
7
  6
CONTINUOUS
 10
70.1266321866
 20
468.335966821
 11
70.1335595088
 21
468.3262903711
  0
LINE
  5
26E
100
AcDbEntity
  8
0
100
AcDbLine
 62
7
  6
CONTINUOUS
 10
135.1417522037
 20
396.0939836095
 11
134.8024270768
 21
396.6156629399
  0
LINE
  5
26F
100
AcDbEntity
  8
0
100
AcDbLine
 62
7
  6
CONTINUOUS
 10
134.5739942952
 20
397.0177024866
 11
134.802550827
 21
396.6156761648
  0
LINE
  5
270
100
AcDbEntity
  8
0
100
AcDbLine
 62
7
  6
CONTINUOUS
 10
173.6337401627
 20
303.9999505322
 11
173.359721307
 21
304.703946736
  0
LINE
  5
271
100
AcDbEntity
  8
0
100
AcDbLine
 62
7
  6
CONTINUOUS
 10
150.1238700838
 20
398.234872447
 11
151.5522299649
 21
394.0586275415
  0
LINE
  5
272
100
AcDbEntity
  8
0
100
AcDbLine
 62
7
  6
CONTINUOUS
 10
170.4263629958
 20
306.7863455104
 11
170.4251463044
 21
306.790608145
  0
LINE
  5
273
100
AcDbEntity
  8
0
100
AcDbLine
 62
7
  6
CONTINUOUS
 10
170.4263629958
 20
357.5863455104
 11
170.4251463044
 21
357.590608145
  0
LINE
  5
274
100
AcDbEntity
  8
0
100
AcDbLine
 62
7
  6
CONTINUOUS
 10
173.2540627868
 20
303.4752098915
 11
173.2547426448
 21
303.4707079475
  0
LINE
  5
275
100
AcDbEntity
  8
0
100
AcDbLine
 62
7
  6
CONTINUOUS
 10
173.2169429941
 20
303.4688384759
 11
173.2175467256
 21
303.464369946
  0
LINE
  5
276
100
AcDbEntity
  8
0
100
AcDbLine
 62
7
  6
CONTINUOUS
 10
170.6252309818
 20
408.0941206882
 11
170.6252309818
 21
406.3034206882
  0
LINE
  5
277
100
AcDbEntity
  8
0
100
AcDbLine
 62
7
  6
CONTINUOUS
 10
173.0128309818
 20
398.6961206882
 11
173.0128309818
 21
397.2991206882
  0
LINE
  5
278
100
AcDbEntity
  8
0
100
AcDbLine
 62
7
  6
CONTINUOUS
 10
173.779303628
 20
302.4591884759
 11
173.779303628
 21
303.2211884759
  0
LINE
  5
279
100
AcDbEntity
  8
0
100
AcDbLine
 62
7
  6
CONTINUOUS
 10
173.779303628
 20
353.2591884759
 11
173.779303628
 21
354.0211884759
  0
LINE
  5
27A
100
AcDbEntity
  8
0
100
AcDbLine
 62
7
  6
CONTINUOUS
 10
176.138242833
 20
315.2914641883
 11
176.138242833
 21
341.1888971055
  0
LINE
  5
27B
100
AcDbEntity
  8
0
100
AcDbLine
 62
7
  6
CONTINUOUS
 10
177.1559766086
 20
384.8821884759
 11
177.1559766086
 21
344.1151884759
  0
LINE
  5
27C
100
AcDbEntity
  8
0
100
AcDbLine
 62
7
  6
CONTINUOUS
 10
177.1559766086
 20
312.3651884759
 11
177.1559766086
 21
271.5981884759
  0
LINE
  5
27D
100
AcDbEntity
  8
0
100
AcDbLine
 62
7
  6
CONTINUOUS
 10
177.5528662661
 20
314.2704680234
 11
177.5528662661
 21
342.2098923266
  0
LINE
  5
27E
100
AcDbEntity
  8
0
100
AcDbLine
 62
7
  6
CONTINUOUS
 10
177.9007886807
 20
453.0465064503
 11
177.9007886807
 21
459.8121884759
  0
LINE
  5
27F
100
AcDbEntity
  8
0
100
AcDbLine
 62
7
  6
CONTINUOUS
 10
178.2505778753
 20
384.8821884759
 11
178.2505778753
 21
344.1151884759
  0
LINE
  5
280
100
AcDbEntity
  8
0
100
AcDbLine
 62
7
  6
CONTINUOUS
 10
178.2505778753
 20
312.3651884759
 11
178.2505778753
 21
271.5981884759
  0
LINE
  5
281
100
AcDbEntity
  8
0
100
AcDbLine
 62
7
  6
CONTINUOUS
 10
179.7041886807
 20
263.5971884759
 11
179.7041886807
 21
261.7175884759
  0
LINE
  5
282
100
AcDbEntity
  8
0
100
AcDbLine
 62
7
  6
CONTINUOUS
 10
180.2375886807
 20
474.4171884759
 11
180.2375886807
 21
478.6081884759
  0
LINE
  5
283
100
AcDbEntity
  8
0
100
AcDbLine
 62
7
  6
CONTINUOUS
 10
180.5677886807
 20
455.0209582628
 11
180.5677886807
 21
459.8121884759
  0
LINE
  5
284
100
AcDbEntity
  8
0
100
AcDbLine
 62
7
  6
CONTINUOUS
 10
184.3269886807
 20
263.5971884759
 11
184.3269886807
 21
261.7175884759
  0
LINE
  5
285
100
AcDbEntity
  8
0
100
AcDbLine
 62
7
  6
CONTINUOUS
 10
184.4237946115
 20
387.9174884759
 11
184.4237946115
 21
389.6827884759
  0
LINE
  5
286
100
AcDbEntity
  8
0
100
AcDbLine
 62
7
  6
CONTINUOUS
 10
184.9858455789
 20
399.3347884759
 11
184.9858455789
 21
398.6961206882
  0
LINE
  5
287
100
AcDbEntity
  8
0
100
AcDbLine
 62
7
  6
CONTINUOUS
 10
171.8070927874
 20
357.0205581398
 11
171.8184832999
 21
357.1440979653
  0
LINE
  5
288
100
AcDbEntity
  8
0
100
AcDbLine
 62
7
  6
CONTINUOUS
 10
171.8070927874
 20
306.2205581398
 11
171.8184832999
 21
306.3440979653
  0
LINE
  5
289
100
AcDbEntity
  8
0
100
AcDbLine
 62
7
  6
CONTINUOUS
 10
173.2175467256
 20
353.0160070057
 11
173.2169429941
 21
353.0115384759
  0
LINE
  5
28A
100
AcDbEntity
  8
0
100
AcDbLine
 62
7
  6
CONTINUOUS
 10
173.2175467256
 20
302.2160070057
 11
173.2169429941
 21
302.2115384759
  0
LINE
  5
28B
100
AcDbEntity
  8
0
100
AcDbLine
 62
7
  6
CONTINUOUS
 10
173.2547426448
 20
353.0096690042
 11
173.2540627868
 21
353.0051670602
  0
LINE
  5
28C
100
AcDbEntity
  8
0
100
AcDbLine
 62
7
  6
CONTINUOUS
 10
173.2547426448
 20
302.2096690042
 11
173.2540627868
 21
302.2051670602
  0
LINE
  5
28D
100
AcDbEntity
  8
0
100
AcDbLine
 62
7
  6
CONTINUOUS
 10
170.4251463044
 20
349.6897688067
 11
170.4264908244
 21
349.6944792843
  0
LINE
  5
28E
100
AcDbEntity
  8
0
100
AcDbLine
 62
7
  6
CONTINUOUS
 10
173.0128309818
 20
397.2991206882
 11
172.6318309818
 21
396.9181206882
  0
LINE
  5
28F
100
AcDbEntity
  8
0
100
AcDbLine
 62
7
  6
CONTINUOUS
 10
277.5195886807
 20
279.6245884759
 11
261.6445886807
 21
279.6245884759
  0
LINE
  5
290
100
AcDbEntity
  8
0
100
AcDbLine
 62
7
  6
CONTINUOUS
 10
140.8675886807
 20
279.6245884759
 11
115.4675886807
 21
279.6245884759
  0
LINE
  5
291
100
AcDbEntity
  8
0
100
AcDbLine
 62
7
  6
CONTINUOUS
 10
170.4264205279
 20
306.7867680237
 11
170.4240484743
 21
306.7871329804
  0
LINE
  5
292
100
AcDbEntity
  8
0
100
AcDbLine
 62
7
  6
CONTINUOUS
 10
170.4263629958
 20
306.7863455104
 11
170.4240402188
 21
306.7870720775
  0
LINE
  5
293
100
AcDbEntity
  8
0
100
AcDbLine
 62
7
  6
CONTINUOUS
 10
173.779303628
 20
303.2211884759
 11
173.5759480935
 21
303.2869219654
  0
LINE
  5
294
100
AcDbEntity
  8
0
100
AcDbLine
 62
7
  6
CONTINUOUS
 10
56.2345030377
 20
468.7067437395
 11
55.4756828304
 21
469.4676504762
  0
LINE
  5
295
100
AcDbEntity
  8
0
100
AcDbLine
 62
7
  6
CONTINUOUS
 10
123.950965214
 20
400.1060410876
 11
124.7042552177
 21
399.346962965
  0
LINE
  5
296
100
AcDbEntity
  8
0
100
AcDbLine
 62
7
  6
CONTINUOUS
 10
138.4396475482
 20
408.4039140059
 11
138.1003224789
 21
408.9255933422
  0
LINE
  5
297
100
AcDbEntity
  8
0
100
AcDbLine
 62
7
  6
CONTINUOUS
 10
138.6680803874
 20
408.0018744651
 11
138.4395238556
 21
408.4039007869
  0
LINE
  5
298
100
AcDbEntity
  8
0
100
AcDbLine
 62
7
  6
CONTINUOUS
 10
172.9451916292
 20
351.1162276229
 11
172.8678050819
 21
351.2704363369
  0
LINE
  5
299
100
AcDbEntity
  8
0
100
AcDbLine
 62
7
  6
CONTINUOUS
 10
173.6337401627
 20
354.7999505322
 11
173.359721307
 21
355.503946736
  0
LINE
  5
29A
100
AcDbEntity
  8
0
100
AcDbLine
 62
7
  6
CONTINUOUS
 10
173.2540627868
 20
354.2752098915
 11
173.2547426448
 21
354.2707079475
  0
LINE
  5
29B
100
AcDbEntity
  8
0
100
AcDbLine
 62
7
  6
CONTINUOUS
 10
173.2169429941
 20
354.2688384759
 11
173.2175467256
 21
354.264369946
  0
LINE
  5
29C
100
AcDbEntity
  8
0
100
AcDbLine
 62
7
  6
CONTINUOUS
 10
186.5875886807
 20
478.6081884759
 11
186.5875886807
 21
475.9411884759
  0
LINE
  5
29D
100
AcDbEntity
  8
0
100
AcDbLine
 62
7
  6
CONTINUOUS
 10
187.7305886807
 20
270.0995884759
 11
187.7305886807
 21
266.7975884759
  0
LINE
  5
29E
100
AcDbEntity
  8
0
100
AcDbLine
 62
7
  6
CONTINUOUS
 10
187.7305886807
 20
386.3807884759
 11
187.7305886807
 21
387.9174884759
  0
LINE
  5
29F
100
AcDbEntity
  8
0
100
AcDbLine
 62
7
  6
CONTINUOUS
 10
188.9703946115
 20
387.9174884759
 11
188.9703946115
 21
389.6827884759
  0
LINE
  5
2A0
100
AcDbEntity
  8
0
100
AcDbLine
 62
7
  6
CONTINUOUS
 10
191.4214946115
 20
395.8422884759
 11
191.4214946115
 21
395.3215884759
  0
LINE
  5
2A1
100
AcDbEntity
  8
0
100
AcDbLine
 62
7
  6
CONTINUOUS
 10
191.4341946115
 20
396.2032870434
 11
191.4341946115
 21
395.8422884759
  0
LINE
  5
2A2
100
AcDbEntity
  8
0
100
AcDbLine
 62
7
  6
CONTINUOUS
 10
194.5885886807
 20
386.3807884759
 11
194.5885886807
 21
389.0477884759
  0
LINE
  5
2A3
100
AcDbEntity
  8
0
100
AcDbLine
 62
7
  6
CONTINUOUS
 10
194.617473006
 20
392.8831884759
 11
194.617473006
 21
395.3215884759
  0
LINE
  5
2A4
100
AcDbEntity
  8
0
100
AcDbLine
 62
7
  6
CONTINUOUS
 10
195.000424864
 20
395.3215884759
 11
195.000424864
 21
392.8831884759
  0
LINE
  5
2A5
100
AcDbEntity
  8
0
100
AcDbLine
 62
7
  6
CONTINUOUS
 10
197.6365886807
 20
389.0477884759
 11
197.6365886807
 21
386.3807884759
  0
LINE
  5
2A6
100
AcDbEntity
  8
0
100
AcDbLine
 62
7
  6
CONTINUOUS
 10
199.9688569765
 20
263.5971884759
 11
199.9688569765
 21
266.7975884759
  0
LINE
  5
2A7
100
AcDbEntity
  8
0
100
AcDbLine
 62
7
  6
CONTINUOUS
 10
199.9688569765
 20
389.6827884759
 11
199.9688569765
 21
392.8831884759
  0
LINE
  5
2A8
100
AcDbEntity
  8
0
100
AcDbLine
 62
7
  6
CONTINUOUS
 10
200.7734886807
 20
392.9212884759
 11
200.7734886807
 21
392.8831884759
  0
LINE
  5
2A9
100
AcDbEntity
  8
0
100
AcDbLine
 62
7
  6
CONTINUOUS
 10
200.7734886807
 20
389.6827884759
 11
200.7734886807
 21
389.5684884759
  0
LINE
  5
2AA
100
AcDbEntity
  8
0
100
AcDbLine
 62
7
  6
CONTINUOUS
 10
200.7861886807
 20
389.5684884759
 11
200.7861886807
 21
389.0477884759
  0
LINE
  5
2AB
100
AcDbEntity
  8
0
100
AcDbLine
 62
7
  6
CONTINUOUS
 10
200.8166981657
 20
393.0482884759
 11
200.8166981657
 21
392.9212884759
  0
LINE
  5
2AC
100
AcDbEntity
  8
0
100
AcDbLine
 62
7
  6
CONTINUOUS
 10
200.8353081288
 20
392.9212884759
 11
200.8353081288
 21
393.0482884759
  0
LINE
  5
2AD
100
AcDbEntity
  8
0
100
AcDbLine
 62
7
  6
CONTINUOUS
 10
201.1177125505
 20
392.8831884759
 11
201.1177125505
 21
389.6827884759
  0
LINE
  5
2AE
100
AcDbEntity
  8
0
100
AcDbLine
 62
7
  6
CONTINUOUS
 10
201.1177125505
 20
263.5971884759
 11
201.1177125505
 21
266.7975884759
  0
LINE
  5
2AF
100
AcDbEntity
  8
0
100
AcDbLine
 62
7
  6
CONTINUOUS
 10
170.4251463044
 20
298.8897688067
 11
170.4264908244
 21
298.8944792843
  0
LINE
  5
2B0
100
AcDbEntity
  8
0
100
AcDbLine
 62
7
  6
CONTINUOUS
 10
173.359721307
 20
351.7764302157
 11
173.6337401627
 21
352.4804264195
  0
LINE
  5
2B1
100
AcDbEntity
  8
0
100
AcDbLine
 62
7
  6
CONTINUOUS
 10
172.8676198999
 20
356.0095716015
 11
172.9451916292
 21
356.1641493288
  0
LINE
  5
2B2
100
AcDbEntity
  8
0
100
AcDbLine
 62
7
  6
CONTINUOUS
 10
169.5545720291
 20
298.8523884759
 11
169.8890335273
 21
298.8523884759
  0
LINE
  5
2B3
100
AcDbEntity
  8
0
100
AcDbLine
 62
7
  6
CONTINUOUS
 10
171.1569432622
 20
299.044674211
 11
170.9788533735
 21
299.044674211
  0
LINE
  5
2B4
100
AcDbEntity
  8
0
100
AcDbLine
 62
7
  6
CONTINUOUS
 10
171.8184832999
 20
299.3362789864
 11
171.6403934113
 21
299.3362789864
  0
LINE
  5
2B5
100
AcDbEntity
  8
0
100
AcDbLine
 62
7
  6
CONTINUOUS
 10
172.4388708046
 20
299.7774122556
 11
172.2720945294
 21
299.7774122556
  0
LINE
  5
2B6
100
AcDbEntity
  8
0
100
AcDbLine
 62
7
  6
CONTINUOUS
 10
172.9451916292
 20
300.3162276229
 11
172.7671017406
 21
300.3162276229
  0
LINE
  5
2B7
100
AcDbEntity
  8
0
100
AcDbLine
 62
7
  6
CONTINUOUS
 10
165.7469805611
 20
300.3763884759
 11
166.5726048354
 21
300.3763884759
  0
LINE
  5
2B8
100
AcDbEntity
  8
0
100
AcDbLine
 62
7
  6
CONTINUOUS
 10
173.359721307
 20
300.9764302157
 11
173.1816314184
 21
300.9764302157
  0
LINE
  5
2B9
100
AcDbEntity
  8
0
100
AcDbLine
 62
7
  6
CONTINUOUS
 10
173.6337401627
 20
301.6804264195
 11
173.4694523879
 21
301.6804264195
  0
LINE
  5
2BA
100
AcDbEntity
  8
0
100
AcDbLine
 62
7
  6
CONTINUOUS
 10
165.7755160408
 20
302.2115384759
 11
173.2506206341
 21
302.2115384759
  0
LINE
  5
2BB
100
AcDbEntity
  8
0
100
AcDbLine
 62
7
  6
CONTINUOUS
 10
173.779303628
 20
302.4591884759
 11
173.6012137394
 21
302.4591884759
  0
LINE
  5
2BC
100
AcDbEntity
  8
0
100
AcDbLine
 62
7
  6
CONTINUOUS
 10
173.779303628
 20
303.2211884759
 11
173.6012137394
 21
303.2211884759
  0
LINE
  5
2BD
100
AcDbEntity
  8
0
100
AcDbLine
 62
7
  6
CONTINUOUS
 10
173.2506206341
 20
303.4688384759
 11
165.7755019641
 21
303.4688384759
  0
LINE
  5
2BE
100
AcDbEntity
  8
0
100
AcDbLine
 62
7
  6
CONTINUOUS
 10
173.6337401627
 20
303.9999505322
 11
173.4690768108
 21
303.9999505322
  0
LINE
  5
2BF
100
AcDbEntity
  8
0
100
AcDbLine
 62
7
  6
CONTINUOUS
 10
173.359721307
 20
304.703946736
 11
173.1816314184
 21
304.703946736
  0
LINE
  5
2C0
100
AcDbEntity
  8
0
100
AcDbLine
 62
7
  6
CONTINUOUS
 10
166.572665697
 20
305.3039884759
 11
165.7469805611
 21
305.3039884759
  0
LINE
  5
2C1
100
AcDbEntity
  8
0
100
AcDbLine
 62
7
  6
CONTINUOUS
 10
172.9451916292
 20
305.3641493288
 11
172.7671017406
 21
305.3641493288
  0
LINE
  5
2C2
100
AcDbEntity
  8
0
100
AcDbLine
 62
7
  6
CONTINUOUS
 10
172.4388708046
 20
305.9029646961
 11
172.2713619633
 21
305.9029646961
  0
LINE
  5
2C3
100
AcDbEntity
  8
0
100
AcDbLine
 62
7
  6
CONTINUOUS
 10
171.8184832999
 20
306.3440979653
 11
171.6403934113
 21
306.3440979653
  0
LINE
  5
2C4
100
AcDbEntity
  8
0
100
AcDbLine
 62
7
  6
CONTINUOUS
 10
171.1569432622
 20
306.6357027408
 11
170.9788533735
 21
306.6357027408
  0
LINE
  5
2C5
100
AcDbEntity
  8
0
100
AcDbLine
 62
7
  6
CONTINUOUS
 10
169.5545720291
 20
306.8279884759
 11
169.8890335273
 21
306.8279884759
  0
LINE
  5
2C6
100
AcDbEntity
  8
0
100
AcDbLine
 62
7
  6
CONTINUOUS
 10
256.1581886807
 20
307.9582884759
 11
257.7075886807
 21
307.9582884759
  0
LINE
  5
2C7
100
AcDbEntity
  8
0
100
AcDbLine
 62
7
  6
CONTINUOUS
 10
172.2713619633
 20
356.7029646961
 11
172.2641539405
 21
356.7078955011
  0
LINE
  5
2C8
100
AcDbEntity
  8
0
100
AcDbLine
 62
7
  6
CONTINUOUS
 10
173.6337401627
 20
352.4804264195
 11
173.4955357125
 21
352.6012179731
  0
LINE
  5
2C9
100
AcDbEntity
  8
0
100
AcDbLine
 62
7
  6
CONTINUOUS
 10
172.2784782458
 20
356.7121139788
 11
172.2718972843
 21
356.7178972885
  0
LINE
  5
2CA
100
AcDbEntity
  8
0
100
AcDbLine
 62
7
  6
CONTINUOUS
 10
172.9451916292
 20
356.1641493288
 11
172.4388708046
 21
356.7029646961
  0
LINE
  5
2CB
100
AcDbEntity
  8
0
100
AcDbLine
 62
7
  6
CONTINUOUS
 10
187.3545188169
 20
394.0586275416
 11
185.9261589357
 21
398.2348724471
  0
LINE
  5
2CC
100
AcDbEntity
  8
0
100
AcDbLine
 62
7
  6
CONTINUOUS
 10
186.7293940364
 20
399.3347884759
 11
187.9442330861
 21
395.7828367168
  0
LINE
  5
2CD
100
AcDbEntity
  8
0
100
AcDbLine
 62
7
  6
CONTINUOUS
 10
202.1063561042
 20
386.3807884759
 11
202.1063561042
 21
389.0477884759
  0
LINE
  5
2CE
100
AcDbEntity
  8
0
100
AcDbLine
 62
7
  6
CONTINUOUS
 10
203.2372886807
 20
381.6436884759
 11
203.2372886807
 21
383.7391884759
  0
LINE
  5
2CF
100
AcDbEntity
  8
0
100
AcDbLine
 62
7
  6
CONTINUOUS
 10
204.9705392124
 20
389.0477884759
 11
204.9705392124
 21
386.3807884759
  0
LINE
  5
2D0
100
AcDbEntity
  8
0
100
AcDbLine
 62
7
  6
CONTINUOUS
 10
207.7838886807
 20
381.6436884759
 11
207.7838886807
 21
383.7391884759
  0
LINE
  5
2D1
100
AcDbEntity
  8
0
100
AcDbLine
 62
7
  6
CONTINUOUS
 10
210.1858692326
 20
393.0482884759
 11
210.1858692326
 21
392.9212884759
  0
LINE
  5
2D2
100
AcDbEntity
  8
0
100
AcDbLine
 62
7
  6
CONTINUOUS
 10
210.2044791956
 20
392.9212884759
 11
210.2044791956
 21
393.0482884759
  0
LINE
  5
2D3
100
AcDbEntity
  8
0
100
AcDbLine
 62
7
  6
CONTINUOUS
 10
210.2349886807
 20
389.5684884759
 11
210.2349886807
 21
389.0477884759
  0
LINE
  5
2D4
100
AcDbEntity
  8
0
100
AcDbLine
 62
7
  6
CONTINUOUS
 10
210.2476886807
 20
392.9212884759
 11
210.2476886807
 21
389.5684884759
  0
LINE
  5
2D5
100
AcDbEntity
  8
0
100
AcDbLine
 62
7
  6
CONTINUOUS
 10
213.4734886807
 20
392.9212884759
 11
213.4734886807
 21
389.5684884759
  0
LINE
  5
2D6
100
AcDbEntity
  8
0
100
AcDbLine
 62
7
  6
CONTINUOUS
 10
213.4861886807
 20
389.5684884759
 11
213.4861886807
 21
389.0477884759
  0
LINE
  5
2D7
100
AcDbEntity
  8
0
100
AcDbLine
 62
7
  6
CONTINUOUS
 10
213.5166981657
 20
393.0482884759
 11
213.5166981657
 21
392.9212884759
  0
LINE
  5
2D8
100
AcDbEntity
  8
0
100
AcDbLine
 62
7
  6
CONTINUOUS
 10
213.5353081288
 20
392.9212884759
 11
213.5353081288
 21
393.0482884759
  0
LINE
  5
2D9
100
AcDbEntity
  8
0
100
AcDbLine
 62
7
  6
CONTINUOUS
 10
215.9372886807
 20
381.6436884759
 11
215.9372886807
 21
383.7391884759
  0
LINE
  5
2DA
100
AcDbEntity
  8
0
100
AcDbLine
 62
7
  6
CONTINUOUS
 10
173.359721307
 20
300.9764302157
 11
173.6337401627
 21
301.6804264195
  0
LINE
  5
2DB
100
AcDbEntity
  8
0
100
AcDbLine
 62
7
  6
CONTINUOUS
 10
172.8676198999
 20
305.2095716015
 11
172.9451916292
 21
305.3641493288
  0
LINE
  5
2DC
100
AcDbEntity
  8
0
100
AcDbLine
 62
7
  6
CONTINUOUS
 10
172.4388708046
 20
350.5774122556
 11
172.9451916292
 21
351.1162276229
  0
LINE
  5
2DD
100
AcDbEntity
  8
0
100
AcDbLine
 62
7
  6
CONTINUOUS
 10
173.4958494623
 20
354.6794331978
 11
173.6337401627
 21
354.7999505322
  0
LINE
  5
2DE
100
AcDbEntity
  8
0
100
AcDbLine
 62
7
  6
CONTINUOUS
 10
170.4210698137
 20
298.8927880361
 11
170.4266054916
 21
298.8936374766
  0
LINE
  5
2DF
100
AcDbEntity
  8
0
100
AcDbLine
 62
7
  6
CONTINUOUS
 10
178.2505778753
 20
312.3651884759
 11
177.1559766086
 21
312.3651884759
  0
LINE
  5
2E0
100
AcDbEntity
  8
0
100
AcDbLine
 62
7
  6
CONTINUOUS
 10
257.7075886807
 20
313.5208884759
 11
256.1581886807
 21
313.5208884759
  0
LINE
  5
2E1
100
AcDbEntity
  8
0
100
AcDbLine
 62
7
  6
CONTINUOUS
 10
156.2713081117
 20
315.5401884759
 11
175.2670538043
 21
315.5401884759
  0
LINE
  5
2E2
100
AcDbEntity
  8
0
100
AcDbLine
 62
7
  6
CONTINUOUS
 10
153.2877840407
 20
318.7151884759
 11
154.3823853074
 21
318.7151884759
  0
LINE
  5
2E3
100
AcDbEntity
  8
0
100
AcDbLine
 62
7
  6
CONTINUOUS
 10
171.8184832999
 20
357.1440979653
 11
171.1569432622
 21
357.4357027408
  0
LINE
  5
2E4
100
AcDbEntity
  8
0
100
AcDbLine
 62
7
  6
CONTINUOUS
 10
157.1378309818
 20
397.2991206882
 11
157.5188309818
 21
396.9181206882
  0
LINE
  5
2E5
100
AcDbEntity
  8
0
100
AcDbLine
 62
7
  6
CONTINUOUS
 10
217.5628009535
 20
386.3807884759
 11
217.5628009535
 21
389.0477884759
  0
LINE
  5
2E6
100
AcDbEntity
  8
0
100
AcDbLine
 62
7
  6
CONTINUOUS
 10
220.4269840617
 20
389.0477884759
 11
220.4269840617
 21
386.3807884759
  0
LINE
  5
2E7
100
AcDbEntity
  8
0
100
AcDbLine
 62
7
  6
CONTINUOUS
 10
220.4838886807
 20
381.6436884759
 11
220.4838886807
 21
383.7391884759
  0
LINE
  5
2E8
100
AcDbEntity
  8
0
100
AcDbLine
 62
7
  6
CONTINUOUS
 10
222.8858692326
 20
393.0482884759
 11
222.8858692326
 21
392.9212884759
  0
LINE
  5
2E9
100
AcDbEntity
  8
0
100
AcDbLine
 62
7
  6
CONTINUOUS
 10
222.9044791956
 20
392.9212884759
 11
222.9044791956
 21
393.0482884759
  0
LINE
  5
2EA
100
AcDbEntity
  8
0
100
AcDbLine
 62
7
  6
CONTINUOUS
 10
222.9349886807
 20
389.5684884759
 11
222.9349886807
 21
389.0477884759
  0
LINE
  5
2EB
100
AcDbEntity
  8
0
100
AcDbLine
 62
7
  6
CONTINUOUS
 10
222.9476886807
 20
392.9212884759
 11
222.9476886807
 21
389.5684884759
  0
LINE
  5
2EC
100
AcDbEntity
  8
0
100
AcDbLine
 62
7
  6
CONTINUOUS
 10
172.2718753195
 20
350.562460397
 11
172.2789141972
 21
350.568647029
  0
LINE
  5
2ED
100
AcDbEntity
  8
0
100
AcDbLine
 62
7
  6
CONTINUOUS
 10
172.2643788704
 20
350.5721434237
 11
172.2720945294
 21
350.5774122556
  0
LINE
  5
2EE
100
AcDbEntity
  8
0
100
AcDbLine
 62
7
  6
CONTINUOUS
 10
154.3823853074
 20
337.7651884759
 11
153.2877840407
 21
337.7651884759
  0
LINE
  5
2EF
100
AcDbEntity
  8
0
100
AcDbLine
 62
7
  6
CONTINUOUS
 10
175.2670538043
 20
340.9401884759
 11
156.2713081117
 21
340.9401884759
  0
LINE
  5
2F0
100
AcDbEntity
  8
0
100
AcDbLine
 62
7
  6
CONTINUOUS
 10
170.4263629958
 20
357.5863455104
 11
170.4240402188
 21
357.5870720775
  0
LINE
  5
2F1
100
AcDbEntity
  8
0
100
AcDbLine
 62
7
  6
CONTINUOUS
 10
173.779303628
 20
354.0211884759
 11
173.5759480935
 21
354.0869219654
  0
LINE
  5
2F2
100
AcDbEntity
  8
0
100
AcDbLine
 62
7
  6
CONTINUOUS
 10
124.7284650355
 20
399.3347884759
 11
124.7042552177
 21
399.346962965
  0
LINE
  5
2F3
100
AcDbEntity
  8
0
100
AcDbLine
 62
7
  6
CONTINUOUS
 10
170.6252309818
 20
408.0941206882
 11
169.8632309818
 21
408.8561206882
  0
LINE
  5
2F4
100
AcDbEntity
  8
0
100
AcDbLine
 62
7
  6
CONTINUOUS
 10
233.5775886807
 20
475.9411884759
 11
233.5775886807
 21
478.6081884759
  0
LINE
  5
2F5
100
AcDbEntity
  8
0
100
AcDbLine
 62
7
  6
CONTINUOUS
 10
238.4283561042
 20
386.3807884759
 11
238.4283561042
 21
389.0477884759
  0
LINE
  5
2F6
100
AcDbEntity
  8
0
100
AcDbLine
 62
7
  6
CONTINUOUS
 10
238.8734886807
 20
392.9212884759
 11
238.8734886807
 21
389.5684884759
  0
LINE
  5
2F7
100
AcDbEntity
  8
0
100
AcDbLine
 62
7
  6
CONTINUOUS
 10
238.8861886807
 20
389.5684884759
 11
238.8861886807
 21
389.0477884759
  0
LINE
  5
2F8
100
AcDbEntity
  8
0
100
AcDbLine
 62
7
  6
CONTINUOUS
 10
238.9166981657
 20
393.0482884759
 11
238.9166981657
 21
392.9212884759
  0
LINE
  5
2F9
100
AcDbEntity
  8
0
100
AcDbLine
 62
7
  6
CONTINUOUS
 10
238.9353081288
 20
392.9212884759
 11
238.9353081288
 21
393.0482884759
  0
LINE
  5
2FA
100
AcDbEntity
  8
0
100
AcDbLine
 62
7
  6
CONTINUOUS
 10
239.9275886807
 20
478.6081884759
 11
239.9275886807
 21
474.4171884759
  0
LINE
  5
2FB
100
AcDbEntity
  8
0
100
AcDbLine
 62
7
  6
CONTINUOUS
 10
241.2925392124
 20
389.0477884759
 11
241.2925392124
 21
386.3807884759
  0
LINE
  5
2FC
100
AcDbEntity
  8
0
100
AcDbLine
 62
7
  6
CONTINUOUS
 10
241.3372886807
 20
381.6436884759
 11
241.3372886807
 21
383.7391884759
  0
LINE
  5
2FD
100
AcDbEntity
  8
0
100
AcDbLine
 62
7
  6
CONTINUOUS
 10
242.1438491366
 20
386.3807884759
 11
242.1438491366
 21
389.0477884759
  0
LINE
  5
2FE
100
AcDbEntity
  8
0
100
AcDbLine
 62
7
  6
CONTINUOUS
 10
245.0080322447
 20
389.0477884759
 11
245.0080322447
 21
386.3807884759
  0
LINE
  5
2FF
100
AcDbEntity
  8
0
100
AcDbLine
 62
7
  6
CONTINUOUS
 10
245.8838886807
 20
381.6436884759
 11
245.8838886807
 21
383.7391884759
  0
LINE
  5
300
100
AcDbEntity
  8
0
100
AcDbLine
 62
7
  6
CONTINUOUS
 10
172.4388708046
 20
299.7774122556
 11
172.9451916292
 21
300.3162276229
  0
LINE
  5
301
100
AcDbEntity
  8
0
100
AcDbLine
 62
7
  6
CONTINUOUS
 10
301.0779390484
 20
410.3991404302
 11
301.1383280179
 21
410.4295084759
  0
LINE
  5
302
100
AcDbEntity
  8
0
100
AcDbLine
 62
7
  6
CONTINUOUS
 10
171.1569432622
 20
349.844674211
 11
171.8184832999
 21
350.1362789864
  0
LINE
  5
303
100
AcDbEntity
  8
0
100
AcDbLine
 62
7
  6
CONTINUOUS
 10
177.1559766086
 20
344.1151884759
 11
178.2505778753
 21
344.1151884759
  0
LINE
  5
304
100
AcDbEntity
  8
0
100
AcDbLine
 62
7
  6
CONTINUOUS
 10
169.5545720291
 20
349.6523884759
 11
169.8890335273
 21
349.6523884759
  0
LINE
  5
305
100
AcDbEntity
  8
0
100
AcDbLine
 62
7
  6
CONTINUOUS
 10
171.1569432622
 20
349.844674211
 11
170.9788533735
 21
349.844674211
  0
LINE
  5
306
100
AcDbEntity
  8
0
100
AcDbLine
 62
7
  6
CONTINUOUS
 10
171.8184832999
 20
350.1362789864
 11
171.6403934113
 21
350.1362789864
  0
LINE
  5
307
100
AcDbEntity
  8
0
100
AcDbLine
 62
7
  6
CONTINUOUS
 10
172.4388708046
 20
350.5774122556
 11
172.2720945294
 21
350.5774122556
  0
LINE
  5
308
100
AcDbEntity
  8
0
100
AcDbLine
 62
7
  6
CONTINUOUS
 10
172.9451916292
 20
351.1162276229
 11
172.7671017406
 21
351.1162276229
  0
LINE
  5
309
100
AcDbEntity
  8
0
100
AcDbLine
 62
7
  6
CONTINUOUS
 10
165.7469805611
 20
351.1763884759
 11
166.5726048354
 21
351.1763884759
  0
LINE
  5
30A
100
AcDbEntity
  8
0
100
AcDbLine
 62
7
  6
CONTINUOUS
 10
173.359721307
 20
351.7764302157
 11
173.1816314184
 21
351.7764302157
  0
LINE
  5
30B
100
AcDbEntity
  8
0
100
AcDbLine
 62
7
  6
CONTINUOUS
 10
173.6337401627
 20
352.4804264195
 11
173.4694523879
 21
352.4804264195
  0
LINE
  5
30C
100
AcDbEntity
  8
0
100
AcDbLine
 62
7
  6
CONTINUOUS
 10
165.7755160408
 20
353.0115384759
 11
173.2506206341
 21
353.0115384759
  0
LINE
  5
30D
100
AcDbEntity
  8
0
100
AcDbLine
 62
7
  6
CONTINUOUS
 10
173.779303628
 20
353.2591884759
 11
173.6012137394
 21
353.2591884759
  0
LINE
  5
30E
100
AcDbEntity
  8
0
100
AcDbLine
 62
7
  6
CONTINUOUS
 10
173.779303628
 20
354.0211884759
 11
173.6012137394
 21
354.0211884759
  0
LINE
  5
30F
100
AcDbEntity
  8
0
100
AcDbLine
 62
7
  6
CONTINUOUS
 10
173.2506206341
 20
354.2688384759
 11
165.7755019641
 21
354.2688384759
  0
LINE
  5
310
100
AcDbEntity
  8
0
100
AcDbLine
 62
7
  6
CONTINUOUS
 10
173.6337401627
 20
354.7999505322
 11
173.4690768108
 21
354.7999505322
  0
LINE
  5
311
100
AcDbEntity
  8
0
100
AcDbLine
 62
7
  6
CONTINUOUS
 10
173.359721307
 20
355.503946736
 11
173.1816314184
 21
355.503946736
  0
LINE
  5
312
100
AcDbEntity
  8
0
100
AcDbLine
 62
7
  6
CONTINUOUS
 10
166.572665697
 20
356.1039884759
 11
165.7469805611
 21
356.1039884759
  0
LINE
  5
313
100
AcDbEntity
  8
0
100
AcDbLine
 62
7
  6
CONTINUOUS
 10
172.9451916292
 20
356.1641493288
 11
172.7671017406
 21
356.1641493288
  0
LINE
  5
314
100
AcDbEntity
  8
0
100
AcDbLine
 62
7
  6
CONTINUOUS
 10
172.4388708046
 20
356.7029646961
 11
172.2713619633
 21
356.7029646961
  0
LINE
  5
315
100
AcDbEntity
  8
0
100
AcDbLine
 62
7
  6
CONTINUOUS
 10
170.4264205279
 20
357.5867680237
 11
170.4240484743
 21
357.5871329804
  0
LINE
  5
316
100
AcDbEntity
  8
0
100
AcDbLine
 62
7
  6
CONTINUOUS
 10
148.1319886807
 20
456.4847884759
 11
147.3699886807
 21
457.2467884759
  0
LINE
  5
317
100
AcDbEntity
  8
0
100
AcDbLine
 62
7
  6
CONTINUOUS
 10
248.2214758607
 20
479.2177884759
 11
248.2214758607
 21
478.6081884759
  0
LINE
  5
318
100
AcDbEntity
  8
0
100
AcDbLine
 62
7
  6
CONTINUOUS
 10
248.2858692326
 20
393.0482884759
 11
248.2858692326
 21
392.9212884759
  0
LINE
  5
319
100
AcDbEntity
  8
0
100
AcDbLine
 62
7
  6
CONTINUOUS
 10
248.3044791956
 20
392.9212884759
 11
248.3044791956
 21
393.0482884759
  0
LINE
  5
31A
100
AcDbEntity
  8
0
100
AcDbLine
 62
7
  6
CONTINUOUS
 10
248.3349886807
 20
389.5684884759
 11
248.3349886807
 21
389.0477884759
  0
LINE
  5
31B
100
AcDbEntity
  8
0
100
AcDbLine
 62
7
  6
CONTINUOUS
 10
248.3476886807
 20
392.9212884759
 11
248.3476886807
 21
389.5684884759
  0
LINE
  5
31C
100
AcDbEntity
  8
0
100
AcDbLine
 62
7
  6
CONTINUOUS
 10
253.0474758607
 20
479.2177884759
 11
253.0474758607
 21
478.6081884759
  0
LINE
  5
31D
100
AcDbEntity
  8
0
100
AcDbLine
 62
7
  6
CONTINUOUS
 10
254.3768091493
 20
479.2177884759
 11
254.3768091493
 21
478.6081884759
  0
LINE
  5
31E
100
AcDbEntity
  8
0
100
AcDbLine
 62
7
  6
CONTINUOUS
 10
255.2945886807
 20
270.0995884759
 11
255.2945886807
 21
272.7411884759
  0
LINE
  5
31F
100
AcDbEntity
  8
0
100
AcDbLine
 62
7
  6
CONTINUOUS
 10
261.6445886807
 20
270.0995884759
 11
261.6445886807
 21
279.6245884759
  0
LINE
  5
320
100
AcDbEntity
  8
0
100
AcDbLine
 62
7
  6
CONTINUOUS
 10
261.6445886807
 20
376.8557884759
 11
261.6445886807
 21
383.7391884759
  0
LINE
  5
321
100
AcDbEntity
  8
0
100
AcDbLine
 62
7
  6
CONTINUOUS
 10
299.5623602827
 20
408.8719162821
 11
301.0779390484
 21
410.3991404302
  0
LINE
  5
322
100
AcDbEntity
  8
0
100
AcDbLine
 62
7
  6
CONTINUOUS
 10
172.2718753195
 20
299.762460397
 11
172.2789141972
 21
299.768647029
  0
LINE
  5
323
100
AcDbEntity
  8
0
100
AcDbLine
 62
7
  6
CONTINUOUS
 10
173.4958494623
 20
303.8794331978
 11
173.6337401627
 21
303.9999505322
  0
LINE
  5
324
100
AcDbEntity
  8
0
100
AcDbLine
 62
7
  6
CONTINUOUS
 10
173.5757903381
 20
353.1934039928
 11
173.779303628
 21
353.2591884759
  0
LINE
  5
325
100
AcDbEntity
  8
0
100
AcDbLine
 62
7
  6
CONTINUOUS
 10
170.4210698137
 20
349.6927880361
 11
170.4264908244
 21
349.6944792843
  0
LINE
  5
326
100
AcDbEntity
  8
0
100
AcDbLine
 62
7
  6
CONTINUOUS
 10
170.4210698137
 20
349.6927880361
 11
170.4266054916
 21
349.6936374766
  0
LINE
  5
327
100
AcDbEntity
  8
0
100
AcDbLine
 62
7
  6
CONTINUOUS
 10
171.8184832999
 20
357.1440979653
 11
171.6403934113
 21
357.1440979653
  0
LINE
  5
328
100
AcDbEntity
  8
0
100
AcDbLine
 62
7
  6
CONTINUOUS
 10
171.1569432622
 20
357.4357027408
 11
170.9788533735
 21
357.4357027408
  0
LINE
  5
329
100
AcDbEntity
  8
0
100
AcDbLine
 62
7
  6
CONTINUOUS
 10
169.5545720291
 20
357.6279884759
 11
169.8890335273
 21
357.6279884759
  0
LINE
  5
32A
100
AcDbEntity
  8
0
100
AcDbLine
 62
7
  6
CONTINUOUS
 10
56.2345030377
 20
468.7067437395
 11
56.2434009466
 21
468.7021884759
  0
LINE
  5
32B
100
AcDbEntity
  8
0
100
AcDbLine
 62
7
  6
CONTINUOUS
 10
306.3811811705
 20
394.1912884759
 11
306.4910446558
 21
394.2873524317
  0
LINE
  5
32C
100
AcDbEntity
  8
0
100
AcDbLine
 62
7
  6
CONTINUOUS
 10
172.2643788704
 20
299.7721434237
 11
172.2720945294
 21
299.7774122556
  0
LINE
  5
32D
100
AcDbEntity
  8
0
100
AcDbLine
 62
7
  6
CONTINUOUS
 10
115.4675886807
 20
376.8557884759
 11
140.8675886807
 21
376.8557884759
  0
LINE
  5
32E
100
AcDbEntity
  8
0
100
AcDbLine
 62
7
  6
CONTINUOUS
 10
261.6445886807
 20
376.8557884759
 11
277.5195886807
 21
376.8557884759
  0
LINE
  5
32F
100
AcDbEntity
  8
0
100
AcDbLine
 62
7
  6
CONTINUOUS
 10
261.6445886807
 20
379.7767884759
 11
178.2505778753
 21
379.7767884759
  0
LINE
  5
330
100
AcDbEntity
  8
0
100
AcDbLine
 62
7
  6
CONTINUOUS
 10
141.3536877567
 20
379.7767884759
 11
140.8675886807
 21
379.7767884759
  0
LINE
  5
331
100
AcDbEntity
  8
0
100
AcDbLine
 62
7
  6
CONTINUOUS
 10
203.2372886807
 20
381.6436884759
 11
207.7838886807
 21
381.6436884759
  0
LINE
  5
332
100
AcDbEntity
  8
0
100
AcDbLine
 62
7
  6
CONTINUOUS
 10
215.9372886807
 20
381.6436884759
 11
220.4838886807
 21
381.6436884759
  0
LINE
  5
333
100
AcDbEntity
  8
0
100
AcDbLine
 62
7
  6
CONTINUOUS
 10
241.3372886807
 20
381.6436884759
 11
245.8838886807
 21
381.6436884759
  0
LINE
  5
334
100
AcDbEntity
  8
0
100
AcDbLine
 62
7
  6
CONTINUOUS
 10
129.6171020927
 20
383.7391884759
 11
141.3536877567
 21
383.7391884759
  0
LINE
  5
335
100
AcDbEntity
  8
0
100
AcDbLine
 62
7
  6
CONTINUOUS
 10
178.2505778753
 20
383.7391884759
 11
288.9749886807
 21
383.7391884759
  0
LINE
  5
336
100
AcDbEntity
  8
0
100
AcDbLine
 62
7
  6
CONTINUOUS
 10
177.1559766086
 20
384.8821884759
 11
141.3536877567
 21
384.8821884759
  0
LINE
  5
337
100
AcDbEntity
  8
0
100
AcDbLine
 62
7
  6
CONTINUOUS
 10
141.4117265827
 20
386.3807884759
 11
129.6171020927
 21
386.3807884759
  0
LINE
  5
338
100
AcDbEntity
  8
0
100
AcDbLine
 62
7
  6
CONTINUOUS
 10
178.3880862116
 20
386.3807884759
 11
316.9904962356
 21
386.3807884759
  0
LINE
  5
339
100
AcDbEntity
  8
0
100
AcDbLine
 62
7
  6
CONTINUOUS
 10
184.4237946115
 20
387.9174884759
 11
188.9703946115
 21
387.9174884759
  0
LINE
  5
33A
100
AcDbEntity
  8
0
100
AcDbLine
 62
7
  6
CONTINUOUS
 10
192.7944639773
 20
395.8422884759
 11
192.7809594383
 21
395.8440891417
  0
LINE
  5
33B
100
AcDbEntity
  8
0
100
AcDbLine
 62
7
  6
CONTINUOUS
 10
188.7346106345
 20
396.9232976054
 11
192.7809594383
 21
395.8440891417
  0
LINE
  5
33C
100
AcDbEntity
  8
0
100
AcDbLine
 62
7
  6
CONTINUOUS
 10
282.6249886807
 20
383.7391884759
 11
282.6249886807
 21
386.3807884759
  0
LINE
  5
33D
100
AcDbEntity
  8
0
100
AcDbLine
 62
7
  6
CONTINUOUS
 10
283.8695886807
 20
370.5057884759
 11
283.8695886807
 21
285.9745884759
  0
LINE
  5
33E
100
AcDbEntity
  8
0
100
AcDbLine
 62
7
  6
CONTINUOUS
 10
288.9749886807
 20
386.3807884759
 11
288.9749886807
 21
383.7391884759
  0
LINE
  5
33F
100
AcDbEntity
  8
0
100
AcDbLine
 62
7
  6
CONTINUOUS
 10
306.0450707264
 20
413.6734631045
 11
306.2083908908
 21
414.3207884759
  0
LINE
  5
340
100
AcDbEntity
  8
0
100
AcDbLine
 62
7
  6
CONTINUOUS
 10
171.1569432622
 20
299.044674211
 11
171.8184832999
 21
299.3362789864
  0
LINE
  5
341
100
AcDbEntity
  8
0
100
AcDbLine
 62
7
  6
CONTINUOUS
 10
330.2352742046
 20
388.8716204171
 11
321.721970055
 21
388.8716204171
  0
LINE
  5
342
100
AcDbEntity
  8
0
100
AcDbLine
 62
7
  6
CONTINUOUS
 10
316.9904962356
 20
389.0477884759
 11
194.5885886807
 21
389.0477884759
  0
LINE
  5
343
100
AcDbEntity
  8
0
100
AcDbLine
 62
7
  6
CONTINUOUS
 10
320.8001229016
 20
389.0731884759
 11
321.2342448802
 21
389.0731884759
  0
LINE
  5
344
100
AcDbEntity
  8
0
100
AcDbLine
 62
7
  6
CONTINUOUS
 10
200.7734886807
 20
389.5684884759
 11
210.2476886807
 21
389.5684884759
  0
LINE
  5
345
100
AcDbEntity
  8
0
100
AcDbLine
 62
7
  6
CONTINUOUS
 10
213.4734886807
 20
389.5684884759
 11
222.9476886807
 21
389.5684884759
  0
LINE
  5
346
100
AcDbEntity
  8
0
100
AcDbLine
 62
7
  6
CONTINUOUS
 10
238.8734886807
 20
389.5684884759
 11
248.3476886807
 21
389.5684884759
  0
LINE
  5
347
100
AcDbEntity
  8
0
100
AcDbLine
 62
7
  6
CONTINUOUS
 10
120.4050766907
 20
389.6827884759
 11
141.9199956118
 21
389.6827884759
  0
LINE
  5
348
100
AcDbEntity
  8
0
100
AcDbLine
 62
7
  6
CONTINUOUS
 10
179.8924797754
 20
389.6827884759
 11
201.1177103112
 21
389.6827884759
  0
LINE
  5
349
100
AcDbEntity
  8
0
100
AcDbLine
 62
7
  6
CONTINUOUS
 10
317.5477262322
 20
390.5717884759
 11
321.1771689278
 21
390.5717884759
  0
LINE
  5
34A
100
AcDbEntity
  8
0
100
AcDbLine
 62
7
  6
CONTINUOUS
 10
306.2083848041
 20
390.6987884759
 11
316.0427312423
 21
390.6987884759
  0
LINE
  5
34B
100
AcDbEntity
  8
0
100
AcDbLine
 62
7
  6
CONTINUOUS
 10
120.405068372
 20
392.8831884759
 11
201.1177103112
 21
392.8831884759
  0
LINE
  5
34C
100
AcDbEntity
  8
0
100
AcDbLine
 62
7
  6
CONTINUOUS
 10
248.3476886807
 20
392.9212884759
 11
248.2858692326
 21
392.9212884759
  0
LINE
  5
34D
100
AcDbEntity
  8
0
100
AcDbLine
 62
7
  6
CONTINUOUS
 10
238.9353081288
 20
392.9212884759
 11
238.8734886807
 21
392.9212884759
  0
LINE
  5
34E
100
AcDbEntity
  8
0
100
AcDbLine
 62
7
  6
CONTINUOUS
 10
222.9476886807
 20
392.9212884759
 11
222.8858692326
 21
392.9212884759
  0
LINE
  5
34F
100
AcDbEntity
  8
0
100
AcDbLine
 62
7
  6
CONTINUOUS
 10
213.5353081288
 20
392.9212884759
 11
213.4734886807
 21
392.9212884759
  0
LINE
  5
350
100
AcDbEntity
  8
0
100
AcDbLine
 62
7
  6
CONTINUOUS
 10
210.2476886807
 20
392.9212884759
 11
210.1858692326
 21
392.9212884759
  0
LINE
  5
351
100
AcDbEntity
  8
0
100
AcDbLine
 62
7
  6
CONTINUOUS
 10
200.8353081288
 20
392.9212884759
 11
200.7734886807
 21
392.9212884759
  0
LINE
  5
352
100
AcDbEntity
  8
0
100
AcDbLine
 62
7
  6
CONTINUOUS
 10
200.8166981657
 20
393.0482884759
 11
210.2044791956
 21
393.0482884759
  0
LINE
  5
353
100
AcDbEntity
  8
0
100
AcDbLine
 62
7
  6
CONTINUOUS
 10
213.5166981657
 20
393.0482884759
 11
222.9044791956
 21
393.0482884759
  0
LINE
  5
354
100
AcDbEntity
  8
0
100
AcDbLine
 62
7
  6
CONTINUOUS
 10
238.9166981657
 20
393.0482884759
 11
248.3044791956
 21
393.0482884759
  0
LINE
  5
355
100
AcDbEntity
  8
0
100
AcDbLine
 62
7
  6
CONTINUOUS
 10
151.5522299649
 20
394.0586275416
 11
187.3545188169
 21
394.0586275416
  0
LINE
  5
356
100
AcDbEntity
  8
0
100
AcDbLine
 62
7
  6
CONTINUOUS
 10
338.2886996336
 20
394.5722884759
 11
337.5295992737
 21
394.5722884759
  0
LINE
  5
357
100
AcDbEntity
  8
0
100
AcDbLine
 62
7
  6
CONTINUOUS
 10
337.5295992737
 20
394.5900684759
 11
331.4797771951
 21
394.5900684759
  0
LINE
  5
358
100
AcDbEntity
  8
0
100
AcDbLine
 62
7
  6
CONTINUOUS
 10
338.4396092706
 20
394.8897884759
 11
363.5920449651
 21
394.8897884759
  0
LINE
  5
359
100
AcDbEntity
  8
0
100
AcDbLine
 62
7
  6
CONTINUOUS
 10
363.7984305556
 20
395.1335738653
 11
338.5142839375
 21
395.1335738653
  0
LINE
  5
35A
100
AcDbEntity
  8
0
100
AcDbLine
 62
7
  6
CONTINUOUS
 10
188.3250902183
 20
395.3215884759
 11
195.0003774865
 21
395.3215884759
  0
LINE
  5
35B
100
AcDbEntity
  8
0
100
AcDbLine
 62
7
  6
CONTINUOUS
 10
294.2608787567
 20
395.3977884759
 11
286.9229086106
 21
395.3977884759
  0
LINE
  5
35C
100
AcDbEntity
  8
0
100
AcDbLine
 62
7
  6
CONTINUOUS
 10
338.6218333899
 20
395.6195818244
 11
363.9006927424
 21
395.6195818244
  0
LINE
  5
35D
100
AcDbEntity
  8
0
100
AcDbLine
 62
7
  6
CONTINUOUS
 10
331.2646706822
 20
395.6907044465
 11
322.7513665326
 21
395.6907044465
  0
LINE
  5
35E
100
AcDbEntity
  8
0
100
AcDbLine
 62
7
  6
CONTINUOUS
 10
363.8964423627
 20
395.7373173163
 11
338.6354381765
 21
395.7373173163
  0
LINE
  5
35F
100
AcDbEntity
  8
0
100
AcDbLine
 62
7
  6
CONTINUOUS
 10
200.1324341234
 20
395.8422884759
 11
192.7944639773
 21
395.8422884759
  0
LINE
  5
360
100
AcDbEntity
  8
0
100
AcDbLine
 62
7
  6
CONTINUOUS
 10
187.923899387
 20
395.8422884759
 11
191.4341946115
 21
395.8422884759
  0
LINE
  5
361
100
AcDbEntity
  8
0
100
AcDbLine
 62
7
  6
CONTINUOUS
 10
135.1417522037
 20
396.0939836095
 11
138.1003224789
 21
396.0939836095
  0
LINE
  5
362
100
AcDbEntity
  8
0
100
AcDbLine
 62
7
  6
CONTINUOUS
 10
299.5745812764
 20
396.1597884759
 11
294.5280969315
 21
396.1597884759
  0
LINE
  5
363
100
AcDbEntity
  8
0
100
AcDbLine
 62
7
  6
CONTINUOUS
 10
286.1638082507
 20
396.6677884759
 11
278.7824254729
 21
396.6677884759
  0
LINE
  5
364
100
AcDbEntity
  8
0
100
AcDbLine
 62
7
  6
CONTINUOUS
 10
157.5188309818
 20
396.9181206882
 11
172.6318309818
 21
396.9181206882
  0
LINE
  5
365
100
AcDbEntity
  8
0
100
AcDbLine
 62
7
  6
CONTINUOUS
 10
278.0667377179
 20
397.1757884759
 11
271.993934865
 21
397.1757884759
  0
LINE
  5
366
100
AcDbEntity
  8
0
100
AcDbLine
 62
7
  6
CONTINUOUS
 10
157.1378309818
 20
397.2991206882
 11
173.0128309818
 21
397.2991206882
  0
LINE
  5
367
100
AcDbEntity
  8
0
100
AcDbLine
 62
7
  6
CONTINUOUS
 10
467.3357608244
 20
397.3027884759
 11
364.0731832819
 21
397.3027884759
  0
LINE
  5
368
100
AcDbEntity
  8
0
100
AcDbLine
 62
7
  6
CONTINUOUS
 10
271.9939348646
 20
398.1917884759
 11
200.5674363815
 21
398.1917884759
  0
LINE
  5
369
100
AcDbEntity
  8
0
100
AcDbLine
 62
7
  6
CONTINUOUS
 10
185.9261589357
 20
398.2348724472
 11
173.0128309818
 21
398.2348724472
  0
LINE
  5
36A
100
AcDbEntity
  8
0
100
AcDbLine
 62
7
  6
CONTINUOUS
 10
157.1378309818
 20
398.2348724472
 11
150.1238700837
 21
398.2348724472
  0
LINE
  5
36B
100
AcDbEntity
  8
0
100
AcDbLine
 62
7
  6
CONTINUOUS
 10
148.8006617979
 20
398.6961206882
 11
185.5453018035
 21
398.6961206882
  0
LINE
  5
36C
100
AcDbEntity
  8
0
100
AcDbLine
 62
7
  6
CONTINUOUS
 10
364.1925660435
 20
398.9684523861
 11
338.889220712
 21
398.9684523861
  0
LINE
  5
36D
100
AcDbEntity
  8
0
100
AcDbLine
 62
7
  6
CONTINUOUS
 10
135.6260112993
 20
399.3018860427
 11
138.5845815746
 21
399.3018860427
  0
LINE
  5
36E
100
AcDbEntity
  8
0
100
AcDbLine
 62
7
  6
CONTINUOUS
 10
188.3466402499
 20
399.3220884759
 11
186.7337376922
 21
399.3220884759
  0
LINE
  5
36F
100
AcDbEntity
  8
0
100
AcDbLine
 62
7
  6
CONTINUOUS
 10
134.7786254254
 20
399.3347884759
 11
124.7284650355
 21
399.3347884759
  0
LINE
  5
370
100
AcDbEntity
  8
0
100
AcDbLine
 62
7
  6
CONTINUOUS
 10
338.9417443136
 20
400.1417793924
 11
364.2349244282
 21
400.1417793924
  0
LINE
  5
371
100
AcDbEntity
  8
0
100
AcDbLine
 62
7
  6
CONTINUOUS
 10
364.2246631039
 20
400.1905470299
 11
338.9425424281
 21
400.1905470299
  0
LINE
  5
372
100
AcDbEntity
  8
0
100
AcDbLine
 62
7
  6
CONTINUOUS
 10
181.702423399
 20
401.1345206882
 11
154.9464351538
 21
401.1345206882
  0
LINE
  5
373
100
AcDbEntity
  8
0
100
AcDbLine
 62
7
  6
CONTINUOUS
 10
308.0575510123
 20
402.5097884759
 11
316.5708551619
 21
402.5097884759
  0
LINE
  5
374
100
AcDbEntity
  8
0
100
AcDbLine
 62
7
  6
CONTINUOUS
 10
316.206046114
 20
391.3461138472
 11
316.0427259496
 21
390.6987884759
  0
LINE
  5
375
100
AcDbEntity
  8
0
100
AcDbLine
 62
7
  6
CONTINUOUS
 10
173.5757903381
 20
302.3934039928
 11
173.779303628
 21
302.4591884759
  0
LINE
  5
376
100
AcDbEntity
  8
0
100
AcDbLine
 62
7
  6
CONTINUOUS
 10
170.4210698137
 20
298.8927880361
 11
170.4264908244
 21
298.8944792843
  0
LINE
  5
377
100
AcDbEntity
  8
0
100
AcDbLine
 62
7
  6
CONTINUOUS
 10
192.7809594383
 20
409.17548781
 11
192.7944639773
 21
409.1772884759
  0
LINE
  5
378
100
AcDbEntity
  8
0
100
AcDbLine
 62
7
  6
CONTINUOUS
 10
338.9427256551
 20
404.8290299218
 11
364.2246631039
 21
404.8290299218
  0
LINE
  5
379
100
AcDbEntity
  8
0
100
AcDbLine
 62
7
  6
CONTINUOUS
 10
364.2349244282
 20
404.8777975593
 11
338.9419313934
 21
404.8777975593
  0
LINE
  5
37A
100
AcDbEntity
  8
0
100
AcDbLine
 62
7
  6
CONTINUOUS
 10
188.7459287246
 20
405.6847884759
 11
138.9875368913
 21
405.6847884759
  0
LINE
  5
37B
100
AcDbEntity
  8
0
100
AcDbLine
 62
7
  6
CONTINUOUS
 10
134.7784497522
 20
405.6847884759
 11
124.7284650355
 21
405.6847884759
  0
LINE
  5
37C
100
AcDbEntity
  8
0
100
AcDbLine
 62
7
  6
CONTINUOUS
 10
135.6260112993
 20
405.717690909
 11
138.5845815746
 21
405.717690909
  0
LINE
  5
37D
100
AcDbEntity
  8
0
100
AcDbLine
 62
7
  6
CONTINUOUS
 10
338.889220712
 20
406.0511245656
 11
364.1925660435
 21
406.0511245656
  0
LINE
  5
37E
100
AcDbEntity
  8
0
100
AcDbLine
 62
7
  6
CONTINUOUS
 10
271.9939348654
 20
406.8277884759
 11
200.5674167732
 21
406.8277884759
  0
LINE
  5
37F
100
AcDbEntity
  8
0
100
AcDbLine
 62
7
  6
CONTINUOUS
 10
319.5324514812
 20
407.2087884759
 11
318.1734869603
 21
407.2087884759
  0
LINE
  5
380
100
AcDbEntity
  8
0
100
AcDbLine
 62
7
  6
CONTINUOUS
 10
321.1771689278
 20
407.2087884759
 11
322.1893027411
 21
407.2087884759
  0
LINE
  5
381
100
AcDbEntity
  8
0
100
AcDbLine
 62
7
  6
CONTINUOUS
 10
467.3357608244
 20
407.7167884759
 11
364.0731832819
 21
407.7167884759
  0
LINE
  5
382
100
AcDbEntity
  8
0
100
AcDbLine
 62
7
  6
CONTINUOUS
 10
278.0667377173
 20
407.8437884759
 11
271.993934865
 21
407.8437884759
  0
LINE
  5
383
100
AcDbEntity
  8
0
100
AcDbLine
 62
7
  6
CONTINUOUS
 10
170.6252309818
 20
408.0941206882
 11
159.5254309818
 21
408.0941206882
  0
LINE
  5
384
100
AcDbEntity
  8
0
100
AcDbLine
 62
7
  6
CONTINUOUS
 10
286.1638082507
 20
408.3517884759
 11
278.7824254729
 21
408.3517884759
  0
LINE
  5
385
100
AcDbEntity
  8
0
100
AcDbLine
 62
7
  6
CONTINUOUS
 10
169.8632309818
 20
408.8561206882
 11
160.2874309818
 21
408.8561206882
  0
LINE
  5
386
100
AcDbEntity
  8
0
100
AcDbLine
 62
7
  6
CONTINUOUS
 10
299.5745812764
 20
408.8597884759
 11
294.5281757085
 21
408.8597884759
  0
LINE
  5
387
100
AcDbEntity
  8
0
100
AcDbLine
 62
7
  6
CONTINUOUS
 10
135.1417522037
 20
408.9255933422
 11
138.1003224789
 21
408.9255933422
  0
LINE
  5
388
100
AcDbEntity
  8
0
100
AcDbLine
 62
7
  6
CONTINUOUS
 10
200.1324341234
 20
409.1772884759
 11
192.7944639773
 21
409.1772884759
  0
LINE
  5
389
100
AcDbEntity
  8
0
100
AcDbLine
 62
7
  6
CONTINUOUS
 10
338.6354041441
 20
409.2822596354
 11
363.8964423627
 21
409.2822596354
  0
LINE
  5
38A
100
AcDbEntity
  8
0
100
AcDbLine
 62
7
  6
CONTINUOUS
 10
331.2646706822
 20
409.3288725053
 11
322.7513665326
 21
409.3288725053
  0
LINE
  5
38B
100
AcDbEntity
  8
0
100
AcDbLine
 62
7
  6
CONTINUOUS
 10
363.9006927424
 20
409.3999951273
 11
338.6218298223
 21
409.3999951273
  0
LINE
  5
38C
100
AcDbEntity
  8
0
100
AcDbLine
 62
7
  6
CONTINUOUS
 10
294.2608787567
 20
409.6217884759
 11
286.9229086106
 21
409.6217884759
  0
LINE
  5
38D
100
AcDbEntity
  8
0
100
AcDbLine
 62
7
  6
CONTINUOUS
 10
338.5140320886
 20
409.8860030864
 11
363.7984305556
 21
409.8860030864
  0
LINE
  5
38E
100
AcDbEntity
  8
0
100
AcDbLine
 62
7
  6
CONTINUOUS
 10
338.4392339239
 20
410.1297884759
 11
363.5920449651
 21
410.1297884759
  0
LINE
  5
38F
100
AcDbEntity
  8
0
100
AcDbLine
 62
7
  6
CONTINUOUS
 10
337.5295992737
 20
410.4295084759
 11
331.4797771951
 21
410.4295084759
  0
LINE
  5
390
100
AcDbEntity
  8
0
100
AcDbLine
 62
7
  6
CONTINUOUS
 10
306.6003145691
 20
410.4295084759
 11
301.1383280179
 21
410.4295084759
  0
LINE
  5
391
100
AcDbEntity
  8
0
100
AcDbLine
 62
7
  6
CONTINUOUS
 10
317.971735189
 20
410.4345884759
 11
318.9435924209
 21
410.4345884759
  0
LINE
  5
392
100
AcDbEntity
  8
0
100
AcDbLine
 62
7
  6
CONTINUOUS
 10
338.2886996336
 20
410.4472884759
 11
337.5295992737
 21
410.4472884759
  0
LINE
  5
393
100
AcDbEntity
  8
0
100
AcDbLine
 62
7
  6
CONTINUOUS
 10
322.1893027411
 20
412.1617884759
 11
319.5324514812
 21
412.1617884759
  0
LINE
  5
394
100
AcDbEntity
  8
0
100
AcDbLine
 62
7
  6
CONTINUOUS
 10
318.9435924209
 20
412.1617884759
 11
317.9075546758
 21
412.1617884759
  0
LINE
  5
395
100
AcDbEntity
  8
0
100
AcDbLine
 62
7
  6
CONTINUOUS
 10
322.0564773891
 20
413.6857884759
 11
317.6757927487
 21
413.6857884759
  0
LINE
  5
396
100
AcDbEntity
  8
0
100
AcDbLine
 62
7
  6
CONTINUOUS
 10
306.2083855741
 20
414.3207884759
 11
316.0427320886
 21
414.3207884759
  0
LINE
  5
397
100
AcDbEntity
  8
0
100
AcDbLine
 62
7
  6
CONTINUOUS
 10
317.0338895551
 20
415.9463884759
 11
315.8699356699
 21
415.9463884759
  0
LINE
  5
398
100
AcDbEntity
  8
0
100
AcDbLine
 62
7
  6
CONTINUOUS
 10
320.0702909949
 20
415.9463884759
 11
321.2342448802
 21
415.9463884759
  0
LINE
  5
399
100
AcDbEntity
  8
0
100
AcDbLine
 62
7
  6
CONTINUOUS
 10
330.2352742046
 20
416.1479565347
 11
321.721970055
 21
416.1479565347
  0
LINE
  5
39A
100
AcDbEntity
  8
0
100
AcDbLine
 62
7
  6
CONTINUOUS
 10
301.1383280179
 20
394.5900684759
 11
301.0779390484
 21
394.6204365215
  0
LINE
  5
39B
100
AcDbEntity
  8
0
100
AcDbLine
 62
7
  6
CONTINUOUS
 10
299.5623602827
 20
396.1476606696
 11
301.0779390484
 21
394.6204365215
  0
LINE
  5
39C
100
AcDbEntity
  8
0
100
AcDbLine
 62
7
  6
CONTINUOUS
 10
306.0450707264
 20
391.3461138472
 11
306.2083908908
 21
390.6987884759
  0
LINE
  5
39D
100
AcDbEntity
  8
0
100
AcDbLine
 62
7
  6
CONTINUOUS
 10
312.3175886807
 20
441.9051884759
 11
312.3175886807
 21
478.6081884759
  0
LINE
  5
39E
100
AcDbEntity
  8
0
100
AcDbLine
 62
7
  6
CONTINUOUS
 10
316.9904962356
 20
386.3807884759
 11
316.9904962356
 21
389.0477884759
  0
LINE
  5
39F
100
AcDbEntity
  8
0
100
AcDbLine
 62
7
  6
CONTINUOUS
 10
317.9075546758
 20
412.1617884758
 11
317.9075546758
 21
411.3616890057
  0
LINE
  5
3A0
100
AcDbEntity
  8
0
100
AcDbLine
 62
7
  6
CONTINUOUS
 10
318.520317668
 20
390.5717884759
 11
318.520317668
 21
407.2087884759
  0
LINE
  5
3A1
100
AcDbEntity
  8
0
100
AcDbLine
 62
7
  6
CONTINUOUS
 10
318.9435924209
 20
410.4345884759
 11
318.9435924209
 21
412.1617884759
  0
LINE
  5
3A2
100
AcDbEntity
  8
0
100
AcDbLine
 62
7
  6
CONTINUOUS
 10
319.5324514812
 20
412.1617884759
 11
319.5324514812
 21
407.2087884759
  0
LINE
  5
3A3
100
AcDbEntity
  8
0
100
AcDbLine
 62
7
  6
CONTINUOUS
 10
321.1771689278
 20
390.5717884759
 11
321.1771689278
 21
407.2087884759
  0
LINE
  5
3A4
100
AcDbEntity
  8
0
100
AcDbLine
 62
7
  6
CONTINUOUS
 10
322.1893027411
 20
407.2087884759
 11
322.1893027411
 21
412.1617884759
  0
LINE
  5
3A5
100
AcDbEntity
  8
0
100
AcDbLine
 62
7
  6
CONTINUOUS
 10
319.4251499655
 20
413.723615352
 11
319.4258925493
 21
413.7292345717
  0
LINE
  5
3A6
100
AcDbEntity
  8
0
100
AcDbLine
 62
7
  6
CONTINUOUS
 10
319.427596694
 20
413.681084465
 11
319.4283878013
 21
413.6857884759
  0
LINE
  5
3A7
100
AcDbEntity
  8
0
100
AcDbLine
 62
7
  6
CONTINUOUS
 10
331.0068683088
 20
391.1393701009
 11
331.2376976184
 21
392.2811624327
  0
LINE
  5
3A8
100
AcDbEntity
  8
0
100
AcDbLine
 62
7
  6
CONTINUOUS
 10
188.7346106345
 20
408.0962793464
 11
192.7809594383
 21
409.17548781
  0
LINE
  5
3A9
100
AcDbEntity
  8
0
100
AcDbLine
 62
7
  6
CONTINUOUS
 10
218.3070348986
 20
464.7753922663
 11
218.3269662145
 21
464.7651884759
  0
LINE
  5
3AA
100
AcDbEntity
  8
0
100
AcDbLine
 62
7
  6
CONTINUOUS
 10
306.4910446428
 20
410.7322235519
 11
306.3811811705
 21
410.8282884759
  0
LINE
  5
3AB
100
AcDbEntity
  8
0
100
AcDbLine
 62
7
  6
CONTINUOUS
 10
306.5973783763
 20
410.4498211903
 11
306.5955834504
 21
410.4562264262
  0
LINE
  5
3AC
100
AcDbEntity
  8
0
100
AcDbLine
 62
7
  6
CONTINUOUS
 10
316.206046114
 20
413.6734631045
 11
316.0427259496
 21
414.3207884759
  0
LINE
  5
3AD
100
AcDbEntity
  8
0
100
AcDbLine
 62
7
  6
CONTINUOUS
 10
306.5972945685
 20
410.4467435387
 11
306.5955834504
 21
410.4562264262
  0
LINE
  5
3AE
100
AcDbEntity
  8
0
100
AcDbLine
 62
7
  6
CONTINUOUS
 10
338.5161181404
 20
395.0134681557
 11
338.5177565824
 21
395.020039068
  0
LINE
  5
3AF
100
AcDbEntity
  8
0
100
AcDbLine
 62
7
  6
CONTINUOUS
 10
338.512637086
 20
395.1281974995
 11
338.5142839375
 21
395.1335738653
  0
LINE
  5
3B0
100
AcDbEntity
  8
0
100
AcDbLine
 62
7
  6
CONTINUOUS
 10
78.8915886807
 20
441.9051884759
 11
312.3175886807
 21
441.9051884759
  0
LINE
  5
3B1
100
AcDbEntity
  8
0
100
AcDbLine
 62
7
  6
CONTINUOUS
 10
277.7735886807
 20
446.9851884759
 11
278.7673025153
 21
446.9851884759
  0
LINE
  5
3B2
100
AcDbEntity
  8
0
100
AcDbLine
 62
7
  6
CONTINUOUS
 10
331.237697618
 20
412.7384145215
 11
331.0068679991
 21
413.8802068429
  0
LINE
  5
3B3
100
AcDbEntity
  8
0
100
AcDbLine
 62
7
  6
CONTINUOUS
 10
364.2246631039
 20
404.8290299218
 11
364.2349244282
 21
404.8777975593
  0
LINE
  5
3B4
100
AcDbEntity
  8
0
100
AcDbLine
 62
7
  6
CONTINUOUS
 10
150.2655886807
 20
452.4461884759
 11
175.6655886807
 21
452.4461884759
  0
LINE
  5
3B5
100
AcDbEntity
  8
0
100
AcDbLine
 62
7
  6
CONTINUOUS
 10
198.0175886807
 20
452.4461884759
 11
223.4175886807
 21
452.4461884759
  0
LINE
  5
3B6
100
AcDbEntity
  8
0
100
AcDbLine
 62
7
  6
CONTINUOUS
 10
156.9457886807
 20
455.3036884759
 11
159.6127886807
 21
455.3036884759
  0
LINE
  5
3B7
100
AcDbEntity
  8
0
100
AcDbLine
 62
7
  6
CONTINUOUS
 10
177.9007886807
 20
455.3036884759
 11
180.5677886807
 21
455.3036884759
  0
LINE
  5
3B8
100
AcDbEntity
  8
0
100
AcDbLine
 62
7
  6
CONTINUOUS
 10
148.1319886807
 20
456.4847884759
 11
156.9457886807
 21
456.4847884759
  0
LINE
  5
3B9
100
AcDbEntity
  8
0
100
AcDbLine
 62
7
  6
CONTINUOUS
 10
147.3699886807
 20
457.2467884759
 11
156.9457886807
 21
457.2467884759
  0
LINE
  5
3BA
100
AcDbEntity
  8
0
100
AcDbLine
 62
7
  6
CONTINUOUS
 10
159.6127886807
 20
457.2467884759
 11
160.0699886807
 21
457.2467884759
  0
LINE
  5
3BB
100
AcDbEntity
  8
0
100
AcDbLine
 62
7
  6
CONTINUOUS
 10
160.0699886807
 20
458.7707884759
 11
159.6127886807
 21
458.7707884759
  0
LINE
  5
3BC
100
AcDbEntity
  8
0
100
AcDbLine
 62
7
  6
CONTINUOUS
 10
156.9457886807
 20
458.7707884759
 11
147.3699886807
 21
458.7707884759
  0
LINE
  5
3BD
100
AcDbEntity
  8
0
100
AcDbLine
 62
7
  6
CONTINUOUS
 10
143.929546373
 20
458.8723884759
 11
156.9457886807
 21
458.8723884759
  0
LINE
  5
3BE
100
AcDbEntity
  8
0
100
AcDbLine
 62
7
  6
CONTINUOUS
 10
159.6127886807
 20
458.8723884759
 11
161.839321634
 21
458.8723884759
  0
LINE
  5
3BF
100
AcDbEntity
  8
0
100
AcDbLine
 62
7
  6
CONTINUOUS
 10
161.839321634
 20
459.9391884759
 11
159.6540884322
 21
459.9391884759
  0
LINE
  5
3C0
100
AcDbEntity
  8
0
100
AcDbLine
 62
7
  6
CONTINUOUS
 10
156.960169543
 20
459.9391884759
 11
144.2184763723
 21
459.9391884759
  0
LINE
  5
3C1
100
AcDbEntity
  8
0
100
AcDbLine
 62
7
  6
CONTINUOUS
 10
132.3488564019
 20
460.0407884759
 11
132.7395886807
 21
460.0407884759
  0
LINE
  5
3C2
100
AcDbEntity
  8
0
100
AcDbLine
 62
7
  6
CONTINUOUS
 10
177.3927886807
 20
460.3201884759
 11
160.1207886807
 21
460.3201884759
  0
LINE
  5
3C3
100
AcDbEntity
  8
0
100
AcDbLine
 62
7
  6
CONTINUOUS
 10
144.3216656578
 20
460.3201884759
 11
157.0033121298
 21
460.3201884759
  0
LINE
  5
3C4
100
AcDbEntity
  8
0
100
AcDbLine
 62
7
  6
CONTINUOUS
 10
115.9755886807
 20
461.7044884759
 11
116.43969491
 21
461.7044884759
  0
LINE
  5
3C5
100
AcDbEntity
  8
0
100
AcDbLine
 62
7
  6
CONTINUOUS
 10
133.427194087
 20
461.7044884759
 11
134.508921634
 21
461.7044884759
  0
LINE
  5
3C6
100
AcDbEntity
  8
0
100
AcDbLine
 62
7
  6
CONTINUOUS
 10
177.3927886807
 20
462.9871884759
 11
160.1207886807
 21
462.9871884759
  0
LINE
  5
3C7
100
AcDbEntity
  8
0
100
AcDbLine
 62
7
  6
CONTINUOUS
 10
145.7792785078
 20
462.9871884759
 11
160.0471021299
 21
462.9871884759
  0
LINE
  5
3C8
100
AcDbEntity
  8
0
100
AcDbLine
 62
7
  6
CONTINUOUS
 10
224.8264482576
 20
464.7651884759
 11
218.3269662145
 21
464.7651884759
  0
LINE
  5
3C9
100
AcDbEntity
  8
0
100
AcDbLine
 62
7
  6
CONTINUOUS
 10
223.4175886807
 20
465.1461884759
 11
198.0175886807
 21
465.1461884759
  0
LINE
  5
3CA
100
AcDbEntity
  8
0
100
AcDbLine
 62
7
  6
CONTINUOUS
 10
175.6655886807
 20
465.1461884759
 11
150.2655886807
 21
465.1461884759
  0
LINE
  5
3CB
100
AcDbEntity
  8
0
100
AcDbLine
 62
7
  6
CONTINUOUS
 10
225.682871367
 20
478.9891098252
 11
225.7028026834
 21
478.9789846854
  0
LINE
  5
3CC
100
AcDbEntity
  8
0
100
AcDbLine
 62
7
  6
CONTINUOUS
 10
338.5140320886
 20
409.8860030864
 11
338.5124019233
 21
409.8913161912
  0
LINE
  5
3CD
100
AcDbEntity
  8
0
100
AcDbLine
 62
7
  6
CONTINUOUS
 10
338.517528844
 20
410.0004537272
 11
338.5159068259
 21
410.0069517639
  0
LINE
  5
3CE
100
AcDbEntity
  8
0
100
AcDbLine
 62
7
  6
CONTINUOUS
 10
363.9006927424
 20
395.6195818244
 11
363.8964423627
 21
395.7373173163
  0
LINE
  5
3CF
100
AcDbEntity
  8
0
100
AcDbLine
 62
7
  6
CONTINUOUS
 10
363.8964423627
 20
409.2822596354
 11
363.9006927424
 21
409.3999951273
  0
LINE
  5
3D0
100
AcDbEntity
  8
0
100
AcDbLine
 62
7
  6
CONTINUOUS
 10
66.8342160451
 20
466.1571331091
 11
69.8000174724
 21
466.1571331091
  0
LINE
  5
3D1
100
AcDbEntity
  8
0
100
AcDbLine
 62
7
  6
CONTINUOUS
 10
66.4989205116
 20
466.5006872652
 11
69.4647219389
 21
466.5006872652
  0
LINE
  5
3D2
100
AcDbEntity
  8
0
100
AcDbLine
 62
7
  6
CONTINUOUS
 10
369.2498478019
 20
466.6701884759
 11
312.3175886807
 21
466.6701884759
  0
LINE
  5
3D3
100
AcDbEntity
  8
0
100
AcDbLine
 62
7
  6
CONTINUOUS
 10
279.6456307544
 20
466.6701884759
 11
275.1395466069
 21
466.6701884759
  0
LINE
  5
3D4
100
AcDbEntity
  8
0
100
AcDbLine
 62
7
  6
CONTINUOUS
 10
116.4025279398
 20
467.6861884759
 11
111.3549978726
 21
467.6861884759
  0
LINE
  5
3D5
100
AcDbEntity
  8
0
100
AcDbLine
 62
7
  6
CONTINUOUS
 10
116.4857522362
 20
468.7021884759
 11
111.1474251252
 21
468.7021884759
  0
LINE
  5
3D6
100
AcDbEntity
  8
0
100
AcDbLine
 62
7
  6
CONTINUOUS
 10
78.8915886807
 20
468.7021884759
 11
70.063611403
 21
468.7021884759
  0
LINE
  5
3D7
100
AcDbEntity
  8
0
100
AcDbLine
 62
7
  6
CONTINUOUS
 10
65.9509234497
 20
468.7021884759
 11
56.2434009466
 21
468.7021884759
  0
LINE
  5
3D8
100
AcDbEntity
  8
0
100
AcDbLine
 62
7
  6
CONTINUOUS
 10
66.3468440854
 20
472.2207426319
 11
69.3126455127
 21
472.2207426319
  0
LINE
  5
3D9
100
AcDbEntity
  8
0
100
AcDbLine
 62
7
  6
CONTINUOUS
 10
239.1655886807
 20
473.6551884759
 11
180.9995886807
 21
473.6551884759
  0
LINE
  5
3DA
100
AcDbEntity
  8
0
100
AcDbLine
 62
7
  6
CONTINUOUS
 10
312.3175886807
 20
474.4171884759
 11
239.9275886807
 21
474.4171884759
  0
LINE
  5
3DB
100
AcDbEntity
  8
0
100
AcDbLine
 62
7
  6
CONTINUOUS
 10
180.2375886807
 20
474.4171884759
 11
78.8915886807
 21
474.4171884759
  0
LINE
  5
3DC
100
AcDbEntity
  8
0
100
AcDbLine
 62
7
  6
CONTINUOUS
 10
78.8915886807
 20
475.0521884759
 11
70.0647689905
 21
475.0521884759
  0
LINE
  5
3DD
100
AcDbEntity
  8
0
100
AcDbLine
 62
7
  6
CONTINUOUS
 10
65.9492859555
 20
475.0521884759
 11
56.2434009466
 21
475.0521884759
  0
LINE
  5
3DE
100
AcDbEntity
  8
0
100
AcDbLine
 62
7
  6
CONTINUOUS
 10
180.2375886807
 20
475.9411884759
 11
239.9275886807
 21
475.9411884759
  0
LINE
  5
3DF
100
AcDbEntity
  8
0
100
AcDbLine
 62
7
  6
CONTINUOUS
 10
369.2498478019
 20
477.0841884759
 11
312.3175886807
 21
477.0841884759
  0
LINE
  5
3E0
100
AcDbEntity
  8
0
100
AcDbLine
 62
7
  6
CONTINUOUS
 10
66.5300631926
 20
477.5972438426
 11
69.49586462
 21
477.5972438426
  0
LINE
  5
3E1
100
AcDbEntity
  8
0
100
AcDbLine
 62
7
  6
CONTINUOUS
 10
78.8915886807
 20
478.6081884759
 11
312.3175886807
 21
478.6081884759
  0
LINE
  5
3E2
100
AcDbEntity
  8
0
100
AcDbLine
 62
7
  6
CONTINUOUS
 10
225.6828713675
 20
478.9891884759
 11
218.3269662145
 21
478.9891884759
  0
LINE
  5
3E3
100
AcDbEntity
  8
0
100
AcDbLine
 62
7
  6
CONTINUOUS
 10
254.3768091493
 20
479.2177884759
 11
248.2214758607
 21
479.2177884759
  0
LINE
  5
3E4
100
AcDbEntity
  8
0
100
AcDbLine
 62
7
  6
CONTINUOUS
 10
364.2349244282
 20
400.1417793924
 11
364.2246631039
 21
400.1905470299
  0
LINE
  5
3E5
100
AcDbEntity
  8
0
100
AcDbLine
 62
7
  6
CONTINUOUS
 10
369.2409498931
 20
468.7067437395
 11
369.2498477765
 21
468.7026417276
  0
LINE
  5
3E6
100
AcDbEntity
  8
0
100
AcDbLine
 62
7
  6
CONTINUOUS
 10
369.2587457108
 20
475.0476332123
 11
369.2498478274
 21
475.0517352241
  0
LINE
  5
3E7
100
AcDbEntity
  8
0
100
AcDbLine
 62
7
  6
CONTINUOUS
 10
369.2498477964
 20
466.6705542034
 11
369.2352552314
 21
466.6776591082
  0
LINE
  5
3E8
100
AcDbEntity
  8
0
100
AcDbLine
 62
7
  6
CONTINUOUS
 10
369.2498478075
 20
477.0838227483
 11
369.2644403725
 21
477.0767178436
  0
ARC
  5
3E9
100
AcDbEntity
  8
0
100
AcDbCircle
 62
7
  6
CONTINUOUS
 10
115.4675886807
 20
285.9745884759
 40
6.35
100
AcDbArc
 50
180.0
 51
270.0
  0
CIRCLE
  5
3EA
100
AcDbEntity
  8
0
100
AcDbCircle
 62
7
  6
CONTINUOUS
 10
131.7235886807
 20
310.7395884759
 40
2.7813
  0
ARC
  5
3EB
100
AcDbEntity
  8
0
100
AcDbCircle
 62
7
  6
CONTINUOUS
 10
115.4675886807
 20
370.5057884759
 40
6.35
100
AcDbArc
 50
90.0
 51
180.0
  0
CIRCLE
  5
3EC
100
AcDbEntity
  8
0
100
AcDbCircle
 62
7
  6
CONTINUOUS
 10
131.7235886807
 20
345.7407884759
 40
2.7813
  0
ARC
  5
3ED
100
AcDbEntity
  8
0
100
AcDbCircle
 62
7
  6
CONTINUOUS
 10
169.3909111764
 20
302.8404150331
 40
4.2454285901
100
AcDbArc
 50
353.8960174643
 51
359.9969424112
  0
ARC
  5
3EE
100
AcDbEntity
  8
0
100
AcDbCircle
 62
7
  6
CONTINUOUS
 10
169.3909155454
 20
302.8399630657
 40
4.2454242211
100
AcDbArc
 50
0.003042111
 51
6.1030249177
  0
ARC
  5
3EF
100
AcDbEntity
  8
0
100
AcDbCircle
 62
7
  6
CONTINUOUS
 10
169.0582911677
 20
302.8399730776
 40
4.2435871
100
AcDbArc
 50
0.0029082495
 51
8.5476850233
  0
ARC
  5
3F0
100
AcDbEntity
  8
0
100
AcDbCircle
 62
7
  6
CONTINUOUS
 10
169.0582911677
 20
302.8404038741
 40
4.2435871
100
AcDbArc
 50
351.4523149767
 51
359.9970917505
  0
ARC
  5
3F1
100
AcDbEntity
  8
0
100
AcDbCircle
 62
7
  6
CONTINUOUS
 10
170.0463138717
 20
302.839981651
 40
4.2433343598
100
AcDbArc
 50
171.477444427
 51
188.522555573
  0
ARC
  5
3F2
100
AcDbEntity
  8
0
100
AcDbCircle
 62
7
  6
CONTINUOUS
 10
169.0541428749
 20
302.8403953007
 40
4.2433343598
100
AcDbArc
 50
351.477444427
 51
8.522555573
  0
ARC
  5
3F3
100
AcDbEntity
  8
0
100
AcDbCircle
 62
7
  6
CONTINUOUS
 10
169.4184720088
 20
302.8430380385
 40
4.2176970199
100
AcDbArc
 50
6.1012883113
 51
14.2661091265
  0
ARC
  5
3F4
100
AcDbEntity
  8
0
100
AcDbCircle
 62
7
  6
CONTINUOUS
 10
169.4233496363
 20
302.8364622251
 40
4.212753751
100
AcDbArc
 50
345.7315097413
 51
353.9025608669
  0
ARC
  5
3F5
100
AcDbEntity
  8
0
100
AcDbCircle
 62
7
  6
CONTINUOUS
 10
169.4820559013
 20
302.8593947247
 40
4.1520432436
100
AcDbArc
 50
14.2635760728
 51
26.533888496
  0
ARC
  5
3F6
100
AcDbEntity
  8
0
100
AcDbCircle
 62
7
  6
CONTINUOUS
 10
169.501025373
 20
302.8139288435
 40
4.1319213646
100
AcDbArc
 50
333.4357462117
 51
345.7688639969
  0
ARC
  5
3F7
100
AcDbEntity
  8
0
100
AcDbCircle
 62
7
  6
CONTINUOUS
 10
169.5841535758
 20
302.9075873997
 40
4.0391712846
100
AcDbArc
 50
26.5692551779
 51
35.0587194649
  0
ARC
  5
3F8
100
AcDbEntity
  8
0
100
AcDbCircle
 62
7
  6
CONTINUOUS
 10
169.5989998659
 20
302.7639346471
 40
4.0219323435
100
AcDbArc
 50
324.9205558071
 51
333.448598435
  0
ARC
  5
3F9
100
AcDbEntity
  8
0
100
AcDbCircle
 62
7
  6
CONTINUOUS
 10
169.6913962553
 20
302.9827847426
 40
3.9081917813
100
AcDbArc
 50
35.0594239118
 51
48.5501742027
  0
ARC
  5
3FA
100
AcDbEntity
  8
0
100
AcDbCircle
 62
7
  6
CONTINUOUS
 10
169.7878628384
 20
303.0856147143
 40
3.7672605044
100
AcDbArc
 50
48.7478355176
 51
57.2469766455
  0
ARC
  5
3FB
100
AcDbEntity
  8
0
100
AcDbCircle
 62
7
  6
CONTINUOUS
 10
169.7988711339
 20
302.5801548716
 40
3.7490201192
100
AcDbArc
 50
302.7326439303
 51
311.2724341934
  0
ARC
  5
3FC
100
AcDbEntity
  8
0
100
AcDbCircle
 62
7
  6
CONTINUOUS
 10
169.8883867591
 20
303.2976001309
 40
3.5304070166
100
AcDbArc
 50
82.0071053226
 51
84.14330483
  0
ARC
  5
3FD
100
AcDbEntity
  8
0
100
AcDbCircle
 62
7
  6
CONTINUOUS
 10
169.8883974862
 20
302.3826841718
 40
3.5303138006
100
AcDbArc
 50
275.8565835291
 51
278.0316201825
  0
ARC
  5
3FE
100
AcDbEntity
  8
0
100
AcDbCircle
 62
7
  6
CONTINUOUS
 10
169.8884595119
 20
303.2981501014
 40
3.5298522726
100
AcDbArc
 50
81.2727305613
 51
82.0070334562
  0
ARC
  5
3FF
100
AcDbEntity
  8
0
100
AcDbCircle
 62
7
  6
CONTINUOUS
 10
169.8884791832
 20
302.3820688711
 40
3.5296931205
100
AcDbArc
 50
278.0317025451
 51
278.6784286383
  0
ARC
  5
400
100
AcDbEntity
  8
0
100
AcDbCircle
 62
7
  6
CONTINUOUS
 10
169.888792052
 20
302.3788628996
 40
3.5264722127
100
AcDbArc
 50
270.0039233302
 51
275.8565414728
  0
ARC
  5
401
100
AcDbEntity
  8
0
100
AcDbCircle
 62
7
  6
CONTINUOUS
 10
169.8887943564
 20
303.3015674808
 40
3.5264187839
100
AcDbArc
 50
84.1433152058
 51
89.9961140519
  0
ARC
  5
402
100
AcDbEntity
  8
0
100
AcDbCircle
 62
7
  6
CONTINUOUS
 10
169.5543676847
 20
303.3022916042
 40
3.5256968776
100
AcDbArc
 50
84.5716098883
 51
89.9966792179
  0
ARC
  5
403
100
AcDbEntity
  8
0
100
AcDbCircle
 62
7
  6
CONTINUOUS
 10
169.5543676847
 20
302.3780853474
 40
3.5256968775
100
AcDbArc
 50
270.0033207821
 51
275.4283901122
  0
ARC
  5
404
100
AcDbEntity
  8
0
100
AcDbCircle
 62
7
  6
CONTINUOUS
 10
157.3687829164
 20
318.3703891411
 40
2.8302021241
100
AcDbArc
 50
248.309027682
 51
269.9418269009
  0
ARC
  5
405
100
AcDbEntity
  8
0
100
AcDbCircle
 62
7
  6
CONTINUOUS
 10
166.8509895405
 20
302.5981215017
 40
2.2225081895
100
AcDbArc
 50
244.877698692
 51
261.9880151932
  0
ARC
  5
406
100
AcDbEntity
  8
0
100
AcDbCircle
 62
7
  6
CONTINUOUS
 10
166.8509465937
 20
303.0824095097
 40
2.2223489569
100
AcDbArc
 50
98.0146208422
 51
115.08470957
  0
ARC
  5
407
100
AcDbEntity
  8
0
100
AcDbCircle
 62
7
  6
CONTINUOUS
 10
169.3909111764
 20
353.6404150331
 40
4.2454285901
100
AcDbArc
 50
353.8960174643
 51
359.9969424112
  0
ARC
  5
408
100
AcDbEntity
  8
0
100
AcDbCircle
 62
7
  6
CONTINUOUS
 10
169.3909155454
 20
353.6399630657
 40
4.2454242211
100
AcDbArc
 50
0.003042111
 51
6.1030249177
  0
ARC
  5
409
100
AcDbEntity
  8
0
100
AcDbCircle
 62
7
  6
CONTINUOUS
 10
169.0582911677
 20
353.6399730776
 40
4.2435871
100
AcDbArc
 50
0.0029082495
 51
8.5476850233
  0
ARC
  5
40A
100
AcDbEntity
  8
0
100
AcDbCircle
 62
7
  6
CONTINUOUS
 10
169.0582911677
 20
353.6404038741
 40
4.2435871001
100
AcDbArc
 50
351.4523149767
 51
359.9970917505
  0
ARC
  5
40B
100
AcDbEntity
  8
0
100
AcDbCircle
 62
7
  6
CONTINUOUS
 10
170.0463138717
 20
353.639981651
 40
4.2433343598
100
AcDbArc
 50
171.477444427
 51
188.522555573
  0
ARC
  5
40C
100
AcDbEntity
  8
0
100
AcDbCircle
 62
7
  6
CONTINUOUS
 10
169.0541428749
 20
353.6403953007
 40
4.2433343598
100
AcDbArc
 50
351.477444427
 51
8.522555573
  0
ARC
  5
40D
100
AcDbEntity
  8
0
100
AcDbCircle
 62
7
  6
CONTINUOUS
 10
169.4184720088
 20
353.6430380385
 40
4.2176970199
100
AcDbArc
 50
6.1012883112
 51
14.2661091265
  0
ARC
  5
40E
100
AcDbEntity
  8
0
100
AcDbCircle
 62
7
  6
CONTINUOUS
 10
169.4233496363
 20
353.6364622251
 40
4.212753751
100
AcDbArc
 50
345.7315097413
 51
353.9025608669
  0
ARC
  5
40F
100
AcDbEntity
  8
0
100
AcDbCircle
 62
7
  6
CONTINUOUS
 10
169.4820559013
 20
353.6593947247
 40
4.1520432436
100
AcDbArc
 50
14.2635760728
 51
26.533888496
  0
ARC
  5
410
100
AcDbEntity
  8
0
100
AcDbCircle
 62
7
  6
CONTINUOUS
 10
169.501025373
 20
353.6139288435
 40
4.1319213646
100
AcDbArc
 50
333.4357462117
 51
345.768863997
  0
ARC
  5
411
100
AcDbEntity
  8
0
100
AcDbCircle
 62
7
  6
CONTINUOUS
 10
169.5841535758
 20
353.7075873997
 40
4.0391712846
100
AcDbArc
 50
26.5692551778
 51
35.0587194649
  0
ARC
  5
412
100
AcDbEntity
  8
0
100
AcDbCircle
 62
7
  6
CONTINUOUS
 10
169.5989998659
 20
353.5639346471
 40
4.0219323435
100
AcDbArc
 50
324.9205558071
 51
333.448598435
  0
ARC
  5
413
100
AcDbEntity
  8
0
100
AcDbCircle
 62
7
  6
CONTINUOUS
 10
169.6913962554
 20
353.7827847426
 40
3.9081917813
100
AcDbArc
 50
35.0594239118
 51
48.5501742027
  0
ARC
  5
414
100
AcDbEntity
  8
0
100
AcDbCircle
 62
7
  6
CONTINUOUS
 10
169.7878628384
 20
353.8856147143
 40
3.7672605044
100
AcDbArc
 50
48.7478355176
 51
57.2469766455
  0
ARC
  5
415
100
AcDbEntity
  8
0
100
AcDbCircle
 62
7
  6
CONTINUOUS
 10
169.7988711339
 20
353.3801548716
 40
3.7490201192
100
AcDbArc
 50
302.7326439303
 51
311.2724341934
  0
ARC
  5
416
100
AcDbEntity
  8
0
100
AcDbCircle
 62
7
  6
CONTINUOUS
 10
169.8883867591
 20
354.0976001309
 40
3.5304070166
100
AcDbArc
 50
82.0071053226
 51
84.14330483
  0
ARC
  5
417
100
AcDbEntity
  8
0
100
AcDbCircle
 62
7
  6
CONTINUOUS
 10
169.8883974862
 20
353.1826841718
 40
3.5303138006
100
AcDbArc
 50
275.8565835291
 51
278.0316201825
  0
ARC
  5
418
100
AcDbEntity
  8
0
100
AcDbCircle
 62
7
  6
CONTINUOUS
 10
169.8884595119
 20
354.0981501016
 40
3.5298522724
100
AcDbArc
 50
81.2727305613
 51
82.0070334562
  0
ARC
  5
419
100
AcDbEntity
  8
0
100
AcDbCircle
 62
7
  6
CONTINUOUS
 10
169.8884791832
 20
353.1820688711
 40
3.5296931205
100
AcDbArc
 50
278.0317025451
 51
278.6784286383
  0
ARC
  5
41A
100
AcDbEntity
  8
0
100
AcDbCircle
 62
7
  6
CONTINUOUS
 10
169.888792052
 20
353.1788628996
 40
3.5264722127
100
AcDbArc
 50
270.0039233302
 51
275.8565414728
  0
ARC
  5
41B
100
AcDbEntity
  8
0
100
AcDbCircle
 62
7
  6
CONTINUOUS
 10
169.8887943564
 20
354.1015674808
 40
3.5264187839
100
AcDbArc
 50
84.1433152058
 51
89.9961140519
  0
ARC
  5
41C
100
AcDbEntity
  8
0
100
AcDbCircle
 62
7
  6
CONTINUOUS
 10
169.5543676847
 20
354.1022916042
 40
3.5256968776
100
AcDbArc
 50
84.5716098883
 51
89.9966792179
  0
ARC
  5
41D
100
AcDbEntity
  8
0
100
AcDbCircle
 62
7
  6
CONTINUOUS
 10
169.5543676847
 20
353.1780853474
 40
3.5256968775
100
AcDbArc
 50
270.0033207821
 51
275.4283901122
  0
ARC
  5
41E
100
AcDbEntity
  8
0
100
AcDbCircle
 62
7
  6
CONTINUOUS
 10
157.368783126
 20
338.1099867407
 40
2.8302031941
100
AcDbArc
 50
90.0581773203
 51
111.690885831
  0
ARC
  5
41F
100
AcDbEntity
  8
0
100
AcDbCircle
 62
7
  6
CONTINUOUS
 10
166.8509895405
 20
353.3981215017
 40
2.2225081895
100
AcDbArc
 50
244.877698692
 51
261.9880151932
  0
ARC
  5
420
100
AcDbEntity
  8
0
100
AcDbCircle
 62
7
  6
CONTINUOUS
 10
166.8509465937
 20
353.8824095097
 40
2.2223489569
100
AcDbArc
 50
98.0146208422
 51
115.0847095699
  0
ARC
  5
421
100
AcDbEntity
  8
0
100
AcDbCircle
 62
7
  6
CONTINUOUS
 10
135.3631700751
 20
471.0814350007
 40
65.5015077274
100
AcDbArc
 50
181.5053293168
 51
182.0939429967
  0
ARC
  5
422
100
AcDbEntity
  8
0
100
AcDbCircle
 62
7
  6
CONTINUOUS
 10
130.7926289161
 20
472.834244369
 40
60.9281250644
100
AcDbArc
 50
177.9154039699
 51
178.048563954
  0
ARC
  5
423
100
AcDbEntity
  8
0
100
AcDbCircle
 62
7
  6
CONTINUOUS
 10
150.2655886807
 20
458.7961884759
 40
6.35
100
AcDbArc
 50
90.0
 51
270.0
  0
ARC
  5
424
100
AcDbEntity
  8
0
100
AcDbCircle
 62
7
  6
CONTINUOUS
 10
175.6655886807
 20
458.7961884759
 40
6.35
100
AcDbArc
 50
270.0
 51
90.0
  0
ARC
  5
425
100
AcDbEntity
  8
0
100
AcDbCircle
 62
7
  6
CONTINUOUS
 10
198.0175886807
 20
458.7961884759
 40
6.35
100
AcDbArc
 50
90.0
 51
270.0
  0
CIRCLE
  5
426
100
AcDbEntity
  8
0
100
AcDbCircle
 62
7
  6
CONTINUOUS
 10
136.0415886807
 20
458.7961884759
 40
3.937
  0
CIRCLE
  5
427
100
AcDbEntity
  8
0
100
AcDbCircle
 62
7
  6
CONTINUOUS
 10
113.8165886807
 20
458.7961884759
 40
3.937
  0
ARC
  5
428
100
AcDbEntity
  8
0
100
AcDbCircle
 62
7
  6
CONTINUOUS
 10
160.1207886807
 20
459.8121884759
 40
3.175
100
AcDbArc
 50
90.0
 51
180.0
  0
ARC
  5
429
100
AcDbEntity
  8
0
100
AcDbCircle
 62
7
  6
CONTINUOUS
 10
177.3927886807
 20
459.8121884759
 40
3.175
100
AcDbArc
 50
0.0
 51
90.0
  0
CIRCLE
  5
42A
100
AcDbEntity
  8
0
100
AcDbCircle
 62
7
  6
CONTINUOUS
 10
113.8165886807
 20
468.3211884759
 40
2.794
  0
CIRCLE
  5
42B
100
AcDbEntity
  8
0
100
AcDbCircle
 62
7
  6
CONTINUOUS
 10
113.8165886807
 20
449.2711884759
 40
2.794
  0
CIRCLE
  5
42C
100
AcDbEntity
  8
0
100
AcDbCircle
 62
7
  6
CONTINUOUS
 10
98.8305886807
 20
458.7961884759
 40
2.413
  0
ARC
  5
42D
100
AcDbEntity
  8
0
100
AcDbCircle
 62
7
  6
CONTINUOUS
 10
180.9995886807
 20
474.4171884759
 40
0.762
100
AcDbArc
 50
180.0
 51
270.0
  0
ARC
  5
42E
100
AcDbEntity
  8
0
100
AcDbCircle
 62
7
  6
CONTINUOUS
 10
177.3927886807
 20
459.8121884759
 40
0.508
100
AcDbArc
 50
0.0
 51
90.0
  0
ARC
  5
42F
100
AcDbEntity
  8
0
100
AcDbCircle
 62
7
  6
CONTINUOUS
 10
160.1207886807
 20
459.8121884759
 40
0.508
100
AcDbArc
 50
90.0
 51
180.0
  0
ARC
  5
430
100
AcDbEntity
  8
0
100
AcDbCircle
 62
7
  6
CONTINUOUS
 10
66.1972324015
 20
466.3600461209
 40
0.040197143
100
AcDbArc
 50
205.8470966538
 51
209.88029322
  0
ARC
  5
431
100
AcDbEntity
  8
0
100
AcDbCircle
 62
7
  6
CONTINUOUS
 10
277.5195886807
 20
370.5057884759
 40
6.35
100
AcDbArc
 50
0.0
 51
90.0
  0
ARC
  5
432
100
AcDbEntity
  8
0
100
AcDbCircle
 62
7
  6
CONTINUOUS
 10
277.5195886807
 20
285.9745884759
 40
6.35
100
AcDbArc
 50
270.0
 51
360.0
  0
ARC
  5
433
100
AcDbEntity
  8
0
100
AcDbCircle
 62
7
  6
CONTINUOUS
 10
256.1581886807
 20
310.7395884759
 40
2.7813
100
AcDbArc
 50
90.0
 51
270.0
  0
ARC
  5
434
100
AcDbEntity
  8
0
100
AcDbCircle
 62
7
  6
CONTINUOUS
 10
257.7075886807
 20
310.7395884759
 40
2.7813
100
AcDbArc
 50
270.0
 51
90.0
  0
ARC
  5
435
100
AcDbEntity
  8
0
100
AcDbCircle
 62
7
  6
CONTINUOUS
 10
221.4426263763
 20
403.6333264286
 40
95.4386683723
100
AcDbArc
 50
2.3612301488
 51
2.8720121376
  0
ARC
  5
436
100
AcDbEntity
  8
0
100
AcDbCircle
 62
7
  6
CONTINUOUS
 10
223.4994727295
 20
401.2922517612
 40
93.3796961531
100
AcDbArc
 50
357.1223565889
 51
357.6444011236
  0
ARC
  5
437
100
AcDbEntity
  8
0
100
AcDbCircle
 62
7
  6
CONTINUOUS
 10
281.5309452719
 20
402.4738374812
 40
82.7252342648
100
AcDbArc
 50
358.4183843845
 51
0.0248997823
  0
ARC
  5
438
100
AcDbEntity
  8
0
100
AcDbCircle
 62
7
  6
CONTINUOUS
 10
269.0517518197
 20
407.4593376616
 40
47.7761783694
100
AcDbArc
 50
354.0535632677
 51
355.601999899
  0
ARC
  5
439
100
AcDbEntity
  8
0
100
AcDbCircle
 62
7
  6
CONTINUOUS
 10
269.051759874
 20
397.5602366255
 40
47.7761706346
100
AcDbArc
 50
4.3980042209
 51
5.9464409114
  0
ARC
  5
43A
100
AcDbEntity
  8
0
100
AcDbCircle
 62
7
  6
CONTINUOUS
 10
282.593201216
 20
398.3375711764
 40
34.2121526226
100
AcDbArc
 50
353.883726943
 51
357.0959934288
  0
ARC
  5
43B
100
AcDbEntity
  8
0
100
AcDbCircle
 62
7
  6
CONTINUOUS
 10
282.9444746828
 20
406.7097137921
 40
33.8599279304
100
AcDbArc
 50
2.8872950706
 51
6.1329856234
  0
ARC
  5
43C
100
AcDbEntity
  8
0
100
AcDbCircle
 62
7
  6
CONTINUOUS
 10
283.4036888267
 20
398.281890384
 40
33.3998880511
100
AcDbArc
 50
357.1209493143
 51
358.6471028036
  0
ARC
  5
43D
100
AcDbEntity
  8
0
100
AcDbCircle
 62
7
  6
CONTINUOUS
 10
283.4036993823
 20
406.7376872568
 40
33.3998774741
100
AcDbArc
 50
1.3528967628
 51
2.8790504073
  0
ARC
  5
43E
100
AcDbEntity
  8
0
100
AcDbCircle
 62
7
  6
CONTINUOUS
 10
279.1411035814
 20
397.719167529
 40
1.2465384518
100
AcDbArc
 50
205.452843822
 51
206.1535579965
  0
ARC
  5
43F
100
AcDbEntity
  8
0
100
AcDbCircle
 62
7
  6
CONTINUOUS
 10
279.138443171
 20
407.3017158035
 40
1.2435756992
100
AcDbArc
 50
153.8429647538
 51
154.5466027705
  0
ARC
  5
440
100
AcDbEntity
  8
0
100
AcDbCircle
 62
7
  6
CONTINUOUS
 10
277.7735886807
 20
453.3351884759
 40
6.35
100
AcDbArc
 50
244.8411707022
 51
270.0
  0
ARC
  5
441
100
AcDbEntity
  8
0
100
AcDbCircle
 62
7
  6
CONTINUOUS
 10
223.4175886807
 20
458.7961884759
 40
6.35
100
AcDbArc
 50
270.0
 51
90.0
  0
CIRCLE
  5
442
100
AcDbEntity
  8
0
100
AcDbCircle
 62
7
  6
CONTINUOUS
 10
255.1675886807
 20
458.7961884759
 40
3.937
  0
CIRCLE
  5
443
100
AcDbEntity
  8
0
100
AcDbCircle
 62
7
  6
CONTINUOUS
 10
277.3925886807
 20
458.7961884759
 40
3.937
  0
CIRCLE
  5
444
100
AcDbEntity
  8
0
100
AcDbCircle
 62
7
  6
CONTINUOUS
 10
277.3925886807
 20
468.3211884759
 40
2.794
  0
CIRCLE
  5
445
100
AcDbEntity
  8
0
100
AcDbCircle
 62
7
  6
CONTINUOUS
 10
277.3925886807
 20
449.2711884759
 40
2.794
  0
ARC
  5
446
100
AcDbEntity
  8
0
100
AcDbCircle
 62
7
  6
CONTINUOUS
 10
276.9607886807
 20
461.5901884759
 40
2.0193
100
AcDbArc
 50
171.6693763689
 51
21.2084393709
  0
ARC
  5
447
100
AcDbEntity
  8
0
100
AcDbCircle
 62
7
  6
CONTINUOUS
 10
239.1655886807
 20
474.4171884759
 40
0.762
100
AcDbArc
 50
270.0
 51
360.0
  0
ARC
  5
448
100
AcDbEntity
  8
0
100
AcDbCircle
 62
7
  6
CONTINUOUS
 10
218.3515976803
 20
464.8188122792
 40
0.0622184782
100
AcDbArc
 50
221.0990448961
 51
224.2558528288
  0
ARC
  5
449
100
AcDbEntity
  8
0
100
AcDbCircle
 62
7
  6
CONTINUOUS
 10
293.0081768118
 20
402.8938623795
 40
71.2543723206
100
AcDbArc
 50
1.5954923323
 51
2.5395921527
  0
ARC
  5
44A
100
AcDbEntity
  8
0
100
AcDbCircle
 62
7
  6
CONTINUOUS
 10
295.371959581
 20
402.0403794361
 40
68.88913274
100
AcDbArc
 50
357.4442000992
 51
358.4207154158
  0
ARC
  5
44B
100
AcDbEntity
  8
0
100
AcDbCircle
 62
7
  6
CONTINUOUS
 10
340.2927448787
 20
396.6375440467
 40
20.1291641003
100
AcDbArc
 50
200.7427810024
 51
202.6936984351
  0
ARC
  5
44C
100
AcDbEntity
  8
0
100
AcDbCircle
 62
7
  6
CONTINUOUS
 10
339.7545258489
 20
408.5964141347
 40
19.5499069327
100
AcDbArc
 50
157.2773944101
 51
159.2868261501
  0
ARC
  5
44D
100
AcDbEntity
  8
0
100
AcDbCircle
 62
7
  6
CONTINUOUS
 10
336.9793595278
 20
390.6620831563
 40
15.3620861326
100
AcDbArc
 50
182.6352507729
 51
186.6930783182
  0
ARC
  5
44E
100
AcDbEntity
  8
0
100
AcDbCircle
 62
7
  6
CONTINUOUS
 10
336.9790943453
 20
414.3575199
 40
15.3618197149
100
AcDbArc
 50
173.3069031056
 51
177.3655148089
  0
ARC
  5
44F
100
AcDbEntity
  8
0
100
AcDbCircle
 62
7
  6
CONTINUOUS
 10
303.4354983493
 20
409.5704842402
 40
3.2818773251
100
AcDbArc
 50
14.1618435155
 51
15.5415537396
  0
ARC
  5
450
100
AcDbEntity
  8
0
100
AcDbCircle
 62
7
  6
CONTINUOUS
 10
303.5705483732
 20
395.4132732177
 40
3.1421681266
100
AcDbArc
 50
344.4167516547
 51
345.8609735604
  0
ARC
  5
451
100
AcDbEntity
  8
0
100
AcDbCircle
 62
7
  6
CONTINUOUS
 10
303.9160906776
 20
395.3176708735
 40
2.7836452152
100
AcDbArc
 50
344.2365145411
 51
344.4015664715
  0
ARC
  5
452
100
AcDbEntity
  8
0
100
AcDbCircle
 62
7
  6
CONTINUOUS
 10
316.9904648026
 20
390.5792808727
 40
1.5314923972
100
AcDbArc
 50
270.0011759619
 51
271.7626691062
  0
ARC
  5
453
100
AcDbEntity
  8
0
100
AcDbCircle
 62
7
  6
CONTINUOUS
 10
362.6694810482
 20
395.4900858143
 40
1.1459098235
100
AcDbArc
 50
337.7138773169
 51
340.0161232844
  0
ARC
  5
454
100
AcDbEntity
  8
0
100
AcDbCircle
 62
7
  6
CONTINUOUS
 10
362.6694810483
 20
409.5294911374
 40
1.1459098233
100
AcDbArc
 50
19.9838767155
 51
22.2861226834
  0
ARC
  5
455
100
AcDbEntity
  8
0
100
AcDbCircle
 62
7
  6
CONTINUOUS
 10
306.6003966327
 20
394.6336335531
 40
0.0613474355
100
AcDbArc
 50
260.2537726681
 51
267.5695616295
  0
ARC
  5
456
100
AcDbEntity
  8
0
100
AcDbCircle
 62
7
  6
CONTINUOUS
 10
306.6003943294
 20
410.385959696
 40
0.0613309834
100
AcDbArc
 50
92.2965748387
 51
99.7466839924
  0
CIRCLE
  5
457
100
AcDbEntity
  8
0
100
AcDbCircle
 62
7
  6
CONTINUOUS
 10
292.3785886807
 20
458.7961884759
 40
2.413
  0
SPLINE
  5
458
100
AcDbEntity
  8
0
100
AcDbSpline
 62
7
  6
CONTINUOUS
 70
0
 71
3
 72
17
 73
13
 74
0
 42
0.0000001
 43
0.0000001
 44
0.0000000001
 40
0.0
 40
0.0
 40
0.0
 40
0.0
 40
0.2012117016
 40
0.3841767557
 40
0.5467961056
 40
0.6871903445
 40
0.8037504656
 40
0.8951969254
 40
0.931210845
 40
0.9606618659
 40
0.9835472332
 40
1.0
 40
1.0
 40
1.0
 40
1.0
 10
70.3817139415
 20
468.6898868553
 30
0.0
 10
70.3759134403
 20
468.5316425833
 30
0.0
 10
70.3636260941
 20
468.2295464936
 30
0.0
 10
70.3418931448
 20
467.7997665278
 30
0.0
 10
70.3179397116
 20
467.4180499709
 30
0.0
 10
70.292133339
 20
467.0888378652
 30
0.0
 10
70.2647914176
 20
466.8160058029
 30
0.0
 10
70.239715404
 20
466.6255256838
 30
0.0
 10
70.218082
 20
466.5039368865
 30
0.0
 10
70.2030780651
 20
466.435990708
 30
0.0
 10
70.1880544058
 20
466.383987831
 30
0.0
 10
70.1763687943
 20
466.355104698
 30
0.0
 10
70.1699211826
 20
466.3438761183
 30
0.0
  0
SPLINE
  5
459
100
AcDbEntity
  8
0
100
AcDbSpline
 62
7
  6
CONTINUOUS
 70
0
 71
3
 72
17
 73
13
 74
0
 42
0.0000001
 43
0.0000001
 44
0.0000000001
 40
0.0
 40
0.0
 40
0.0
 40
0.0
 40
0.0164844895
 40
0.0393956022
 40
0.0688622149
 40
0.1048823253
 40
0.1963250674
 40
0.3128652126
 40
0.4532288262
 40
0.6158290299
 40
0.7987906712
 40
1.0
 40
1.0
 40
1.0
 40
1.0
 10
70.169921151
 20
477.4104941749
 30
0.0
 10
70.1763383551
 20
477.3993133023
 30
0.0
 10
70.1879836324
 20
477.3705779417
 30
0.0
 10
70.2029566763
 20
477.3188537935
 30
0.0
 10
70.2179083884
 20
477.251305892
 30
0.0
 10
70.2394627685
 20
477.1304762689
 30
0.0
 10
70.2644564646
 20
476.9412161568
 30
0.0
 10
70.2917174346
 20
476.6701492923
 30
0.0
 10
70.3174598372
 20
476.3430672106
 30
0.0
 10
70.3413680926
 20
475.9637963063
 30
0.0
 10
70.3630778001
 20
475.5367408637
 30
0.0
 10
70.3753660611
 20
475.2365498157
 30
0.0
 10
70.3811695192
 20
475.0793027158
 30
0.0
  0
SPLINE
  5
45A
100
AcDbEntity
  8
0
100
AcDbSpline
 62
7
  6
CONTINUOUS
 70
0
 71
3
 72
13
 73
9
 74
0
 42
0.0000001
 43
0.0000001
 44
0.0000000001
 40
0.0
 40
0.0
 40
0.0
 40
0.0
 40
0.0535905745
 40
0.1283939327
 40
0.2251481286
 40
0.3432478084
 40
0.6380640659
 40
1.0
 40
1.0
 40
1.0
 40
1.0
 10
66.1709841577
 20
466.3289101871
 30
0.0
 10
66.1795909379
 20
466.3200914145
 30
0.0
 10
66.2046460825
 20
466.3035963296
 30
0.0
 10
66.2519790549
 20
466.2826608666
 30
0.0
 10
66.3152630939
 20
466.2615461767
 30
0.0
 10
66.4284443952
 20
466.2310766374
 30
0.0
 10
66.603080444
 20
466.1951097932
 30
0.0
 10
66.7520025426
 20
466.1700607295
 30
0.0
 10
66.8342160451
 20
466.1571331091
 30
0.0
  0
SPLINE
  5
45B
100
AcDbEntity
  8
0
100
AcDbSpline
 62
7
  6
CONTINUOUS
 70
0
 71
3
 72
18
 73
14
 74
0
 42
0.0000001
 43
0.0000001
 44
0.0000000001
 40
0.0
 40
0.0
 40
0.0
 40
0.0
 40
0.1991758126
 40
0.3820354063
 40
0.5456820171
 40
0.6875458477
 40
0.8054119278
 40
0.8547685675
 40
0.8974906613
 40
0.933431994
 40
0.9624946301
 40
0.9846479622
 40
1.0
 40
1.0
 40
1.0
 40
1.0
 10
65.9272981779
 20
469.3607149488
 30
0.0
 10
65.9326483251
 20
469.1594796947
 30
0.0
 10
65.9444420435
 20
468.7735319031
 30
0.0
 10
65.9665221329
 20
468.2224461351
 30
0.0
 10
65.9919274159
 20
467.7294909488
 30
0.0
 10
66.020222406
 20
467.3025076776
 30
0.0
 10
66.0470037075
 20
466.9912240249
 30
0.0
 10
66.0703027048
 20
466.7803082679
 30
0.0
 10
66.0871245484
 20
466.6519992035
 30
0.0
 10
66.1042494817
 20
466.5444742737
 30
0.0
 10
66.121512096
 20
466.4580129857
 30
0.0
 10
66.1388335395
 20
466.3930426767
 30
0.0
 10
66.1524357823
 20
466.3573400487
 30
0.0
 10
66.1601595141
 20
466.3438827768
 30
0.0
  0
SPLINE
  5
45C
100
AcDbEntity
  8
0
100
AcDbSpline
 62
7
  6
CONTINUOUS
 70
0
 71
3
 72
31
 73
27
 74
0
 42
0.0000001
 43
0.0000001
 44
0.0000000001
 40
0.0
 40
0.0
 40
0.0
 40
0.0
 40
0.0028963676
 40
0.0067803229
 40
0.0175780161
 40
0.0324132221
 40
0.0511928012
 40
0.073773946
 40
0.0999746553
 40
0.1623270576
 40
0.2361529635
 40
0.3189508748
 40
0.4079077549
 40
0.4999978134
 40
0.5920876295
 40
0.6810440225
 40
0.7638417615
 40
0.8376678686
 40
0.9000202696
 40
0.9262205585
 40
0.948802382
 40
0.9675839198
 40
0.9824187057
 40
0.99321888
 40
0.9971029613
 40
1.0
 40
1.0
 40
1.0
 40
1.0
 10
70.1266317304
 20
475.4185054757
 30
0.0
 10
70.1232155079
 20
475.412559909
 30
0.0
 10
70.1168697401
 20
475.3977255445
 30
0.0
 10
70.1044788076
 20
475.3579838777
 30
0.0
 10
70.0903273025
 20
475.2894125887
 30
0.0
 10
70.0745678081
 20
475.1854635511
 30
0.0
 10
70.0592630466
 20
475.0532702004
 30
0.0
 10
70.044505092
 20
474.8939969162
 30
0.0
 10
70.0247018702
 20
474.6316215087
 30
0.0
 10
70.003456366
 20
474.2477452272
 30
0.0
 10
69.98345518
 20
473.7296909738
 30
0.0
 10
69.9686097347
 20
473.1484547393
 30
0.0
 10
69.9594641762
 20
472.5238594809
 30
0.0
 10
69.9563785612
 20
471.877206654
 30
0.0
 10
69.9594640715
 20
471.2305549808
 30
0.0
 10
69.9686092448
 20
470.6059618527
 30
0.0
 10
69.9834538057
 20
470.0247266858
 30
0.0
 10
70.0034541155
 20
469.5066723225
 30
0.0
 10
70.0246989043
 20
469.1227965518
 30
0.0
 10
70.0445013452
 20
468.8604204364
 30
0.0
 10
70.0592610161
 20
468.7011421041
 30
0.0
 10
70.0745620435
 20
468.5689429497
 30
0.0
 10
70.0903241516
 20
468.4649848227
 30
0.0
 10
70.1044732644
 20
468.3964075693
 30
0.0
 10
70.1168726697
 20
468.3566600011
 30
0.0
 10
70.1232184676
 20
468.3418243465
 30
0.0
 10
70.1266317495
 20
468.3358752593
 30
0.0
  0
SPLINE
  5
45D
100
AcDbEntity
  8
0
100
AcDbSpline
 62
7
  6
CONTINUOUS
 70
0
 71
3
 72
11
 73
7
 74
0
 42
0.0000001
 43
0.0000001
 44
0.0000000001
 40
0.0
 40
0.0
 40
0.0
 40
0.0
 40
0.2358670038
 40
0.4928375718
 40
0.7534519957
 40
1.0
 40
1.0
 40
1.0
 40
1.0
 10
65.9428695184
 20
474.908993237
 30
0.0
 10
65.9280108545
 20
474.4729708931
 30
0.0
 10
65.9061301608
 20
473.5615964251
 30
0.0
 10
65.8929591598
 20
472.1679838911
 30
0.0
 10
65.8985177245
 20
470.7545632833
 30
0.0
 10
65.9151781589
 20
469.8165856036
 30
0.0
 10
65.9272981779
 20
469.3607149488
 30
0.0
  0
SPLINE
  5
45E
100
AcDbEntity
  8
0
100
AcDbSpline
 62
7
  6
CONTINUOUS
 70
0
 71
3
 72
12
 73
8
 74
0
 42
0.0000001
 43
0.0000001
 44
0.0000000001
 40
0.0
 40
0.0
 40
0.0
 40
0.0
 40
0.058865498
 40
0.1359390618
 40
0.3498785241
 40
0.6408563511
 40
1.0
 40
1.0
 40
1.0
 40
1.0
 10
66.1936092534
 20
477.4687525286
 30
0.0
 10
66.1971767321
 20
477.4749610764
 30
0.0
 10
66.2087233177
 20
477.4872939298
 30
0.0
 10
66.244176052
 20
477.5110202011
 30
0.0
 10
66.3100753534
 20
477.5382333285
 30
0.0
 10
66.410541146
 20
477.5688898537
 30
0.0
 10
66.4874590183
 20
477.5875777735
 30
0.0
 10
66.5300631926
 20
477.5972438426
 30
0.0
  0
SPLINE
  5
45F
100
AcDbEntity
  8
0
100
AcDbSpline
 62
7
  6
CONTINUOUS
 70
0
 71
3
 72
17
 73
13
 74
0
 42
0.0000001
 43
0.0000001
 44
0.0000000001
 40
0.0
 40
0.0
 40
0.0
 40
0.0
 40
0.0161548091
 40
0.0388313418
 40
0.0681589474
 40
0.1041266864
 40
0.1956764921
 40
0.3125204916
 40
0.453264249
 40
0.616156077
 40
0.7991822405
 40
1.0
 40
1.0
 40
1.0
 40
1.0
 10
66.1601594824
 20
477.4105008334
 30
0.0
 10
66.1534114355
 20
477.3987490427
 30
0.0
 10
66.1412642232
 20
477.3682872397
 30
0.0
 10
66.1256876592
 20
477.3132885947
 30
0.0
 10
66.1101365498
 20
477.2410914216
 30
0.0
 10
66.0877023675
 20
477.1114386758
 30
0.0
 10
66.0617818672
 20
476.9080142141
 30
0.0
 10
66.0336162726
 20
476.6164866059
 30
0.0
 10
66.0071660915
 20
476.2647368205
 30
0.0
 10
65.9827779668
 20
475.8572214587
 30
0.0
 10
65.9608592374
 20
475.3991087206
 30
0.0
 10
65.9486067684
 20
475.077350849
 30
0.0
 10
65.9428695184
 20
474.908993237
 30
0.0
  0
SPLINE
  5
460
100
AcDbEntity
  8
0
100
AcDbSpline
 62
7
  6
CONTINUOUS
 70
0
 71
3
 72
12
 73
8
 74
0
 42
0.0000001
 43
0.0000001
 44
0.0000000001
 40
0.0
 40
0.0
 40
0.0
 40
0.0
 40
0.3591437196
 40
0.6501215106
 40
0.8640609627
 40
0.9411345931
 40
1.0
 40
1.0
 40
1.0
 40
1.0
 10
69.8000174724
 20
466.1571331091
 30
0.0
 10
69.8426216554
 20
466.1667991802
 30
0.0
 10
69.9195395301
 20
466.1854870976
 30
0.0
 10
70.0200053389
 20
466.216143617
 30
0.0
 10
70.0859046078
 20
466.2433567883
 30
0.0
 10
70.1213573875
 20
466.2670829978
 30
0.0
 10
70.13290394
 20
466.2794158804
 30
0.0
 10
70.1364714054
 20
466.2856244231
 30
0.0
  0
SPLINE
  5
461
100
AcDbEntity
  8
0
100
AcDbSpline
 62
7
  6
CONTINUOUS
 70
0
 71
3
 72
13
 73
9
 74
0
 42
0.0000001
 43
0.0000001
 44
0.0000000001
 40
0.0
 40
0.0
 40
0.0
 40
0.0
 40
0.3619360029
 40
0.6567522613
 40
0.7748519795
 40
0.8716060993
 40
0.94640947
 40
1.0
 40
1.0
 40
1.0
 40
1.0
 10
69.49586462
 20
477.5972438426
 30
0.0
 10
69.5780781385
 20
477.5843162197
 30
0.0
 10
69.727000257
 20
477.5592671645
 30
0.0
 10
69.9016363216
 20
477.5233002854
 30
0.0
 10
70.0148176274
 20
477.4928307822
 30
0.0
 10
70.0781016438
 20
477.4717160521
 30
0.0
 10
70.125434615
 20
477.4507806385
 30
0.0
 10
70.1504897343
 20
477.4342855299
 30
0.0
 10
70.1590965073
 20
477.4254667646
 30
0.0
  0
SPLINE
  5
462
100
AcDbEntity
  8
0
100
AcDbSpline
 62
7
  6
CONTINUOUS
 70
0
 71
3
 72
10
 73
6
 74
0
 42
0.0000001
 43
0.0000001
 44
0.0000000001
 40
0.0
 40
0.0
 40
0.0
 40
0.0
 40
0.5002014066
 40
0.750015879
 40
1.0
 40
1.0
 40
1.0
 40
1.0
 10
69.4647219389
 20
466.5006872652
 30
0.0
 10
69.6023475141
 20
466.9644518778
 30
0.0
 10
69.7715238208
 20
467.6729207563
 30
0.0
 10
69.8804721931
 20
468.634904085
 30
0.0
 10
69.8906932552
 20
469.1190358478
 30
0.0
 10
69.8842678464
 20
469.3607149485
 30
0.0
  0
SPLINE
  5
463
100
AcDbEntity
  8
0
100
AcDbSpline
 62
7
  6
CONTINUOUS
 70
0
 71
3
 72
10
 73
6
 74
0
 42
0.0000001
 43
0.0000001
 44
0.0000000001
 40
0.0
 40
0.0
 40
0.0
 40
0.0
 40
0.2484094084
 40
0.4978203692
 40
1.0
 40
1.0
 40
1.0
 40
1.0
 10
65.9272981779
 20
469.3607149486
 30
0.0
 10
65.9337396487
 20
469.1184317076
 30
0.0
 10
65.969896312
 20
468.6331924662
 30
0.0
 10
66.1304375252
 20
467.6697986777
 30
0.0
 10
66.337087976
 20
466.9631578391
 30
0.0
 10
66.4989205116
 20
466.5006872652
 30
0.0
  0
SPLINE
  5
464
100
AcDbEntity
  8
0
100
AcDbSpline
 62
7
  6
CONTINUOUS
 70
0
 71
3
 72
15
 73
11
 74
0
 42
0.0000001
 43
0.0000001
 44
0.0000000001
 40
0.0
 40
0.0
 40
0.0
 40
0.0
 40
0.2102670776
 40
0.3982122489
 40
0.5617111145
 40
0.6988283511
 40
0.8082310698
 40
0.8900665953
 40
0.9488336433
 40
1.0
 40
1.0
 40
1.0
 40
1.0
 10
66.4989205116
 20
466.5006872652
 30
0.0
 10
66.4718934029
 20
466.4945553331
 30
0.0
 10
66.4208244956
 20
466.4824112863
 30
0.0
 10
66.3493198603
 20
466.4631768408
 30
0.0
 10
66.287844478
 20
466.4438921697
 30
0.0
 10
66.2373235253
 20
466.4246507666
 30
0.0
 10
66.198392914
 20
466.405326452
 30
0.0
 10
66.1715770062
 20
466.3861338763
 30
0.0
 10
66.1560596991
 20
466.3644315796
 30
0.0
 10
66.1581203822
 20
466.3485925206
 30
0.0
 10
66.1610565521
 20
466.342521332
 30
0.0
  0
SPLINE
  5
465
100
AcDbEntity
  8
0
100
AcDbSpline
 62
7
  6
CONTINUOUS
 70
0
 71
3
 72
10
 73
6
 74
0
 42
0.0000001
 43
0.0000001
 44
0.0000000001
 40
0.0
 40
0.0
 40
0.0
 40
0.0
 40
0.2497141107
 40
0.4993159055
 40
1.0
 40
1.0
 40
1.0
 40
1.0
 10
65.9428695184
 20
474.9089932372
 30
0.0
 10
65.9351306828
 20
474.6818997866
 30
0.0
 10
65.9427113574
 20
474.2266840185
 30
0.0
 10
66.046557955
 20
473.3215968574
 30
0.0
 10
66.2119722161
 20
472.6559148396
 30
0.0
 10
66.3468440854
 20
472.2207426319
 30
0.0
  0
SPLINE
  5
466
100
AcDbEntity
  8
0
100
AcDbSpline
 62
7
  6
CONTINUOUS
 70
0
 71
3
 72
10
 73
6
 74
0
 42
0.0000001
 43
0.0000001
 44
0.0000000001
 40
0.0
 40
0.0
 40
0.0
 40
0.0
 40
0.5002014045
 40
0.7500158756
 40
1.0
 40
1.0
 40
1.0
 40
1.0
 10
66.3468440854
 20
472.2207426319
 30
0.0
 10
66.2092185108
 20
471.7569780215
 30
0.0
 10
66.040042234
 20
471.0485091416
 30
0.0
 10
65.9310938173
 20
470.0865258182
 30
0.0
 10
65.9208727691
 20
469.6023940525
 30
0.0
 10
65.9272981779
 20
469.3607149486
 30
0.0
  0
LINE
  5
467
100
AcDbEntity
  8
0
100
AcDbLine
 62
7
  6
CONTINUOUS
 10
69.9048255168
 20
475.0505072308
 11
69.9053674795
 21
475.0653380302
  0
SPLINE
  5
468
100
AcDbEntity
  8
0
100
AcDbSpline
 62
7
  6
CONTINUOUS
 70
0
 71
3
 72
23
 73
19
 74
0
 42
0.0000001
 43
0.0000001
 44
0.0000000001
 40
0.0
 40
0.0
 40
0.0
 40
0.0
 40
0.2262750405
 40
0.4282028231
 40
0.5190578152
 40
0.6026950947
 40
0.6787865028
 40
0.7470479163
 40
0.8072218372
 40
0.8590980014
 40
0.9025006824
 40
0.9373255715
 40
0.9635484257
 40
0.9813647553
 40
0.9873790273
 40
0.9918660226
 40
0.9956561403
 40
1.0
 40
1.0
 40
1.0
 40
1.0
 10
69.9053674795
 20
475.0653380302
 30
0.0
 10
69.9120309802
 20
475.2470538639
 30
0.0
 10
69.9262237265
 20
475.590877773
 30
0.0
 10
69.9482864453
 20
476.0074305635
 30
0.0
 10
69.9678397886
 20
476.3092979009
 30
0.0
 10
69.9826567864
 20
476.5101280996
 30
0.0
 10
69.9980835571
 20
476.6926975068
 30
0.0
 10
70.0140469706
 20
476.8562879622
 30
0.0
 10
70.0304782887
 20
477.0002592288
 30
0.0
 10
70.0472766752
 20
477.1240710103
 30
0.0
 10
70.0643712901
 20
477.2272107492
 30
0.0
 10
70.0815488638
 20
477.3094811136
 30
0.0
 10
70.0987982354
 20
477.3703746377
 30
0.0
 10
70.1141875489
 20
477.4080316216
 30
0.0
 10
70.1278960354
 20
477.4263098445
 30
0.0
 10
70.1375012601
 20
477.4333299937
 30
0.0
 10
70.1482735033
 20
477.4338062802
 30
0.0
 10
70.1540248332
 20
477.4300437216
 30
0.0
 10
70.1566662956
 20
477.4277615536
 30
0.0
  0
LINE
  5
469
100
AcDbEntity
  8
0
100
AcDbLine
 62
7
  6
CONTINUOUS
 10
70.1566662956
 20
477.4277615536
 11
70.1590965073
 21
477.4254667646
  0
SPLINE
  5
46A
100
AcDbEntity
  8
0
100
AcDbSpline
 62
7
  6
CONTINUOUS
 70
0
 71
3
 72
10
 73
6
 74
0
 42
0.0000001
 43
0.0000001
 44
0.0000000001
 40
0.0
 40
0.0
 40
0.0
 40
0.0
 40
0.5033487259
 40
0.7524116031
 40
1.0
 40
1.0
 40
1.0
 40
1.0
 10
66.5300631926
 20
477.5972438426
 30
0.0
 10
66.3661375874
 20
477.1636735327
 30
0.0
 10
66.1556465812
 20
476.5003336473
 30
0.0
 10
65.9895113655
 20
475.5934883968
 30
0.0
 10
65.9506347221
 20
475.1368604483
 30
0.0
 10
65.9428695184
 20
474.9089932372
 30
0.0
  0
SPLINE
  5
46B
100
AcDbEntity
  8
0
100
AcDbSpline
 62
7
  6
CONTINUOUS
 70
0
 71
3
 72
18
 73
14
 74
0
 42
0.0000001
 43
0.0000001
 44
0.0000000001
 40
0.0
 40
0.0
 40
0.0
 40
0.0
 40
0.0128457629
 40
0.0323641228
 40
0.0589038032
 40
0.0925314326
 40
0.1332154124
 40
0.1808701007
 40
0.2965429691
 40
0.4381985373
 40
0.6040958511
 40
0.7921534415
 40
1.0
 40
1.0
 40
1.0
 40
1.0
 10
70.1279538262
 20
466.3289101872
 30
0.0
 10
70.1208692773
 20
466.3361692348
 30
0.0
 10
70.108384564
 20
466.3591301219
 30
0.0
 10
70.0929156036
 20
466.4028472935
 30
0.0
 10
70.0773216203
 20
466.463956768
 30
0.0
 10
70.0617712984
 20
466.5420419522
 30
0.0
 10
70.0463703806
 20
466.6371375679
 30
0.0
 10
70.0247433939
 20
466.7967765557
 30
0.0
 10
69.9995989938
 20
467.0363288235
 30
0.0
 10
69.9724817682
 20
467.3694257393
 30
0.0
 10
69.947358192
 20
467.7599764134
 30
0.0
 10
69.9245753251
 20
468.2030061897
 30
0.0
 10
69.911763293
 20
468.5153610112
 30
0.0
 10
69.9057224858
 20
468.6793685263
 30
0.0
  0
SPLINE
  5
46C
100
AcDbEntity
  8
0
100
AcDbSpline
 62
7
  6
CONTINUOUS
 70
0
 71
3
 72
11
 73
7
 74
0
 42
0.0000001
 43
0.0000001
 44
0.0000000001
 40
0.0
 40
0.0
 40
0.0
 40
0.0
 40
0.2465480043
 40
0.5071624282
 40
0.7641329962
 40
1.0
 40
1.0
 40
1.0
 40
1.0
 10
69.8842678464
 20
469.3607149486
 30
0.0
 10
69.8721478274
 20
469.8165856034
 30
0.0
 10
69.855487393
 20
470.7545632832
 30
0.0
 10
69.8499288283
 20
472.1679838911
 30
0.0
 10
69.8630998293
 20
473.5615964253
 30
0.0
 10
69.884980523
 20
474.4729708933
 30
0.0
 10
69.8998391869
 20
474.9089932373
 30
0.0
  0
SPLINE
  5
46D
100
AcDbEntity
  8
0
100
AcDbSpline
 62
7
  6
CONTINUOUS
 70
0
 71
3
 72
16
 73
12
 74
0
 42
0.0000001
 43
0.0000001
 44
0.0000000001
 40
0.0
 40
0.0
 40
0.0
 40
0.0
 40
0.0192888281
 40
0.0350485691
 40
0.0741491844
 40
0.1421387873
 40
0.2440879582
 40
0.3809945072
 40
0.5529342911
 40
0.7594763933
 40
1.0
 40
1.0
 40
1.0
 40
1.0
 10
70.1335595088
 20
468.3262903711
 30
0.0
 10
70.1352183966
 20
468.3245906235
 30
0.0
 10
70.1386295572
 20
468.3217120159
 30
0.0
 10
70.148286197
 20
468.320356689
 30
0.0
 10
70.1601008089
 20
468.3328282588
 30
0.0
 10
70.1700203503
 20
468.3558552595
 30
0.0
 10
70.1812264526
 20
468.3923646888
 30
0.0
 10
70.1919676225
 20
468.4416795942
 30
0.0
 10
70.2028480982
 20
468.5042657846
 30
0.0
 10
70.213497756
 20
468.5797289668
 30
0.0
 10
70.2199822564
 20
468.6344027698
 30
0.0
 10
70.2232326323
 20
468.6638402384
 30
0.0
  0
SPLINE
  5
46E
100
AcDbEntity
  8
0
100
AcDbSpline
 62
7
  6
CONTINUOUS
 70
0
 71
3
 72
13
 73
9
 74
0
 42
0.0000001
 43
0.0000001
 44
0.0000000001
 40
0.0
 40
0.0
 40
0.0
 40
0.0
 40
0.3860587615
 40
0.6819007446
 40
0.7953984274
 40
0.8858584343
 40
0.9536516861
 40
1.0
 40
1.0
 40
1.0
 40
1.0
 10
70.2241852085
 20
475.0818386341
 30
0.0
 10
70.2192341945
 20
475.1273340289
 30
0.0
 10
70.2095412074
 20
475.2075854492
 30
0.0
 10
70.194639842
 20
475.3007642471
 30
0.0
 10
70.1817999516
 20
475.3586051421
 30
0.0
 10
70.1730095908
 20
475.3896617246
 30
0.0
 10
70.1642946813
 20
475.4122569529
 30
0.0
 10
70.1573282637
 20
475.4241546221
 30
0.0
 10
70.1534908247
 20
475.4280865806
 30
0.0
  0
SPLINE
  5
46F
100
AcDbEntity
  8
0
100
AcDbSpline
 62
7
  6
CONTINUOUS
 70
0
 71
3
 72
10
 73
6
 74
0
 42
0.0000001
 43
0.0000001
 44
0.0000000001
 40
0.0
 40
0.0
 40
0.0
 40
0.0
 40
0.2497141139
 40
0.4993159075
 40
1.0
 40
1.0
 40
1.0
 40
1.0
 10
69.8998391869
 20
474.9089932372
 30
0.0
 10
69.9075780227
 20
475.1360866906
 30
0.0
 10
69.8999973619
 20
475.5913024614
 30
0.0
 10
69.7961507195
 20
476.496389617
 30
0.0
 10
69.6307364887
 20
477.1620716368
 30
0.0
 10
69.49586462
 20
477.5972438426
 30
0.0
  0
SPLINE
  5
470
100
AcDbEntity
  8
0
100
AcDbSpline
 62
7
  6
CONTINUOUS
 70
0
 71
3
 72
13
 73
9
 74
0
 42
0.0000001
 43
0.0000001
 44
0.0000000001
 40
0.0
 40
0.0
 40
0.0
 40
0.0
 40
0.0535904846
 40
0.1283936177
 40
0.2251478854
 40
0.3432480869
 40
0.6380652086
 40
1.0
 40
1.0
 40
1.0
 40
1.0
 10
70.1279538262
 20
466.3289101872
 30
0.0
 10
70.1193470604
 20
466.3377289452
 30
0.0
 10
70.0942920146
 20
466.3542240357
 30
0.0
 10
70.0469591221
 20
466.3751595598
 30
0.0
 10
69.9836749832
 20
466.3962742292
 30
0.0
 10
69.8704933133
 20
466.4267436967
 30
0.0
 10
69.6958571871
 20
466.4627104271
 30
0.0
 10
69.5469351833
 20
466.4877596854
 30
0.0
 10
69.4647219389
 20
466.5006872652
 30
0.0
  0
SPLINE
  5
471
100
AcDbEntity
  8
0
100
AcDbSpline
 62
7
  6
CONTINUOUS
 70
0
 71
3
 72
10
 73
6
 74
0
 42
0.0000001
 43
0.0000001
 44
0.0000000001
 40
0.0
 40
0.0
 40
0.0
 40
0.0
 40
0.2484094114
 40
0.4978203713
 40
1.0
 40
1.0
 40
1.0
 40
1.0
 10
69.8842678464
 20
469.3607149485
 30
0.0
 10
69.8778263756
 20
469.6029981924
 30
0.0
 10
69.8416697257
 20
470.0882374374
 30
0.0
 10
69.6811284683
 20
471.0516312183
 30
0.0
 10
69.4744780476
 20
471.7582720601
 30
0.0
 10
69.3126455127
 20
472.2207426319
 30
0.0
  0
SPLINE
  5
472
100
AcDbEntity
  8
0
100
AcDbSpline
 62
7
  6
CONTINUOUS
 70
0
 71
3
 72
10
 73
6
 74
0
 42
0.0000001
 43
0.0000001
 44
0.0000000001
 40
0.0
 40
0.0
 40
0.0
 40
0.0
 40
0.5033487284
 40
0.7524116063
 40
1.0
 40
1.0
 40
1.0
 40
1.0
 10
69.3126455127
 20
472.2207426319
 30
0.0
 10
69.4765711188
 20
472.6543129441
 30
0.0
 10
69.6870621543
 20
473.3176528259
 30
0.0
 10
69.8531973264
 20
474.2244980846
 30
0.0
 10
69.8920739834
 20
474.681126029
 30
0.0
 10
69.8998391869
 20
474.9089932372
 30
0.0
  0
SPLINE
  5
473
100
AcDbEntity
  8
0
100
AcDbSpline
 62
7
  6
CONTINUOUS
 70
0
 71
3
 72
11
 73
7
 74
0
 42
0.0000001
 43
0.0000001
 44
0.0000000001
 40
0.0
 40
0.0
 40
0.0
 40
0.0
 40
0.1576664224
 40
0.3770996289
 40
0.6584403287
 40
1.0
 40
1.0
 40
1.0
 40
1.0
 10
138.6680803412
 20
397.0177059311
 30
0.0
 10
138.6863453495
 20
397.0498385566
 30
0.0
 10
138.7190930346
 20
397.1325895001
 30
0.0
 10
138.7605393186
 20
397.2812540657
 30
0.0
 10
138.8010384446
 20
397.4746824734
 30
0.0
 10
138.8248759805
 20
397.6187616082
 30
0.0
 10
138.836827825
 20
397.6979348261
 30
0.0
  0
SPLINE
  5
474
100
AcDbEntity
  8
0
100
AcDbSpline
 62
7
  6
CONTINUOUS
 70
0
 71
3
 72
12
 73
8
 74
0
 42
0.0000001
 43
0.0000001
 44
0.0000000001
 40
0.0
 40
0.0
 40
0.0
 40
0.0
 40
0.0844617823
 40
0.1843479638
 40
0.4235652364
 40
0.7016996576
 40
1.0
 40
1.0
 40
1.0
 40
1.0
 10
138.836827825
 20
397.6979348261
 30
0.0
 10
138.8570885715
 20
397.8321491313
 30
0.0
 10
138.8944289384
 20
398.1261253356
 30
0.0
 10
138.9604323163
 20
398.8036657049
 30
0.0
 10
139.0230598149
 20
399.7938841863
 30
0.0
 10
139.0687107848
 20
401.1039912133
 30
0.0
 10
139.0789573728
 20
402.0304026287
 30
0.0
 10
139.0789573728
 20
402.5097884759
 30
0.0
  0
SPLINE
  5
475
100
AcDbEntity
  8
0
100
AcDbSpline
 62
7
  6
CONTINUOUS
 70
0
 71
3
 72
12
 73
8
 74
0
 42
0.0000001
 43
0.0000001
 44
0.0000000001
 40
0.0
 40
0.0
 40
0.0
 40
0.0
 40
0.2983003424
 40
0.5764347636
 40
0.8156520362
 40
0.9155382177
 40
1.0
 40
1.0
 40
1.0
 40
1.0
 10
139.0789573728
 20
402.5097884759
 30
0.0
 10
139.0789573728
 20
402.989174323
 30
0.0
 10
139.0687107848
 20
403.9155857384
 30
0.0
 10
139.0230598149
 20
405.2256927654
 30
0.0
 10
138.9604323163
 20
406.2159112468
 30
0.0
 10
138.8944289384
 20
406.8934516161
 30
0.0
 10
138.8570885715
 20
407.1874278204
 30
0.0
 10
138.836827825
 20
407.3216421256
 30
0.0
  0
SPLINE
  5
476
100
AcDbEntity
  8
0
100
AcDbSpline
 62
7
  6
CONTINUOUS
 70
0
 71
3
 72
11
 73
7
 74
0
 42
0.0000001
 43
0.0000001
 44
0.0000000001
 40
0.0
 40
0.0
 40
0.0
 40
0.0
 40
0.3415596713
 40
0.6229003711
 40
0.8423335776
 40
1.0
 40
1.0
 40
1.0
 40
1.0
 10
138.836827825
 20
407.3216421256
 30
0.0
 10
138.8248759805
 20
407.4008153435
 30
0.0
 10
138.8010384446
 20
407.5448944783
 30
0.0
 10
138.7605393186
 20
407.738322886
 30
0.0
 10
138.7190930346
 20
407.8869874516
 30
0.0
 10
138.6863453495
 20
407.9697383951
 30
0.0
 10
138.6680803412
 20
408.0018710206
 30
0.0
  0
SPLINE
  5
477
100
AcDbEntity
  8
0
100
AcDbSpline
 62
7
  6
CONTINUOUS
 70
0
 71
3
 72
10
 73
6
 74
0
 42
0.0000001
 43
0.0000001
 44
0.0000000001
 40
0.0
 40
0.0
 40
0.0
 40
0.0
 40
0.2047376755
 40
0.4415000502
 40
1.0
 40
1.0
 40
1.0
 40
1.0
 10
134.4052468576
 20
397.6979348259
 30
0.0
 10
134.388745605
 20
397.8072449222
 30
0.0
 10
134.3577357732
 20
398.0436563718
 30
0.0
 10
134.3014156648
 20
398.5806968308
 30
0.0
 10
134.2699567503
 20
399.0090639952
 30
0.0
 10
134.2514781498
 20
399.3100606505
 30
0.0
  0
SPLINE
  5
478
100
AcDbEntity
  8
0
100
AcDbSpline
 62
7
  6
CONTINUOUS
 70
0
 71
3
 72
10
 73
6
 74
0
 42
0.0000001
 43
0.0000001
 44
0.0000000001
 40
0.0
 40
0.0
 40
0.0
 40
0.0
 40
0.5584999498
 40
0.7952623245
 40
1.0
 40
1.0
 40
1.0
 40
1.0
 10
134.2514781498
 20
405.7095163012
 30
0.0
 10
134.2699567503
 20
406.0105129565
 30
0.0
 10
134.3014156648
 20
406.4388801209
 30
0.0
 10
134.3577357732
 20
406.9759205799
 30
0.0
 10
134.388745605
 20
407.2123320295
 30
0.0
 10
134.4052468576
 20
407.3216421258
 30
0.0
  0
SPLINE
  5
479
100
AcDbEntity
  8
0
100
AcDbSpline
 62
7
  6
CONTINUOUS
 70
0
 71
3
 72
11
 73
7
 74
0
 42
0.0000001
 43
0.0000001
 44
0.0000000001
 40
0.0
 40
0.0
 40
0.0
 40
0.0
 40
0.3415596713
 40
0.6229003711
 40
0.8423335776
 40
1.0
 40
1.0
 40
1.0
 40
1.0
 10
134.4052468576
 20
407.3216421258
 30
0.0
 10
134.4171987021
 20
407.4008153436
 30
0.0
 10
134.4410362381
 20
407.5448944784
 30
0.0
 10
134.481535364
 20
407.7383228861
 30
0.0
 10
134.522981648
 20
407.8869874516
 30
0.0
 10
134.5557293331
 20
407.9697383951
 30
0.0
 10
134.5739943414
 20
408.0018710206
 30
0.0
  0
SPLINE
  5
47A
100
AcDbEntity
  8
0
100
AcDbSpline
 62
7
  6
CONTINUOUS
 70
0
 71
3
 72
18
 73
14
 74
0
 42
0.0000001
 43
0.0000001
 44
0.0000000001
 40
0.0
 40
0.0
 40
0.0
 40
0.0
 40
0.1774270881
 40
0.3493226269
 40
0.5103600639
 40
0.6555372789
 40
0.7803860883
 40
0.833973698
 40
0.8811220544
 40
0.9214976472
 40
0.9548440269
 40
0.9810024472
 40
1.0
 40
1.0
 40
1.0
 40
1.0
 10
134.9573022267
 20
402.5097884759
 30
0.0
 10
134.9573022267
 20
402.7188987055
 30
0.0
 10
134.9541624113
 20
403.1306074849
 30
0.0
 10
134.9401122493
 20
403.731963091
 30
0.0
 10
134.9172502948
 20
404.2950204033
 30
0.0
 10
134.8863379923
 20
404.8021521499
 30
0.0
 10
134.8534547362
 20
405.182207343
 30
0.0
 10
134.8228732423
 20
405.4463268345
 30
0.0
 10
134.7998302477
 20
405.611057602
 30
0.0
 10
134.775721661
 20
405.7514729136
 30
0.0
 10
134.7508331996
 20
405.8666205152
 30
0.0
 10
134.7254060546
 20
405.955576375
 30
0.0
 10
134.7054068627
 20
406.0052564731
 30
0.0
 10
134.6943409179
 20
406.0247206575
 30
0.0
  0
SPLINE
  5
47B
100
AcDbEntity
  8
0
100
AcDbSpline
 62
7
  6
CONTINUOUS
 70
0
 71
3
 72
18
 73
14
 74
0
 42
0.0000001
 43
0.0000001
 44
0.0000000001
 40
0.0
 40
0.0
 40
0.0
 40
0.0
 40
0.018997501
 40
0.0451557467
 40
0.0785020367
 40
0.1188771028
 40
0.1660250615
 40
0.2196119019
 40
0.3444592151
 40
0.4896352335
 40
0.6506724753
 40
0.8225695249
 40
1.0
 40
1.0
 40
1.0
 40
1.0
 10
134.6943409176
 20
398.9948563187
 30
0.0
 10
134.7054073055
 20
399.0143201809
 30
0.0
 10
134.7254057091
 20
399.0640004271
 30
0.0
 10
134.750833372
 20
399.1529556427
 30
0.0
 10
134.775721198
 20
399.2681024843
 30
0.0
 10
134.7998300444
 20
399.4085165111
 30
0.0
 10
134.8228725365
 20
399.5732453464
 30
0.0
 10
134.8534540938
 20
399.837361662
 30
0.0
 10
134.8863370617
 20
400.2174127941
 30
0.0
 10
134.9172495321
 20
400.7245411154
 30
0.0
 10
134.9401117879
 20
401.2875985591
 30
0.0
 10
134.9541623049
 20
401.8889597014
 30
0.0
 10
134.9573022267
 20
402.3006742541
 30
0.0
 10
134.9573022267
 20
402.5097884759
 30
0.0
  0
SPLINE
  5
47C
100
AcDbEntity
  8
0
100
AcDbSpline
 62
7
  6
CONTINUOUS
 70
0
 71
3
 72
11
 73
7
 74
0
 42
0.0000001
 43
0.0000001
 44
0.0000000001
 40
0.0
 40
0.0
 40
0.0
 40
0.0
 40
0.1576664224
 40
0.3770996289
 40
0.6584403287
 40
1.0
 40
1.0
 40
1.0
 40
1.0
 10
134.5739943414
 20
397.0177059311
 30
0.0
 10
134.5557293331
 20
397.0498385566
 30
0.0
 10
134.522981648
 20
397.1325895001
 30
0.0
 10
134.481535364
 20
397.2812540657
 30
0.0
 10
134.4410362381
 20
397.4746824733
 30
0.0
 10
134.4171987021
 20
397.6187616081
 30
0.0
 10
134.4052468576
 20
397.6979348259
 30
0.0
  0
SPLINE
  5
47D
100
AcDbEntity
  8
0
100
AcDbSpline
 62
7
  6
CONTINUOUS
 70
0
 71
3
 72
18
 73
14
 74
0
 42
0.0000001
 43
0.0000001
 44
0.0000000001
 40
0.0
 40
0.0
 40
0.0
 40
0.0
 40
0.0472074324
 40
0.0857395593
 40
0.1428916929
 40
0.1692111296
 40
0.1994368024
 40
0.2365236932
 40
0.2820875243
 40
0.4015334152
 40
0.5608046429
 40
0.7604395454
 40
1.0
 40
1.0
 40
1.0
 40
1.0
 10
134.6943409179
 20
406.0247206575
 30
0.0
 10
134.6908841731
 20
406.0308008177
 30
0.0
 10
134.6840078288
 20
406.041590153
 30
0.0
 10
134.6703855834
 20
406.0575906431
 30
0.0
 10
134.6531465764
 20
406.0675793708
 30
0.0
 10
134.6360090968
 20
406.064282718
 30
0.0
 10
134.6241867375
 20
406.0566322977
 30
0.0
 10
134.6127260419
 20
406.0443072955
 30
0.0
 10
134.5961350564
 20
406.0192800646
 30
0.0
 10
134.5766697642
 20
405.9750817057
 30
0.0
 10
134.5550152749
 20
405.9075730987
 30
0.0
 10
134.5337175043
 20
405.8214370004
 30
0.0
 10
134.520975079
 20
405.7576145673
 30
0.0
 10
134.5145600419
 20
405.7227066201
 30
0.0
  0
SPLINE
  5
47E
100
AcDbEntity
  8
0
100
AcDbSpline
 62
7
  6
CONTINUOUS
 70
0
 71
3
 72
10
 73
6
 74
0
 42
0.0000001
 43
0.0000001
 44
0.0000000001
 40
0.0
 40
0.0
 40
0.0
 40
0.0
 40
0.2500741089
 40
0.5001387146
 40
1.0
 40
1.0
 40
1.0
 40
1.0
 10
135.1316355011
 20
402.5097884758
 30
0.0
 10
135.1316355011
 20
402.2384365848
 30
0.0
 10
135.1547042126
 20
401.6954577365
 30
0.0
 10
135.2887275561
 20
400.6177845301
 30
0.0
 10
135.4761073433
 20
399.8231521537
 30
0.0
 10
135.6260112993
 20
399.3018860427
 30
0.0
  0
SPLINE
  5
47F
100
AcDbEntity
  8
0
100
AcDbSpline
 62
7
  6
CONTINUOUS
 70
0
 71
3
 72
11
 73
7
 74
0
 42
0.0000001
 43
0.0000001
 44
0.0000000001
 40
0.0
 40
0.0
 40
0.0
 40
0.0
 40
0.2662252142
 40
0.5214347013
 40
0.7654504288
 40
1.0
 40
1.0
 40
1.0
 40
1.0
 10
135.6260112993
 20
399.3018860427
 30
0.0
 10
135.5331507198
 20
399.1739985409
 30
0.0
 10
135.3595295119
 20
398.9172880084
 30
0.0
 10
135.1399987036
 20
398.5184738301
 30
0.0
 10
134.9765962241
 20
398.1133429405
 30
0.0
 10
134.9102900256
 20
397.8356158253
 30
0.0
 10
134.8895059533
 20
397.697934826
 30
0.0
  0
SPLINE
  5
480
100
AcDbEntity
  8
0
100
AcDbSpline
 62
7
  6
CONTINUOUS
 70
0
 71
3
 72
12
 73
8
 74
0
 42
0.0000001
 43
0.0000001
 44
0.0000000001
 40
0.0
 40
0.0
 40
0.0
 40
0.0
 40
0.0844617823
 40
0.1843479637
 40
0.4235652364
 40
0.7016996576
 40
1.0
 40
1.0
 40
1.0
 40
1.0
 10
134.8895059532
 20
407.3216421258
 30
0.0
 10
134.9097666998
 20
407.1874278206
 30
0.0
 10
134.9471070667
 20
406.8934516162
 30
0.0
 10
135.0131104446
 20
406.215911247
 30
0.0
 10
135.0757379432
 20
405.2256927655
 30
0.0
 10
135.1213889131
 20
403.9155857385
 30
0.0
 10
135.1316355011
 20
402.989174323
 30
0.0
 10
135.1316355011
 20
402.5097884759
 30
0.0
  0
SPLINE
  5
481
100
AcDbEntity
  8
0
100
AcDbSpline
 62
7
  6
CONTINUOUS
 70
0
 71
3
 72
12
 73
8
 74
0
 42
0.0000001
 43
0.0000001
 44
0.0000000001
 40
0.0
 40
0.0
 40
0.0
 40
0.0
 40
0.2983003424
 40
0.5764347636
 40
0.8156520363
 40
0.9155382177
 40
1.0
 40
1.0
 40
1.0
 40
1.0
 10
135.1316355011
 20
402.5097884759
 30
0.0
 10
135.1316355011
 20
402.0304026287
 30
0.0
 10
135.1213889131
 20
401.1039912132
 30
0.0
 10
135.0757379432
 20
399.7938841862
 30
0.0
 10
135.0131104446
 20
398.8036657047
 30
0.0
 10
134.9471070667
 20
398.1261253355
 30
0.0
 10
134.9097666998
 20
397.8321491311
 30
0.0
 10
134.8895059532
 20
397.6979348259
 30
0.0
  0
SPLINE
  5
482
100
AcDbEntity
  8
0
100
AcDbSpline
 62
7
  6
CONTINUOUS
 70
0
 71
3
 72
19
 73
15
 74
0
 42
0.0000001
 43
0.0000001
 44
0.0000000001
 40
0.0
 40
0.0
 40
0.0
 40
0.0
 40
0.2429965213
 40
0.4474742153
 40
0.612306943
 40
0.7372992001
 40
0.7852253189
 40
0.8239689926
 40
0.8545607083
 40
0.8791583187
 40
0.9017537026
 40
0.9273152411
 40
0.9594426517
 40
1.0
 40
1.0
 40
1.0
 40
1.0
 10
134.8895059532
 20
397.6979348259
 30
0.0
 10
134.8785503166
 20
397.6253608386
 30
0.0
 10
134.8566320816
 20
397.4919721558
 30
0.0
 10
134.8197777684
 20
397.310648851
 30
0.0
 10
134.7819773007
 20
397.1661672846
 30
0.0
 10
134.747890727
 20
397.0696666891
 30
0.0
 10
134.7187826246
 20
397.0126262234
 30
0.0
 10
134.6987309172
 20
396.9832577973
 30
0.0
 10
134.6783231118
 20
396.9631813109
 30
0.0
 10
134.656516821
 20
396.9526356671
 30
0.0
 10
134.6336266807
 20
396.953905218
 30
0.0
 10
134.6122034338
 20
396.9665433659
 30
0.0
 10
134.5919139588
 20
396.9884762329
 30
0.0
 10
134.580048021
 20
397.0070560252
 30
0.0
 10
134.5739943414
 20
397.0177059311
 30
0.0
  0
SPLINE
  5
483
100
AcDbEntity
  8
0
100
AcDbSpline
 62
7
  6
CONTINUOUS
 70
0
 71
3
 72
18
 73
14
 74
0
 42
0.0000001
 43
0.0000001
 44
0.0000000001
 40
0.0
 40
0.0
 40
0.0
 40
0.0
 40
0.239525728
 40
0.4391210711
 40
0.5983460871
 40
0.7177509442
 40
0.7632983186
 40
0.800374076
 40
0.8306001371
 40
0.8569368237
 40
0.9141663639
 40
0.9527456596
 40
1.0
 40
1.0
 40
1.0
 40
1.0
 10
134.5147052203
 20
399.2960807813
 30
0.0
 10
134.5211160698
 20
399.2612423059
 30
0.0
 10
134.5338500713
 20
399.1975489593
 30
0.0
 10
134.5551318936
 20
399.1115917629
 30
0.0
 10
134.5767702561
 20
399.0442317817
 30
0.0
 10
134.5962201177
 20
399.0001376635
 30
0.0
 10
134.6127976233
 20
398.9751782499
 30
0.0
 10
134.6242498138
 20
398.962891736
 30
0.0
 10
134.6360645042
 20
398.9552732413
 30
0.0
 10
134.6531902256
 20
398.9520098091
 30
0.0
 10
134.6704045635
 20
398.9620062459
 30
0.0
 10
134.6840158905
 20
398.9779992124
 30
0.0
 10
134.6908868246
 20
398.9887811665
 30
0.0
 10
134.6943409176
 20
398.9948563187
 30
0.0
  0
SPLINE
  5
484
100
AcDbEntity
  8
0
100
AcDbSpline
 62
7
  6
CONTINUOUS
 70
0
 71
3
 72
11
 73
7
 74
0
 42
0.0000001
 43
0.0000001
 44
0.0000000001
 40
0.0
 40
0.0
 40
0.0
 40
0.0
 40
0.2345496338
 40
0.4785653697
 40
0.7337748641
 40
1.0
 40
1.0
 40
1.0
 40
1.0
 10
134.8895059533
 20
407.3216421257
 30
0.0
 10
134.9102900311
 20
407.1839610902
 30
0.0
 10
134.9765962579
 20
406.9062339432
 30
0.0
 10
135.1399986963
 20
406.5011029795
 30
0.0
 10
135.3595297199
 20
406.1022889678
 30
0.0
 10
135.5331507474
 20
405.8455783727
 30
0.0
 10
135.6260112993
 20
405.717690909
 30
0.0
  0
SPLINE
  5
485
100
AcDbEntity
  8
0
100
AcDbSpline
 62
7
  6
CONTINUOUS
 70
0
 71
3
 72
10
 73
6
 74
0
 42
0.0000001
 43
0.0000001
 44
0.0000000001
 40
0.0
 40
0.0
 40
0.0
 40
0.0
 40
0.4998613489
 40
0.7499259372
 40
1.0
 40
1.0
 40
1.0
 40
1.0
 10
135.6260112993
 20
405.717690909
 30
0.0
 10
135.4761073243
 20
405.1964247317
 30
0.0
 10
135.2887281663
 20
404.4017922085
 30
0.0
 10
135.1547036816
 20
403.3241191324
 30
0.0
 10
135.1316355011
 20
402.7811403169
 30
0.0
 10
135.1316355011
 20
402.5097884758
 30
0.0
  0
SPLINE
  5
486
100
AcDbEntity
  8
0
100
AcDbSpline
 62
7
  6
CONTINUOUS
 70
0
 71
3
 72
19
 73
15
 74
0
 42
0.0000001
 43
0.0000001
 44
0.0000000001
 40
0.0
 40
0.0
 40
0.0
 40
0.0
 40
0.0405573483
 40
0.0726847589
 40
0.0982462974
 40
0.1208416813
 40
0.1454392917
 40
0.1760310074
 40
0.2147746811
 40
0.2627007999
 40
0.387693057
 40
0.5525257847
 40
0.7570034787
 40
1.0
 40
1.0
 40
1.0
 40
1.0
 10
134.5739943414
 20
408.0018710206
 30
0.0
 10
134.580048021
 20
408.0125209265
 30
0.0
 10
134.5919139588
 20
408.0311007188
 30
0.0
 10
134.6122034338
 20
408.0530335858
 30
0.0
 10
134.6336266807
 20
408.0656717337
 30
0.0
 10
134.656516821
 20
408.0669412846
 30
0.0
 10
134.6783231118
 20
408.0563956408
 30
0.0
 10
134.6987309172
 20
408.0363191544
 30
0.0
 10
134.7187826246
 20
408.0069507283
 30
0.0
 10
134.747890727
 20
407.9499102626
 30
0.0
 10
134.7819773007
 20
407.8534096671
 30
0.0
 10
134.8197777684
 20
407.7089281007
 30
0.0
 10
134.8566320816
 20
407.5276047959
 30
0.0
 10
134.8785503166
 20
407.3942161131
 30
0.0
 10
134.8895059532
 20
407.3216421258
 30
0.0
  0
SPLINE
  5
487
100
AcDbEntity
  8
0
100
AcDbSpline
 62
7
  6
CONTINUOUS
 70
0
 71
3
 72
9
 73
5
 74
0
 42
0.0000001
 43
0.0000001
 44
0.0000000001
 40
0.0
 40
0.0
 40
0.0
 40
0.0
 40
0.5140756698
 40
1.0
 40
1.0
 40
1.0
 40
1.0
 10
138.4395264131
 20
396.6156758934
 30
0.0
 10
138.5375823783
 20
396.7881537004
 30
0.0
 10
138.7070806328
 20
397.1368044876
 30
0.0
 10
138.8088346242
 20
397.5124980267
 30
0.0
 10
138.836827825
 20
397.6979348261
 30
0.0
  0
SPLINE
  5
488
100
AcDbEntity
  8
0
100
AcDbSpline
 62
7
  6
CONTINUOUS
 70
0
 71
3
 72
9
 73
5
 74
0
 42
0.0000001
 43
0.0000001
 44
0.0000000001
 40
0.0
 40
0.0
 40
0.0
 40
0.0
 40
0.4859244283
 40
1.0
 40
1.0
 40
1.0
 40
1.0
 10
138.836827825
 20
407.3216421256
 30
0.0
 10
138.8088346194
 20
407.5070789569
 30
0.0
 10
138.70708051
 20
407.882772448
 30
0.0
 10
138.5375823999
 20
408.2314232795
 30
0.0
 10
138.4395264875
 20
408.4039010663
 30
0.0
  0
SPLINE
  5
489
100
AcDbEntity
  8
0
100
AcDbSpline
 62
7
  6
CONTINUOUS
 70
0
 71
3
 72
11
 73
7
 74
0
 42
0.0000001
 43
0.0000001
 44
0.0000000001
 40
0.0
 40
0.0
 40
0.0
 40
0.0
 40
0.2479305025
 40
0.4947625586
 40
0.744676812
 40
1.0
 40
1.0
 40
1.0
 40
1.0
 10
134.8895059533
 20
397.697934826
 30
0.0
 10
134.8692261089
 20
397.5635940103
 30
0.0
 10
134.8509349761
 20
397.2915815991
 30
0.0
 10
134.8910234496
 20
396.8838832278
 30
0.0
 10
134.9900501144
 20
396.482651493
 30
0.0
 10
135.0871139784
 20
396.2227880792
 30
0.0
 10
135.1417522037
 20
396.0939836095
 30
0.0
  0
SPLINE
  5
48A
100
AcDbEntity
  8
0
100
AcDbSpline
 62
7
  6
CONTINUOUS
 70
0
 71
3
 72
10
 73
6
 74
0
 42
0.0000001
 43
0.0000001
 44
0.0000000001
 40
0.0
 40
0.0
 40
0.0
 40
0.0
 40
0.2500741182
 40
0.5001387107
 40
1.0
 40
1.0
 40
1.0
 40
1.0
 10
139.0789573728
 20
402.5097884758
 30
0.0
 10
139.0789573728
 20
402.7811403771
 30
0.0
 10
139.0558891948
 20
403.3241192583
 30
0.0
 10
138.9218646595
 20
404.4017923279
 30
0.0
 10
138.7344855317
 20
405.1964247939
 30
0.0
 10
138.5845815746
 20
405.717690909
 30
0.0
  0
SPLINE
  5
48B
100
AcDbEntity
  8
0
100
AcDbSpline
 62
7
  6
CONTINUOUS
 70
0
 71
3
 72
11
 73
7
 74
0
 42
0.0000001
 43
0.0000001
 44
0.0000000001
 40
0.0
 40
0.0
 40
0.0
 40
0.0
 40
0.2553232355
 40
0.5052375148
 40
0.7520695651
 40
1.0
 40
1.0
 40
1.0
 40
1.0
 10
138.5845815746
 20
405.717690909
 30
0.0
 10
138.63921981
 20
405.8464954028
 30
0.0
 10
138.7362837059
 20
406.1063588484
 30
0.0
 10
138.8353103406
 20
406.5075906304
 30
0.0
 10
138.8753987889
 20
406.915288976
 30
0.0
 10
138.8571076638
 20
407.1873013465
 30
0.0
 10
138.836827825
 20
407.3216421256
 30
0.0
  0
SPLINE
  5
48C
100
AcDbEntity
  8
0
100
AcDbSpline
 62
7
  6
CONTINUOUS
 70
0
 71
3
 72
11
 73
7
 74
0
 42
0.0000001
 43
0.0000001
 44
0.0000000001
 40
0.0
 40
0.0
 40
0.0
 40
0.0
 40
0.2479305042
 40
0.4947625578
 40
0.7446767949
 40
1.0
 40
1.0
 40
1.0
 40
1.0
 10
138.836827825
 20
397.6979348261
 30
0.0
 10
138.8571076696
 20
397.8322756435
 30
0.0
 10
138.8753988306
 20
398.1042880601
 30
0.0
 10
138.8353102596
 20
398.5119864046
 30
0.0
 10
138.7362838453
 20
398.9132182065
 30
0.0
 10
138.6392198038
 20
399.1730815634
 30
0.0
 10
138.5845815746
 20
399.3018860427
 30
0.0
  0
SPLINE
  5
48D
100
AcDbEntity
  8
0
100
AcDbSpline
 62
7
  6
CONTINUOUS
 70
0
 71
3
 72
10
 73
6
 74
0
 42
0.0000001
 43
0.0000001
 44
0.0000000001
 40
0.0
 40
0.0
 40
0.0
 40
0.0
 40
0.4998613532
 40
0.749925954
 40
1.0
 40
1.0
 40
1.0
 40
1.0
 10
138.5845815746
 20
399.3018860427
 30
0.0
 10
138.7344855509
 20
399.8231522243
 30
0.0
 10
138.9218653597
 20
400.6177846678
 30
0.0
 10
139.055888659
 20
401.6954578793
 30
0.0
 10
139.0789573728
 20
402.2384366531
 30
0.0
 10
139.0789573728
 20
402.5097884758
 30
0.0
  0
SPLINE
  5
48E
100
AcDbEntity
  8
0
100
AcDbSpline
 62
7
  6
CONTINUOUS
 70
0
 71
3
 72
11
 73
7
 74
0
 42
0.0000001
 43
0.0000001
 44
0.0000000001
 40
0.0
 40
0.0
 40
0.0
 40
0.0
 40
0.2553232526
 40
0.5052375154
 40
0.7520695631
 40
1.0
 40
1.0
 40
1.0
 40
1.0
 10
135.1417522037
 20
408.9255933422
 30
0.0
 10
135.0871139643
 20
408.796788839
 30
0.0
 10
134.9900498899
 20
408.5369254507
 30
0.0
 10
134.8910235064
 20
408.1356936014
 30
0.0
 10
134.8509349606
 20
407.7279952827
 30
0.0
 10
134.8692261142
 20
407.4559829066
 30
0.0
 10
134.8895059533
 20
407.3216421257
 30
0.0
  0
SPLINE
  5
48F
100
AcDbEntity
  8
0
100
AcDbSpline
 62
7
  6
CONTINUOUS
 70
0
 71
3
 72
9
 73
5
 74
0
 42
0.0000001
 43
0.0000001
 44
0.0000000001
 40
0.0
 40
0.0
 40
0.0
 40
0.0
 40
0.5020500637
 40
1.0
 40
1.0
 40
1.0
 40
1.0
 10
171.8260217846
 20
357.0539202264
 30
0.0
 10
171.6140131597
 20
357.1901450643
 30
0.0
 10
171.1627227701
 20
357.4189895416
 30
0.0
 10
170.6734444482
 20
357.5486757327
 30
0.0
 10
170.4264205279
 20
357.5867680237
 30
0.0
  0
SPLINE
  5
490
100
AcDbEntity
  8
0
100
AcDbSpline
 62
7
  6
CONTINUOUS
 70
0
 71
3
 72
15
 73
11
 74
0
 42
0.0000001
 43
0.0000001
 44
0.0000000001
 40
0.0
 40
0.0
 40
0.0
 40
0.0
 40
0.1266664238
 40
0.2529541083
 40
0.3787230631
 40
0.503910994
 40
0.6285283033
 40
0.7526545024
 40
0.8764184332
 40
1.0
 40
1.0
 40
1.0
 40
1.0
 10
165.7754223095
 20
354.2688386743
 30
0.0
 10
165.8105603065
 20
354.49840312
 30
0.0
 10
165.919572298
 20
354.9518749864
 30
0.0
 10
166.1948510859
 20
355.5928593352
 30
0.0
 10
166.5743058946
 20
356.1753296479
 30
0.0
 10
167.0471437021
 20
356.6808132683
 30
0.0
 10
167.5995388077
 20
357.0930483128
 30
0.0
 10
168.2148177422
 20
357.3982162784
 30
0.0
 10
168.8733775724
 20
357.5857916867
 30
0.0
 10
169.3279899429
 20
357.6279884759
 30
0.0
 10
169.5545720291
 20
357.6279884759
 30
0.0
  0
SPLINE
  5
491
100
AcDbEntity
  8
0
100
AcDbSpline
 62
7
  6
CONTINUOUS
 70
0
 71
3
 72
15
 73
11
 74
0
 42
0.0000001
 43
0.0000001
 44
0.0000000001
 40
0.0
 40
0.0
 40
0.0
 40
0.0
 40
0.1235810059
 40
0.2473447932
 40
0.3714711171
 40
0.4960887305
 40
0.6212769957
 40
0.7470461826
 40
0.8733338783
 40
1.0
 40
1.0
 40
1.0
 40
1.0
 10
169.5545720291
 20
349.6523884759
 30
0.0
 10
169.3279909714
 20
349.6523884759
 30
0.0
 10
168.8733799197
 20
349.6945850406
 30
0.0
 10
168.2148209169
 20
349.882159408
 30
0.0
 10
167.5995412174
 20
350.187327056
 30
0.0
 10
167.0471447355
 20
350.5995626296
 30
0.0
 10
166.5743057128
 20
351.1050473418
 30
0.0
 10
166.1948505037
 20
351.6875186734
 30
0.0
 10
165.9195719806
 20
352.3285030366
 30
0.0
 10
165.8105603648
 20
352.7819744083
 30
0.0
 10
165.7754223087
 20
353.0115382846
 30
0.0
  0
SPLINE
  5
492
100
AcDbEntity
  8
0
100
AcDbSpline
 62
7
  6
CONTINUOUS
 70
0
 71
3
 72
9
 73
5
 74
0
 42
0.0000001
 43
0.0000001
 44
0.0000000001
 40
0.0
 40
0.0
 40
0.0
 40
0.0
 40
0.4979499303
 40
1.0
 40
1.0
 40
1.0
 40
1.0
 10
170.4266054916
 20
349.6936374766
 30
0.0
 10
170.6736003571
 20
349.7317390031
 30
0.0
 10
171.1628190093
 20
349.8614304837
 30
0.0
 10
171.6140554295
 20
350.090257258
 30
0.0
 10
171.8260400876
 20
350.2264684751
 30
0.0
  0
SPLINE
  5
493
100
AcDbEntity
  8
0
100
AcDbSpline
 62
7
  6
CONTINUOUS
 70
0
 71
3
 72
9
 73
5
 74
0
 42
0.0000001
 43
0.0000001
 44
0.0000000001
 40
0.0
 40
0.0
 40
0.0
 40
0.0
 40
0.2488418341
 40
1.0
 40
1.0
 40
1.0
 40
1.0
 10
172.2789141972
 20
350.568647029
 30
0.0
 10
172.3360802397
 20
350.6190164043
 30
0.0
 10
172.559700755
 20
350.8282763501
 30
0.0
 10
172.7581671207
 20
351.0642876196
 30
0.0
 10
172.8903721595
 20
351.2524831116
 30
0.0
  0
SPLINE
  5
494
100
AcDbEntity
  8
0
100
AcDbSpline
 62
7
  6
CONTINUOUS
 70
0
 71
3
 72
23
 73
19
 74
0
 42
0.0000001
 43
0.0000001
 44
0.0000000001
 40
0.0
 40
0.0
 40
0.0
 40
0.0
 40
0.0643948797
 40
0.1283286211
 40
0.1916824788
 40
0.254392567
 40
0.3164697786
 40
0.377992971
 40
0.4391057558
 40
0.5000001544
 40
0.5608944319
 40
0.6220068645
 40
0.6835295935
 40
0.7456064476
 40
0.8083164505
 40
0.8716704709
 40
0.9356046519
 40
1.0
 40
1.0
 40
1.0
 40
1.0
 10
171.5383744612
 20
353.0115384759
 30
0.0
 10
171.5056905589
 20
352.868138497
 30
0.0
 10
171.41792951
 20
352.5869666154
 30
0.0
 10
171.2220023285
 20
352.193443276
 30
0.0
 10
170.9673598233
 20
351.8396374649
 30
0.0
 10
170.6609544897
 20
351.5355167458
 30
0.0
 10
170.3111832733
 20
351.2895455951
 30
0.0
 10
169.9276876526
 20
351.1086718718
 30
0.0
 10
169.521118978
 20
350.9980333333
 30
0.0
 10
169.1028310203
 20
350.9607976879
 30
0.0
 10
168.6845439039
 20
350.9980335425
 30
0.0
 10
168.2779773209
 20
351.1086714885
 30
0.0
 10
167.8944839693
 20
351.2895436333
 30
0.0
 10
167.5447139193
 20
351.5355127977
 30
0.0
 10
167.2383082886
 20
351.8396322886
 30
0.0
 10
166.983664058
 20
352.1934383408
 30
0.0
 10
166.7877352679
 20
352.5869636532
 30
0.0
 10
166.6999733265
 20
352.868137454
 30
0.0
 10
166.6672891865
 20
353.0115384759
 30
0.0
  0
SPLINE
  5
495
100
AcDbEntity
  8
0
100
AcDbSpline
 62
7
  6
CONTINUOUS
 70
0
 71
3
 72
23
 73
19
 74
0
 42
0.0000001
 43
0.0000001
 44
0.0000000001
 40
0.0
 40
0.0
 40
0.0
 40
0.0
 40
0.0643948797
 40
0.1283286211
 40
0.1916824788
 40
0.254392567
 40
0.3164697786
 40
0.377992971
 40
0.4391057558
 40
0.5000001544
 40
0.5608944319
 40
0.6220068645
 40
0.6835295935
 40
0.7456064476
 40
0.8083164505
 40
0.8716704709
 40
0.9356046519
 40
1.0
 40
1.0
 40
1.0
 40
1.0
 10
166.6672891865
 20
354.2688384759
 30
0.0
 10
166.6999730888
 20
354.4122384547
 30
0.0
 10
166.7877341376
 20
354.6934103363
 30
0.0
 10
166.9836613191
 20
355.0869336757
 30
0.0
 10
167.2383038244
 20
355.4407394868
 30
0.0
 10
167.5447091579
 20
355.7448602059
 30
0.0
 10
167.8944803743
 20
355.9908313566
 30
0.0
 10
168.2779759951
 20
356.1717050799
 30
0.0
 10
168.6845446696
 20
356.2823436184
 30
0.0
 10
169.1028326273
 20
356.3195792638
 30
0.0
 10
169.5211197438
 20
356.2823434092
 30
0.0
 10
169.9276863268
 20
356.1717054632
 30
0.0
 10
170.3111796783
 20
355.9908333184
 30
0.0
 10
170.6609497283
 20
355.744864154
 30
0.0
 10
170.9673553591
 20
355.4407446631
 30
0.0
 10
171.2219995897
 20
355.0869386109
 30
0.0
 10
171.4179283797
 20
354.6934132985
 30
0.0
 10
171.5056903212
 20
354.4122394977
 30
0.0
 10
171.5383744612
 20
354.2688384759
 30
0.0
  0
SPLINE
  5
496
100
AcDbEntity
  8
0
100
AcDbSpline
 62
7
  6
CONTINUOUS
 70
0
 71
3
 72
15
 73
11
 74
0
 42
0.0000001
 43
0.0000001
 44
0.0000000001
 40
0.0
 40
0.0
 40
0.0
 40
0.0
 40
0.1215100525
 40
0.2436605612
 40
0.3667831849
 40
0.4910980493
 40
0.6166920647
 40
0.7435127282
 40
0.8713804997
 40
1.0
 40
1.0
 40
1.0
 40
1.0
 10
169.8879042632
 20
357.6121764774
 30
0.0
 10
170.0935253984
 20
357.5926377618
 30
0.0
 10
170.5032855438
 20
357.5169237704
 30
0.0
 10
171.0901468361
 20
357.2977403672
 30
0.0
 10
171.6350097088
 20
356.978821516
 30
0.0
 10
172.1227971908
 20
356.5690669414
 30
0.0
 10
172.5403871523
 20
356.0797973512
 30
0.0
 10
172.8765555087
 20
355.5243696231
 30
0.0
 10
173.1222651534
 20
354.9181169982
 30
0.0
 10
173.2212997345
 20
354.4913733745
 30
0.0
 10
173.2540627868
 20
354.2752098915
 30
0.0
  0
SPLINE
  5
497
100
AcDbEntity
  8
0
100
AcDbSpline
 62
7
  6
CONTINUOUS
 70
0
 71
3
 72
15
 73
11
 74
0
 42
0.0000001
 43
0.0000001
 44
0.0000000001
 40
0.0
 40
0.0
 40
0.0
 40
0.0
 40
0.1286195003
 40
0.2564872718
 40
0.3833079353
 40
0.5089019507
 40
0.6332168151
 40
0.7563394388
 40
0.8784899475
 40
1.0
 40
1.0
 40
1.0
 40
1.0
 10
173.2540627868
 20
353.0051670602
 30
0.0
 10
173.2212997345
 20
352.7890035772
 30
0.0
 10
173.1222651534
 20
352.3622599535
 30
0.0
 10
172.8765555088
 20
351.7560073286
 30
0.0
 10
172.5403871523
 20
351.2005796005
 30
0.0
 10
172.1227971908
 20
350.7113100103
 30
0.0
 10
171.6350097088
 20
350.3015554358
 30
0.0
 10
171.0901468361
 20
349.9826365845
 30
0.0
 10
170.5032855438
 20
349.7634531814
 30
0.0
 10
170.0935253984
 20
349.6877391899
 30
0.0
 10
169.8879042633
 20
349.6682004743
 30
0.0
  0
SPLINE
  5
498
100
AcDbEntity
  8
0
100
AcDbSpline
 62
7
  6
CONTINUOUS
 70
0
 71
3
 72
9
 73
5
 74
0
 42
0.0000001
 43
0.0000001
 44
0.0000000001
 40
0.0
 40
0.0
 40
0.0
 40
0.0
 40
0.5020500637
 40
1.0
 40
1.0
 40
1.0
 40
1.0
 10
171.8260217846
 20
306.2539202264
 30
0.0
 10
171.6140131597
 20
306.3901450643
 30
0.0
 10
171.1627227701
 20
306.6189895416
 30
0.0
 10
170.6734444482
 20
306.7486757327
 30
0.0
 10
170.4264205279
 20
306.7867680237
 30
0.0
  0
SPLINE
  5
499
100
AcDbEntity
  8
0
100
AcDbSpline
 62
7
  6
CONTINUOUS
 70
0
 71
3
 72
15
 73
11
 74
0
 42
0.0000001
 43
0.0000001
 44
0.0000000001
 40
0.0
 40
0.0
 40
0.0
 40
0.0
 40
0.1266664238
 40
0.2529541083
 40
0.3787230631
 40
0.503910994
 40
0.6285283033
 40
0.7526545024
 40
0.8764184332
 40
1.0
 40
1.0
 40
1.0
 40
1.0
 10
165.7754223095
 20
303.4688386743
 30
0.0
 10
165.8105603065
 20
303.69840312
 30
0.0
 10
165.919572298
 20
304.1518749864
 30
0.0
 10
166.1948510859
 20
304.7928593352
 30
0.0
 10
166.5743058946
 20
305.3753296479
 30
0.0
 10
167.0471437021
 20
305.8808132683
 30
0.0
 10
167.5995388077
 20
306.2930483128
 30
0.0
 10
168.2148177422
 20
306.5982162784
 30
0.0
 10
168.8733775724
 20
306.7857916867
 30
0.0
 10
169.3279899429
 20
306.8279884759
 30
0.0
 10
169.5545720291
 20
306.8279884759
 30
0.0
  0
SPLINE
  5
49A
100
AcDbEntity
  8
0
100
AcDbSpline
 62
7
  6
CONTINUOUS
 70
0
 71
3
 72
15
 73
11
 74
0
 42
0.0000001
 43
0.0000001
 44
0.0000000001
 40
0.0
 40
0.0
 40
0.0
 40
0.0
 40
0.1235810059
 40
0.2473447932
 40
0.3714711171
 40
0.4960887305
 40
0.6212769957
 40
0.7470461826
 40
0.8733338783
 40
1.0
 40
1.0
 40
1.0
 40
1.0
 10
169.5545720291
 20
298.8523884759
 30
0.0
 10
169.3279909714
 20
298.8523884759
 30
0.0
 10
168.8733799197
 20
298.8945850406
 30
0.0
 10
168.2148209169
 20
299.082159408
 30
0.0
 10
167.5995412174
 20
299.387327056
 30
0.0
 10
167.0471447355
 20
299.7995626296
 30
0.0
 10
166.5743057128
 20
300.3050473418
 30
0.0
 10
166.1948505037
 20
300.8875186734
 30
0.0
 10
165.9195719806
 20
301.5285030366
 30
0.0
 10
165.8105603648
 20
301.9819744083
 30
0.0
 10
165.7754223087
 20
302.2115382846
 30
0.0
  0
SPLINE
  5
49B
100
AcDbEntity
  8
0
100
AcDbSpline
 62
7
  6
CONTINUOUS
 70
0
 71
3
 72
9
 73
5
 74
0
 42
0.0000001
 43
0.0000001
 44
0.0000000001
 40
0.0
 40
0.0
 40
0.0
 40
0.0
 40
0.4979499303
 40
1.0
 40
1.0
 40
1.0
 40
1.0
 10
170.4266054916
 20
298.8936374766
 30
0.0
 10
170.6736003571
 20
298.9317390031
 30
0.0
 10
171.1628190093
 20
299.0614304837
 30
0.0
 10
171.6140554295
 20
299.290257258
 30
0.0
 10
171.8260400876
 20
299.4264684751
 30
0.0
  0
SPLINE
  5
49C
100
AcDbEntity
  8
0
100
AcDbSpline
 62
7
  6
CONTINUOUS
 70
0
 71
3
 72
9
 73
5
 74
0
 42
0.0000001
 43
0.0000001
 44
0.0000000001
 40
0.0
 40
0.0
 40
0.0
 40
0.0
 40
0.2488418341
 40
1.0
 40
1.0
 40
1.0
 40
1.0
 10
172.2789141972
 20
299.768647029
 30
0.0
 10
172.3360802397
 20
299.8190164043
 30
0.0
 10
172.559700755
 20
300.0282763501
 30
0.0
 10
172.7581671207
 20
300.2642876196
 30
0.0
 10
172.8903721595
 20
300.4524831116
 30
0.0
  0
SPLINE
  5
49D
100
AcDbEntity
  8
0
100
AcDbSpline
 62
7
  6
CONTINUOUS
 70
0
 71
3
 72
23
 73
19
 74
0
 42
0.0000001
 43
0.0000001
 44
0.0000000001
 40
0.0
 40
0.0
 40
0.0
 40
0.0
 40
0.0643948797
 40
0.1283286211
 40
0.1916824788
 40
0.254392567
 40
0.3164697786
 40
0.377992971
 40
0.4391057558
 40
0.5000001544
 40
0.5608944319
 40
0.6220068645
 40
0.6835295935
 40
0.7456064476
 40
0.8083164505
 40
0.8716704709
 40
0.9356046519
 40
1.0
 40
1.0
 40
1.0
 40
1.0
 10
171.5383744612
 20
302.2115384759
 30
0.0
 10
171.5056905589
 20
302.068138497
 30
0.0
 10
171.41792951
 20
301.7869666154
 30
0.0
 10
171.2220023285
 20
301.393443276
 30
0.0
 10
170.9673598233
 20
301.0396374649
 30
0.0
 10
170.6609544897
 20
300.7355167458
 30
0.0
 10
170.3111832733
 20
300.4895455951
 30
0.0
 10
169.9276876526
 20
300.3086718718
 30
0.0
 10
169.521118978
 20
300.1980333333
 30
0.0
 10
169.1028310203
 20
300.1607976879
 30
0.0
 10
168.6845439039
 20
300.1980335425
 30
0.0
 10
168.2779773209
 20
300.3086714885
 30
0.0
 10
167.8944839693
 20
300.4895436333
 30
0.0
 10
167.5447139193
 20
300.7355127977
 30
0.0
 10
167.2383082886
 20
301.0396322886
 30
0.0
 10
166.983664058
 20
301.3934383408
 30
0.0
 10
166.7877352679
 20
301.7869636532
 30
0.0
 10
166.6999733265
 20
302.068137454
 30
0.0
 10
166.6672891865
 20
302.2115384759
 30
0.0
  0
SPLINE
  5
49E
100
AcDbEntity
  8
0
100
AcDbSpline
 62
7
  6
CONTINUOUS
 70
0
 71
3
 72
23
 73
19
 74
0
 42
0.0000001
 43
0.0000001
 44
0.0000000001
 40
0.0
 40
0.0
 40
0.0
 40
0.0
 40
0.0643948797
 40
0.1283286211
 40
0.1916824788
 40
0.254392567
 40
0.3164697786
 40
0.377992971
 40
0.4391057558
 40
0.5000001544
 40
0.5608944319
 40
0.6220068645
 40
0.6835295935
 40
0.7456064476
 40
0.8083164505
 40
0.8716704709
 40
0.9356046519
 40
1.0
 40
1.0
 40
1.0
 40
1.0
 10
166.6672891865
 20
303.4688384759
 30
0.0
 10
166.6999730888
 20
303.6122384547
 30
0.0
 10
166.7877341376
 20
303.8934103363
 30
0.0
 10
166.9836613191
 20
304.2869336757
 30
0.0
 10
167.2383038244
 20
304.6407394868
 30
0.0
 10
167.5447091579
 20
304.9448602059
 30
0.0
 10
167.8944803743
 20
305.1908313566
 30
0.0
 10
168.2779759951
 20
305.3717050799
 30
0.0
 10
168.6845446696
 20
305.4823436184
 30
0.0
 10
169.1028326273
 20
305.5195792638
 30
0.0
 10
169.5211197438
 20
305.4823434092
 30
0.0
 10
169.9276863268
 20
305.3717054632
 30
0.0
 10
170.3111796783
 20
305.1908333184
 30
0.0
 10
170.6609497283
 20
304.944864154
 30
0.0
 10
170.9673553591
 20
304.6407446631
 30
0.0
 10
171.2219995897
 20
304.2869386109
 30
0.0
 10
171.4179283797
 20
303.8934132985
 30
0.0
 10
171.5056903212
 20
303.6122394977
 30
0.0
 10
171.5383744612
 20
303.4688384759
 30
0.0
  0
SPLINE
  5
49F
100
AcDbEntity
  8
0
100
AcDbSpline
 62
7
  6
CONTINUOUS
 70
0
 71
3
 72
15
 73
11
 74
0
 42
0.0000001
 43
0.0000001
 44
0.0000000001
 40
0.0
 40
0.0
 40
0.0
 40
0.0
 40
0.1215100525
 40
0.2436605612
 40
0.3667831849
 40
0.4910980493
 40
0.6166920647
 40
0.7435127282
 40
0.8713804997
 40
1.0
 40
1.0
 40
1.0
 40
1.0
 10
169.8879042632
 20
306.8121764774
 30
0.0
 10
170.0935253984
 20
306.7926377618
 30
0.0
 10
170.5032855438
 20
306.7169237704
 30
0.0
 10
171.0901468361
 20
306.4977403672
 30
0.0
 10
171.6350097088
 20
306.178821516
 30
0.0
 10
172.1227971908
 20
305.7690669414
 30
0.0
 10
172.5403871523
 20
305.2797973512
 30
0.0
 10
172.8765555087
 20
304.7243696231
 30
0.0
 10
173.1222651534
 20
304.1181169982
 30
0.0
 10
173.2212997345
 20
303.6913733745
 30
0.0
 10
173.2540627868
 20
303.4752098915
 30
0.0
  0
SPLINE
  5
4A0
100
AcDbEntity
  8
0
100
AcDbSpline
 62
7
  6
CONTINUOUS
 70
0
 71
3
 72
15
 73
11
 74
0
 42
0.0000001
 43
0.0000001
 44
0.0000000001
 40
0.0
 40
0.0
 40
0.0
 40
0.0
 40
0.1286195003
 40
0.2564872718
 40
0.3833079353
 40
0.5089019507
 40
0.6332168151
 40
0.7563394388
 40
0.8784899475
 40
1.0
 40
1.0
 40
1.0
 40
1.0
 10
173.2540627868
 20
302.2051670602
 30
0.0
 10
173.2212997345
 20
301.9890035772
 30
0.0
 10
173.1222651534
 20
301.5622599535
 30
0.0
 10
172.8765555088
 20
300.9560073286
 30
0.0
 10
172.5403871523
 20
300.4005796005
 30
0.0
 10
172.1227971908
 20
299.9113100103
 30
0.0
 10
171.6350097088
 20
299.5015554358
 30
0.0
 10
171.0901468361
 20
299.1826365845
 30
0.0
 10
170.5032855438
 20
298.9634531814
 30
0.0
 10
170.0935253984
 20
298.8877391899
 30
0.0
 10
169.8879042633
 20
298.8682004743
 30
0.0
  0
SPLINE
  5
4A1
100
AcDbEntity
  8
0
100
AcDbSpline
 62
7
  6
CONTINUOUS
 70
0
 71
3
 72
17
 73
13
 74
0
 42
0.0000001
 43
0.0000001
 44
0.0000000001
 40
0.0
 40
0.0
 40
0.0
 40
0.0
 40
0.2168949799
 40
0.4080340741
 40
0.5725801312
 40
0.709923696
 40
0.8198200805
 40
0.9026158688
 40
0.9343887751
 40
0.9603697395
 40
0.9816014302
 40
1.0
 40
1.0
 40
1.0
 40
1.0
 10
319.4258925493
 20
413.7292345717
 30
0.0
 10
319.4483350512
 20
413.8989193626
 30
0.0
 10
319.4936095965
 20
414.217749982
 30
0.0
 10
319.5685206155
 20
414.6634184414
 30
0.0
 10
319.6457700667
 20
415.0448163002
 30
0.0
 10
319.7247430205
 20
415.3602683906
 30
0.0
 10
319.8049517213
 20
415.6081677705
 30
0.0
 10
319.87704933
 20
415.7709400878
 30
0.0
 10
319.9383216307
 20
415.863754331
 30
0.0
 10
319.9806917303
 20
415.9099695236
 30
0.0
 10
320.0242948226
 20
415.9392248177
 30
0.0
 10
320.0557717798
 20
415.9463699783
 30
0.0
 10
320.0702909946
 20
415.9463699369
 30
0.0
  0
SPLINE
  5
4A2
100
AcDbEntity
  8
0
100
AcDbSpline
 62
7
  6
CONTINUOUS
 70
0
 71
3
 72
9
 73
5
 74
0
 42
0.0000001
 43
0.0000001
 44
0.0000000001
 40
0.0
 40
0.0
 40
0.0
 40
0.0
 40
0.2550569928
 40
1.0
 40
1.0
 40
1.0
 40
1.0
 10
322.4053217332
 20
402.5097884759
 30
0.0
 10
322.4053217332
 20
402.9118917474
 30
0.0
 10
322.3991132986
 20
404.4884039975
 30
0.0
 10
322.3688613103
 20
406.0648596496
 30
0.0
 10
322.3303982373
 20
407.2386495827
 30
0.0
  0
SPLINE
  5
4A3
100
AcDbEntity
  8
0
100
AcDbSpline
 62
7
  6
CONTINUOUS
 70
0
 71
3
 72
9
 73
5
 74
0
 42
0.0000001
 43
0.0000001
 44
0.0000000001
 40
0.0
 40
0.0
 40
0.0
 40
0.0
 40
0.2615633502
 40
1.0
 40
1.0
 40
1.0
 40
1.0
 10
322.3303982373
 20
407.2386495827
 30
0.0
 10
322.3220264926
 20
407.494132799
 30
0.0
 10
322.2870436899
 20
408.4707838254
 30
0.0
 10
322.2400730804
 20
409.4470346434
 30
0.0
 10
322.1965292588
 20
410.1673783174
 30
0.0
  0
LINE
  5
4A4
100
AcDbEntity
  8
0
100
AcDbLine
 62
7
  6
CONTINUOUS
 10
321.8832910214
 20
413.6939116371
 11
321.8786433258
 21
413.7292345717
  0
LINE
  5
4A5
100
AcDbEntity
  8
0
100
AcDbLine
 62
7
  6
CONTINUOUS
 10
321.8786433258
 20
413.7292345717
 11
321.874947157
 21
413.7570661635
  0
SPLINE
  5
4A6
100
AcDbEntity
  8
0
100
AcDbSpline
 62
7
  6
CONTINUOUS
 70
0
 71
3
 72
17
 73
13
 74
0
 42
0.0000001
 43
0.0000001
 44
0.0000000001
 40
0.0
 40
0.0
 40
0.0
 40
0.0
 40
0.2168405022
 40
0.4079088076
 40
0.5723852523
 40
0.709672759
 40
0.8195425725
 40
0.9023566136
 40
0.9341629396
 40
0.96019774
 40
0.9815062811
 40
1.0
 40
1.0
 40
1.0
 40
1.0
 10
321.874947157
 20
413.7570661635
 30
0.0
 10
321.8525962743
 20
413.9246733759
 30
0.0
 10
321.8075205865
 20
414.2395778235
 30
0.0
 10
321.7329733625
 20
414.6797210671
 30
0.0
 10
321.6561367937
 20
415.0563399179
 30
0.0
 10
321.577610312
 20
415.3678088419
 30
0.0
 10
321.4978781906
 20
415.6125648622
 30
0.0
 10
321.4262165181
 20
415.7732504807
 30
0.0
 10
321.3653422954
 20
415.8648475499
 30
0.0
 10
321.3232328538
 20
415.9104695298
 30
0.0
 10
321.2799052449
 20
415.9393318689
 30
0.0
 10
321.2486661713
 20
415.946369978
 30
0.0
 10
321.2342448804
 20
415.9463699369
 30
0.0
  0
SPLINE
  5
4A7
100
AcDbEntity
  8
0
100
AcDbSpline
 62
7
  6
CONTINUOUS
 70
0
 71
3
 72
24
 73
20
 74
0
 42
0.0000001
 43
0.0000001
 44
0.0000000001
 40
0.0
 40
0.0
 40
0.0
 40
0.0
 40
0.0043876986
 40
0.0099076619
 40
0.0171737732
 40
0.0264470003
 40
0.037840167
 40
0.0513950042
 40
0.0671200745
 40
0.0850061441
 40
0.1271414494
 40
0.1774919365
 40
0.2356241855
 40
0.3010109061
 40
0.3730466464
 40
0.4510558907
 40
0.6219851617
 40
0.807314424
 40
1.0
 40
1.0
 40
1.0
 40
1.0
 10
321.2342448799
 20
389.0732070148
 30
0.0
 10
321.254143343
 20
389.0732070715
 30
0.0
 10
321.2991502745
 20
389.0877812942
 30
0.0
 10
321.3568377866
 20
389.1419180499
 30
0.0
 10
321.4129593275
 20
389.2252243213
 30
0.0
 10
321.4684857195
 20
389.3393955
 30
0.0
 10
321.5236752462
 20
389.4845774106
 30
0.0
 10
321.578356369
 20
389.6608343827
 30
0.0
 10
321.6323820497
 20
389.8678550819
 30
0.0
 10
321.7074261479
 20
390.2031272826
 30
0.0
 10
321.7959453043
 20
390.6959815911
 30
0.0
 10
321.8926493742
 20
391.3722466151
 30
0.0
 10
321.9834951682
 20
392.1555815248
 30
0.0
 10
322.0675276251
 20
393.0384904993
 30
0.0
 10
322.1438227556
 20
394.0125413316
 30
0.0
 10
322.2369947829
 20
395.4652309785
 30
0.0
 10
322.3263864712
 20
397.4328101869
 30
0.0
 10
322.3908912616
 20
399.9215883867
 30
0.0
 10
322.4053217332
 20
401.6359484034
 30
0.0
 10
322.4053217332
 20
402.5097884759
 30
0.0
  0
SPLINE
  5
4A8
100
AcDbEntity
  8
0
100
AcDbSpline
 62
7
  6
CONTINUOUS
 70
0
 71
3
 72
9
 73
5
 74
0
 42
0.0000001
 43
0.0000001
 44
0.0000000001
 40
0.0
 40
0.0
 40
0.0
 40
0.0
 40
0.2536191154
 40
1.0
 40
1.0
 40
1.0
 40
1.0
 10
321.2413678479
 20
402.5097884759
 30
0.0
 10
321.2413678479
 20
402.1676283702
 30
0.0
 10
321.2368528722
 20
400.8185241875
 30
0.0
 10
321.2147005064
 20
399.4694622965
 30
0.0
 10
321.1869888625
 20
398.4628937094
 30
0.0
  0
SPLINE
  5
4A9
100
AcDbEntity
  8
0
100
AcDbSpline
 62
7
  6
CONTINUOUS
 70
0
 71
3
 72
17
 73
13
 74
0
 42
0.0000001
 43
0.0000001
 44
0.0000000001
 40
0.0
 40
0.0
 40
0.0
 40
0.0
 40
0.0183961575
 40
0.0396258472
 40
0.0656054195
 40
0.0973775637
 40
0.1801729189
 40
0.2900699922
 40
0.4274149589
 40
0.5919627195
 40
0.7831036607
 40
1.0
 40
1.0
 40
1.0
 40
1.0
 10
320.0702909946
 20
415.9463699369
 30
0.0
 10
320.0848128204
 20
415.9463698956
 30
0.0
 10
320.1162959706
 20
415.9392217177
 30
0.0
 10
320.1599064679
 20
415.9099563907
 30
0.0
 10
320.2022834688
 20
415.8637255435
 30
0.0
 10
320.2635659669
 20
415.7708791046
 30
0.0
 10
320.3356751393
 20
415.608052022
 30
0.0
 10
320.4158961474
 20
415.3600701236
 30
0.0
 10
320.4948807232
 20
415.0445136684
 30
0.0
 10
320.572140943
 20
414.6629905488
 30
0.0
 10
320.6470613555
 20
414.2171772465
 30
0.0
 10
320.6923411318
 20
413.8982436724
 30
0.0
 10
320.7147860081
 20
413.7285044216
 30
0.0
  0
SPLINE
  5
4AA
100
AcDbEntity
  8
0
100
AcDbSpline
 62
7
  6
CONTINUOUS
 70
0
 71
3
 72
9
 73
5
 74
0
 42
0.0000001
 43
0.0000001
 44
0.0000000001
 40
0.0
 40
0.0
 40
0.0
 40
0.0
 40
0.244875497
 40
1.0
 40
1.0
 40
1.0
 40
1.0
 10
321.187059669
 20
406.5541104846
 30
0.0
 10
321.1961393041
 20
406.2240812887
 30
0.0
 10
321.2282172691
 20
404.8762042568
 30
0.0
 10
321.2413678479
 20
403.5278871872
 30
0.0
 10
321.2413678479
 20
402.5097884759
 30
0.0
  0
SPLINE
  5
4AB
100
AcDbEntity
  8
0
100
AcDbSpline
 62
7
  6
CONTINUOUS
 70
0
 71
3
 72
9
 73
5
 74
0
 42
0.0000001
 43
0.0000001
 44
0.0000000001
 40
0.0
 40
0.0
 40
0.0
 40
0.0
 40
0.2550468831
 40
1.0
 40
1.0
 40
1.0
 40
1.0
 10
318.2049664081
 20
402.5097884759
 30
0.0
 10
318.2049664081
 20
402.9115024896
 30
0.0
 10
318.1987698127
 20
404.4865510525
 30
0.0
 10
318.1685739151
 20
406.0615430943
 30
0.0
 10
318.13018666
 20
407.2342604629
 30
0.0
  0
SPLINE
  5
4AC
100
AcDbEntity
  8
0
100
AcDbSpline
 62
7
  6
CONTINUOUS
 70
0
 71
3
 72
9
 73
5
 74
0
 42
0.0000001
 43
0.0000001
 44
0.0000000001
 40
0.0
 40
0.0
 40
0.0
 40
0.0
 40
0.2633219742
 40
1.0
 40
1.0
 40
1.0
 40
1.0
 10
318.13018666
 20
407.2342604629
 30
0.0
 10
318.1208562775
 20
407.5193004219
 30
0.0
 10
318.0817353568
 20
408.6016470757
 30
0.0
 10
318.027836823
 20
409.6835082829
 30
0.0
 10
317.9767110761
 20
410.4797326397
 30
0.0
  0
SPLINE
  5
4AD
100
AcDbEntity
  8
0
100
AcDbSpline
 62
7
  6
CONTINUOUS
 70
0
 71
3
 72
20
 73
16
 74
0
 42
0.0000001
 43
0.0000001
 44
0.0000000001
 40
0.0
 40
0.0
 40
0.0
 40
0.0
 40
0.2151198395
 40
0.4082030782
 40
0.5767000872
 40
0.7184425074
 40
0.7787295241
 40
0.8317365672
 40
0.8773427734
 40
0.9155047381
 40
0.9462728839
 40
0.9698998189
 40
0.9792523852
 40
0.9871761159
 40
1.0
 40
1.0
 40
1.0
 40
1.0
 10
317.9767110761
 20
410.4797326397
 30
0.0
 10
317.9508395533
 20
410.8826516755
 30
0.0
 10
317.8960955387
 20
411.6468715264
 30
0.0
 10
317.7986919231
 20
412.7249459413
 30
0.0
 10
317.6914801155
 20
413.6635962094
 30
0.0
 10
317.5909776152
 20
414.3519336978
 30
0.0
 10
317.504340083
 20
414.8227482129
 30
0.0
 10
317.4414766113
 20
415.1143458782
 30
0.0
 10
317.3774268747
 20
415.3630092218
 30
0.0
 10
317.3125571596
 20
415.5681558017
 30
0.0
 10
317.2470319067
 20
415.729206064
 30
0.0
 10
317.1885196926
 20
415.8343622353
 30
0.0
 10
317.1392563183
 20
415.8937036209
 30
0.0
 10
317.096852628
 20
415.9309732571
 30
0.0
 10
317.057958129
 20
415.9463700055
 30
0.0
 10
317.0338895554
 20
415.9463699369
 30
0.0
  0
SPLINE
  5
4AE
100
AcDbEntity
  8
0
100
AcDbSpline
 62
7
  6
CONTINUOUS
 70
0
 71
3
 72
15
 73
11
 74
0
 42
0.0000001
 43
0.0000001
 44
0.0000000001
 40
0.0
 40
0.0
 40
0.0
 40
0.0
 40
0.1029082431
 40
0.1418508864
 40
0.1869896182
 40
0.2966485733
 40
0.4328032232
 40
0.5955935677
 40
0.7848151425
 40
1.0
 40
1.0
 40
1.0
 40
1.0
 10
315.8699356701
 20
389.0732070148
 30
0.0
 10
315.8132651222
 20
389.0732071762
 30
0.0
 10
315.7461106545
 20
389.1406628302
 30
0.0
 10
315.6928354038
 20
389.2259105859
 30
0.0
 10
315.6433096302
 20
389.3213032255
 30
0.0
 10
315.5846313672
 20
389.470306739
 30
0.0
 10
315.5181116276
 20
389.6855474203
 30
0.0
 10
315.4527391481
 20
389.9463567765
 30
0.0
 10
315.3885641722
 20
390.2521144427
 30
0.0
 10
315.3493126527
 20
390.471357371
 30
0.0
 10
315.3297215634
 20
390.5882268638
 30
0.0
  0
SPLINE
  5
4AF
100
AcDbEntity
  8
0
100
AcDbSpline
 62
7
  6
CONTINUOUS
 70
0
 71
3
 72
24
 73
20
 74
0
 42
0.0000001
 43
0.0000001
 44
0.0000000001
 40
0.0
 40
0.0
 40
0.0
 40
0.0
 40
0.0043876986
 40
0.0099076619
 40
0.0171737732
 40
0.0264470003
 40
0.037840167
 40
0.0513950042
 40
0.0671200745
 40
0.0850061441
 40
0.1271414494
 40
0.1774919365
 40
0.2356241855
 40
0.3010109061
 40
0.3730466464
 40
0.4510558907
 40
0.6219851617
 40
0.807314424
 40
1.0
 40
1.0
 40
1.0
 40
1.0
 10
317.0338895548
 20
389.0732070148
 30
0.0
 10
317.053788018
 20
389.0732070715
 30
0.0
 10
317.0987949495
 20
389.0877812942
 30
0.0
 10
317.1564824616
 20
389.1419180499
 30
0.0
 10
317.2126040025
 20
389.2252243213
 30
0.0
 10
317.2681303945
 20
389.3393955
 30
0.0
 10
317.3233199212
 20
389.4845774106
 30
0.0
 10
317.3780010439
 20
389.6608343827
 30
0.0
 10
317.4320267246
 20
389.8678550819
 30
0.0
 10
317.5070708228
 20
390.2031272826
 30
0.0
 10
317.5955899793
 20
390.6959815911
 30
0.0
 10
317.6922940492
 20
391.3722466151
 30
0.0
 10
317.7831398431
 20
392.1555815248
 30
0.0
 10
317.8671723001
 20
393.0384904993
 30
0.0
 10
317.9434674306
 20
394.0125413316
 30
0.0
 10
318.0366394578
 20
395.4652309785
 30
0.0
 10
318.1260311461
 20
397.4328101869
 30
0.0
 10
318.1905359366
 20
399.9215883867
 30
0.0
 10
318.2049664081
 20
401.6359484034
 30
0.0
 10
318.2049664081
 20
402.5097884759
 30
0.0
  0
SPLINE
  5
4B0
100
AcDbEntity
  8
0
100
AcDbSpline
 62
7
  6
CONTINUOUS
 70
0
 71
3
 72
15
 73
11
 74
0
 42
0.0000001
 43
0.0000001
 44
0.0000000001
 40
0.0
 40
0.0
 40
0.0
 40
0.0
 40
0.2151823093
 40
0.4044016575
 40
0.5671900893
 40
0.7033434196
 40
0.8130021289
 40
0.8581410646
 40
0.8970842645
 40
1.0
 40
1.0
 40
1.0
 40
1.0
 10
315.3297957914
 20
414.4317929044
 30
0.0
 10
315.349384695
 20
414.5486288328
 30
0.0
 10
315.3886316822
 20
414.7678086918
 30
0.0
 10
315.4527986814
 20
415.073477905
 30
0.0
 10
315.5181626543
 20
415.3342113474
 30
0.0
 10
315.5846735023
 20
415.5493889393
 30
0.0
 10
315.6433434462
 20
415.6983485648
 30
0.0
 10
315.6928619347
 20
415.7937123506
 30
0.0
 10
315.746131469
 20
415.8789376696
 30
0.0
 10
315.8132763293
 20
415.9463700983
 30
0.0
 10
315.8699356696
 20
415.9463699369
 30
0.0
  0
SPLINE
  5
4B1
100
AcDbEntity
  8
0
100
AcDbSpline
 62
7
  6
CONTINUOUS
 70
0
 71
3
 72
24
 73
20
 74
0
 42
0.0000001
 43
0.0000001
 44
0.0000000001
 40
0.0
 40
0.0
 40
0.0
 40
0.0
 40
0.0043876986
 40
0.0099076619
 40
0.0171737732
 40
0.0264470003
 40
0.037840167
 40
0.0513950042
 40
0.0671200745
 40
0.0850061441
 40
0.1271414494
 40
0.1774919365
 40
0.2356241855
 40
0.3010109061
 40
0.3730466464
 40
0.4510558907
 40
0.6219851617
 40
0.807314424
 40
1.0
 40
1.0
 40
1.0
 40
1.0
 10
315.8699356696
 20
415.9463699369
 30
0.0
 10
315.8898341327
 20
415.9463698802
 30
0.0
 10
315.9348410642
 20
415.9317956575
 30
0.0
 10
315.9925285763
 20
415.8776589018
 30
0.0
 10
316.0486501172
 20
415.7943526304
 30
0.0
 10
316.1041765092
 20
415.6801814517
 30
0.0
 10
316.1593660359
 20
415.5349995411
 30
0.0
 10
316.2140471587
 20
415.358742569
 30
0.0
 10
316.2680728394
 20
415.1517218698
 30
0.0
 10
316.3431169376
 20
414.8164496691
 30
0.0
 10
316.431636094
 20
414.3235953606
 30
0.0
 10
316.5283401639
 20
413.6473303366
 30
0.0
 10
316.6191859579
 20
412.8639954269
 30
0.0
 10
316.7032184148
 20
411.9810864524
 30
0.0
 10
316.7795135453
 20
411.0070356201
 30
0.0
 10
316.8726855726
 20
409.5543459732
 30
0.0
 10
316.9620772609
 20
407.5867667648
 30
0.0
 10
317.0265820513
 20
405.097988565
 30
0.0
 10
317.0410125229
 20
403.3836285483
 30
0.0
 10
317.0410125229
 20
402.5097884759
 30
0.0
  0
SPLINE
  5
4B2
100
AcDbEntity
  8
0
100
AcDbSpline
 62
7
  6
CONTINUOUS
 70
0
 71
3
 72
24
 73
20
 74
0
 42
0.0000001
 43
0.0000001
 44
0.0000000001
 40
0.0
 40
0.0
 40
0.0
 40
0.0
 40
0.192684794
 40
0.3780134722
 40
0.5489425792
 40
0.6269519868
 40
0.6989879664
 40
0.764374908
 40
0.8225073668
 40
0.8728580615
 40
0.9149935437
 40
0.9328797017
 40
0.9486048399
 40
0.9621597286
 40
0.9735529536
 40
0.9828262031
 40
0.9900923189
 40
0.9956123053
 40
1.0
 40
1.0
 40
1.0
 40
1.0
 10
317.0410125229
 20
402.5097884759
 30
0.0
 10
317.0410125229
 20
401.6359519495
 30
0.0
 10
317.0265821424
 20
399.9215981287
 30
0.0
 10
316.9620778955
 20
397.4328268557
 30
0.0
 10
316.8726865689
 20
395.4652502865
 30
0.0
 10
316.7795148602
 20
394.0125595349
 30
0.0
 10
316.7032198079
 20
393.0385058593
 30
0.0
 10
316.6191872643
 20
392.1555938388
 30
0.0
 10
316.5283413619
 20
391.3722560282
 30
0.0
 10
316.4316372273
 20
390.6959882884
 30
0.0
 10
316.3431178141
 20
390.2031318477
 30
0.0
 10
316.2680735825
 20
389.8678581281
 30
0.0
 10
316.21404776
 20
389.6608364911
 30
0.0
 10
316.1593663905
 20
389.484578748
 30
0.0
 10
316.1041768432
 20
389.3393962232
 30
0.0
 10
316.0486503618
 20
389.2252246033
 30
0.0
 10
315.9925284335
 20
389.1419183985
 30
0.0
 10
315.9348412501
 20
389.087781104
 30
0.0
 10
315.8898341158
 20
389.0732069581
 30
0.0
 10
315.8699356701
 20
389.0732070148
 30
0.0
  0
SPLINE
  5
4B3
100
AcDbEntity
  8
0
100
AcDbSpline
 62
7
  6
CONTINUOUS
 70
0
 71
3
 72
23
 73
19
 74
0
 42
0.0000001
 43
0.0000001
 44
0.0000000001
 40
0.0
 40
0.0
 40
0.0
 40
0.0
 40
0.1926864805
 40
0.3780146845
 40
0.5489452467
 40
0.698986794
 40
0.7643747728
 40
0.8225072303
 40
0.8728571214
 40
0.9149935942
 40
0.9328787291
 40
0.9486054145
 40
0.9621595981
 40
0.9735521187
 40
0.9828269021
 40
0.9900920517
 40
0.9956118747
 40
1.0
 40
1.0
 40
1.0
 40
1.0
 10
200.7135450382
 20
402.5097884759
 30
0.0
 10
200.7135450382
 20
402.9434050908
 30
0.0
 10
200.7063771101
 20
403.79409735
 30
0.0
 10
200.6743998756
 20
405.0290855005
 30
0.0
 10
200.6225818238
 20
406.1673455113
 30
0.0
 10
200.5625223579
 20
407.0348592705
 30
0.0
 10
200.5042328087
 20
407.6477421088
 30
0.0
 10
200.4591474242
 20
408.0364481185
 30
0.0
 10
200.4111580591
 20
408.372023571
 30
0.0
 10
200.3672397642
 20
408.6165869787
 30
0.0
 10
200.3299942212
 20
408.7829574115
 30
0.0
 10
200.3031915099
 20
408.8856861447
 30
0.0
 10
200.2760563303
 20
408.9731485138
 30
0.0
 10
200.2486636343
 20
409.0451880349
 30
0.0
 10
200.2211214975
 20
409.1018464758
 30
0.0
 10
200.1932656306
 20
409.1431836731
 30
0.0
 10
200.164638621
 20
409.1700370743
 30
0.0
 10
200.1423090459
 20
409.1772847687
 30
0.0
 10
200.1324341234
 20
409.1772847652
 30
0.0
  0
SPLINE
  5
4B4
100
AcDbEntity
  8
0
100
AcDbSpline
 62
7
  6
CONTINUOUS
 70
0
 71
3
 72
17
 73
13
 74
0
 42
0.0000001
 43
0.0000001
 44
0.0000000001
 40
0.0
 40
0.0
 40
0.0
 40
0.0
 40
0.2105763257
 40
0.400593904
 40
0.5674979524
 40
0.7090928014
 40
0.8236086153
 40
0.9098339924
 40
0.9422236418
 40
0.9675993471
 40
0.9864271776
 40
1.0
 40
1.0
 40
1.0
 40
1.0
 10
188.3453397594
 20
405.6878815161
 30
0.0
 10
188.3557561705
 20
405.8607218406
 30
0.0
 10
188.3779233829
 20
406.1893936148
 30
0.0
 10
188.4176149541
 20
406.6543813988
 30
0.0
 10
188.4615932931
 20
407.0619703882
 30
0.0
 10
188.5090358448
 20
407.4066603513
 30
0.0
 10
188.5592495592
 20
407.6836796668
 30
0.0
 10
188.605471941
 20
407.8701168048
 30
0.0
 10
188.64574023
 20
407.9815768937
 30
0.0
 10
188.6734071119
 20
408.03839852
 30
0.0
 10
188.7009481731
 20
408.0773557046
 30
0.0
 10
188.7238262793
 20
408.0933957074
 30
0.0
 10
188.7346106533
 20
408.0962696192
 30
0.0
  0
SPLINE
  5
4B5
100
AcDbEntity
  8
0
100
AcDbSpline
 62
7
  6
CONTINUOUS
 70
0
 71
3
 72
21
 73
17
 74
0
 42
0.0000001
 43
0.0000001
 44
0.0000000001
 40
0.0
 40
0.0
 40
0.0
 40
0.0
 40
0.1927304422
 40
0.3780980846
 40
0.5490691542
 40
0.6991452719
 40
0.7645482911
 40
0.8226956248
 40
0.8730565494
 40
0.9152038842
 40
0.9488165554
 40
0.9623755422
 40
0.9737695215
 40
0.9830451746
 40
0.9903137517
 40
1.0
 40
1.0
 40
1.0
 40
1.0
 10
189.0226482075
 20
402.5097884759
 30
0.0
 10
189.0226482075
 20
402.7162723244
 30
0.0
 10
189.0192354093
 20
403.1213603618
 30
0.0
 10
189.0040069809
 20
403.7094476811
 30
0.0
 10
188.9793325841
 20
404.2514748409
 30
0.0
 10
188.9507323731
 20
404.6645774586
 30
0.0
 10
188.9229769115
 20
404.9564296953
 30
0.0
 10
188.9015014975
 20
405.1415252732
 30
0.0
 10
188.878670587
 20
405.3013369014
 30
0.0
 10
188.8547135069
 20
405.434350043
 30
0.0
 10
188.832916665
 20
405.5276081482
 30
0.0
 10
188.8143031956
 20
405.5875882642
 30
0.0
 10
188.8013365038
 20
405.6218547481
 30
0.0
 10
188.7879929757
 20
405.6489328378
 30
0.0
 10
188.7729286405
 20
405.6720230323
 30
0.0
 10
188.7563061916
 20
405.6847794237
 30
0.0
 10
188.7459287246
 20
405.6847792118
 30
0.0
  0
SPLINE
  5
4B6
100
AcDbEntity
  8
0
100
AcDbSpline
 62
7
  6
CONTINUOUS
 70
0
 71
3
 72
21
 73
17
 74
0
 42
0.0000001
 43
0.0000001
 44
0.0000000001
 40
0.0
 40
0.0
 40
0.0
 40
0.0
 40
0.0096862371
 40
0.0169548288
 40
0.0262306101
 40
0.037624502
 40
0.0511833016
 40
0.0847958428
 40
0.1269425677
 40
0.177302824
 40
0.2354492825
 40
0.3008514347
 40
0.4509261239
 40
0.6218970217
 40
0.8072661711
 40
1.0
 40
1.0
 40
1.0
 40
1.0
 10
188.745928724
 20
399.3347977399
 30
0.0
 10
188.7563061795
 20
399.3347979519
 30
0.0
 10
188.7729287854
 20
399.3475534922
 30
0.0
 10
188.7879931626
 20
399.370644089
 30
0.0
 10
188.8013363758
 20
399.3977223209
 30
0.0
 10
188.8143032178
 20
399.431988594
 30
0.0
 10
188.8329167425
 20
399.491968242
 30
0.0
 10
188.8547130547
 20
399.5852254628
 30
0.0
 10
188.8786702271
 20
399.7182370478
 30
0.0
 10
188.9015007878
 20
399.8780464096
 30
0.0
 10
188.9229761119
 20
400.0631394018
 30
0.0
 10
188.9507314269
 20
400.3549882545
 30
0.0
 10
188.979331787
 20
400.7680882273
 30
0.0
 10
189.0040065008
 20
401.3101152969
 30
0.0
 10
189.0192353114
 20
401.8982076922
 30
0.0
 10
189.0226482075
 20
402.3033009902
 30
0.0
 10
189.0226482075
 20
402.5097884759
 30
0.0
  0
SPLINE
  5
4B7
100
AcDbEntity
  8
0
100
AcDbSpline
 62
7
  6
CONTINUOUS
 70
0
 71
3
 72
23
 73
19
 74
0
 42
0.0000001
 43
0.0000001
 44
0.0000000001
 40
0.0
 40
0.0
 40
0.0
 40
0.0
 40
0.0043881229
 40
0.0099079368
 40
0.0171730754
 40
0.026447831
 40
0.0378403093
 40
0.0513944598
 40
0.0671210896
 40
0.0850061559
 40
0.1271425184
 40
0.1774922729
 40
0.2356245145
 40
0.3010122374
 40
0.4510532757
 40
0.6219839942
 40
0.8073127917
 40
1.0
 40
1.0
 40
1.0
 40
1.0
 10
200.1324341235
 20
395.8422921865
 30
0.0
 10
200.1423090404
 20
395.84229219
 30
0.0
 10
200.1646385904
 20
395.8495398515
 30
0.0
 10
200.1932655923
 20
395.8763931948
 30
0.0
 10
200.2211213792
 20
395.9177303158
 30
0.0
 10
200.2486634836
 20
395.9743885651
 30
0.0
 10
200.2760561563
 20
396.0464278493
 30
0.0
 10
200.3031912312
 20
396.1338899424
 30
0.0
 10
200.3299939173
 20
396.2366183154
 30
0.0
 10
200.3672394357
 20
396.4029882138
 30
0.0
 10
200.4111576378
 20
396.6475509176
 30
0.0
 10
200.4591469354
 20
396.9831253268
 30
0.0
 10
200.504232305
 20
397.3718299605
 30
0.0
 10
200.5625217497
 20
397.9847105925
 30
0.0
 10
200.6225813684
 20
398.8522229688
 30
0.0
 10
200.6743995549
 20
399.990483518
 30
0.0
 10
200.7063770728
 20
401.2254749885
 30
0.0
 10
200.7135450382
 20
402.0761702226
 30
0.0
 10
200.7135450382
 20
402.5097884759
 30
0.0
  0
SPLINE
  5
4B8
100
AcDbEntity
  8
0
100
AcDbSpline
 62
7
  6
CONTINUOUS
 70
0
 71
3
 72
17
 73
13
 74
0
 42
0.0000001
 43
0.0000001
 44
0.0000000001
 40
0.0
 40
0.0
 40
0.0
 40
0.0
 40
0.013571645
 40
0.0323987393
 40
0.057774113
 40
0.0901639557
 40
0.1763903604
 40
0.2909078928
 40
0.4325044953
 40
0.5994094212
 40
0.7894263427
 40
1.0
 40
1.0
 40
1.0
 40
1.0
 10
188.7346106532
 20
396.9233072489
 30
0.0
 10
188.7238244056
 20
396.9261815983
 30
0.0
 10
188.7009425007
 20
396.9422264783
 30
0.0
 10
188.673397833
 20
396.9811937183
 30
0.0
 10
188.6457269511
 20
397.0380308682
 30
0.0
 10
188.6054532501
 20
397.1495223674
 30
0.0
 10
188.5592246571
 20
397.336011658
 30
0.0
 10
188.5090051616
 20
397.6131078076
 30
0.0
 10
188.4615580717
 20
397.957891728
 30
0.0
 10
188.4175767794
 20
398.3655888523
 30
0.0
 10
188.3778841137
 20
398.8306958593
 30
0.0
 10
188.3557171707
 20
399.1594504465
 30
0.0
 10
188.345301319
 20
399.3323335468
 30
0.0
  0
SPLINE
  5
4B9
100
AcDbEntity
  8
0
100
AcDbSpline
 62
7
  6
CONTINUOUS
 70
0
 71
3
 72
27
 73
23
 74
0
 42
0.0000001
 43
0.0000001
 44
0.0000000001
 40
0.0
 40
0.0
 40
0.0
 40
0.0
 40
0.1951097984
 40
0.3825459453
 40
0.4710803617
 40
0.5549836956
 40
0.6334369048
 40
0.705677655
 40
0.771007991
 40
0.8288032315
 40
0.8785295867
 40
0.9002275957
 40
0.9197558487
 40
0.9370780568
 40
0.9521753748
 40
0.9650429313
 40
0.9706457094
 40
0.9757018075
 40
0.9842168228
 40
0.9907570487
 40
0.9957204763
 40
1.0
 40
1.0
 40
1.0
 40
1.0
 10
189.2329550147
 20
402.5097884759
 30
0.0
 10
189.2329550147
 20
402.1410683197
 30
0.0
 10
189.2267726941
 20
401.4181154931
 30
0.0
 10
189.203394024
 20
400.5281137862
 30
0.0
 10
189.1750900805
 20
399.8485985834
 30
0.0
 10
189.150071977
 20
399.3751120998
 30
0.0
 10
189.1211280316
 20
398.9327005232
 30
0.0
 10
189.0885623463
 20
398.5257405414
 30
0.0
 10
189.0527350524
 20
398.1582537776
 30
0.0
 10
189.0140219531
 20
397.8338715919
 30
0.0
 10
188.9783425899
 20
397.5922377379
 30
0.0
 10
188.9480147273
 20
397.4230378651
 30
0.0
 10
188.925847876
 20
397.3146223903
 30
0.0
 10
188.9032768263
 20
397.2190604847
 30
0.0
 10
188.8803691174
 20
397.1365739446
 30
0.0
 10
188.8602510499
 20
397.076363616
 30
0.0
 10
188.8437438575
 20
397.0350631798
 30
0.0
 10
188.8287587369
 20
397.0020701581
 30
0.0
 10
188.8103480343
 20
396.968664362
 30
0.0
 10
188.7865681565
 20
396.9389582805
 30
0.0
 10
188.7610257136
 20
396.9217698853
 30
0.0
 10
188.7424254167
 20
396.9212247489
 30
0.0
 10
188.7346106532
 20
396.9233072489
 30
0.0
  0
SPLINE
  5
4BA
100
AcDbEntity
  8
0
100
AcDbSpline
 62
7
  6
CONTINUOUS
 70
0
 71
3
 72
23
 73
19
 74
0
 42
0.0000001
 43
0.0000001
 44
0.0000000001
 40
0.0
 40
0.0
 40
0.0
 40
0.0
 40
0.0043881262
 40
0.0099079495
 40
0.0171730987
 40
0.0264478768
 40
0.0378403897
 40
0.0513945708
 40
0.0671212536
 40
0.0850063943
 40
0.1271429513
 40
0.1774929411
 40
0.2356254561
 40
0.301013414
 40
0.4510547246
 40
0.6219858843
 40
0.8073139075
 40
1.0
 40
1.0
 40
1.0
 40
1.0
 10
192.7944639773
 20
409.1772884759
 30
0.0
 10
192.8043389072
 20
409.1772884759
 30
0.0
 10
192.826668495
 20
409.1700407692
 30
0.0
 10
192.8552955124
 20
409.1431873419
 30
0.0
 10
192.8831513694
 20
409.1018501203
 30
0.0
 10
192.9106935034
 20
409.0451916747
 30
0.0
 10
192.9380861963
 20
408.9731521439
 30
0.0
 10
192.965221357
 20
408.8856897466
 30
0.0
 10
192.9920240809
 20
408.7829609553
 30
0.0
 10
193.0292696825
 20
408.6165902382
 30
0.0
 10
193.0731880085
 20
408.3720262665
 30
0.0
 10
193.1211774693
 20
408.0364500945
 30
0.0
 10
193.1662628343
 20
407.6477435605
 30
0.0
 10
193.2245523102
 20
407.0348608302
 30
0.0
 10
193.2846118133
 20
406.1673458312
 30
0.0
 10
193.3364298523
 20
405.0290847906
 30
0.0
 10
193.3684069852
 20
403.7940958982
 30
0.0
 10
193.3755748921
 20
402.9434044546
 30
0.0
 10
193.3755748921
 20
402.5097884759
 30
0.0
  0
SPLINE
  5
4BB
100
AcDbEntity
  8
0
100
AcDbSpline
 62
7
  6
CONTINUOUS
 70
0
 71
3
 72
23
 73
19
 74
0
 42
0.0000001
 43
0.0000001
 44
0.0000000001
 40
0.0
 40
0.0
 40
0.0
 40
0.0
 40
0.1926860925
 40
0.3780141157
 40
0.5489452754
 40
0.698986586
 40
0.7643745439
 40
0.8225070589
 40
0.8728570487
 40
0.9149936057
 40
0.9328787464
 40
0.9486054292
 40
0.9621596103
 40
0.9735521232
 40
0.9828269013
 40
0.9900920505
 40
0.9956118738
 40
1.0
 40
1.0
 40
1.0
 40
1.0
 10
193.3755748921
 20
402.5097884759
 30
0.0
 10
193.3755748921
 20
402.0761724971
 30
0.0
 10
193.3684069852
 20
401.2254810535
 30
0.0
 10
193.3364298523
 20
399.9904921611
 30
0.0
 10
193.2846118133
 20
398.8522311205
 30
0.0
 10
193.2245523102
 20
397.9847161215
 30
0.0
 10
193.1662628343
 20
397.3718333912
 30
0.0
 10
193.1211774693
 20
396.9831268572
 30
0.0
 10
193.0731880085
 20
396.6475506852
 30
0.0
 10
193.0292696825
 20
396.4029867135
 30
0.0
 10
192.9920240809
 20
396.2366159964
 30
0.0
 10
192.965221357
 20
396.1338872051
 30
0.0
 10
192.9380861963
 20
396.0464248078
 30
0.0
 10
192.9106935034
 20
395.974385277
 30
0.0
 10
192.8831513694
 20
395.9177268314
 30
0.0
 10
192.8552955124
 20
395.8763896098
 30
0.0
 10
192.826668495
 20
395.8495361825
 30
0.0
 10
192.8043389072
 20
395.8422884759
 30
0.0
 10
192.7944639773
 20
395.8422884759
 30
0.0
  0
SPLINE
  5
4BC
100
AcDbEntity
  8
0
100
AcDbSpline
 62
7
  6
CONTINUOUS
 70
0
 71
3
 72
27
 73
23
 74
0
 42
0.0000001
 43
0.0000001
 44
0.0000000001
 40
0.0
 40
0.0
 40
0.0
 40
0.0
 40
0.0042795189
 40
0.0092429499
 40
0.0157831749
 40
0.0242981464
 40
0.0293542326
 40
0.0349570213
 40
0.04782457
 40
0.0629218355
 40
0.0802440377
 40
0.0997722836
 40
0.1214702398
 40
0.171196529
 40
0.2289915694
 40
0.294321563
 40
0.3665619796
 40
0.4450148812
 40
0.528918146
 40
0.617452755
 40
0.8048895249
 40
1.0
 40
1.0
 40
1.0
 40
1.0
 10
188.7346106533
 20
408.0962696192
 30
0.0
 10
188.7424253971
 20
408.0983521586
 30
0.0
 10
188.7610257245
 20
408.0978072585
 30
0.0
 10
188.7865680849
 20
408.0806186332
 30
0.0
 10
188.8103478823
 20
408.0509126575
 30
0.0
 10
188.8287586702
 20
408.0175070153
 30
0.0
 10
188.8437437728
 20
407.9845140787
 30
0.0
 10
188.8602508822
 20
407.9432136268
 30
0.0
 10
188.8803689377
 20
407.8830033977
 30
0.0
 10
188.9032767255
 20
407.8005170072
 30
0.0
 10
188.9258477038
 20
407.7049552104
 30
0.0
 10
188.9480145299
 20
407.596539858
 30
0.0
 10
188.9783424603
 20
407.427340238
 30
0.0
 10
189.0140216805
 20
407.1857069698
 30
0.0
 10
189.0527347311
 20
406.8613259371
 30
0.0
 10
189.0885619676
 20
406.4938408289
 30
0.0
 10
189.1211275212
 20
406.0868826997
 30
0.0
 10
189.1500715098
 20
405.64447247
 30
0.0
 10
189.1750897133
 20
405.1709863375
 30
0.0
 10
189.2033937587
 20
404.4914697244
 30
0.0
 10
189.2267726717
 20
403.6014651989
 30
0.0
 10
189.2329550147
 20
402.8785099123
 30
0.0
 10
189.2329550147
 20
402.5097884759
 30
0.0
  0
SPLINE
  5
4BD
100
AcDbEntity
  8
0
100
AcDbSpline
 62
7
  6
CONTINUOUS
 70
0
 71
3
 72
9
 73
5
 74
0
 42
0.0000001
 43
0.0000001
 44
0.0000000001
 40
0.0
 40
0.0
 40
0.0
 40
0.0
 40
0.2657512539
 40
1.0
 40
1.0
 40
1.0
 40
1.0
 10
159.5254309818
 20
406.3034206882
 30
0.0
 10
159.546597951
 20
406.2499529769
 30
0.0
 10
159.624145136
 20
406.047864471
 30
0.0
 10
159.6931854257
 20
405.8425295294
 30
0.0
 10
159.7384043776
 20
405.6901871711
 30
0.0
  0
SPLINE
  5
4BE
100
AcDbEntity
  8
0
100
AcDbSpline
 62
7
  6
CONTINUOUS
 70
0
 71
3
 72
9
 73
5
 74
0
 42
0.0000001
 43
0.0000001
 44
0.0000000001
 40
0.0
 40
0.0
 40
0.0
 40
0.0
 40
0.7342435097
 40
1.0
 40
1.0
 40
1.0
 40
1.0
 10
170.4122269866
 20
405.6900963386
 30
0.0
 10
170.457450363
 20
405.8424606809
 30
0.0
 10
170.5265014345
 20
406.047825827
 30
0.0
 10
170.6040604815
 20
406.2499440388
 30
0.0
 10
170.6252309818
 20
406.3034206882
 30
0.0
  0
SPLINE
  5
4BF
100
AcDbEntity
  8
0
100
AcDbSpline
 62
7
  6
CONTINUOUS
 70
0
 71
3
 72
12
 73
8
 74
0
 42
0.0000001
 43
0.0000001
 44
0.0000000001
 40
0.0
 40
0.0
 40
0.0
 40
0.0
 40
0.0751549428
 40
0.1661187454
 40
0.3929103688
 40
0.673746172
 40
1.0
 40
1.0
 40
1.0
 40
1.0
 10
316.2060456688
 20
391.3461286389
 30
0.0
 10
316.2384848494
 20
391.4747000085
 30
0.0
 10
316.2998703113
 20
391.7614780541
 30
0.0
 10
316.4158548194
 20
392.4450519707
 30
0.0
 10
316.5427720834
 20
393.4940376789
 30
0.0
 10
316.6685170439
 20
394.9600423906
 30
0.0
 10
316.7324904287
 20
396.0293860291
 30
0.0
 10
316.7614191701
 20
396.604288478
 30
0.0
  0
SPLINE
  5
4C0
100
AcDbEntity
  8
0
100
AcDbSpline
 62
7
  6
CONTINUOUS
 70
0
 71
3
 72
11
 73
7
 74
0
 42
0.0000001
 43
0.0000001
 44
0.0000000001
 40
0.0
 40
0.0
 40
0.0
 40
0.0
 40
0.2438146116
 40
0.5
 40
0.7561853884
 40
1.0
 40
1.0
 40
1.0
 40
1.0
 10
316.8002613072
 20
397.4542178342
 30
0.0
 10
316.8341628626
 20
398.2754666237
 30
0.0
 10
316.8833941605
 20
399.9605032025
 30
0.0
 10
316.907497781
 20
402.5097884759
 30
0.0
 10
316.8833941605
 20
405.0590737492
 30
0.0
 10
316.8341628626
 20
406.744110328
 30
0.0
 10
316.8002613072
 20
407.5653591174
 30
0.0
  0
SPLINE
  5
4C1
100
AcDbEntity
  8
0
100
AcDbSpline
 62
7
  6
CONTINUOUS
 70
0
 71
3
 72
12
 73
8
 74
0
 42
0.0000001
 43
0.0000001
 44
0.0000000001
 40
0.0
 40
0.0
 40
0.0
 40
0.0
 40
0.326253828
 40
0.6070896312
 40
0.8338812546
 40
0.9248450572
 40
1.0
 40
1.0
 40
1.0
 40
1.0
 10
316.7614191701
 20
408.4152884737
 30
0.0
 10
316.7324904287
 20
408.9901909226
 30
0.0
 10
316.6685170439
 20
410.0595345611
 30
0.0
 10
316.5427720834
 20
411.5255392728
 30
0.0
 10
316.4158548194
 20
412.574524981
 30
0.0
 10
316.2998703113
 20
413.2580988976
 30
0.0
 10
316.2384848494
 20
413.5448769432
 30
0.0
 10
316.2060456688
 20
413.6734483128
 30
0.0
  0
SPLINE
  5
4C2
100
AcDbEntity
  8
0
100
AcDbSpline
 62
7
  6
CONTINUOUS
 70
0
 71
3
 72
9
 73
5
 74
0
 42
0.0000001
 43
0.0000001
 44
0.0000000001
 40
0.0
 40
0.0
 40
0.0
 40
0.0
 40
0.4306800259
 40
1.0
 40
1.0
 40
1.0
 40
1.0
 10
306.4910446793
 20
394.2873506707
 30
0.0
 10
306.5118815234
 20
394.3239945182
 30
0.0
 10
306.5506061722
 20
394.4143992814
 30
0.0
 10
306.5799080671
 20
394.507818652
 30
0.0
 10
306.5950466764
 20
394.5614464089
 30
0.0
  0
SPLINE
  5
4C3
100
AcDbEntity
  8
0
100
AcDbSpline
 62
7
  6
CONTINUOUS
 70
0
 71
3
 72
21
 73
17
 74
0
 42
0.0000001
 43
0.0000001
 44
0.0000000001
 40
0.0
 40
0.0
 40
0.0
 40
0.0
 40
0.0331118198
 40
0.0771335423
 40
0.131112806
 40
0.1938108778
 40
0.2637609086
 40
0.3393132562
 40
0.4999725183
 40
0.6606356931
 40
0.7361928713
 40
0.8061494072
 40
0.8688554554
 40
0.9228441436
 40
0.9668765998
 40
1.0
 40
1.0
 40
1.0
 40
1.0
 10
306.6175272011
 20
394.6457182958
 30
0.0
 10
306.6602006679
 20
394.8145751708
 30
0.0
 10
306.7348716567
 20
395.2139568009
 30
0.0
 10
306.825725224
 20
395.8976334459
 30
0.0
 10
306.9072411444
 20
396.7391385949
 30
0.0
 10
306.9773026646
 20
397.7183387554
 30
0.0
 10
307.0337980078
 20
398.8120655839
 30
0.0
 10
307.0901616192
 20
400.4215219295
 30
0.0
 10
307.1170735247
 20
402.5091564576
 30
0.0
 10
307.0901890721
 20
404.5968167092
 30
0.0
 10
307.0338478112
 20
406.2063540846
 30
0.0
 10
306.9773670489
 20
407.3001833531
 30
0.0
 10
306.9073185063
 20
408.2795105191
 30
0.0
 10
306.8258131097
 20
409.1211651991
 30
0.0
 10
306.7349674941
 20
409.8050114536
 30
0.0
 10
306.6603024326
 20
410.2045129038
 30
0.0
 10
306.6176344961
 20
410.3734340023
 30
0.0
  0
SPLINE
  5
4C4
100
AcDbEntity
  8
0
100
AcDbSpline
 62
7
  6
CONTINUOUS
 70
0
 71
3
 72
9
 73
5
 74
0
 42
0.0000001
 43
0.0000001
 44
0.0000000001
 40
0.0
 40
0.0
 40
0.0
 40
0.0
 40
0.5695912309
 40
1.0
 40
1.0
 40
1.0
 40
1.0
 10
306.5955834504
 20
410.4562264262
 30
0.0
 10
306.5803744508
 20
410.5102517289
 30
0.0
 10
306.5509426959
 20
410.6043198152
 30
0.0
 10
306.5120086114
 20
410.6953589918
 30
0.0
 10
306.4910446777
 20
410.7322261635
 30
0.0
  0
SPLINE
  5
4C5
100
AcDbEntity
  8
0
100
AcDbSpline
 62
7
  6
CONTINUOUS
 70
0
 71
3
 72
11
 73
7
 74
0
 42
0.0000001
 43
0.0000001
 44
0.0000000001
 40
0.0
 40
0.0
 40
0.0
 40
0.0
 40
0.1788158742
 40
0.4073095761
 40
0.682384645
 40
1.0
 40
1.0
 40
1.0
 40
1.0
 10
306.0450711716
 20
391.3461286389
 30
0.0
 10
305.9978968934
 20
391.533101967
 30
0.0
 10
305.9120820758
 20
391.9643401725
 30
0.0
 10
305.8042165661
 20
392.6923633357
 30
0.0
 10
305.7042357681
 20
393.5724084071
 30
0.0
 10
305.6477670868
 20
394.2091066747
 30
0.0
 10
305.6206252226
 20
394.5505417612
 30
0.0
  0
SPLINE
  5
4C6
100
AcDbEntity
  8
0
100
AcDbSpline
 62
7
  6
CONTINUOUS
 70
0
 71
3
 72
11
 73
7
 74
0
 42
0.0000001
 43
0.0000001
 44
0.0000000001
 40
0.0
 40
0.0
 40
0.0
 40
0.0
 40
0.317615355
 40
0.5926904239
 40
0.8211841258
 40
1.0
 40
1.0
 40
1.0
 40
1.0
 10
305.6206252226
 20
410.4690351905
 30
0.0
 10
305.6477670868
 20
410.810470277
 30
0.0
 10
305.7042357681
 20
411.4471685446
 30
0.0
 10
305.8042165661
 20
412.327213616
 30
0.0
 10
305.9120820758
 20
413.0552367792
 30
0.0
 10
305.9978968934
 20
413.4864749847
 30
0.0
 10
306.0450711716
 20
413.6734483128
 30
0.0
  0
SPLINE
  5
4C7
100
AcDbEntity
  8
0
100
AcDbSpline
 62
7
  6
CONTINUOUS
 70
0
 71
3
 72
9
 73
5
 74
0
 42
0.0000001
 43
0.0000001
 44
0.0000000001
 40
0.0
 40
0.0
 40
0.0
 40
0.0
 40
0.5013521199
 40
1.0
 40
1.0
 40
1.0
 40
1.0
 10
308.0575510123
 20
402.5097884759
 30
0.0
 10
307.8579991838
 20
401.5336567406
 30
0.0
 10
307.5130919061
 20
399.5749834086
 30
0.0
 10
307.3224654731
 20
397.5939825265
 30
0.0
 10
307.2726646706
 20
396.6042884743
 30
0.0
  0
SPLINE
  5
4C8
100
AcDbEntity
  8
0
100
AcDbSpline
 62
7
  6
CONTINUOUS
 70
0
 71
3
 72
9
 73
5
 74
0
 42
0.0000001
 43
0.0000001
 44
0.0000000001
 40
0.0
 40
0.0
 40
0.0
 40
0.0
 40
0.2503185201
 40
1.0
 40
1.0
 40
1.0
 40
1.0
 10
315.9765328285
 20
390.6987884759
 30
0.0
 10
316.0098690769
 20
390.861856739
 30
0.0
 10
316.1400528224
 20
391.513903827
 30
0.0
 10
316.2574427139
 20
392.1685369036
 30
0.0
 10
316.3367727319
 20
392.6606593803
 30
0.0
  0
SPLINE
  5
4C9
100
AcDbEntity
  8
0
100
AcDbSpline
 62
7
  6
CONTINUOUS
 70
0
 71
3
 72
9
 73
5
 74
0
 42
0.0000001
 43
0.0000001
 44
0.0000000001
 40
0.0
 40
0.0
 40
0.0
 40
0.0
 40
0.2503609425
 40
1.0
 40
1.0
 40
1.0
 40
1.0
 10
316.3367727319
 20
392.6606593803
 30
0.0
 10
316.3640023709
 20
392.8295780037
 30
0.0
 10
316.4686868651
 20
393.5049246866
 30
0.0
 10
316.5561296622
 20
394.1829806481
 30
0.0
 10
316.6106087917
 20
394.6923868322
 30
0.0
  0
SPLINE
  5
4CA
100
AcDbEntity
  8
0
100
AcDbSpline
 62
7
  6
CONTINUOUS
 70
0
 71
3
 72
9
 73
5
 74
0
 42
0.0000001
 43
0.0000001
 44
0.0000000001
 40
0.0
 40
0.0
 40
0.0
 40
0.0
 40
0.4994377074
 40
1.0
 40
1.0
 40
1.0
 40
1.0
 10
307.4632286788
 20
414.3207884759
 30
0.0
 10
307.3616012774
 20
413.3416480166
 30
0.0
 10
307.2136408114
 20
411.3745637785
 30
0.0
 10
307.223081438
 20
409.4006587501
 30
0.0
 10
307.2726646708
 20
408.4152884732
 30
0.0
  0
SPLINE
  5
4CB
100
AcDbEntity
  8
0
100
AcDbSpline
 62
7
  6
CONTINUOUS
 70
0
 71
3
 72
14
 73
10
 74
0
 42
0.0000001
 43
0.0000001
 44
0.0000000001
 40
0.0
 40
0.0
 40
0.0
 40
0.0
 40
0.3868065317
 40
0.5434784559
 40
0.6760293084
 40
0.7852439264
 40
0.8727606383
 40
0.9420324333
 40
1.0
 40
1.0
 40
1.0
 40
1.0
 10
306.0450711716
 20
413.6734483128
 30
0.0
 10
306.0689987116
 20
413.7682841421
 30
0.0
 10
306.1060192946
 20
413.9008578524
 30
0.0
 10
306.1652009399
 20
414.0613285109
 30
0.0
 10
306.2066992363
 20
414.1532539681
 30
0.0
 10
306.248428843
 20
414.2255425138
 30
0.0
 10
306.2906523814
 20
414.2783500235
 30
0.0
 10
306.3341748635
 20
414.3121858427
 30
0.0
 10
306.3665235096
 20
414.3207884759
 30
0.0
 10
306.3811811705
 20
414.3207884759
 30
0.0
  0
SPLINE
  5
4CC
100
AcDbEntity
  8
0
100
AcDbSpline
 62
7
  6
CONTINUOUS
 70
0
 71
3
 72
18
 73
14
 74
0
 42
0.0000001
 43
0.0000001
 44
0.0000000001
 40
0.0
 40
0.0
 40
0.0
 40
0.0
 40
0.0278077735
 40
0.0386885152
 40
0.0513786648
 40
0.0823685147
 40
0.1209814864
 40
0.1672038497
 40
0.2209334276
 40
0.2819916538
 40
0.425167412
 40
0.5944897706
 40
1.0
 40
1.0
 40
1.0
 40
1.0
 10
306.3811811705
 20
414.3207884759
 30
0.0
 10
306.4372204889
 20
414.3207884759
 30
0.0
 10
306.5011547268
 20
414.2479417273
 30
0.0
 10
306.5511437576
 20
414.1606430812
 30
0.0
 10
306.5986421034
 20
414.06043528
 30
0.0
 10
306.654640382
 20
413.9045630963
 30
0.0
 10
306.7179726375
 20
413.6795880303
 30
0.0
 10
306.7799922802
 20
413.4072975285
 30
0.0
 10
306.8406226068
 20
413.0884653203
 30
0.0
 10
306.9234890412
 20
412.5752110822
 30
0.0
 10
307.0182975218
 20
411.8281991158
 30
0.0
 10
307.1586758263
 20
410.3879603566
 30
0.0
 10
307.2315956177
 20
409.2314559963
 30
0.0
 10
307.2726646708
 20
408.4152884737
 30
0.0
  0
SPLINE
  5
4CD
100
AcDbEntity
  8
0
100
AcDbSpline
 62
7
  6
CONTINUOUS
 70
0
 71
3
 72
11
 73
7
 74
0
 42
0.0000001
 43
0.0000001
 44
0.0000000001
 40
0.0
 40
0.0
 40
0.0
 40
0.0
 40
0.2412540573
 40
0.5
 40
0.7587459427
 40
1.0
 40
1.0
 40
1.0
 40
1.0
 10
307.2726646708
 20
408.4152884737
 30
0.0
 10
307.3204151274
 20
407.4663410573
 30
0.0
 10
307.3886896175
 20
405.4980601944
 30
0.0
 10
307.4219039994
 20
402.5097884759
 30
0.0
 10
307.3886896175
 20
399.5215167573
 30
0.0
 10
307.3204151274
 20
397.5532358944
 30
0.0
 10
307.2726646708
 20
396.604288478
 30
0.0
  0
SPLINE
  5
4CE
100
AcDbEntity
  8
0
100
AcDbSpline
 62
7
  6
CONTINUOUS
 70
0
 71
3
 72
18
 73
14
 74
0
 42
0.0000001
 43
0.0000001
 44
0.0000000001
 40
0.0
 40
0.0
 40
0.0
 40
0.0
 40
0.4055102294
 40
0.574832588
 40
0.7180083462
 40
0.7790665724
 40
0.8327961503
 40
0.8790185136
 40
0.9176314853
 40
0.9486213352
 40
0.9613114848
 40
0.9721922265
 40
1.0
 40
1.0
 40
1.0
 40
1.0
 10
307.2726646708
 20
396.604288478
 30
0.0
 10
307.2315956177
 20
395.7881209554
 30
0.0
 10
307.1586758263
 20
394.6316165951
 30
0.0
 10
307.0182975218
 20
393.1913778359
 30
0.0
 10
306.9234890412
 20
392.4443658695
 30
0.0
 10
306.8406226068
 20
391.9311116314
 30
0.0
 10
306.7799922802
 20
391.6122794232
 30
0.0
 10
306.7179726375
 20
391.3399889214
 30
0.0
 10
306.654640382
 20
391.1150138554
 30
0.0
 10
306.5986421034
 20
390.9591416717
 30
0.0
 10
306.5511437576
 20
390.8589338705
 30
0.0
 10
306.5011547268
 20
390.7716352244
 30
0.0
 10
306.4372204889
 20
390.6987884759
 30
0.0
 10
306.3811811705
 20
390.6987884759
 30
0.0
  0
SPLINE
  5
4CF
100
AcDbEntity
  8
0
100
AcDbSpline
 62
7
  6
CONTINUOUS
 70
0
 71
3
 72
14
 73
10
 74
0
 42
0.0000001
 43
0.0000001
 44
0.0000000001
 40
0.0
 40
0.0
 40
0.0
 40
0.0
 40
0.0579675667
 40
0.1272393617
 40
0.2147560736
 40
0.3239706916
 40
0.4565215441
 40
0.6131934683
 40
1.0
 40
1.0
 40
1.0
 40
1.0
 10
306.3811811705
 20
390.6987884759
 30
0.0
 10
306.3665235096
 20
390.6987884759
 30
0.0
 10
306.3341748635
 20
390.707391109
 30
0.0
 10
306.2906523814
 20
390.7412269282
 30
0.0
 10
306.248428843
 20
390.7940344379
 30
0.0
 10
306.2066992363
 20
390.8663229836
 30
0.0
 10
306.1652009399
 20
390.9582484408
 30
0.0
 10
306.1060192946
 20
391.1187190993
 30
0.0
 10
306.0689987116
 20
391.2512928096
 30
0.0
 10
306.0450711716
 20
391.3461286389
 30
0.0
  0
SPLINE
  5
4D0
100
AcDbEntity
  8
0
100
AcDbSpline
 62
7
  6
CONTINUOUS
 70
0
 71
3
 72
9
 73
5
 74
0
 42
0.0000001
 43
0.0000001
 44
0.0000000001
 40
0.0
 40
0.0
 40
0.0
 40
0.0
 40
0.5005622943
 40
1.0
 40
1.0
 40
1.0
 40
1.0
 10
307.2726646706
 20
396.6042884743
 30
0.0
 10
307.2230814377
 20
395.6189181944
 30
0.0
 10
307.2136407459
 20
393.6450131657
 30
0.0
 10
307.3616012778
 20
391.6779289315
 30
0.0
 10
307.4632286788
 20
390.6987884759
 30
0.0
  0
SPLINE
  5
4D1
100
AcDbEntity
  8
0
100
AcDbSpline
 62
7
  6
CONTINUOUS
 70
0
 71
3
 72
12
 73
8
 74
0
 42
0.0000001
 43
0.0000001
 44
0.0000000001
 40
0.0
 40
0.0
 40
0.0
 40
0.0
 40
0.1308361698
 40
0.2197398557
 40
0.3293689938
 40
0.6169683204
 40
1.0
 40
1.0
 40
1.0
 40
1.0
 10
306.3811811705
 20
410.8282884759
 30
0.0
 10
306.3609142354
 20
410.8282884759
 30
0.0
 10
306.3279134735
 20
410.8098486553
 30
0.0
 10
306.2951030536
 20
410.7712720913
 30
0.0
 10
306.2547497769
 20
410.7071868419
 30
0.0
 10
306.2080866803
 20
410.5952175553
 30
0.0
 10
306.1775964974
 20
410.4958370554
 30
0.0
 10
306.1618845196
 20
410.4386224013
 30
0.0
  0
SPLINE
  5
4D2
100
AcDbEntity
  8
0
100
AcDbSpline
 62
7
  6
CONTINUOUS
 70
0
 71
3
 72
12
 73
8
 74
0
 42
0.0000001
 43
0.0000001
 44
0.0000000001
 40
0.0
 40
0.0
 40
0.0
 40
0.0
 40
0.3830792757
 40
0.670700762
 40
0.7803280503
 40
0.8692198363
 40
1.0
 40
1.0
 40
1.0
 40
1.0
 10
306.1617219214
 20
394.5815468433
 30
0.0
 10
306.177444604
 20
394.524246539
 30
0.0
 10
306.2079558153
 20
394.4247181417
 30
0.0
 10
306.2546515315
 20
394.3125790404
 30
0.0
 10
306.295036456
 20
394.2483940405
 30
0.0
 10
306.3278665433
 20
394.2097626762
 30
0.0
 10
306.3608962633
 20
394.1912884759
 30
0.0
 10
306.3811811705
 20
394.1912884759
 30
0.0
  0
SPLINE
  5
4D3
100
AcDbEntity
  8
0
100
AcDbSpline
 62
7
  6
CONTINUOUS
 70
0
 71
3
 72
9
 73
5
 74
0
 42
0.0000001
 43
0.0000001
 44
0.0000000001
 40
0.0
 40
0.0
 40
0.0
 40
0.0
 40
0.2497763328
 40
1.0
 40
1.0
 40
1.0
 40
1.0
 10
316.6872498629
 20
403.7956583958
 30
0.0
 10
316.7109708198
 20
404.1055557619
 30
0.0
 10
316.7929379993
 20
405.3471724645
 30
0.0
 10
316.8163321461
 20
406.5930045555
 30
0.0
 10
316.7942662333
 20
407.5262686785
 30
0.0
  0
SPLINE
  5
4D4
100
AcDbEntity
  8
0
100
AcDbSpline
 62
7
  6
CONTINUOUS
 70
0
 71
3
 72
9
 73
5
 74
0
 42
0.0000001
 43
0.0000001
 44
0.0000000001
 40
0.0
 40
0.0
 40
0.0
 40
0.0
 40
0.2503568999
 40
1.0
 40
1.0
 40
1.0
 40
1.0
 10
316.7942662456
 20
397.4933084599
 30
0.0
 10
316.8016300193
 20
397.8047546711
 30
0.0
 10
316.813731844
 20
399.0491643302
 30
0.0
 10
316.7584442273
 20
400.2938161961
 30
0.0
 10
316.6872499416
 20
401.2239187234
 30
0.0
  0
SPLINE
  5
4D5
100
AcDbEntity
  8
0
100
AcDbSpline
 62
7
  6
CONTINUOUS
 70
0
 71
3
 72
9
 73
5
 74
0
 42
0.0000001
 43
0.0000001
 44
0.0000000001
 40
0.0
 40
0.0
 40
0.0
 40
0.0
 40
0.4986478813
 40
1.0
 40
1.0
 40
1.0
 40
1.0
 10
307.2726646708
 20
408.4152884732
 30
0.0
 10
307.3224654735
 20
407.425594419
 30
0.0
 10
307.5130918421
 20
405.4445935302
 30
0.0
 10
307.8579991843
 20
403.4859202086
 30
0.0
 10
308.0575510123
 20
402.5097884759
 30
0.0
  0
SPLINE
  5
4D6
100
AcDbEntity
  8
0
100
AcDbSpline
 62
7
  6
CONTINUOUS
 70
0
 71
3
 72
9
 73
5
 74
0
 42
0.0000001
 43
0.0000001
 44
0.0000000001
 40
0.0
 40
0.0
 40
0.0
 40
0.0
 40
0.2496608459
 40
1.0
 40
1.0
 40
1.0
 40
1.0
 10
316.6106087798
 20
410.3271900413
 30
0.0
 10
316.5924648902
 20
410.4968440932
 30
0.0
 10
316.5149027457
 20
411.1758554128
 30
0.0
 10
316.4183810167
 20
411.8526618304
 30
0.0
 10
316.336772697
 20
412.358918044
 30
0.0
  0
SPLINE
  5
4D7
100
AcDbEntity
  8
0
100
AcDbSpline
 62
7
  6
CONTINUOUS
 70
0
 71
3
 72
9
 73
5
 74
0
 42
0.0000001
 43
0.0000001
 44
0.0000000001
 40
0.0
 40
0.0
 40
0.0
 40
0.0
 40
0.2496867471
 40
1.0
 40
1.0
 40
1.0
 40
1.0
 10
316.336772697
 20
412.358918044
 30
0.0
 10
316.3103512062
 20
412.5228234394
 30
0.0
 10
316.2006837858
 20
413.1786452848
 30
0.0
 10
316.076456341
 20
413.8320006135
 30
0.0
 10
315.9765328285
 20
414.3207884759
 30
0.0
  0
SPLINE
  5
4D8
100
AcDbEntity
  8
0
100
AcDbSpline
 62
7
  6
CONTINUOUS
 70
0
 71
3
 72
9
 73
5
 74
0
 42
0.0000001
 43
0.0000001
 44
0.0000000001
 40
0.0
 40
0.0
 40
0.0
 40
0.0
 40
0.2540646381
 40
1.0
 40
1.0
 40
1.0
 40
1.0
 10
330.2352742046
 20
388.8716204171
 30
0.0
 10
330.3135317457
 20
389.0588897089
 30
0.0
 10
330.6111922795
 20
389.8001371228
 30
0.0
 10
330.8611737292
 20
390.5615717207
 30
0.0
 10
331.0069451707
 20
391.1393681313
 30
0.0
  0
SPLINE
  5
4D9
100
AcDbEntity
  8
0
100
AcDbSpline
 62
7
  6
CONTINUOUS
 70
0
 71
3
 72
12
 73
8
 74
0
 42
0.0000001
 43
0.0000001
 44
0.0000000001
 40
0.0
 40
0.0
 40
0.0
 40
0.0
 40
0.0844617823
 40
0.1843479637
 40
0.4235652364
 40
0.7016996576
 40
1.0
 40
1.0
 40
1.0
 40
1.0
 10
331.2376976181
 20
392.2811624305
 30
0.0
 10
331.2807661764
 20
392.5664636965
 30
0.0
 10
331.3601411278
 20
393.1913731136
 30
0.0
 10
331.5004454511
 20
394.6316303558
 30
0.0
 10
331.6335736197
 20
396.736551928
 30
0.0
 10
331.7306145386
 20
399.5214651515
 30
0.0
 10
331.7523958571
 20
401.490751132
 30
0.0
 10
331.7523958571
 20
402.5097884759
 30
0.0
  0
SPLINE
  5
4DA
100
AcDbEntity
  8
0
100
AcDbSpline
 62
7
  6
CONTINUOUS
 70
0
 71
3
 72
12
 73
8
 74
0
 42
0.0000001
 43
0.0000001
 44
0.0000000001
 40
0.0
 40
0.0
 40
0.0
 40
0.0
 40
0.2983003424
 40
0.5764347636
 40
0.8156520363
 40
0.9155382177
 40
1.0
 40
1.0
 40
1.0
 40
1.0
 10
331.7523958571
 20
402.5097884759
 30
0.0
 10
331.7523958571
 20
403.5288258197
 30
0.0
 10
331.7306145386
 20
405.4981118002
 30
0.0
 10
331.6335736197
 20
408.2830250237
 30
0.0
 10
331.5004454511
 20
410.3879465959
 30
0.0
 10
331.3601411278
 20
411.8282038381
 30
0.0
 10
331.2807661764
 20
412.4531132552
 30
0.0
 10
331.2376976181
 20
412.7384145212
 30
0.0
  0
SPLINE
  5
4DB
100
AcDbEntity
  8
0
100
AcDbSpline
 62
7
  6
CONTINUOUS
 70
0
 71
3
 72
9
 73
5
 74
0
 42
0.0000001
 43
0.0000001
 44
0.0000000001
 40
0.0
 40
0.0
 40
0.0
 40
0.0
 40
0.2460794107
 40
1.0
 40
1.0
 40
1.0
 40
1.0
 10
331.0069451849
 20
413.8802088208
 30
0.0
 10
330.9588522317
 20
414.0708356174
 30
0.0
 10
330.7455459707
 20
414.8409997171
 30
0.0
 10
330.4675171874
 20
415.5922020559
 30
0.0
 10
330.2352742046
 20
416.1479565347
 30
0.0
  0
SPLINE
  5
4DC
100
AcDbEntity
  8
0
100
AcDbSpline
 62
7
  6
CONTINUOUS
 70
0
 71
3
 72
9
 73
5
 74
0
 42
0.0000001
 43
0.0000001
 44
0.0000000001
 40
0.0
 40
0.0
 40
0.0
 40
0.0
 40
0.4999903006
 40
1.0
 40
1.0
 40
1.0
 40
1.0
 10
331.7523958571
 20
402.5097884755
 30
0.0
 10
331.7523958571
 20
403.649826174
 30
0.0
 10
331.6621626864
 20
405.9306798559
 30
0.0
 10
331.415494101
 20
408.1988109563
 30
0.0
 10
331.2646706822
 20
409.3288725053
 30
0.0
  0
SPLINE
  5
4DD
100
AcDbEntity
  8
0
100
AcDbSpline
 62
7
  6
CONTINUOUS
 70
0
 71
3
 72
9
 73
5
 74
0
 42
0.0000001
 43
0.0000001
 44
0.0000000001
 40
0.0
 40
0.0
 40
0.0
 40
0.0
 40
0.4985481135
 40
1.0
 40
1.0
 40
1.0
 40
1.0
 10
331.2646706822
 20
409.3288725053
 30
0.0
 10
331.3300940459
 20
409.8930061555
 30
0.0
 10
331.406093781
 20
411.0324858776
 30
0.0
 10
331.3229622596
 20
412.1735915717
 30
0.0
 10
331.237697618
 20
412.7384145215
 30
0.0
  0
SPLINE
  5
4DE
100
AcDbEntity
  8
0
100
AcDbSpline
 62
7
  6
CONTINUOUS
 70
0
 71
3
 72
8
 73
4
 74
0
 42
0.0000001
 43
0.0000001
 44
0.0000000001
 40
0.0
 40
0.0
 40
0.0
 40
0.0
 40
1.0
 40
1.0
 40
1.0
 40
1.0
 10
322.3630717319
 20
399.5201634533
 30
0.0
 10
322.4469382899
 20
398.2398758666
 30
0.0
 10
322.5816320632
 20
396.9624591846
 30
0.0
 10
322.7513665326
 20
395.6907044465
 30
0.0
  0
SPLINE
  5
4DF
100
AcDbEntity
  8
0
100
AcDbSpline
 62
7
  6
CONTINUOUS
 70
0
 71
3
 72
9
 73
5
 74
0
 42
0.0000001
 43
0.0000001
 44
0.0000000001
 40
0.0
 40
0.0
 40
0.0
 40
0.0
 40
0.2530012727
 40
1.0
 40
1.0
 40
1.0
 40
1.0
 10
322.7513665326
 20
395.6907044465
 30
0.0
 10
322.6922661812
 20
395.5492780636
 30
0.0
 10
322.4646074187
 20
394.9878617891
 30
0.0
 10
322.2633151956
 20
394.4154268776
 30
0.0
 10
322.1337923443
 20
393.9817953872
 30
0.0
  0
SPLINE
  5
4E0
100
AcDbEntity
  8
0
100
AcDbSpline
 62
7
  6
CONTINUOUS
 70
0
 71
3
 72
9
 73
5
 74
0
 42
0.0000001
 43
0.0000001
 44
0.0000000001
 40
0.0
 40
0.0
 40
0.0
 40
0.0
 40
0.2473427004
 40
1.0
 40
1.0
 40
1.0
 40
1.0
 10
322.1860592822
 20
410.8666924678
 30
0.0
 10
322.2263302932
 20
410.7377195759
 30
0.0
 10
322.3963524837
 20
410.2185381325
 30
0.0
 10
322.5928380846
 20
409.7082290477
 30
0.0
 10
322.7513665326
 20
409.3288725053
 30
0.0
  0
SPLINE
  5
4E1
100
AcDbEntity
  8
0
100
AcDbSpline
 62
7
  6
CONTINUOUS
 70
0
 71
3
 72
8
 73
4
 74
0
 42
0.0000001
 43
0.0000001
 44
0.0000000001
 40
0.0
 40
0.0
 40
0.0
 40
0.0
 40
1.0
 40
1.0
 40
1.0
 40
1.0
 10
322.7513665326
 20
409.3288725053
 30
0.0
 10
322.5816396804
 20
408.0571748403
 30
0.0
 10
322.4469503334
 20
406.7798158014
 30
0.0
 10
322.3630833111
 20
405.4995859479
 30
0.0
  0
SPLINE
  5
4E2
100
AcDbEntity
  8
0
100
AcDbSpline
 62
7
  6
CONTINUOUS
 70
0
 71
3
 72
9
 73
5
 74
0
 42
0.0000001
 43
0.0000001
 44
0.0000000001
 40
0.0
 40
0.0
 40
0.0
 40
0.0
 40
0.5014518884
 40
1.0
 40
1.0
 40
1.0
 40
1.0
 10
331.2376976184
 20
392.2811624327
 30
0.0
 10
331.3229622602
 20
392.8459853849
 30
0.0
 10
331.4060938467
 20
393.9870910771
 30
0.0
 10
331.3300940457
 20
395.1265707981
 30
0.0
 10
331.2646706822
 20
395.6907044465
 30
0.0
  0
SPLINE
  5
4E3
100
AcDbEntity
  8
0
100
AcDbSpline
 62
7
  6
CONTINUOUS
 70
0
 71
3
 72
9
 73
5
 74
0
 42
0.0000001
 43
0.0000001
 44
0.0000000001
 40
0.0
 40
0.0
 40
0.0
 40
0.0
 40
0.5000097017
 40
1.0
 40
1.0
 40
1.0
 40
1.0
 10
331.2646706822
 20
395.6907044465
 30
0.0
 10
331.4154941018
 20
396.8207660019
 30
0.0
 10
331.6621629888
 20
399.0888970789
 30
0.0
 10
331.7523958571
 20
401.3697507804
 30
0.0
 10
331.7523958571
 20
402.5097884755
 30
0.0
  0
SPLINE
  5
4E4
100
AcDbEntity
  8
0
100
AcDbSpline
 62
7
  6
CONTINUOUS
 70
0
 71
3
 72
15
 73
11
 74
0
 42
0.0000001
 43
0.0000001
 44
0.0000000001
 40
0.0
 40
0.0
 40
0.0
 40
0.0
 40
0.210889233
 40
0.3057940308
 40
0.4002144212
 40
0.5052252239
 40
0.6381656815
 40
0.8078450064
 40
0.9024270802
 40
1.0
 40
1.0
 40
1.0
 40
1.0
 10
285.9307272569
 20
396.6653312632
 30
0.0
 10
285.9526061531
 20
396.5431740884
 30
0.0
 10
285.9885336444
 20
396.3665992733
 30
0.0
 10
286.0530144583
 20
396.1399526352
 30
0.0
 10
286.1127166086
 20
395.9771218444
 30
0.0
 10
286.2013561029
 20
395.8019943731
 30
0.0
 10
286.3508536039
 20
395.6114745781
 30
0.0
 10
286.548472755
 20
395.4764873132
 30
0.0
 10
286.7519967954
 20
395.4098592316
 30
0.0
 10
286.8654903251
 20
395.3977884759
 30
0.0
 10
286.9229086106
 20
395.3977884759
 30
0.0
  0
SPLINE
  5
4E5
100
AcDbEntity
  8
0
100
AcDbSpline
 62
7
  6
CONTINUOUS
 70
0
 71
3
 72
18
 73
14
 74
0
 42
0.0000001
 43
0.0000001
 44
0.0000000001
 40
0.0
 40
0.0
 40
0.0
 40
0.0
 40
0.0272511528
 40
0.0508143776
 40
0.0819603967
 40
0.1208260505
 40
0.1673764415
 40
0.2214731196
 40
0.2829121669
 40
0.4267492136
 40
0.596356481
 40
0.7886301745
 40
1.0
 40
1.0
 40
1.0
 40
1.0
 10
294.2608787568
 20
395.3978025287
 30
0.0
 10
294.2970704957
 20
395.3978023562
 30
0.0
 10
294.349551067
 20
395.462208288
 30
0.0
 10
294.3929680838
 20
395.5566200109
 30
0.0
 10
294.4343917772
 20
395.6758579605
 30
0.0
 10
294.4737886873
 20
395.8249711219
 30
0.0
 10
294.5129674667
 20
396.0063466315
 30
0.0
 10
294.5509229054
 20
396.2181953944
 30
0.0
 10
294.6026768007
 20
396.558815323
 30
0.0
 10
294.6613698335
 20
397.0533200568
 30
0.0
 10
294.7218583901
 20
397.7222855739
 30
0.0
 10
294.7740698696
 20
398.4818636576
 30
0.0
 10
294.8015356977
 20
399.017256985
 30
0.0
 10
294.8139092556
 20
399.2977004029
 30
0.0
  0
SPLINE
  5
4E6
100
AcDbEntity
  8
0
100
AcDbSpline
 62
7
  6
CONTINUOUS
 70
0
 71
3
 72
9
 73
5
 74
0
 42
0.0000001
 43
0.0000001
 44
0.0000000001
 40
0.0
 40
0.0
 40
0.0
 40
0.0
 40
0.4860572163
 40
1.0
 40
1.0
 40
1.0
 40
1.0
 10
294.8139092556
 20
399.2977004029
 30
0.0
 10
294.8368548911
 20
399.8177571683
 30
0.0
 10
294.870025494
 20
400.8883440887
 30
0.0
 10
294.8807303992
 20
401.9593605787
 30
0.0
 10
294.8807303992
 20
402.5097884759
 30
0.0
  0
SPLINE
  5
4E7
100
AcDbEntity
  8
0
100
AcDbSpline
 62
7
  6
CONTINUOUS
 70
0
 71
3
 72
16
 73
12
 74
0
 42
0.0000001
 43
0.0000001
 44
0.0000000001
 40
0.0
 40
0.0
 40
0.0
 40
0.0
 40
0.2175230982
 40
0.4095164078
 40
0.5749256641
 40
0.7130046691
 40
0.8232982327
 40
0.9060051518
 40
0.9374517684
 40
0.9628723299
 40
1.0
 40
1.0
 40
1.0
 40
1.0
 10
271.7210062726
 20
406.8277975471
 30
0.0
 10
271.7303152067
 20
406.905256626
 30
0.0
 10
271.7491717294
 20
407.0509298502
 30
0.0
 10
271.7805472134
 20
407.2547584273
 30
0.0
 10
271.813119463
 20
407.4294876265
 30
0.0
 10
271.8465036954
 20
407.5741751259
 30
0.0
 10
271.8806473201
 20
407.6879807235
 30
0.0
 10
271.9111445146
 20
407.7627806674
 30
0.0
 10
271.9375642701
 20
407.8056418846
 30
0.0
 10
271.9589428711
 20
407.8313537575
 30
0.0
 10
271.980618722
 20
407.8437834887
 30
0.0
 10
271.9939348651
 20
407.8437841688
 30
0.0
  0
SPLINE
  5
4E8
100
AcDbEntity
  8
0
100
AcDbSpline
 62
7
  6
CONTINUOUS
 70
0
 71
3
 72
21
 73
17
 74
0
 42
0.0000001
 43
0.0000001
 44
0.0000000001
 40
0.0
 40
0.0
 40
0.0
 40
0.0
 40
0.1927304491
 40
0.3780980941
 40
0.5490691664
 40
0.6991452727
 40
0.7645482877
 40
0.8226956227
 40
0.8730565482
 40
0.915203883
 40
0.9488165551
 40
0.9623755419
 40
0.9737695212
 40
0.9830451746
 40
0.9903137518
 40
1.0
 40
1.0
 40
1.0
 40
1.0
 10
272.3702733622
 20
402.5097884759
 30
0.0
 10
272.3702733622
 20
402.7906065201
 30
0.0
 10
272.3656319564
 20
403.3415262649
 30
0.0
 10
272.3449212927
 20
404.141325037
 30
0.0
 10
272.3113641117
 20
404.8784819653
 30
0.0
 10
272.2724678272
 20
405.4403015067
 30
0.0
 10
272.2347203998
 20
405.8372205278
 30
0.0
 10
272.2055138381
 20
406.0889505109
 30
0.0
 10
272.1744637999
 20
406.3062943285
 30
0.0
 10
272.1418821698
 20
406.4871922034
 30
0.0
 10
272.1122384655
 20
406.614023228
 30
0.0
 10
272.0869241466
 20
406.6955961869
 30
0.0
 10
272.0692894451
 20
406.7421986053
 30
0.0
 10
272.0511422475
 20
406.7790248079
 30
0.0
 10
272.0306547516
 20
406.8104274739
 30
0.0
 10
272.0080482206
 20
406.8277761636
 30
0.0
 10
271.9939348654
 20
406.8277758765
 30
0.0
  0
SPLINE
  5
4E9
100
AcDbEntity
  8
0
100
AcDbSpline
 62
7
  6
CONTINUOUS
 70
0
 71
3
 72
16
 73
12
 74
0
 42
0.0000001
 43
0.0000001
 44
0.0000000001
 40
0.0
 40
0.0
 40
0.0
 40
0.0
 40
0.0976078419
 40
0.1919898509
 40
0.2813536051
 40
0.3622974808
 40
0.495104622
 40
0.6000278524
 40
0.6943829008
 40
0.7892355938
 40
1.0
 40
1.0
 40
1.0
 40
1.0
 10
286.9229086106
 20
409.6217884759
 30
0.0
 10
286.8654107518
 20
409.6217884759
 30
0.0
 10
286.7518871158
 20
409.6098573959
 30
0.0
 10
286.5935010628
 20
409.5574866447
 30
0.0
 10
286.4565964596
 20
409.4808969912
 30
0.0
 10
286.3185402248
 20
409.3664395077
 30
0.0
 10
286.2011558005
 20
409.2172637927
 30
0.0
 10
286.1125774818
 20
409.0421344235
 30
0.0
 10
286.0528831877
 20
408.8792270082
 30
0.0
 10
285.9883952863
 20
408.6524832654
 30
0.0
 10
285.9524954797
 20
408.4758185351
 30
0.0
 10
285.9306147157
 20
408.3536068445
 30
0.0
  0
SPLINE
  5
4EA
100
AcDbEntity
  8
0
100
AcDbSpline
 62
7
  6
CONTINUOUS
 70
0
 71
3
 72
11
 73
7
 74
0
 42
0.0000001
 43
0.0000001
 44
0.0000000001
 40
0.0
 40
0.0
 40
0.0
 40
0.0
 40
0.2987185122
 40
0.5780065983
 40
0.8138230315
 40
1.0
 40
1.0
 40
1.0
 40
1.0
 10
278.7824244001
 20
408.3517884759
 30
0.0
 10
278.6870434999
 20
408.3517884759
 30
0.0
 10
278.5008008404
 20
408.3178956569
 30
0.0
 10
278.2720287127
 20
408.1853335756
 30
0.0
 10
278.117685815
 20
408.0197140021
 30
0.0
 10
278.0484332103
 20
407.903281205
 30
0.0
 10
278.0222230637
 20
407.8499248802
 30
0.0
  0
SPLINE
  5
4EB
100
AcDbEntity
  8
0
100
AcDbSpline
 62
7
  6
CONTINUOUS
 70
0
 71
3
 72
9
 73
5
 74
0
 42
0.0000001
 43
0.0000001
 44
0.0000000001
 40
0.0
 40
0.0
 40
0.0
 40
0.0
 40
0.5139408082
 40
1.0
 40
1.0
 40
1.0
 40
1.0
 10
294.8807303992
 20
402.5097884759
 30
0.0
 10
294.8807303992
 20
403.0601796008
 30
0.0
 10
294.8700268627
 20
404.1311286527
 30
0.0
 10
294.8368606958
 20
405.2016482202
 30
0.0
 10
294.8139181804
 20
405.721674433
 30
0.0
  0
SPLINE
  5
4EC
100
AcDbEntity
  8
0
100
AcDbSpline
 62
7
  6
CONTINUOUS
 70
0
 71
3
 72
18
 73
14
 74
0
 42
0.0000001
 43
0.0000001
 44
0.0000000001
 40
0.0
 40
0.0
 40
0.0
 40
0.0
 40
0.211368429
 40
0.4036421628
 40
0.5732500296
 40
0.7170875748
 40
0.7785267284
 40
0.8326236129
 40
0.8791740486
 40
0.9180398782
 40
0.949185896
 40
0.9727491708
 40
1.0
 40
1.0
 40
1.0
 40
1.0
 10
294.8139181804
 20
405.721674433
 30
0.0
 10
294.8015450307
 20
406.0021302643
 30
0.0
 10
294.7740798022
 20
406.5375490444
 30
0.0
 10
294.7218685828
 20
407.2971648473
 30
0.0
 10
294.6613794223
 20
407.9661660306
 30
0.0
 10
294.6026855204
 20
408.4606977087
 30
0.0
 10
294.5509303726
 20
408.8013362067
 30
0.0
 10
294.512974317
 20
409.0131964336
 30
0.0
 10
294.4737943535
 20
409.1945818916
 30
0.0
 10
294.434396766
 20
409.3437032571
 30
0.0
 10
294.3929716837
 20
409.4629478426
 30
0.0
 10
294.3495539676
 20
409.5573645358
 30
0.0
 10
294.2970719015
 20
409.6217742504
 30
0.0
 10
294.2608787567
 20
409.621774423
 30
0.0
  0
SPLINE
  5
4ED
100
AcDbEntity
  8
0
100
AcDbSpline
 62
7
  6
CONTINUOUS
 70
0
 71
3
 72
11
 73
7
 74
0
 42
0.0000001
 43
0.0000001
 44
0.0000000001
 40
0.0
 40
0.0
 40
0.0
 40
0.0
 40
0.1861683579
 40
0.4219773624
 40
0.7012549072
 40
1.0
 40
1.0
 40
1.0
 40
1.0
 10
278.0221907916
 20
397.1697202787
 30
0.0
 10
278.0483985883
 20
397.1163605941
 30
0.0
 10
278.117644238
 20
396.99991711
 30
0.0
 10
278.271981656
 20
396.8342801134
 30
0.0
 10
278.5007621412
 20
396.7016828754
 30
0.0
 10
278.6870274246
 20
396.6677884759
 30
0.0
 10
278.7824244007
 20
396.6677884759
 30
0.0
  0
SPLINE
  5
4EE
100
AcDbEntity
  8
0
100
AcDbSpline
 62
7
  6
CONTINUOUS
 70
0
 71
3
 72
16
 73
12
 74
0
 42
0.0000001
 43
0.0000001
 44
0.0000000001
 40
0.0
 40
0.0
 40
0.0
 40
0.0
 40
0.037143577
 40
0.0625693905
 40
0.0940183832
 40
0.1767266229
 40
0.2870176872
 40
0.4250911797
 40
0.5904941271
 40
0.782480925
 40
1.0
 40
1.0
 40
1.0
 40
1.0
 10
271.9939348649
 20
397.1757927829
 30
0.0
 10
271.980628354
 20
397.1757921032
 30
0.0
 10
271.9589675155
 20
397.1882046895
 30
0.0
 10
271.9376000862
 20
397.2138871538
 30
0.0
 10
271.9111961024
 20
397.2566936635
 30
0.0
 10
271.8807170186
 20
397.3314015868
 30
0.0
 10
271.8465927223
 20
397.4450675962
 30
0.0
 10
271.8132263655
 20
397.5895786419
 30
0.0
 10
271.7806705763
 20
397.7640960844
 30
0.0
 10
271.7493089634
 20
397.9676804953
 30
0.0
 10
271.7304600041
 20
398.1131803792
 30
0.0
 10
271.7211543027
 20
398.1905479287
 30
0.0
  0
SPLINE
  5
4EF
100
AcDbEntity
  8
0
100
AcDbSpline
 62
7
  6
CONTINUOUS
 70
0
 71
3
 72
21
 73
17
 74
0
 42
0.0000001
 43
0.0000001
 44
0.0000000001
 40
0.0
 40
0.0
 40
0.0
 40
0.0
 40
0.009686237
 40
0.0169548285
 40
0.0262306094
 40
0.0376245012
 40
0.0511833009
 40
0.0847958413
 40
0.1269425658
 40
0.1773028222
 40
0.2354492813
 40
0.3008514302
 40
0.4509261105
 40
0.6218970148
 40
0.8072661683
 40
1.0
 40
1.0
 40
1.0
 40
1.0
 10
271.9939348646
 20
398.1918010752
 30
0.0
 10
272.0080482041
 20
398.1918013622
 30
0.0
 10
272.0306549473
 20
398.209148899
 30
0.0
 10
272.0511425
 20
398.2405521088
 30
0.0
 10
272.0692892707
 20
398.2773785027
 30
0.0
 10
272.086924175
 20
398.3239806336
 30
0.0
 10
272.1122385679
 20
398.4055529539
 30
0.0
 10
272.1418815536
 20
398.5323827722
 30
0.0
 10
272.1744633075
 20
398.7132785266
 30
0.0
 10
272.2055128703
 20
398.930619259
 30
0.0
 10
272.2347193107
 20
399.1823457246
 30
0.0
 10
272.2724665385
 20
399.5792601472
 30
0.0
 10
272.3113630277
 20
400.1410761018
 30
0.0
 10
272.3449206401
 20
400.8782329189
 30
0.0
 10
272.3656318234
 20
401.6780385961
 30
0.0
 10
272.3702733622
 20
402.2289654913
 30
0.0
 10
272.3702733622
 20
402.5097884759
 30
0.0
  0
SPLINE
  5
4F0
100
AcDbEntity
  8
0
100
AcDbSpline
 62
7
  6
CONTINUOUS
 70
0
 71
3
 72
21
 73
17
 74
0
 42
0.0000001
 43
0.0000001
 44
0.0000000001
 40
0.0
 40
0.0
 40
0.0
 40
0.0
 40
0.0096878087
 40
0.0169541848
 40
0.0262308268
 40
0.0376267336
 40
0.0511834601
 40
0.0847979565
 40
0.126942382
 40
0.1773049438
 40
0.2354505659
 40
0.3008521287
 40
0.4509279845
 40
0.6218978519
 40
0.80726667
 40
1.0
 40
1.0
 40
1.0
 40
1.0
 10
271.9939348651
 20
407.8437841688
 30
0.0
 10
272.0113718338
 20
407.8437850594
 30
0.0
 10
272.0392840342
 20
407.8223352134
 30
0.0
 10
272.0646108218
 20
407.7835592643
 30
0.0
 10
272.0870196934
 20
407.7380599186
 30
0.0
 10
272.1087999004
 20
407.6804907806
 30
0.0
 10
272.1400822991
 20
407.5797244762
 30
0.0
 10
272.1766867598
 20
407.4230533216
 30
0.0
 10
272.216946208
 20
407.1995925062
 30
0.0
 10
272.2552936198
 20
406.9311126432
 30
0.0
 10
272.2913758006
 20
406.6201551464
 30
0.0
 10
272.3380046173
 20
406.1298490172
 30
0.0
 10
272.3860526575
 20
405.4358413062
 30
0.0
 10
272.4275058182
 20
404.5252353771
 30
0.0
 10
272.4530897755
 20
403.5372426656
 30
0.0
 10
272.4588235968
 20
402.8566868464
 30
0.0
 10
272.4588235968
 20
402.5097884759
 30
0.0
  0
SPLINE
  5
4F1
100
AcDbEntity
  8
0
100
AcDbSpline
 62
7
  6
CONTINUOUS
 70
0
 71
3
 72
21
 73
17
 74
0
 42
0.0000001
 43
0.0000001
 44
0.0000000001
 40
0.0
 40
0.0
 40
0.0
 40
0.0
 40
0.19273135
 40
0.3780990615
 40
0.5490707352
 40
0.6991469403
 40
0.7645484215
 40
0.8226942177
 40
0.8730569636
 40
0.9152016207
 40
0.948816365
 40
0.9623731244
 40
0.9737690294
 40
0.9830457951
 40
0.9903121861
 40
1.0
 40
1.0
 40
1.0
 40
1.0
 10
278.5316264491
 20
402.5097884759
 30
0.0
 10
278.5316264491
 20
402.8566835573
 30
0.0
 10
278.5258927013
 20
403.537234358
 30
0.0
 10
278.5003092008
 20
404.5252255592
 30
0.0
 10
278.4588559958
 20
405.4358340984
 30
0.0
 10
278.4108080028
 20
406.1298461076
 30
0.0
 10
278.364179155
 20
406.6201534237
 30
0.0
 10
278.3280971153
 20
406.9311116872
 30
0.0
 10
278.2897496033
 20
407.1995928269
 30
0.0
 10
278.2494900237
 20
407.4230550104
 30
0.0
 10
278.2128855612
 20
407.5797272453
 30
0.0
 10
278.1816030829
 20
407.680494137
 30
0.0
 10
278.1598224889
 20
407.7380635046
 30
0.0
 10
278.137413953
 20
407.7835632093
 30
0.0
 10
278.1120869529
 20
407.8223397928
 30
0.0
 10
278.0841747093
 20
407.843788451
 30
0.0
 10
278.0667377173
 20
407.8437884758
 30
0.0
  0
SPLINE
  5
4F2
100
AcDbEntity
  8
0
100
AcDbSpline
 62
7
  6
CONTINUOUS
 70
0
 71
3
 72
31
 73
27
 74
0
 42
0.0000001
 43
0.0000001
 44
0.0000000001
 40
0.0
 40
0.0
 40
0.0
 40
0.0
 40
0.0197170734
 40
0.0363347078
 40
0.0498561181
 40
0.0603465901
 40
0.0680202788
 40
0.0735139218
 40
0.0759434926
 40
0.0785130552
 40
0.081468413
 40
0.084973641
 40
0.0939743407
 40
0.1059261672
 40
0.1209508958
 40
0.1390796694
 40
0.1602916517
 40
0.1845350082
 40
0.2418213334
 40
0.3101879329
 40
0.3886741694
 40
0.4761482803
 40
0.5713353219
 40
0.6728444469
 40
0.7791701446
 40
1.0
 40
1.0
 40
1.0
 40
1.0
 10
285.9576199937
 20
408.402632239
 30
0.0
 10
285.9673098281
 20
408.4472668209
 30
0.0
 10
285.986512943
 20
408.5292438039
 30
0.0
 10
286.01832123
 20
408.6403316993
 30
0.0
 10
286.0503548175
 20
408.7289350398
 30
0.0
 10
286.0828757623
 20
408.7950251432
 30
0.0
 10
286.115267427
 20
408.8396113365
 30
0.0
 10
286.14765024
 20
408.8599272032
 30
0.0
 10
286.1725499719
 20
408.8600574469
 30
0.0
 10
286.1901377834
 20
408.8536056177
 30
0.0
 10
286.2072180828
 20
408.8412070209
 30
0.0
 10
286.2316348044
 20
408.8147929882
 30
0.0
 10
286.2606403339
 20
408.7655746102
 30
0.0
 10
286.2928646651
 20
408.6886514128
 30
0.0
 10
286.3248383282
 20
408.5890561573
 30
0.0
 10
286.3563810512
 20
408.4670971451
 30
0.0
 10
286.3873378044
 20
408.3230594724
 30
0.0
 10
286.4300308218
 20
408.0888928594
 30
0.0
 10
286.4793369298
 20
407.7450678966
 30
0.0
 10
286.5316386624
 20
407.2750392913
 30
0.0
 10
286.5788114727
 20
406.7342347992
 30
0.0
 10
286.6201036135
 20
406.1306747296
 30
0.0
 10
286.6548141329
 20
405.473291994
 30
0.0
 10
286.6823952188
 20
404.7718691676
 30
0.0
 10
286.7094087526
 20
403.7792260217
 30
0.0
 10
286.7172472173
 20
403.0213371155
 30
0.0
 10
286.7172472173
 20
402.5097884759
 30
0.0
  0
SPLINE
  5
4F3
100
AcDbEntity
  8
0
100
AcDbSpline
 62
7
  6
CONTINUOUS
 70
0
 71
3
 72
32
 73
28
 74
0
 42
0.0000001
 43
0.0000001
 44
0.0000000001
 40
0.0
 40
0.0
 40
0.0
 40
0.0
 40
0.2208576845
 40
0.3271943397
 40
0.4287095981
 40
0.5238964279
 40
0.6113624252
 40
0.6898313825
 40
0.7581705686
 40
0.7882339569
 40
0.8154215664
 40
0.8396418269
 40
0.8608279968
 40
0.8789288974
 40
0.8939233868
 40
0.9058438025
 40
0.9148137156
 40
0.9183050704
 40
0.9212492718
 40
0.9238125312
 40
0.9262426476
 40
0.9317575965
 40
0.9394673382
 40
0.9500000574
 40
0.9635675657
 40
0.9802332698
 40
1.0
 40
1.0
 40
1.0
 40
1.0
 10
286.7172472173
 20
402.5097884759
 30
0.0
 10
286.7172472173
 20
401.9980051941
 30
0.0
 10
286.7094018823
 20
401.2397742195
 30
0.0
 10
286.6823629351
 20
400.2466973078
 30
0.0
 10
286.6547573664
 20
399.5450022846
 30
0.0
 10
286.6200130802
 20
398.8874081511
 30
0.0
 10
286.5786932306
 20
398.2837044132
 30
0.0
 10
286.5314537853
 20
397.7428571125
 30
0.0
 10
286.486154605
 20
397.3354486131
 30
0.0
 10
286.4466438766
 20
397.0471037774
 30
0.0
 10
286.4172905221
 20
396.8605942032
 30
0.0
 10
286.3870536124
 20
396.695095285
 30
0.0
 10
286.356079488
 20
396.5511931783
 30
0.0
 10
286.3245167034
 20
396.4293968354
 30
0.0
 10
286.2925240412
 20
396.3299877756
 30
0.0
 10
286.2602826685
 20
396.2532742984
 30
0.0
 10
286.2312563218
 20
396.2042438388
 30
0.0
 10
286.2068166294
 20
396.1780081681
 30
0.0
 10
286.1897177628
 20
396.1657427363
 30
0.0
 10
286.172106861
 20
396.1594401346
 30
0.0
 10
286.1471651327
 20
396.1598040445
 30
0.0
 10
286.1148225616
 20
396.1804286644
 30
0.0
 10
286.0824294991
 20
396.2253021727
 30
0.0
 10
286.0498972788
 20
396.2917384505
 30
0.0
 10
286.0178536226
 20
396.3807044057
 30
0.0
 10
285.9860367451
 20
396.4921768478
 30
0.0
 10
285.9668270862
 20
396.5744132611
 30
0.0
 10
285.9571349979
 20
396.6191806403
 30
0.0
  0
SPLINE
  5
4F4
100
AcDbEntity
  8
0
100
AcDbSpline
 62
7
  6
CONTINUOUS
 70
0
 71
3
 72
22
 73
18
 74
0
 42
0.0000001
 43
0.0000001
 44
0.0000000001
 40
0.0
 40
0.0
 40
0.0
 40
0.0
 40
0.1926869937
 40
0.3780133853
 40
0.5489455267
 40
0.6989897984
 40
0.7643775707
 40
0.8225109843
 40
0.8728627753
 40
0.9149981969
 40
0.9486054933
 40
0.9621591471
 40
0.9735523683
 40
0.9828271109
 40
0.9900918464
 40
0.9956117864
 40
1.0
 40
1.0
 40
1.0
 40
1.0
 10
286.6729720998
 20
402.5097884759
 30
0.0
 10
286.6729720998
 20
402.8897180149
 30
0.0
 10
286.6666923442
 20
403.6350796123
 30
0.0
 10
286.6386725858
 20
404.7171584437
 30
0.0
 10
286.5932717424
 20
405.7144908032
 30
0.0
 10
286.5406483346
 20
406.4746000508
 30
0.0
 10
286.4895773213
 20
407.0116089284
 30
0.0
 10
286.450060775
 20
407.3521843152
 30
0.0
 10
286.4080543423
 20
407.6462396071
 30
0.0
 10
286.3639784899
 20
407.8909762547
 30
0.0
 10
286.3238450699
 20
408.0625892755
 30
0.0
 10
286.2896507407
 20
408.172921708
 30
0.0
 10
286.2656468928
 20
408.2360412411
 30
0.0
 10
286.2415160796
 20
408.2856857091
 30
0.0
 10
286.2171066702
 20
408.3219023405
 30
0.0
 10
286.1920253336
 20
408.3454308857
 30
0.0
 10
286.1724606871
 20
408.3517832749
 30
0.0
 10
286.1638082506
 20
408.3517837589
 30
0.0
  0
SPLINE
  5
4F5
100
AcDbEntity
  8
0
100
AcDbSpline
 62
7
  6
CONTINUOUS
 70
0
 71
3
 72
22
 73
18
 74
0
 42
0.0000001
 43
0.0000001
 44
0.0000000001
 40
0.0
 40
0.0
 40
0.0
 40
0.0
 40
0.0043960824
 40
0.0099191228
 40
0.0171826056
 40
0.0264473234
 40
0.0378266459
 40
0.0513646594
 40
0.0849235421
 40
0.1270026442
 40
0.1772895276
 40
0.2353542477
 40
0.3006784614
 40
0.4506242537
 40
0.6215455014
 40
0.8069983849
 40
1.0
 40
1.0
 40
1.0
 40
1.0
 10
286.9229086106
 20
409.6217792535
 30
0.0
 10
286.933395759
 20
409.6217796045
 30
0.0
 10
286.9571021386
 20
409.6141424435
 30
0.0
 10
286.9875284426
 20
409.5857191493
 30
0.0
 10
287.0171203536
 20
409.5419667447
 30
0.0
 10
287.0464002566
 20
409.4820108263
 30
0.0
 10
287.0755122048
 20
409.405770709
 30
0.0
 10
287.1169767846
 20
409.2725059615
 30
0.0
 10
287.1656819128
 20
409.0652044639
 30
0.0
 10
287.2191638012
 20
408.7695419626
 30
0.0
 10
287.2701686031
 20
408.4142552399
 30
0.0
 10
287.3181788308
 20
408.0026977193
 30
0.0
 10
287.3802742719
 20
407.3535654363
 30
0.0
 10
287.4443784904
 20
406.4343708316
 30
0.0
 10
287.4998810831
 20
405.2277074354
 30
0.0
 10
287.5344322605
 20
403.9175164251
 30
0.0
 10
287.542497239
 20
403.0146731444
 30
0.0
 10
287.5427481374
 20
402.5542549622
 30
0.0
  0
LINE
  5
4F6
100
AcDbEntity
  8
0
100
AcDbLine
 62
7
  6
CONTINUOUS
 10
287.5427481374
 20
402.5542549622
 11
287.542760253
 21
402.5097884759
  0
SPLINE
  5
4F7
100
AcDbEntity
  8
0
100
AcDbSpline
 62
7
  6
CONTINUOUS
 70
0
 71
3
 72
22
 73
18
 74
0
 42
0.0000001
 43
0.0000001
 44
0.0000000001
 40
0.0
 40
0.0
 40
0.0
 40
0.0
 40
0.1926877665
 40
0.378015505
 40
0.5489485489
 40
0.6989906378
 40
0.7643790545
 40
0.8225107689
 40
0.8728621788
 40
0.9149990806
 40
0.9486042424
 40
0.9621600374
 40
0.9735525149
 40
0.9828259168
 40
0.9900925344
 40
0.995612288
 40
1.0
 40
1.0
 40
1.0
 40
1.0
 10
287.542760253
 20
402.5097884759
 30
0.0
 10
287.542760253
 20
402.0472633112
 30
0.0
 10
287.5351149991
 20
401.1398607232
 30
0.0
 10
287.5010042193
 20
399.8225390101
 30
0.0
 10
287.445734621
 20
398.6083939597
 30
0.0
 10
287.3816665914
 20
397.6830447047
 30
0.0
 10
287.3194987721
 20
397.0293015197
 30
0.0
 10
287.2713895878
 20
396.6146912163
 30
0.0
 10
287.220248802
 20
396.2567127067
 30
0.0
 10
287.1666017883
 20
395.9587722711
 30
0.0
 10
287.1177284542
 20
395.749852198
 30
0.0
 10
287.0761123019
 20
395.6155328315
 30
0.0
 10
287.0468901456
 20
395.5386908013
 30
0.0
 10
287.017501039
 20
395.478260884
 30
0.0
 10
286.9877993666
 20
395.4341631608
 30
0.0
 10
286.9572621636
 20
395.4055109131
 30
0.0
 10
286.9334408165
 20
395.3977980508
 30
0.0
 10
286.9229086106
 20
395.3977976982
 30
0.0
  0
SPLINE
  5
4F8
100
AcDbEntity
  8
0
100
AcDbSpline
 62
7
  6
CONTINUOUS
 70
0
 71
3
 72
22
 73
18
 74
0
 42
0.0000001
 43
0.0000001
 44
0.0000000001
 40
0.0
 40
0.0
 40
0.0
 40
0.0
 40
0.0043882243
 40
0.0099082706
 40
0.017173044
 40
0.0264477445
 40
0.0378411127
 40
0.0513948542
 40
0.0850021154
 40
0.1271373905
 40
0.177488925
 40
0.2356217772
 40
0.3010086991
 40
0.4510514953
 40
0.6219851083
 40
0.8073115545
 40
1.0
 40
1.0
 40
1.0
 40
1.0
 10
278.7824254729
 20
408.3517884758
 30
0.0
 10
278.7910779374
 20
408.3517884635
 30
0.0
 10
278.8106430403
 20
408.3454357712
 30
0.0
 10
278.8357239138
 20
408.3219063777
 30
0.0
 10
278.8601336305
 20
408.2856897335
 30
0.0
 10
278.8842648923
 20
408.2360450803
 30
0.0
 10
278.9082683387
 20
408.1729249248
 30
0.0
 10
278.9424627432
 20
408.0625920239
 30
0.0
 10
278.9825961367
 20
407.8909790327
 30
0.0
 10
279.0266718378
 20
407.6462430343
 30
0.0
 10
279.0686778354
 20
407.3521893588
 30
0.0
 10
279.1081941638
 20
407.0116169822
 30
0.0
 10
279.1592647088
 20
406.47461334
 30
0.0
 10
279.2118882072
 20
405.7145051751
 30
0.0
 10
279.2572895227
 20
404.7171719279
 30
0.0
 10
279.2853094895
 20
403.635086353
 30
0.0
 10
279.291589322
 20
402.8897211841
 30
0.0
 10
279.291589322
 20
402.5097884759
 30
0.0
  0
SPLINE
  5
4F9
100
AcDbEntity
  8
0
100
AcDbSpline
 62
7
  6
CONTINUOUS
 70
0
 71
3
 72
22
 73
18
 74
0
 42
0.0000001
 43
0.0000001
 44
0.0000000001
 40
0.0
 40
0.0
 40
0.0
 40
0.0
 40
0.0043881996
 40
0.0099082978
 40
0.0171730564
 40
0.0264476231
 40
0.0378409965
 40
0.0513947045
 40
0.0850016932
 40
0.1271367154
 40
0.1774880411
 40
0.2356206418
 40
0.3010076369
 40
0.4510503779
 40
0.6219819924
 40
0.8073094695
 40
1.0
 40
1.0
 40
1.0
 40
1.0
 10
286.1638082507
 20
396.6677931928
 30
0.0
 10
286.17246066
 20
396.6677927088
 30
0.0
 10
286.1920260769
 20
396.6741453761
 30
0.0
 10
286.2171063766
 20
396.6976753136
 30
0.0
 10
286.2415161431
 20
396.7338915725
 30
0.0
 10
286.2656477317
 20
396.7835357413
 30
0.0
 10
286.2896507448
 20
396.8466556715
 30
0.0
 10
286.323845041
 20
396.9569878785
 30
0.0
 10
286.3639784465
 20
397.1285996039
 30
0.0
 10
286.4080539757
 20
397.3733339723
 30
0.0
 10
286.4500598297
 20
397.6673860187
 30
0.0
 10
286.4895763334
 20
398.0079573448
 30
0.0
 10
286.5406468722
 20
398.5449601152
 30
0.0
 10
286.5932704735
 20
399.3050637779
 30
0.0
 10
286.6386717115
 20
400.3023942521
 30
0.0
 10
286.6666921833
 20
401.3844811955
 30
0.0
 10
286.6729720998
 20
402.1298519447
 30
0.0
 10
286.6729720998
 20
402.5097884759
 30
0.0
  0
SPLINE
  5
4FA
100
AcDbEntity
  8
0
100
AcDbSpline
 62
7
  6
CONTINUOUS
 70
0
 71
3
 72
21
 73
17
 74
0
 42
0.0000001
 43
0.0000001
 44
0.0000000001
 40
0.0
 40
0.0
 40
0.0
 40
0.0
 40
0.1927298976
 40
0.3780975563
 40
0.5490678227
 40
0.6991451313
 40
0.764547472
 40
0.8226939044
 40
0.8730569713
 40
0.9152018119
 40
0.9488166296
 40
0.9623733191
 40
0.973769098
 40
0.9830459054
 40
0.9903122628
 40
1.0
 40
1.0
 40
1.0
 40
1.0
 10
272.4588235968
 20
402.5097884759
 30
0.0
 10
272.4588235968
 20
402.1628962785
 30
0.0
 10
272.4530899195
 20
401.4823487163
 30
0.0
 10
272.4275066074
 20
400.4943635242
 30
0.0
 10
272.3860538402
 20
399.5837563197
 30
0.0
 10
272.3380059905
 20
398.8897438371
 30
0.0
 10
272.2913767982
 20
398.39943224
 30
0.0
 10
272.2552945444
 20
398.0884709533
 30
0.0
 10
272.2169466502
 20
397.8199880053
 30
0.0
 10
272.176686885
 20
397.5965249805
 30
0.0
 10
272.1400823802
 20
397.4398525344
 30
0.0
 10
272.1087999461
 20
397.339085949
 30
0.0
 10
272.0870189867
 20
397.2815170321
 30
0.0
 10
272.0646108854
 20
397.2360175462
 30
0.0
 10
272.0392839242
 20
397.1972406524
 30
0.0
 10
272.0113717052
 20
397.1757936735
 30
0.0
 10
271.9939348649
 20
397.1757927829
 30
0.0
  0
SPLINE
  5
4FB
100
AcDbEntity
  8
0
100
AcDbSpline
 62
7
  6
CONTINUOUS
 70
0
 71
3
 72
21
 73
17
 74
0
 42
0.0000001
 43
0.0000001
 44
0.0000000001
 40
0.0
 40
0.0
 40
0.0
 40
0.0
 40
0.0096878168
 40
0.0169542095
 40
0.0262309729
 40
0.0376268855
 40
0.0511836509
 40
0.0847984022
 40
0.1269430694
 40
0.1773058357
 40
0.2354516442
 40
0.3008531459
 40
0.4509293915
 40
0.621901098
 40
0.8072688793
 40
1.0
 40
1.0
 40
1.0
 40
1.0
 10
278.0667377179
 20
397.1757884759
 30
0.0
 10
278.0841747151
 20
397.1757884516
 30
0.0
 10
278.112086959
 20
397.1972371966
 30
0.0
 10
278.1374139575
 20
397.2360137604
 30
0.0
 10
278.1598225186
 20
397.2815134749
 30
0.0
 10
278.1816030947
 20
397.3390828688
 30
0.0
 10
278.2128855823
 20
397.4398497963
 30
0.0
 10
278.2494900515
 20
397.596522072
 30
0.0
 10
278.2897496423
 20
397.8199843221
 30
0.0
 10
278.3280971443
 20
398.088465541
 30
0.0
 10
278.3641791997
 20
398.3994238986
 30
0.0
 10
278.4108080411
 20
398.8897313475
 30
0.0
 10
278.4588560381
 20
399.5837435248
 30
0.0
 10
278.5003092391
 20
400.4943523215
 30
0.0
 10
278.5258927039
 20
401.4823432947
 30
0.0
 10
278.5316264497
 20
402.1628938075
 30
0.0
 10
278.5316264497
 20
402.5097884759
 30
0.0
  0
SPLINE
  5
4FC
100
AcDbEntity
  8
0
100
AcDbSpline
 62
7
  6
CONTINUOUS
 70
0
 71
3
 72
22
 73
18
 74
0
 42
0.0000001
 43
0.0000001
 44
0.0000000001
 40
0.0
 40
0.0
 40
0.0
 40
0.0
 40
0.1926882159
 40
0.3780147316
 40
0.5489483772
 40
0.6989912136
 40
0.7643781559
 40
0.8225110204
 40
0.8728625751
 40
0.9149978603
 40
0.9486051285
 40
0.9621588759
 40
0.9735522516
 40
0.9828269498
 40
0.9900917249
 40
0.9956117759
 40
1.0
 40
1.0
 40
1.0
 40
1.0
 10
279.291589322
 20
402.5097884759
 30
0.0
 10
279.291589322
 20
402.12985622
 30
0.0
 10
279.2853094916
 20
401.3844913665
 30
0.0
 10
279.2572895641
 20
400.3024060413
 30
0.0
 10
279.2118882528
 20
399.305072512
 30
0.0
 10
279.1592647501
 20
398.544964163
 30
0.0
 10
279.1081942121
 20
398.0079603754
 30
0.0
 10
279.0686778665
 20
397.6673878958
 30
0.0
 10
279.0266718798
 20
397.3733341335
 30
0.0
 10
278.9825961667
 20
397.1285980622
 30
0.0
 10
278.9424627654
 20
396.9569850259
 30
0.0
 10
278.9082683513
 20
396.8466520867
 30
0.0
 10
278.884264923
 20
396.7835319005
 30
0.0
 10
278.8601336377
 20
396.7338872415
 30
0.0
 10
278.8357239091
 20
396.6976705991
 30
0.0
 10
278.8106430602
 20
396.6741411674
 30
0.0
 10
278.7910779371
 20
396.6677884638
 30
0.0
 10
278.7824254729
 20
396.6677884759
 30
0.0
  0
SPLINE
  5
4FD
100
AcDbEntity
  8
0
100
AcDbSpline
 62
7
  6
CONTINUOUS
 70
0
 71
3
 72
9
 73
5
 74
0
 42
0.0000001
 43
0.0000001
 44
0.0000000001
 40
0.0
 40
0.0
 40
0.0
 40
0.0
 40
0.4474072019
 40
1.0
 40
1.0
 40
1.0
 40
1.0
 10
149.7430129515
 20
398.6961206882
 30
0.0
 10
149.779462351
 20
398.6961206882
 30
0.0
 10
149.8611732679
 20
398.6694016546
 30
0.0
 10
149.9204675781
 20
398.6109602761
 30
0.0
 10
149.9491313462
 20
398.576246176
 30
0.0
  0
SPLINE
  5
4FE
100
AcDbEntity
  8
0
100
AcDbSpline
 62
7
  6
CONTINUOUS
 70
0
 71
3
 72
9
 73
5
 74
0
 42
0.0000001
 43
0.0000001
 44
0.0000000001
 40
0.0
 40
0.0
 40
0.0
 40
0.0
 40
0.4488169879
 40
1.0
 40
1.0
 40
1.0
 40
1.0
 10
149.9491313462
 20
398.576246176
 30
0.0
 10
149.9857991931
 20
398.5318385007
 30
0.0
 10
150.0530020111
 20
398.4211205925
 30
0.0
 10
150.1009824598
 20
398.3017913829
 30
0.0
 10
150.1238700838
 20
398.234872447
 30
0.0
  0
SPLINE
  5
4FF
100
AcDbEntity
  8
0
100
AcDbSpline
 62
7
  6
CONTINUOUS
 70
0
 71
3
 72
9
 73
5
 74
0
 42
0.0000001
 43
0.0000001
 44
0.0000000001
 40
0.0
 40
0.0
 40
0.0
 40
0.0
 40
0.5511830121
 40
1.0
 40
1.0
 40
1.0
 40
1.0
 10
151.5522299649
 20
394.0586275415
 30
0.0
 10
151.6105564907
 20
393.888092189
 30
0.0
 10
151.7328292469
 20
393.5839951711
 30
0.0
 10
151.9040880412
 20
393.3018430827
 30
0.0
 10
151.997531909
 20
393.188675136
 30
0.0
  0
SPLINE
  5
500
100
AcDbEntity
  8
0
100
AcDbSpline
 62
7
  6
CONTINUOUS
 70
0
 71
3
 72
11
 73
7
 74
0
 42
0.0000001
 43
0.0000001
 44
0.0000000001
 40
0.0
 40
0.0
 40
0.0
 40
0.0
 40
0.2928712817
 40
0.5513462798
 40
0.783118486
 40
1.0
 40
1.0
 40
1.0
 40
1.0
 10
151.997531909
 20
393.188675136
 30
0.0
 10
152.0364833505
 20
393.1415018461
 30
0.0
 10
152.1155891722
 20
393.0571053401
 30
0.0
 10
152.2472045598
 20
392.9582194293
 30
0.0
 10
152.3833215092
 20
392.8972153934
 30
0.0
 10
152.4774981924
 20
392.8831884759
 30
0.0
 10
152.5228013664
 20
392.8831884759
 30
0.0
  0
SPLINE
  5
501
100
AcDbEntity
  8
0
100
AcDbSpline
 62
7
  6
CONTINUOUS
 70
0
 71
3
 72
9
 73
5
 74
0
 42
0.0000001
 43
0.0000001
 44
0.0000000001
 40
0.0
 40
0.0
 40
0.0
 40
0.0
 40
0.5511830121
 40
1.0
 40
1.0
 40
1.0
 40
1.0
 10
187.9442330861
 20
395.7828367168
 30
0.0
 10
187.9671207101
 20
395.715917781
 30
0.0
 10
188.0151011588
 20
395.5965885714
 30
0.0
 10
188.0823039768
 20
395.4858706633
 30
0.0
 10
188.1189718237
 20
395.4414629881
 30
0.0
  0
SPLINE
  5
502
100
AcDbEntity
  8
0
100
AcDbSpline
 62
7
  6
CONTINUOUS
 70
0
 71
3
 72
9
 73
5
 74
0
 42
0.0000001
 43
0.0000001
 44
0.0000000001
 40
0.0
 40
0.0
 40
0.0
 40
0.0
 40
0.5525927982
 40
1.0
 40
1.0
 40
1.0
 40
1.0
 10
188.1189718237
 20
395.4414629881
 30
0.0
 10
188.1476355917
 20
395.406748888
 30
0.0
 10
188.206929902
 20
395.3483075095
 30
0.0
 10
188.2886408188
 20
395.3215884759
 30
0.0
 10
188.3250902183
 20
395.3215884759
 30
0.0
  0
SPLINE
  5
503
100
AcDbEntity
  8
0
100
AcDbSpline
 62
7
  6
CONTINUOUS
 70
0
 71
3
 72
11
 73
7
 74
0
 42
0.0000001
 43
0.0000001
 44
0.0000000001
 40
0.0
 40
0.0
 40
0.0
 40
0.0
 40
0.216881514
 40
0.4486537202
 40
0.7071287183
 40
1.0
 40
1.0
 40
1.0
 40
1.0
 10
188.3250902183
 20
392.8831884759
 30
0.0
 10
188.2797870444
 20
392.8831884759
 30
0.0
 10
188.1856103611
 20
392.8972153934
 30
0.0
 10
188.0494934117
 20
392.9582194293
 30
0.0
 10
187.9178780242
 20
393.0571053401
 30
0.0
 10
187.8387722025
 20
393.1415018461
 30
0.0
 10
187.7998207609
 20
393.188675136
 30
0.0
  0
SPLINE
  5
504
100
AcDbEntity
  8
0
100
AcDbSpline
 62
7
  6
CONTINUOUS
 70
0
 71
3
 72
9
 73
5
 74
0
 42
0.0000001
 43
0.0000001
 44
0.0000000001
 40
0.0
 40
0.0
 40
0.0
 40
0.0
 40
0.4488169879
 40
1.0
 40
1.0
 40
1.0
 40
1.0
 10
187.7998207609
 20
393.188675136
 30
0.0
 10
187.7063768932
 20
393.3018430827
 30
0.0
 10
187.5351180989
 20
393.5839951711
 30
0.0
 10
187.4128453426
 20
393.8880921891
 30
0.0
 10
187.3545188169
 20
394.0586275416
 30
0.0
  0
SPLINE
  5
505
100
AcDbEntity
  8
0
100
AcDbSpline
 62
7
  6
CONTINUOUS
 70
0
 71
3
 72
9
 73
5
 74
0
 42
0.0000001
 43
0.0000001
 44
0.0000000001
 40
0.0
 40
0.0
 40
0.0
 40
0.0
 40
0.5511830121
 40
1.0
 40
1.0
 40
1.0
 40
1.0
 10
185.9261589357
 20
398.2348724471
 30
0.0
 10
185.9032713117
 20
398.3017913829
 30
0.0
 10
185.855290863
 20
398.4211205925
 30
0.0
 10
185.788088045
 20
398.5318385007
 30
0.0
 10
185.7514201981
 20
398.576246176
 30
0.0
  0
SPLINE
  5
506
100
AcDbEntity
  8
0
100
AcDbSpline
 62
7
  6
CONTINUOUS
 70
0
 71
3
 72
9
 73
5
 74
0
 42
0.0000001
 43
0.0000001
 44
0.0000000001
 40
0.0
 40
0.0
 40
0.0
 40
0.0
 40
0.5525927982
 40
1.0
 40
1.0
 40
1.0
 40
1.0
 10
185.7514201981
 20
398.576246176
 30
0.0
 10
185.7227564301
 20
398.6109602761
 30
0.0
 10
185.6634621198
 20
398.6694016546
 30
0.0
 10
185.581751203
 20
398.6961206882
 30
0.0
 10
185.5453018035
 20
398.6961206882
 30
0.0
  0
SPLINE
  5
507
100
AcDbEntity
  8
0
100
AcDbSpline
 62
7
  6
CONTINUOUS
 70
0
 71
3
 72
9
 73
5
 74
0
 42
0.0000001
 43
0.0000001
 44
0.0000000001
 40
0.0
 40
0.0
 40
0.0
 40
0.0
 40
0.2725938986
 40
1.0
 40
1.0
 40
1.0
 40
1.0
 10
217.7638403637
 20
465.0040780385
 30
0.0
 10
217.7519075793
 20
465.0163047379
 30
0.0
 10
217.709603174
 20
465.0625803239
 30
0.0
 10
217.6725317562
 20
465.1135644796
 30
0.0
 10
217.6487052074
 20
465.1524322739
 30
0.0
  0
SPLINE
  5
508
100
AcDbEntity
  8
0
100
AcDbSpline
 62
7
  6
CONTINUOUS
 70
0
 71
3
 72
9
 73
5
 74
0
 42
0.0000001
 43
0.0000001
 44
0.0000000001
 40
0.0
 40
0.0
 40
0.0
 40
0.0
 40
0.2687867205
 40
1.0
 40
1.0
 40
1.0
 40
1.0
 10
217.2459196799
 20
473.6605549438
 30
0.0
 10
217.2490682031
 20
473.867581157
 30
0.0
 10
217.2630405831
 20
474.6377642617
 30
0.0
 10
217.2856747522
 20
475.4078329855
 30
0.0
 10
217.3101666473
 20
475.9705640254
 30
0.0
  0
SPLINE
  5
509
100
AcDbEntity
  8
0
100
AcDbSpline
 62
7
  6
CONTINUOUS
 70
0
 71
3
 72
11
 73
7
 74
0
 42
0.0000001
 43
0.0000001
 44
0.0000000001
 40
0.0
 40
0.0
 40
0.0
 40
0.0
 40
0.2045701702
 40
0.4515075389
 40
0.7214027263
 40
1.0
 40
1.0
 40
1.0
 40
1.0
 10
217.647715966
 20
478.6002351762
 30
0.0
 10
217.6766584499
 20
478.6477647975
 30
0.0
 10
217.7507726664
 20
478.746839968
 30
0.0
 10
217.902269618
 20
478.8748507794
 30
0.0
 10
218.1010519868
 20
478.9671076729
 30
0.0
 10
218.251180668
 20
478.9891884759
 30
0.0
 10
218.3269662145
 20
478.9891884759
 30
0.0
  0
SPLINE
  5
50A
100
AcDbEntity
  8
0
100
AcDbSpline
 62
7
  6
CONTINUOUS
 70
0
 71
3
 72
9
 73
5
 74
0
 42
0.0000001
 43
0.0000001
 44
0.0000000001
 40
0.0
 40
0.0
 40
0.0
 40
0.0
 40
0.519532545
 40
1.0
 40
1.0
 40
1.0
 40
1.0
 10
218.3269662145
 20
464.7651884759
 30
0.0
 10
218.218886284
 20
464.7651884759
 30
0.0
 10
218.0083590013
 20
464.8096588037
 30
0.0
 10
217.8336528782
 20
464.9325459807
 30
0.0
 10
217.7638403637
 20
465.0040780385
 30
0.0
  0
SPLINE
  5
50B
100
AcDbEntity
  8
0
100
AcDbSpline
 62
7
  6
CONTINUOUS
 70
0
 71
3
 72
11
 73
7
 74
0
 42
0.0000001
 43
0.0000001
 44
0.0000000001
 40
0.0
 40
0.0
 40
0.0
 40
0.0
 40
0.1320150269
 40
0.3408923699
 40
0.6301317482
 40
1.0
 40
1.0
 40
1.0
 40
1.0
 10
225.7028026834
 20
478.9789846854
 30
0.0
 10
225.7135974929
 20
478.9679239902
 30
0.0
 10
225.7318898148
 20
478.9312373459
 30
0.0
 10
225.7544565777
 20
478.8613859308
 30
0.0
 10
225.777165392
 20
478.7620360418
 30
0.0
 10
225.7906186127
 20
478.6861011916
 30
0.0
 10
225.7975282
 20
478.6433546537
 30
0.0
  0
SPLINE
  5
50C
100
AcDbEntity
  8
0
100
AcDbSpline
 62
7
  6
CONTINUOUS
 70
0
 71
3
 72
9
 73
5
 74
0
 42
0.0000001
 43
0.0000001
 44
0.0000000001
 40
0.0
 40
0.0
 40
0.0
 40
0.0
 40
0.2281323167
 40
1.0
 40
1.0
 40
1.0
 40
1.0
 10
225.4279525229
 20
475.951206465
 30
0.0
 10
225.4203685122
 20
475.777963442
 30
0.0
 10
225.3907309006
 20
475.0184091965
 30
0.0
 10
225.3731321536
 20
474.258417018
 30
0.0
 10
225.3640865162
 20
473.6717712767
 30
0.0
  0
SPLINE
  5
50D
100
AcDbEntity
  8
0
100
AcDbSpline
 62
7
  6
CONTINUOUS
 70
0
 71
3
 72
9
 73
5
 74
0
 42
0.0000001
 43
0.0000001
 44
0.0000000001
 40
0.0
 40
0.0
 40
0.0
 40
0.0
 40
0.4527503879
 40
1.0
 40
1.0
 40
1.0
 40
1.0
 10
203.1836798507
 20
475.9889778452
 30
0.0
 10
203.1614606499
 20
475.6381775531
 30
0.0
 10
203.1264237646
 20
474.8624859943
 30
0.0
 10
203.106318931
 20
474.0863467819
 30
0.0
 10
203.0984277564
 20
473.6615501535
 30
0.0
  0
SPLINE
  5
50E
100
AcDbEntity
  8
0
100
AcDbSpline
 62
7
  6
CONTINUOUS
 70
0
 71
3
 72
13
 73
9
 74
0
 42
0.0000001
 43
0.0000001
 44
0.0000000001
 40
0.0
 40
0.0
 40
0.0
 40
0.0
 40
0.0985162535
 40
0.1812834419
 40
0.2902847783
 40
0.4264256217
 40
0.5900591069
 40
1.0
 40
1.0
 40
1.0
 40
1.0
 10
218.3269662145
 20
478.9891717048
 30
0.0
 10
218.3151918075
 20
478.9891619218
 30
0.0
 10
218.2975362809
 20
478.9697642151
 30
0.0
 10
218.2826253005
 20
478.9399181341
 30
0.0
 10
218.2684988624
 20
478.902787638
 30
0.0
 10
218.2548391652
 20
478.8560323569
 30
0.0
 10
218.2349235944
 20
478.7734747801
 30
0.0
 10
218.2226456333
 20
478.7060138823
 30
0.0
 10
218.2146527053
 20
478.6576751625
 30
0.0
  0
SPLINE
  5
50F
100
AcDbEntity
  8
0
100
AcDbSpline
 62
7
  6
CONTINUOUS
 70
0
 71
3
 72
9
 73
5
 74
0
 42
0.0000001
 43
0.0000001
 44
0.0000000001
 40
0.0
 40
0.0
 40
0.0
 40
0.0
 40
0.2332990717
 40
1.0
 40
1.0
 40
1.0
 40
1.0
 10
218.0230883877
 20
475.9841884992
 30
0.0
 10
218.016441627
 20
475.8046491492
 30
0.0
 10
217.9907599011
 20
475.034978426
 30
0.0
 10
217.9749065473
 20
474.2649967646
 30
0.0
 10
217.9668364808
 20
473.6746197126
 30
0.0
  0
SPLINE
  5
510
100
AcDbEntity
  8
0
100
AcDbSpline
 62
7
  6
CONTINUOUS
 70
0
 71
3
 72
11
 73
7
 74
0
 42
0.0000001
 43
0.0000001
 44
0.0000000001
 40
0.0
 40
0.0
 40
0.0
 40
0.0
 40
0.364958555
 40
0.6526703058
 40
0.8633654665
 40
1.0
 40
1.0
 40
1.0
 40
1.0
 10
218.2132108429
 20
465.1054693233
 30
0.0
 10
218.2199107424
 20
465.0643795513
 30
0.0
 10
218.2329786614
 20
464.9911095584
 30
0.0
 10
218.2549664907
 20
464.8948811689
 30
0.0
 10
218.2768693336
 20
464.8260777357
 30
0.0
 10
218.2944559112
 20
464.7896494312
 30
0.0
 10
218.304711431
 20
464.7779121734
 30
0.0
  0
SPLINE
  5
511
100
AcDbEntity
  8
0
100
AcDbSpline
 62
7
  6
CONTINUOUS
 70
0
 71
3
 72
9
 73
5
 74
0
 42
0.0000001
 43
0.0000001
 44
0.0000000001
 40
0.0
 40
0.0
 40
0.0
 40
0.0
 40
0.4644434128
 40
1.0
 40
1.0
 40
1.0
 40
1.0
 10
209.9491689556
 20
475.9846104648
 30
0.0
 10
209.930627626
 20
475.6262811838
 30
0.0
 10
209.9004453013
 20
474.8542546334
 30
0.0
 10
209.8825359202
 20
474.0818821346
 30
0.0
 10
209.875563058
 20
473.6681933083
 30
0.0
  0
SPLINE
  5
512
100
AcDbEntity
  8
0
100
AcDbSpline
 62
7
  6
CONTINUOUS
 70
0
 71
3
 72
9
 73
5
 74
0
 42
0.0000001
 43
0.0000001
 44
0.0000000001
 40
0.0
 40
0.0
 40
0.0
 40
0.0
 40
0.2646753766
 40
1.0
 40
1.0
 40
1.0
 40
1.0
 10
225.3227443984
 20
473.674805953
 30
0.0
 10
225.3255299188
 20
473.8785610915
 30
0.0
 10
225.3379949598
 20
474.6483607358
 30
0.0
 10
225.3580380664
 20
475.4180599803
 30
0.0
 10
225.3789794618
 20
475.9838006402
 30
0.0
  0
SPLINE
  5
513
100
AcDbEntity
  8
0
100
AcDbSpline
 62
7
  6
CONTINUOUS
 70
0
 71
3
 72
13
 73
9
 74
0
 42
0.0000001
 43
0.0000001
 44
0.0000000001
 40
0.0
 40
0.0
 40
0.0
 40
0.0
 40
0.4099751264
 40
0.5736204004
 40
0.7097689976
 40
0.8187717857
 40
0.9015316685
 40
1.0
 40
1.0
 40
1.0
 40
1.0
 10
225.5704526973
 20
478.6570376295
 30
0.0
 10
225.5784525252
 20
478.7054684138
 30
0.0
 10
225.590741266
 20
478.7730577567
 30
0.0
 10
225.6106752966
 20
478.8557743197
 30
0.0
 10
225.6243474935
 20
478.9026191039
 30
0.0
 10
225.638487351
 20
478.9398219582
 30
0.0
 10
225.6534097627
 20
478.9697190697
 30
0.0
 10
225.6710815838
 20
478.9891614045
 30
0.0
 10
225.6828713669
 20
478.9891714429
 30
0.0
  0
SPLINE
  5
514
100
AcDbEntity
  8
0
100
AcDbSpline
 62
7
  6
CONTINUOUS
 70
0
 71
3
 72
9
 73
5
 74
0
 42
0.0000001
 43
0.0000001
 44
0.0000000001
 40
0.0
 40
0.0
 40
0.0
 40
0.0
 40
0.5472230185
 40
1.0
 40
1.0
 40
1.0
 40
1.0
 10
209.1860823147
 20
473.6620428083
 30
0.0
 10
209.1939718363
 20
474.0866194285
 30
0.0
 10
209.2140692865
 20
474.8623943993
 30
0.0
 10
209.2490852415
 20
475.6377220119
 30
0.0
 10
209.2712873316
 20
475.9883787976
 30
0.0
  0
SPLINE
  5
515
100
AcDbEntity
  8
0
100
AcDbSpline
 62
7
  6
CONTINUOUS
 70
0
 71
3
 72
9
 73
5
 74
0
 42
0.0000001
 43
0.0000001
 44
0.0000000001
 40
0.0
 40
0.0
 40
0.0
 40
0.0
 40
0.2272936016
 40
1.0
 40
1.0
 40
1.0
 40
1.0
 10
237.0854242662
 20
476.0001828194
 30
0.0
 10
237.0775437831
 20
475.8237936625
 30
0.0
 10
237.0467108191
 20
475.0475819518
 30
0.0
 10
237.0286251524
 20
474.2708997781
 30
0.0
 10
237.019375583
 20
473.6707210358
 30
0.0
  0
SPLINE
  5
516
100
AcDbEntity
  8
0
100
AcDbSpline
 62
7
  6
CONTINUOUS
 70
0
 71
3
 72
9
 73
5
 74
0
 42
0.0000001
 43
0.0000001
 44
0.0000000001
 40
0.0
 40
0.0
 40
0.0
 40
0.0
 40
0.26994806
 40
1.0
 40
1.0
 40
1.0
 40
1.0
 10
231.4643914308
 20
473.6702366414
 30
0.0
 10
231.4676218071
 20
473.8799074642
 30
0.0
 10
231.4819220906
 20
474.6565712353
 30
0.0
 10
231.5051186121
 20
475.4331196567
 30
0.0
 10
231.5304242113
 20
475.9996592674
 30
0.0
  0
SPLINE
  5
517
100
AcDbEntity
  8
0
100
AcDbSpline
 62
7
  6
CONTINUOUS
 70
0
 71
3
 72
9
 73
5
 74
0
 42
0.0000001
 43
0.0000001
 44
0.0000000001
 40
0.0
 40
0.0
 40
0.0
 40
0.0
 40
0.4485969032
 40
1.0
 40
1.0
 40
1.0
 40
1.0
 10
231.6184217369
 20
475.9605091628
 30
0.0
 10
231.595362729
 20
475.6208113556
 30
0.0
 10
231.559326339
 20
474.8625509128
 30
0.0
 10
231.5386847226
 20
474.1038193672
 30
0.0
 10
231.5304831471
 20
473.6853915588
 30
0.0
  0
SPLINE
  5
518
100
AcDbEntity
  8
0
100
AcDbSpline
 62
7
  6
CONTINUOUS
 70
0
 71
3
 72
15
 73
11
 74
0
 42
0.0000001
 43
0.0000001
 44
0.0000000001
 40
0.0
 40
0.0
 40
0.0
 40
0.0
 40
0.0146820101
 40
0.0368716609
 40
0.1044978545
 40
0.2020422506
 40
0.3265157291
 40
0.4737674991
 40
0.6388855859
 40
1.0
 40
1.0
 40
1.0
 40
1.0
 10
123.9509654526
 20
400.1060739149
 30
0.0
 10
123.9426076395
 20
400.1144788583
 30
0.0
 10
123.9278884203
 20
400.1411518306
 30
0.0
 10
123.8998922503
 20
400.220517773
 30
0.0
 10
123.8701701291
 20
400.3696248445
 30
0.0
 10
123.8387440078
 20
400.6011205768
 30
0.0
 10
123.8113387749
 20
400.8981588916
 30
0.0
 10
123.7886012349
 20
401.2500888492
 30
0.0
 10
123.7654786951
 20
401.7933618367
 30
0.0
 10
123.7590578683
 20
402.218252966
 30
0.0
 10
123.7590578683
 20
402.5097884759
 30
0.0
  0
SPLINE
  5
519
100
AcDbEntity
  8
0
100
AcDbSpline
 62
7
  6
CONTINUOUS
 70
0
 71
3
 72
15
 73
11
 74
0
 42
0.0000001
 43
0.0000001
 44
0.0000000001
 40
0.0
 40
0.0
 40
0.0
 40
0.0
 40
0.3611151456
 40
0.5262269992
 40
0.6734774803
 40
0.7979486184
 40
0.8954977895
 40
0.9631275093
 40
0.9853195964
 40
1.0
 40
1.0
 40
1.0
 40
1.0
 10
123.7590578683
 20
402.5097884759
 30
0.0
 10
123.7590578683
 20
402.8013243515
 30
0.0
 10
123.7654781397
 20
403.2262107708
 30
0.0
 10
123.7886011423
 20
403.7694777268
 30
0.0
 10
123.8113357075
 20
404.1213998272
 30
0.0
 10
123.8387436645
 20
404.4184380879
 30
0.0
 10
123.8701644074
 20
404.6499402595
 30
0.0
 10
123.8998939761
 20
404.7990529187
 30
0.0
 10
123.9278839296
 20
404.8784257547
 30
0.0
 10
123.9426082625
 20
404.9050964176
 30
0.0
 10
123.9509654725
 20
404.9135001188
 30
0.0
  0
SPLINE
  5
51A
100
AcDbEntity
  8
0
100
AcDbSpline
 62
7
  6
CONTINUOUS
 70
0
 71
3
 72
19
 73
15
 74
0
 42
0.0000001
 43
0.0000001
 44
0.0000000001
 40
0.0
 40
0.0
 40
0.0
 40
0.0
 40
0.2015854338
 40
0.3948144524
 40
0.5711056123
 40
0.7232426674
 40
0.7881921386
 40
0.8448173656
 40
0.8925706451
 40
0.9309859905
 40
0.9598569368
 40
0.9792606274
 40
0.9904460167
 40
1.0
 40
1.0
 40
1.0
 40
1.0
 10
124.1796714828
 20
402.5097884759
 30
0.0
 10
124.1796714828
 20
402.3443031804
 30
0.0
 10
124.1767808562
 20
402.0201849548
 30
0.0
 10
124.1639784251
 20
401.5514989581
 30
0.0
 10
124.1432513259
 20
401.1237273587
 30
0.0
 10
124.1193155832
 20
400.8016307678
 30
0.0
 10
124.0960063972
 20
400.5781131394
 30
0.0
 10
124.0782354789
 20
400.4402743206
 30
0.0
 10
124.0593198973
 20
400.3244303447
 30
0.0
 10
124.0400683291
 20
400.2322852642
 30
0.0
 10
124.0194113941
 20
400.1631255981
 30
0.0
 10
124.0010786527
 20
400.1198152318
 30
0.0
 10
123.9754391488
 20
400.0913869821
 30
0.0
 10
123.9564957086
 20
400.1005124734
 30
0.0
 10
123.9509654526
 20
400.1060739149
 30
0.0
  0
SPLINE
  5
51B
100
AcDbEntity
  8
0
100
AcDbSpline
 62
7
  6
CONTINUOUS
 70
0
 71
3
 72
16
 73
12
 74
0
 42
0.0000001
 43
0.0000001
 44
0.0000000001
 40
0.0
 40
0.0
 40
0.0
 40
0.0
 40
0.1926920384
 40
0.3781852918
 40
0.5491417895
 40
0.699253396
 40
0.8228095295
 40
0.915307452
 40
0.973809066
 40
0.9903063013
 40
1.0
 40
1.0
 40
1.0
 40
1.0
 10
125.0051845187
 20
402.5097884759
 30
0.0
 10
125.0051845187
 20
402.3033768965
 30
0.0
 10
125.0017616602
 20
401.8982528412
 30
0.0
 10
124.9865501945
 20
401.3101922588
 30
0.0
 10
124.9618642232
 20
400.7680376527
 30
0.0
 10
124.9289575043
 20
400.2929815858
 30
0.0
 10
124.8891528534
 20
399.902269493
 30
0.0
 10
124.8454125643
 20
399.612246404
 30
0.0
 10
124.8020651537
 20
399.4358292596
 30
0.0
 10
124.7639180444
 20
399.3544756173
 30
0.0
 10
124.7388489189
 20
399.3347884759
 30
0.0
 10
124.7284650355
 20
399.3347884759
 30
0.0
  0
SPLINE
  5
51C
100
AcDbEntity
  8
0
100
AcDbSpline
 62
7
  6
CONTINUOUS
 70
0
 71
3
 72
16
 73
12
 74
0
 42
0.0000001
 43
0.0000001
 44
0.0000000001
 40
0.0
 40
0.0
 40
0.0
 40
0.0
 40
0.0096936987
 40
0.026190934
 40
0.084692548
 40
0.1771904705
 40
0.300746604
 40
0.4508582105
 40
0.6218147082
 40
0.8073079616
 40
1.0
 40
1.0
 40
1.0
 40
1.0
 10
124.7284650355
 20
405.6847884759
 30
0.0
 10
124.7388489189
 20
405.6847884759
 30
0.0
 10
124.7639180444
 20
405.6651013344
 30
0.0
 10
124.8020651537
 20
405.5837476921
 30
0.0
 10
124.8454125643
 20
405.4073305477
 30
0.0
 10
124.8891528534
 20
405.1173074587
 30
0.0
 10
124.9289575043
 20
404.7265953659
 30
0.0
 10
124.9618642232
 20
404.251539299
 30
0.0
 10
124.9865501945
 20
403.7093846929
 30
0.0
 10
125.0017616602
 20
403.1213241105
 30
0.0
 10
125.0051845187
 20
402.7162000552
 30
0.0
 10
125.0051845187
 20
402.5097884759
 30
0.0
  0
SPLINE
  5
51D
100
AcDbEntity
  8
0
100
AcDbSpline
 62
7
  6
CONTINUOUS
 70
0
 71
3
 72
19
 73
15
 74
0
 42
0.0000001
 43
0.0000001
 44
0.0000000001
 40
0.0
 40
0.0
 40
0.0
 40
0.0
 40
0.009554337
 40
0.0207388149
 40
0.0401429445
 40
0.0690092471
 40
0.1074229399
 40
0.1551750014
 40
0.2117969005
 40
0.2767477734
 40
0.4288857603
 40
0.6051833186
 40
0.7984185521
 40
1.0
 40
1.0
 40
1.0
 40
1.0
 10
123.9509654725
 20
404.9135001188
 30
0.0
 10
123.9564961485
 20
404.9190615621
 30
0.0
 10
123.9754362792
 20
404.9281926989
 30
0.0
 10
124.0010792284
 20
404.8997642977
 30
0.0
 10
124.0194054788
 20
404.8564564243
 30
0.0
 10
124.0400678306
 20
404.7873034331
 30
0.0
 10
124.0593154147
 20
404.6951634698
 30
0.0
 10
124.0782312067
 20
404.5793247385
 30
0.0
 10
124.096004064
 20
404.4414885828
 30
0.0
 10
124.1193116037
 20
404.2179714078
 30
0.0
 10
124.1432511926
 20
403.8958676553
 30
0.0
 10
124.1639777684
 20
403.4680844665
 30
0.0
 10
124.176780821
 20
402.9993910012
 30
0.0
 10
124.1796714828
 20
402.675270648
 30
0.0
 10
124.1796714828
 20
402.5097884759
 30
0.0
  0
SPLINE
  5
51E
100
AcDbEntity
  8
0
100
AcDbSpline
 62
7
  6
CONTINUOUS
 70
0
 71
3
 72
26
 73
22
 74
0
 42
0.0000001
 43
0.0000001
 44
0.0000000001
 40
0.0
 40
0.0
 40
0.0
 40
0.0
 40
0.0053274106
 40
0.0147998059
 40
0.0285321417
 40
0.0464330668
 40
0.094158369
 40
0.15635059
 40
0.2308298902
 40
0.3149318299
 40
0.4056551679
 40
0.4997565399
 40
0.6846159948
 40
0.7687615249
 40
0.8432980491
 40
0.9055787708
 40
0.9533826363
 40
0.9713357518
 40
0.9851030116
 40
0.9946295991
 40
1.0
 40
1.0
 40
1.0
 40
1.0
 10
55.4758270302
 20
474.2867922455
 30
0.0
 10
55.469780822
 20
474.2806951783
 30
0.0
 10
55.4610874832
 20
474.2573557287
 30
0.0
 10
55.4499995952
 20
474.2133351376
 30
0.0
 10
55.4392002411
 20
474.1476164397
 30
0.0
 10
55.4232371054
 20
474.0208607155
 30
0.0
 10
55.4061187497
 20
473.8153710183
 30
0.0
 10
55.3888678573
 20
473.5187095834
 30
0.0
 10
55.374730424
 20
473.1631114902
 30
0.0
 10
55.3641520408
 20
472.7614225946
 30
0.0
 10
55.3576232216
 20
472.3280068627
 30
0.0
 10
55.3547286277
 20
471.7321566744
 30
0.0
 10
55.3601425067
 20
471.1468745596
 30
0.0
 10
55.3746562997
 20
470.5933464482
 30
0.0
 10
55.3887935172
 20
470.2374433681
 30
0.0
 10
55.4060078489
 20
469.9404167324
 30
0.0
 10
55.4231370896
 20
469.7345753104
 30
0.0
 10
55.4390809955
 20
469.6075463249
 30
0.0
 10
55.4499069794
 20
469.5416036168
 30
0.0
 10
55.4610131209
 20
469.4973658579
 30
0.0
 10
55.4696370522
 20
469.4738451671
 30
0.0
 10
55.4756828304
 20
469.4676504762
 30
0.0
  0
SPLINE
  5
51F
100
AcDbEntity
  8
0
100
AcDbSpline
 62
7
  6
CONTINUOUS
 70
0
 71
3
 72
27
 73
23
 74
0
 42
0.0000001
 43
0.0000001
 44
0.0000000001
 40
0.0
 40
0.0
 40
0.0
 40
0.0
 40
0.0053244554
 40
0.0147992853
 40
0.0285279354
 40
0.0464238806
 40
0.0941512528
 40
0.1563490345
 40
0.2308257289
 40
0.3149330029
 40
0.4056593193
 40
0.4997611124
 40
0.5938742113
 40
0.6846264319
 40
0.7687738997
 40
0.8433148244
 40
0.9055867134
 40
0.9533876381
 40
0.9713368475
 40
0.9851055822
 40
0.9946300451
 40
1.0
 40
1.0
 40
1.0
 40
1.0
 10
56.2346927381
 20
475.0477465034
 30
0.0
 10
56.2267328544
 20
475.0397370763
 30
0.0
 10
56.2152930873
 20
475.0090211891
 30
0.0
 10
56.2007221514
 20
474.9511084817
 30
0.0
 10
56.1865063326
 20
474.8646488095
 30
0.0
 10
56.1655004167
 20
474.6978787239
 30
0.0
 10
56.1429712429
 20
474.4274897509
 30
0.0
 10
56.1202780746
 20
474.0371321184
 30
0.0
 10
56.1016671753
 20
473.5692193033
 30
0.0
 10
56.0877467138
 20
473.0406649506
 30
0.0
 10
56.0791708838
 20
472.4703595792
 30
0.0
 10
56.0762583522
 20
471.8787815527
 30
0.0
 10
56.0791367658
 20
471.2871483764
 30
0.0
 10
56.0876871437
 20
470.7166785126
 30
0.0
 10
56.1015816382
 20
470.1878468048
 30
0.0
 10
56.1201675473
 20
469.7195547642
 30
0.0
 10
56.1428343812
 20
469.3287438621
 30
0.0
 10
56.1653662351
 20
469.0579309679
 30
0.0
 10
56.1863461321
 20
468.8907975983
 30
0.0
 10
56.2005783354
 20
468.804038937
 30
0.0
 10
56.2151907989
 20
468.7458305472
 30
0.0
 10
56.2265486692
 20
468.7148940311
 30
0.0
 10
56.2345030377
 20
468.7067437395
 30
0.0
  0
SPLINE
  5
520
100
AcDbEntity
  8
0
100
AcDbSpline
 62
7
  6
CONTINUOUS
 70
0
 71
3
 72
10
 73
6
 74
0
 42
0.0000001
 43
0.0000001
 44
0.0000000001
 40
0.0
 40
0.0
 40
0.0
 40
0.0
 40
0.3621391244
 40
0.6410801742
 40
1.0
 40
1.0
 40
1.0
 40
1.0
 10
363.5920449651
 20
394.8897924587
 30
0.0
 10
363.6189580333
 20
394.8897924587
 30
0.0
 10
363.6616238748
 20
394.925392414
 30
0.0
 10
363.6994559403
 20
394.9873164775
 30
0.0
 10
363.7196533243
 20
395.0308487378
 30
0.0
 10
363.7297932383
 20
395.0555200736
 30
0.0
  0
SPLINE
  5
521
100
AcDbEntity
  8
0
100
AcDbSpline
 62
7
  6
CONTINUOUS
 70
0
 71
3
 72
10
 73
6
 74
0
 42
0.0000001
 43
0.0000001
 44
0.0000000001
 40
0.0
 40
0.0
 40
0.0
 40
0.0
 40
0.3650388726
 40
0.6432882862
 40
1.0
 40
1.0
 40
1.0
 40
1.0
 10
338.2886996324
 20
394.5723247329
 30
0.0
 10
338.3158609044
 20
394.572324985
 30
0.0
 10
338.3591358817
 20
394.6071951961
 30
0.0
 10
338.3977903235
 20
394.6688646315
 30
0.0
 10
338.4183458389
 20
394.7120190372
 30
0.0
 10
338.4286637134
 20
394.7364731184
 30
0.0
  0
SPLINE
  5
522
100
AcDbEntity
  8
0
100
AcDbSpline
 62
7
  6
CONTINUOUS
 70
0
 71
3
 72
9
 73
5
 74
0
 42
0.0000001
 43
0.0000001
 44
0.0000000001
 40
0.0
 40
0.0
 40
0.0
 40
0.0
 40
0.2099348042
 40
1.0
 40
1.0
 40
1.0
 40
1.0
 10
338.4286637134
 20
394.7364731184
 30
0.0
 10
338.4365701276
 20
394.7552118706
 30
0.0
 10
338.4714068335
 20
394.8456627432
 30
0.0
 10
338.497529349
 20
394.9392183317
 30
0.0
 10
338.5161181404
 20
395.0134681557
 30
0.0
  0
SPLINE
  5
523
100
AcDbEntity
  8
0
100
AcDbSpline
 62
7
  6
CONTINUOUS
 70
0
 71
3
 72
11
 73
7
 74
0
 42
0.0000001
 43
0.0000001
 44
0.0000000001
 40
0.0
 40
0.0
 40
0.0
 40
0.0
 40
0.1647442826
 40
0.3918346221
 40
0.6735695823
 40
1.0
 40
1.0
 40
1.0
 40
1.0
 10
338.5177565824
 20
395.020039068
 30
0.0
 10
338.5696897042
 20
395.2291533984
 30
0.0
 10
338.6561159082
 20
395.7352550179
 30
0.0
 10
338.7576342808
 20
396.6102933832
 30
0.0
 10
338.8440307717
 20
397.699568746
 30
0.0
 10
338.8868728403
 20
398.4938679601
 30
0.0
 10
338.9057196202
 20
398.9203852448
 30
0.0
  0
SPLINE
  5
524
100
AcDbEntity
  8
0
100
AcDbSpline
 62
7
  6
CONTINUOUS
 70
0
 71
3
 72
9
 73
5
 74
0
 42
0.0000001
 43
0.0000001
 44
0.0000000001
 40
0.0
 40
0.0
 40
0.0
 40
0.0
 40
0.2378142475
 40
1.0
 40
1.0
 40
1.0
 40
1.0
 10
338.9057196202
 20
398.9203852448
 30
0.0
 10
338.9182836756
 20
399.204719589
 30
0.0
 10
338.9632298373
 20
400.4006767739
 30
0.0
 10
338.9804983417
 20
401.5976183321
 30
0.0
 10
338.9804983417
 20
402.5097884759
 30
0.0
  0
SPLINE
  5
525
100
AcDbEntity
  8
0
100
AcDbSpline
 62
7
  6
CONTINUOUS
 70
0
 71
3
 72
8
 73
4
 74
0
 42
0.0000001
 43
0.0000001
 44
0.0000000001
 40
0.0
 40
0.0
 40
0.0
 40
0.0
 40
1.0
 40
1.0
 40
1.0
 40
1.0
 10
337.4959908004
 20
410.4378916522
 30
0.0
 10
337.5061482277
 20
410.4435542943
 30
0.0
 10
337.5179700487
 20
410.4472523268
 30
0.0
 10
337.5295992725
 20
410.4472522189
 30
0.0
  0
SPLINE
  5
526
100
AcDbEntity
  8
0
100
AcDbSpline
 62
7
  6
CONTINUOUS
 70
0
 71
3
 72
9
 73
5
 74
0
 42
0.0000001
 43
0.0000001
 44
0.0000000001
 40
0.0
 40
0.0
 40
0.0
 40
0.0
 40
0.2586899517
 40
1.0
 40
1.0
 40
1.0
 40
1.0
 10
338.9804983417
 20
402.5097884759
 30
0.0
 10
338.9804983417
 20
402.8194283884
 30
0.0
 10
338.9743085476
 20
404.016362351
 30
0.0
 10
338.9448734628
 20
405.2132673449
 30
0.0
 10
338.9056965852
 20
406.0997159059
 30
0.0
  0
SPLINE
  5
527
100
AcDbEntity
  8
0
100
AcDbSpline
 62
7
  6
CONTINUOUS
 70
0
 71
3
 72
11
 73
7
 74
0
 42
0.0000001
 43
0.0000001
 44
0.0000000001
 40
0.0
 40
0.0
 40
0.0
 40
0.0
 40
0.3264873498
 40
0.6082472076
 40
0.8353205263
 40
1.0
 40
1.0
 40
1.0
 40
1.0
 10
338.9056965852
 20
406.0997159059
 30
0.0
 10
338.8868412275
 20
406.5263528822
 30
0.0
 10
338.843979013
 20
407.3208429712
 30
0.0
 10
338.7575402447
 20
408.4103176328
 30
0.0
 10
338.6559718018
 20
409.2853686395
 30
0.0
 10
338.569501631
 20
409.791412949
 30
0.0
 10
338.517528844
 20
410.0004537272
 30
0.0
  0
SPLINE
  5
528
100
AcDbEntity
  8
0
100
AcDbSpline
 62
7
  6
CONTINUOUS
 70
0
 71
3
 72
9
 73
5
 74
0
 42
0.0000001
 43
0.0000001
 44
0.0000000001
 40
0.0
 40
0.0
 40
0.0
 40
0.0
 40
0.2904620544
 40
1.0
 40
1.0
 40
1.0
 40
1.0
 10
338.5159068259
 20
410.0069517639
 30
0.0
 10
338.5090649003
 20
410.0342522786
 30
0.0
 10
338.4843250908
 20
410.1278957569
 30
0.0
 10
338.4550822732
 20
410.2206643788
 30
0.0
 10
338.42829258
 20
410.283982077
 30
0.0
  0
SPLINE
  5
529
100
AcDbEntity
  8
0
100
AcDbSpline
 62
7
  6
CONTINUOUS
 70
0
 71
3
 72
10
 73
6
 74
0
 42
0.0000001
 43
0.0000001
 44
0.0000000001
 40
0.0
 40
0.0
 40
0.0
 40
0.0
 40
0.3564885008
 40
0.6346557832
 40
1.0
 40
1.0
 40
1.0
 40
1.0
 10
338.42829258
 20
410.283982077
 30
0.0
 10
338.4180002704
 20
410.3083080502
 30
0.0
 10
338.3974964755
 20
410.3512364711
 30
0.0
 10
338.3589185741
 20
410.4126082624
 30
0.0
 10
338.3157695118
 20
410.4472524701
 30
0.0
 10
338.2886996348
 20
410.4472522189
 30
0.0
  0
SPLINE
  5
52A
100
AcDbEntity
  8
0
100
AcDbSpline
 62
7
  6
CONTINUOUS
 70
0
 71
3
 72
9
 73
5
 74
0
 42
0.0000001
 43
0.0000001
 44
0.0000000001
 40
0.0
 40
0.0
 40
0.0
 40
0.0
 40
0.2146024139
 40
1.0
 40
1.0
 40
1.0
 40
1.0
 10
363.7984305556
 20
395.1335738653
 30
0.0
 10
363.8077409235
 20
395.1678680635
 30
0.0
 10
363.8481028396
 20
395.3284919217
 30
0.0
 10
363.8789495679
 20
395.4913600329
 30
0.0
 10
363.9006927424
 20
395.6195818244
 30
0.0
  0
SPLINE
  5
52B
100
AcDbEntity
  8
0
100
AcDbSpline
 62
7
  6
CONTINUOUS
 70
0
 71
3
 72
10
 73
6
 74
0
 42
0.0000001
 43
0.0000001
 44
0.0000000001
 40
0.0
 40
0.0
 40
0.0
 40
0.0
 40
0.1900683854
 40
0.4237262916
 40
1.0
 40
1.0
 40
1.0
 40
1.0
 10
363.8964423627
 20
395.7373173163
 30
0.0
 10
363.9306674998
 20
395.9398275388
 30
0.0
 10
363.9922872328
 20
396.3937445798
 30
0.0
 10
364.099451993
 20
397.469078337
 30
0.0
 10
364.1514507512
 20
398.3431022322
 30
0.0
 10
364.1799422707
 20
398.9651534553
 30
0.0
  0
SPLINE
  5
52C
100
AcDbEntity
  8
0
100
AcDbSpline
 62
7
  6
CONTINUOUS
 70
0
 71
3
 72
10
 73
6
 74
0
 42
0.0000001
 43
0.0000001
 44
0.0000000001
 40
0.0
 40
0.0
 40
0.0
 40
0.0
 40
0.3589198258
 40
0.6378608756
 40
1.0
 40
1.0
 40
1.0
 40
1.0
 10
363.7297932383
 20
409.9640568781
 30
0.0
 10
363.7196533243
 20
409.9887282139
 30
0.0
 10
363.6994559403
 20
410.0322604742
 30
0.0
 10
363.6616238748
 20
410.0941845377
 30
0.0
 10
363.6189580333
 20
410.129784493
 30
0.0
 10
363.5920449651
 20
410.129784493
 30
0.0
  0
SPLINE
  5
52D
100
AcDbEntity
  8
0
100
AcDbSpline
 62
7
  6
CONTINUOUS
 70
0
 71
3
 72
9
 73
5
 74
0
 42
0.0000001
 43
0.0000001
 44
0.0000000001
 40
0.0
 40
0.0
 40
0.0
 40
0.0
 40
0.2537394039
 40
1.0
 40
1.0
 40
1.0
 40
1.0
 10
364.2561717249
 20
402.5097884759
 30
0.0
 10
364.2561717249
 20
402.7059710377
 30
0.0
 10
364.2535582037
 20
403.4791331043
 30
0.0
 10
364.2407247851
 20
404.2522705498
 30
0.0
 10
364.2246631039
 20
404.8290299218
 30
0.0
  0
SPLINE
  5
52E
100
AcDbEntity
  8
0
100
AcDbSpline
 62
7
  6
CONTINUOUS
 70
0
 71
3
 72
9
 73
5
 74
0
 42
0.0000001
 43
0.0000001
 44
0.0000000001
 40
0.0
 40
0.0
 40
0.0
 40
0.0
 40
0.2851816467
 40
1.0
 40
1.0
 40
1.0
 40
1.0
 10
363.9006927424
 20
409.3999951273
 30
0.0
 10
363.8927980032
 20
409.446551236
 30
0.0
 10
363.8637470551
 20
409.6095409712
 30
0.0
 10
363.8294411976
 20
409.7717771917
 30
0.0
 10
363.7984305556
 20
409.8860030864
 30
0.0
  0
SPLINE
  5
52F
100
AcDbEntity
  8
0
100
AcDbSpline
 62
7
  6
CONTINUOUS
 70
0
 71
3
 72
10
 73
6
 74
0
 42
0.0000001
 43
0.0000001
 44
0.0000000001
 40
0.0
 40
0.0
 40
0.0
 40
0.0
 40
0.5762737084
 40
0.8099316146
 40
1.0
 40
1.0
 40
1.0
 40
1.0
 10
364.1799422707
 20
406.0544234964
 30
0.0
 10
364.1514507512
 20
406.6764747195
 30
0.0
 10
364.099451993
 20
407.5504986147
 30
0.0
 10
363.9922872328
 20
408.6258323719
 30
0.0
 10
363.9306674998
 20
409.0797494129
 30
0.0
 10
363.8964423627
 20
409.2822596354
 30
0.0
  0
SPLINE
  5
530
100
AcDbEntity
  8
0
100
AcDbSpline
 62
7
  6
CONTINUOUS
 70
0
 71
3
 72
19
 73
15
 74
0
 42
0.0000001
 43
0.0000001
 44
0.0000000001
 40
0.0
 40
0.0
 40
0.0
 40
0.0
 40
0.0096892035
 40
0.0169554573
 40
0.0262298032
 40
0.0511738818
 40
0.0847846525
 40
0.1269346435
 40
0.1772946463
 40
0.3008384719
 40
0.4509177022
 40
0.6218907589
 40
0.8072711119
 40
1.0
 40
1.0
 40
1.0
 40
1.0
 10
299.5745812764
 20
396.1597884759
 30
0.0
 10
299.595342142
 20
396.1597884759
 30
0.0
 10
299.6285585523
 20
396.1853403897
 30
0.0
 10
299.6587319842
 20
396.2314931541
 30
0.0
 10
299.6982092081
 20
396.3119192693
 30
0.0
 10
299.7426292568
 20
396.4504757202
 30
0.0
 10
299.7922961821
 20
396.6606344279
 30
0.0
 10
299.8400219999
 20
396.926703136
 30
0.0
 10
299.9055161478
 20
397.3850501957
 30
0.0
 10
299.9753838713
 20
398.0759615468
 30
0.0
 10
300.0414552488
 20
399.02637463
 30
0.0
 10
300.0907198901
 20
400.1104742301
 30
0.0
 10
300.1211998094
 20
401.2866457169
 30
0.0
 10
300.1280202428
 20
402.0968320804
 30
0.0
 10
300.1280202428
 20
402.5097884759
 30
0.0
  0
SPLINE
  5
531
100
AcDbEntity
  8
0
100
AcDbSpline
 62
7
  6
CONTINUOUS
 70
0
 71
3
 72
9
 73
5
 74
0
 42
0.0000001
 43
0.0000001
 44
0.0000000001
 40
0.0
 40
0.0
 40
0.0
 40
0.0
 40
0.2189835075
 40
1.0
 40
1.0
 40
1.0
 40
1.0
 10
337.5295992725
 20
410.4472522189
 30
0.0
 10
337.5349975353
 20
410.4472521687
 30
0.0
 10
337.5597591167
 20
410.4438291709
 30
0.0
 10
337.5805684332
 20
410.4271559937
 30
0.0
 10
337.5937266166
 20
410.4131008257
 30
0.0
  0
SPLINE
  5
532
100
AcDbEntity
  8
0
100
AcDbSpline
 62
7
  6
CONTINUOUS
 70
0
 71
3
 72
18
 73
14
 74
0
 42
0.0000001
 43
0.0000001
 44
0.0000000001
 40
0.0
 40
0.0
 40
0.0
 40
0.0
 40
0.0150300649
 40
0.0375352592
 40
0.067794087
 40
0.1057173577
 40
0.1510813877
 40
0.2035406692
 40
0.3280344819
 40
0.4751302298
 40
0.6399225286
 40
0.8168695558
 40
1.0
 40
1.0
 40
1.0
 40
1.0
 10
337.5937266166
 20
410.4131008257
 30
0.0
 10
337.6209897553
 20
410.3839791772
 30
0.0
 10
337.6690043268
 20
410.2943351018
 30
0.0
 10
337.7281058429
 20
410.1248383479
 30
0.0
 10
337.7865897407
 20
409.890818419
 30
0.0
 10
337.8435996785
 20
409.5949268152
 30
0.0
 10
337.8983519427
 20
409.2387149242
 30
0.0
 10
337.9718030025
 20
408.6532105165
 30
0.0
 10
338.0506143375
 20
407.7965432006
 30
0.0
 10
338.1248277233
 20
406.6406265579
 30
0.0
 10
338.1798931179
 20
405.3442717168
 30
0.0
 10
338.213812382
 20
403.9515514087
 30
0.0
 10
338.2213979817
 20
402.9958401371
 30
0.0
 10
338.2213979817
 20
402.5097884759
 30
0.0
  0
SPLINE
  5
533
100
AcDbEntity
  8
0
100
AcDbSpline
 62
7
  6
CONTINUOUS
 70
0
 71
3
 72
20
 73
16
 74
0
 42
0.0000001
 43
0.0000001
 44
0.0000000001
 40
0.0
 40
0.0
 40
0.0
 40
0.0
 40
0.1927313984
 40
0.3781045882
 40
0.5490786046
 40
0.6991554364
 40
0.7645593264
 40
0.8227049627
 40
0.8730691292
 40
0.9152137626
 40
0.9488300314
 40
0.9737680482
 40
0.983045011
 40
0.9903141865
 40
1.0
 40
1.0
 40
1.0
 40
1.0
 10
301.8285770968
 20
402.5097884759
 30
0.0
 10
301.8285770968
 20
401.9947391854
 30
0.0
 10
301.8200637979
 20
400.9842831511
 30
0.0
 10
301.7820800786
 20
399.5173514355
 30
0.0
 10
301.7205300005
 20
398.165312032
 30
0.0
 10
301.6491913148
 20
397.1348688513
 30
0.0
 10
301.5799531419
 20
396.4068843419
 30
0.0
 10
301.5264031716
 20
395.9451758522
 30
0.0
 10
301.4693867458
 20
395.5465681818
 30
0.0
 10
301.409845074
 20
395.2147179187
 30
0.0
 10
301.3479404834
 20
394.9526133257
 30
0.0
 10
301.2925025349
 20
394.7798062797
 30
0.0
 10
301.2432737403
 20
394.6795043226
 30
0.0
 10
301.2056747198
 20
394.6219005733
 30
0.0
 10
301.1642120794
 20
394.590092753
 30
0.0
 10
301.1383280179
 20
394.590092753
 30
0.0
  0
SPLINE
  5
534
100
AcDbEntity
  8
0
100
AcDbSpline
 62
7
  6
CONTINUOUS
 70
0
 71
3
 72
9
 73
5
 74
0
 42
0.0000001
 43
0.0000001
 44
0.0000000001
 40
0.0
 40
0.0
 40
0.0
 40
0.0
 40
0.2189866454
 40
1.0
 40
1.0
 40
1.0
 40
1.0
 10
337.5295992725
 20
394.5901046519
 30
0.0
 10
337.5349850928
 20
394.5901047013
 30
0.0
 10
337.5596892342
 20
394.5935195048
 30
0.0
 10
337.5804508286
 20
394.6101530956
 30
0.0
 10
337.5935788926
 20
394.6241751895
 30
0.0
  0
SPLINE
  5
535
100
AcDbEntity
  8
0
100
AcDbSpline
 62
7
  6
CONTINUOUS
 70
0
 71
3
 72
19
 73
15
 74
0
 42
0.0000001
 43
0.0000001
 44
0.0000000001
 40
0.0
 40
0.0
 40
0.0
 40
0.0
 40
0.1927288881
 40
0.3781092411
 40
0.5490822978
 40
0.6991615281
 40
0.8227053537
 40
0.8730653565
 40
0.9152153475
 40
0.9488261182
 40
0.9737701968
 40
0.9830445427
 40
0.9903107965
 40
1.0
 40
1.0
 40
1.0
 40
1.0
 10
300.1280202428
 20
402.5097884759
 30
0.0
 10
300.1280202428
 20
402.9227448713
 30
0.0
 10
300.1211998094
 20
403.7329312348
 30
0.0
 10
300.0907198901
 20
404.9091027216
 30
0.0
 10
300.0414552488
 20
405.9932023217
 30
0.0
 10
299.9753838713
 20
406.9436154049
 30
0.0
 10
299.9055161478
 20
407.6345267561
 30
0.0
 10
299.8400219999
 20
408.0928738157
 30
0.0
 10
299.7922961821
 20
408.3589425238
 30
0.0
 10
299.7426292568
 20
408.5691012315
 30
0.0
 10
299.6982092081
 20
408.7076576824
 30
0.0
 10
299.6587319842
 20
408.7880837976
 30
0.0
 10
299.6285585523
 20
408.834236562
 30
0.0
 10
299.595342142
 20
408.8597884759
 30
0.0
 10
299.5745812764
 20
408.8597884759
 30
0.0
  0
SPLINE
  5
536
100
AcDbEntity
  8
0
100
AcDbSpline
 62
7
  6
CONTINUOUS
 70
0
 71
3
 72
18
 73
14
 74
0
 42
0.0000001
 43
0.0000001
 44
0.0000000001
 40
0.0
 40
0.0
 40
0.0
 40
0.0
 40
0.1832389481
 40
0.3602814222
 40
0.5251461768
 40
0.67227933
 40
0.7967671048
 40
0.8492047983
 40
0.8945343501
 40
0.9324099952
 40
0.9626088831
 40
0.9850436599
 40
1.0
 40
1.0
 40
1.0
 40
1.0
 10
338.2213979817
 20
402.5097884759
 30
0.0
 10
338.2213979817
 20
402.0233810425
 30
0.0
 10
338.213801737
 20
401.0669951209
 30
0.0
 10
338.1798340975
 20
399.6733477057
 30
0.0
 10
338.1246931441
 20
398.376269265
 30
0.0
 10
338.0503810387
 20
397.2199209841
 30
0.0
 10
337.9714672983
 20
396.363115359
 30
0.0
 10
337.8979168387
 20
395.7777069466
 30
0.0
 10
337.8431017382
 20
395.4217307569
 30
0.0
 10
337.78603318
 20
395.1261945527
 30
0.0
 10
337.7274934944
 20
394.8926300899
 30
0.0
 10
337.6683570866
 20
394.7237100959
 30
0.0
 10
337.6202658634
 20
394.6344766476
 30
0.0
 10
337.5929570942
 20
394.6056591833
 30
0.0
  0
SPLINE
  5
537
100
AcDbEntity
  8
0
100
AcDbSpline
 62
7
  6
CONTINUOUS
 70
0
 71
3
 72
9
 73
5
 74
0
 42
0.0000001
 43
0.0000001
 44
0.0000000001
 40
0.0
 40
0.0
 40
0.0
 40
0.0
 40
0.2961895826
 40
1.0
 40
1.0
 40
1.0
 40
1.0
 10
337.5929570942
 20
394.6056591833
 30
0.0
 10
337.5880253226
 20
394.6004549521
 30
0.0
 10
337.5706420393
 20
394.5838764175
 30
0.0
 10
337.546636328
 20
394.5723245747
 30
0.0
 10
337.5295992748
 20
394.5723247329
 30
0.0
  0
SPLINE
  5
538
100
AcDbEntity
  8
0
100
AcDbSpline
 62
7
  6
CONTINUOUS
 70
0
 71
3
 72
9
 73
5
 74
0
 42
0.0000001
 43
0.0000001
 44
0.0000000001
 40
0.0
 40
0.0
 40
0.0
 40
0.0
 40
0.2961945487
 40
1.0
 40
1.0
 40
1.0
 40
1.0
 10
337.5928198388
 20
410.396207595
 30
0.0
 10
337.5878987774
 20
410.401400911
 30
0.0
 10
337.5705535292
 20
410.4179444527
 30
0.0
 10
337.5465995912
 20
410.4294724559
 30
0.0
 10
337.5295992748
 20
410.4294722998
 30
0.0
  0
SPLINE
  5
539
100
AcDbEntity
  8
0
100
AcDbSpline
 62
7
  6
CONTINUOUS
 70
0
 71
3
 72
20
 73
16
 74
0
 42
0.0000001
 43
0.0000001
 44
0.0000000001
 40
0.0
 40
0.0
 40
0.0
 40
0.0
 40
0.0096858135
 40
0.016954989
 40
0.0262319518
 40
0.0511699686
 40
0.0847862374
 40
0.1269308708
 40
0.1772950373
 40
0.2354406736
 40
0.3008445636
 40
0.4509213954
 40
0.6218954118
 40
0.8072686016
 40
1.0
 40
1.0
 40
1.0
 40
1.0
 10
301.1383280179
 20
410.4294841987
 30
0.0
 10
301.1642120794
 20
410.4294841987
 30
0.0
 10
301.2056747198
 20
410.3976763785
 30
0.0
 10
301.2432737403
 20
410.3400726291
 30
0.0
 10
301.2925025349
 20
410.239770672
 30
0.0
 10
301.3479404834
 20
410.066963626
 30
0.0
 10
301.409845074
 20
409.804859033
 30
0.0
 10
301.4693867458
 20
409.4730087699
 30
0.0
 10
301.5264031716
 20
409.0744010995
 30
0.0
 10
301.5799531419
 20
408.6126926098
 30
0.0
 10
301.6491913148
 20
407.8847081004
 30
0.0
 10
301.7205300005
 20
406.8542649197
 30
0.0
 10
301.7820800786
 20
405.5022255162
 30
0.0
 10
301.8200637979
 20
404.0352938006
 30
0.0
 10
301.8285770968
 20
403.0248377663
 30
0.0
 10
301.8285770968
 20
402.5097884759
 30
0.0
  0
SPLINE
  5
53A
100
AcDbEntity
  8
0
100
AcDbSpline
 62
7
  6
CONTINUOUS
 70
0
 71
3
 72
16
 73
12
 74
0
 42
0.0000001
 43
0.0000001
 44
0.0000000001
 40
0.0
 40
0.0
 40
0.0
 40
0.0
 40
0.1927384878
 40
0.3781720067
 40
0.5491505182
 40
0.6992496759
 40
0.8228037911
 40
0.9153120664
 40
0.9738118165
 40
0.9903083038
 40
1.0
 40
1.0
 40
1.0
 40
1.0
 10
467.7895807769
 20
402.5097884759
 30
0.0
 10
467.7895807769
 20
402.84838482
 30
0.0
 10
467.7839784822
 20
403.5127645829
 30
0.0
 10
467.7590135044
 20
404.4771982865
 30
0.0
 10
467.7185403006
 20
405.3662428186
 30
0.0
 10
467.6645642241
 20
406.1453489615
 30
0.0
 10
467.5992810223
 20
406.7861030503
 30
0.0
 10
467.5275721287
 20
407.2617679044
 30
0.0
 10
467.4564572953
 20
407.5510801696
 30
0.0
 10
467.3939126626
 20
407.6845173854
 30
0.0
 10
467.3527868628
 20
407.7167736503
 30
0.0
 10
467.3357608244
 20
407.7167716854
 30
0.0
  0
SPLINE
  5
53B
100
AcDbEntity
  8
0
100
AcDbSpline
 62
7
  6
CONTINUOUS
 70
0
 71
3
 72
16
 73
12
 74
0
 42
0.0000001
 43
0.0000001
 44
0.0000000001
 40
0.0
 40
0.0
 40
0.0
 40
0.0
 40
0.0096916206
 40
0.0261872219
 40
0.0846846912
 40
0.1771902273
 40
0.3007430638
 40
0.4508436592
 40
0.6218240411
 40
0.8072616472
 40
1.0
 40
1.0
 40
1.0
 40
1.0
 10
467.3357608244
 20
397.3028052663
 30
0.0
 10
467.3527867294
 20
397.3028072312
 30
0.0
 10
467.3939103728
 20
397.3350562942
 30
0.0
 10
467.4564573043
 20
397.4684920186
 30
0.0
 10
467.5275676491
 20
397.7577901142
 30
0.0
 10
467.5992778684
 20
398.2334458904
 30
0.0
 10
467.6645609327
 20
398.8741945109
 30
0.0
 10
467.7185382089
 20
399.6533044341
 30
0.0
 10
467.759013003
 20
400.5423617726
 30
0.0
 10
467.7839782289
 20
401.5068057065
 30
0.0
 10
467.7895807769
 20
402.17119238
 30
0.0
 10
467.7895807769
 20
402.5097884759
 30
0.0
  0
SPLINE
  5
53C
100
AcDbEntity
  8
0
100
AcDbSpline
 62
7
  6
CONTINUOUS
 70
0
 71
3
 72
29
 73
25
 74
0
 42
0.0000001
 43
0.0000001
 44
0.0000000001
 40
0.0
 40
0.0
 40
0.0
 40
0.0
 40
0.0054895813
 40
0.0152755164
 40
0.0294506236
 40
0.0479304034
 40
0.0705667937
 40
0.0971666539
 40
0.161240678
 40
0.2378114417
 40
0.3240591628
 40
0.4167943983
 40
0.512583313
 40
0.6078779555
 40
0.6991500328
 40
0.7830226918
 40
0.8563968046
 40
0.916571343
 40
0.9410007737
 40
0.9613589814
 40
0.9774638029
 40
0.9892111194
 40
0.9965780849
 40
1.0
 40
1.0
 40
1.0
 40
1.0
 10
369.2644403725
 20
477.0767178436
 30
0.0
 10
369.2777955483
 20
477.063033718
 30
0.0
 10
369.296690883
 20
477.0107930587
 30
0.0
 10
369.3210743023
 20
476.912537598
 30
0.0
 10
369.3447124746
 20
476.7658155965
 30
0.0
 10
369.3683727738
 20
476.5749518831
 30
0.0
 10
369.3910259372
 20
476.3400496819
 30
0.0
 10
369.4216884976
 20
475.9465968198
 30
0.0
 10
369.4543350112
 20
475.3648843687
 30
0.0
 10
369.4848504163
 20
474.5751600505
 30
0.0
 10
369.5071575981
 20
473.6852768645
 30
0.0
 10
369.5203734294
 20
472.7282776296
 30
0.0
 10
369.5239208486
 20
471.7396812561
 30
0.0
 10
369.5176625592
 20
470.7561929871
 30
0.0
 10
369.5018516486
 20
469.8143296883
 30
0.0
 10
369.4771660981
 20
468.9490064072
 30
0.0
 10
369.4446433648
 20
468.1924212793
 30
0.0
 10
369.4103885534
 20
467.6430235194
 30
0.0
 10
369.3786588963
 20
467.2789934269
 30
0.0
 10
369.3551352945
 20
467.0677120866
 30
0.0
 10
369.3321531113
 20
466.902584634
 30
0.0
 10
369.306254332
 20
466.779500817
 30
0.0
 10
369.2868911822
 20
466.7093221432
 30
0.0
 10
369.261766791
 20
466.6702723055
 30
0.0
 10
369.2498477998
 20
466.6702271543
 30
0.0
  0
SPLINE
  5
53D
100
AcDbEntity
  8
0
100
AcDbSpline
 62
7
  6
CONTINUOUS
 70
0
 71
3
 72
27
 73
23
 74
0
 42
0.0000001
 43
0.0000001
 44
0.0000000001
 40
0.0
 40
0.0
 40
0.0
 40
0.0
 40
0.0034245335
 40
0.0107891836
 40
0.0225377002
 40
0.038646578
 40
0.0834312789
 40
0.1436013356
 40
0.2169731806
 40
0.3008464473
 40
0.3921155591
 40
0.4874058018
 40
0.5831911275
 40
0.6759224928
 40
0.7621700464
 40
0.8387487031
 40
0.9028291748
 40
0.9520626099
 40
0.9705498424
 40
0.9847229478
 40
0.9945101644
 40
1.0
 40
1.0
 40
1.0
 40
1.0
 10
369.2498478206
 20
475.0521539384
 30
0.0
 10
369.2425747224
 20
475.0521108328
 30
0.0
 10
369.2272866792
 20
475.0282956664
 30
0.0
 10
369.2154357806
 20
474.9855072459
 30
0.0
 10
369.1996598982
 20
474.9104605391
 30
0.0
 10
369.1785320916
 20
474.7586325007
 30
0.0
 10
369.1546251537
 20
474.5017857462
 30
0.0
 10
369.131076477
 20
474.124098109
 30
0.0
 10
369.1112346238
 20
473.6626172567
 30
0.0
 10
369.0961900732
 20
473.135050009
 30
0.0
 10
369.0865480779
 20
472.5607460605
 30
0.0
 10
369.0827302764
 20
471.9610911607
 30
0.0
 10
369.0848945502
 20
471.3583190711
 30
0.0
 10
369.0929470372
 20
470.7748000773
 30
0.0
 10
369.1065697121
 20
470.2322003768
 30
0.0
 10
369.1251003236
 20
469.7505871655
 30
0.0
 10
369.1479124791
 20
469.3479917628
 30
0.0
 10
369.1706951522
 20
469.0687412539
 30
0.0
 10
369.1919891783
 20
468.8963324075
 30
0.0
 10
369.2064269001
 20
468.8068595554
 30
0.0
 10
369.2212990362
 20
468.7469530539
 30
0.0
 10
369.2328061887
 20
468.7150880304
 30
0.0
 10
369.2409498931
 20
468.7067437395
 30
0.0
  0
SPLINE
  5
53E
100
AcDbEntity
  8
0
100
AcDbSpline
 62
7
  6
CONTINUOUS
 70
0
 71
3
 72
29
 73
25
 74
0
 42
0.0000001
 43
0.0000001
 44
0.0000000001
 40
0.0
 40
0.0
 40
0.0
 40
0.0
 40
0.0054895813
 40
0.0152755164
 40
0.0294506236
 40
0.0479304034
 40
0.0705667937
 40
0.0971666539
 40
0.161240678
 40
0.2378114417
 40
0.3240591628
 40
0.4167943983
 40
0.512583313
 40
0.6078779555
 40
0.6991500328
 40
0.7830226918
 40
0.8563968046
 40
0.916571343
 40
0.9410007737
 40
0.9613589814
 40
0.9774638029
 40
0.9892111194
 40
0.9965780849
 40
1.0
 40
1.0
 40
1.0
 40
1.0
 10
369.2352552314
 20
466.6776591082
 30
0.0
 10
369.2219000555
 20
466.6913432337
 30
0.0
 10
369.2030047209
 20
466.7435838931
 30
0.0
 10
369.1786213016
 20
466.8418393537
 30
0.0
 10
369.1549831293
 20
466.9885613552
 30
0.0
 10
369.1313228301
 20
467.1794250686
 30
0.0
 10
369.1086696667
 20
467.4143272698
 30
0.0
 10
369.0780071063
 20
467.8077801319
 30
0.0
 10
369.0453605926
 20
468.389492583
 30
0.0
 10
369.0148451876
 20
469.1792169012
 30
0.0
 10
368.9925380058
 20
470.0691000872
 30
0.0
 10
368.9793221745
 20
471.0260993221
 30
0.0
 10
368.9757747552
 20
472.0146956956
 30
0.0
 10
368.9820330447
 20
472.9981839646
 30
0.0
 10
368.9978439553
 20
473.9400472634
 30
0.0
 10
369.0225295058
 20
474.8053705445
 30
0.0
 10
369.055052239
 20
475.5619556724
 30
0.0
 10
369.0893070505
 20
476.1113534323
 30
0.0
 10
369.1210367076
 20
476.4753835248
 30
0.0
 10
369.1445603094
 20
476.6866648651
 30
0.0
 10
369.1675424926
 20
476.8517923177
 30
0.0
 10
369.1934412719
 20
476.9748761347
 30
0.0
 10
369.2128044217
 20
477.0450548085
 30
0.0
 10
369.2379288129
 20
477.0841046462
 30
0.0
 10
369.2498478041
 20
477.0841497974
 30
0.0
  0
SPLINE
  5
53F
100
AcDbEntity
  8
0
100
AcDbSpline
 62
7
  6
CONTINUOUS
 70
0
 71
3
 72
27
 73
23
 74
0
 42
0.0000001
 43
0.0000001
 44
0.0000000001
 40
0.0
 40
0.0
 40
0.0
 40
0.0
 40
0.0034245335
 40
0.0107891836
 40
0.0225377002
 40
0.038646578
 40
0.0834312789
 40
0.1436013356
 40
0.2169731806
 40
0.3008464473
 40
0.3921155591
 40
0.4874058018
 40
0.5831911275
 40
0.6759224928
 40
0.7621700464
 40
0.8387487031
 40
0.9028291748
 40
0.9520626099
 40
0.9705498424
 40
0.9847229478
 40
0.9945101644
 40
1.0
 40
1.0
 40
1.0
 40
1.0
 10
369.2498477833
 20
468.7022230133
 30
0.0
 10
369.2571208815
 20
468.7022661189
 30
0.0
 10
369.2724089247
 20
468.7260812853
 30
0.0
 10
369.2842598233
 20
468.7688697058
 30
0.0
 10
369.3000357057
 20
468.8439164126
 30
0.0
 10
369.3211635123
 20
468.995744451
 30
0.0
 10
369.3450704502
 20
469.2525912055
 30
0.0
 10
369.3686191268
 20
469.6302788427
 30
0.0
 10
369.3884609801
 20
470.091759695
 30
0.0
 10
369.4035055306
 20
470.6193269427
 30
0.0
 10
369.413147526
 20
471.1936308912
 30
0.0
 10
369.4169653275
 20
471.7932857911
 30
0.0
 10
369.4148010537
 20
472.3960578806
 30
0.0
 10
369.4067485667
 20
472.9795768744
 30
0.0
 10
369.3931258918
 20
473.5221765749
 30
0.0
 10
369.3745952803
 20
474.0037897862
 30
0.0
 10
369.3517831248
 20
474.4063851889
 30
0.0
 10
369.3290004517
 20
474.6856356978
 30
0.0
 10
369.3077064256
 20
474.8580445442
 30
0.0
 10
369.2932687038
 20
474.9475173963
 30
0.0
 10
369.2783965677
 20
475.0074238978
 30
0.0
 10
369.2668894152
 20
475.0392889213
 30
0.0
 10
369.2587457108
 20
475.0476332123
 30
0.0
  0
SPLINE
  5
540
100
AcDbEntity
  8
0
100
AcDbSpline
 62
7
  6
CONTINUOUS
 70
0
 71
3
 72
9
 73
5
 74
0
 42
0.0000001
 43
0.0000001
 44
0.0000000001
 40
0.0
 40
0.0
 40
0.0
 40
0.0
 40
0.5003411318
 40
1.0
 40
1.0
 40
1.0
 40
1.0
 10
315.5297674897
 20
389.7761135588
 30
0.0
 10
315.3964301174
 20
389.5574506661
 30
0.0
 10
315.0113256194
 20
389.1823880396
 30
0.0
 10
314.4906828527
 20
389.0477884759
 30
0.0
 10
314.2349221159
 20
389.0477884759
 30
0.0
  0
SPLINE
  5
541
100
AcDbEntity
  8
0
100
AcDbSpline
 62
7
  6
CONTINUOUS
 70
0
 71
3
 72
9
 73
5
 74
0
 42
0.0000001
 43
0.0000001
 44
0.0000000001
 40
0.0
 40
0.0
 40
0.0
 40
0.0
 40
0.2756075023
 40
1.0
 40
1.0
 40
1.0
 40
1.0
 10
318.9435924209
 20
412.1617884759
 30
0.0
 10
318.9435924209
 20
412.2608682517
 30
0.0
 10
318.9468894062
 20
412.6203126534
 30
0.0
 10
318.959885018
 20
412.9799865317
 30
0.0
 10
318.9824960658
 20
413.2394192104
 30
0.0
  0
SPLINE
  5
542
100
AcDbEntity
  8
0
100
AcDbSpline
 62
7
  6
CONTINUOUS
 70
0
 71
3
 72
11
 73
7
 74
0
 42
0.0000001
 43
0.0000001
 44
0.0000000001
 40
0.0
 40
0.0
 40
0.0
 40
0.0
 40
0.4118253531
 40
0.7204638098
 40
0.9154523567
 40
1.0
 40
1.0
 40
1.0
 40
1.0
 10
318.9824960658
 20
413.2394192104
 30
0.0
 10
318.9880100349
 20
413.3026849108
 30
0.0
 10
318.9986845808
 20
413.4117079315
 30
0.0
 10
319.0216060465
 20
413.5562552937
 30
0.0
 10
319.0398645718
 20
413.6354162999
 30
0.0
 10
319.0633801027
 20
413.6857884759
 30
0.0
 10
319.0764177729
 20
413.6857884759
 30
0.0
  0
SPLINE
  5
543
100
AcDbEntity
  8
0
100
AcDbSpline
 62
7
  6
CONTINUOUS
 70
0
 71
3
 72
11
 73
7
 74
0
 42
0.0000001
 43
0.0000001
 44
0.0000000001
 40
0.0
 40
0.0
 40
0.0
 40
0.0
 40
0.2499690926
 40
0.4998330871
 40
0.7498248097
 40
1.0
 40
1.0
 40
1.0
 40
1.0
 10
316.9904962356
 20
386.3807884759
 30
0.0
 10
317.5352813336
 20
386.3807884759
 30
0.0
 10
318.636676616
 20
386.5982262834
 30
0.0
 10
320.0285067112
 20
387.5311432789
 30
0.0
 10
320.9592974255
 20
388.9246849875
 30
0.0
 10
321.1768824888
 20
390.0265542818
 30
0.0
 10
321.1771689278
 20
390.5717884759
 30
0.0
  0
SPLINE
  5
544
100
AcDbEntity
  8
0
100
AcDbSpline
 62
7
  6
CONTINUOUS
 70
0
 71
3
 72
9
 73
5
 74
0
 42
0.0000001
 43
0.0000001
 44
0.0000000001
 40
0.0
 40
0.0
 40
0.0
 40
0.0
 40
0.2756075023
 40
1.0
 40
1.0
 40
1.0
 40
1.0
 10
322.1893027411
 20
412.1617884759
 30
0.0
 10
322.1893027411
 20
412.2608682517
 30
0.0
 10
322.1860057558
 20
412.6203126534
 30
0.0
 10
322.173010144
 20
412.9799865317
 30
0.0
 10
322.1503990962
 20
413.2394192104
 30
0.0
  0
SPLINE
  5
545
100
AcDbEntity
  8
0
100
AcDbSpline
 62
7
  6
CONTINUOUS
 70
0
 71
3
 72
11
 73
7
 74
0
 42
0.0000001
 43
0.0000001
 44
0.0000000001
 40
0.0
 40
0.0
 40
0.0
 40
0.0
 40
0.4118253531
 40
0.7204638098
 40
0.9154523567
 40
1.0
 40
1.0
 40
1.0
 40
1.0
 10
322.1503990962
 20
413.2394192104
 30
0.0
 10
322.1448851271
 20
413.3026849108
 30
0.0
 10
322.1342105812
 20
413.4117079315
 30
0.0
 10
322.1112891155
 20
413.5562552937
 30
0.0
 10
322.0930305902
 20
413.6354162999
 30
0.0
 10
322.0695150593
 20
413.6857884759
 30
0.0
 10
322.0564773891
 20
413.6857884759
 30
0.0
  0
SPLINE
  5
546
100
AcDbEntity
  8
0
100
AcDbSpline
 62
7
  6
CONTINUOUS
 70
0
 71
3
 72
11
 73
7
 74
0
 42
0.0000001
 43
0.0000001
 44
0.0000000001
 40
0.0
 40
0.0
 40
0.0
 40
0.0
 40
0.2500619189
 40
0.5000031609
 40
0.7499765864
 40
1.0
 40
1.0
 40
1.0
 40
1.0
 10
318.520317668
 20
390.5717884759
 30
0.0
 10
318.5200361831
 20
390.3769506123
 30
0.0
 10
318.4434754674
 20
389.9833225634
 30
0.0
 10
318.1154918298
 20
389.4825936971
 30
0.0
 10
317.6235904195
 20
389.141445504
 30
0.0
 10
317.232288781
 20
389.0545017178
 30
0.0
 10
317.0375727843
 20
389.0485131566
 30
0.0
  0
SPLINE
  5
547
100
AcDbEntity
  8
0
100
AcDbSpline
 62
7
  6
CONTINUOUS
 70
0
 71
3
 72
9
 73
5
 74
0
 42
0.0000001
 43
0.0000001
 44
0.0000000001
 40
0.0
 40
0.0
 40
0.0
 40
0.0
 40
0.2146311338
 40
1.0
 40
1.0
 40
1.0
 40
1.0
 10
317.8686510309
 20
413.2394192104
 30
0.0
 10
317.8753506634
 20
413.1625495477
 30
0.0
 10
317.9000550394
 20
412.8038475221
 30
0.0
 10
317.9075546758
 20
412.4441328771
 30
0.0
 10
317.9075546758
 20
412.1617884758
 30
0.0
  0
SPLINE
  5
548
100
AcDbEntity
  8
0
100
AcDbSpline
 62
7
  6
CONTINUOUS
 70
0
 71
3
 72
11
 73
7
 74
0
 42
0.0000001
 43
0.0000001
 44
0.0000000001
 40
0.0
 40
0.0
 40
0.0
 40
0.0
 40
0.0845476433
 40
0.2795361902
 40
0.5881746469
 40
1.0
 40
1.0
 40
1.0
 40
1.0
 10
317.7747293238
 20
413.6857884759
 30
0.0
 10
317.787766994
 20
413.6857884759
 30
0.0
 10
317.8112825249
 20
413.6354162999
 30
0.0
 10
317.8295410502
 20
413.5562552937
 30
0.0
 10
317.8524625159
 20
413.4117079315
 30
0.0
 10
317.8631370618
 20
413.3026849108
 30
0.0
 10
317.8686510309
 20
413.2394192104
 30
0.0
  0
SPLINE
  5
549
100
AcDbEntity
  8
0
100
AcDbSpline
 62
7
  6
CONTINUOUS
 70
0
 71
3
 72
11
 73
7
 74
0
 42
0.0000001
 43
0.0000001
 44
0.0000000001
 40
0.0
 40
0.0
 40
0.0
 40
0.0
 40
0.0845476433
 40
0.2795361902
 40
0.5881746469
 40
1.0
 40
1.0
 40
1.0
 40
1.0
 10
319.3996261293
 20
413.6857884759
 30
0.0
 10
319.4126637995
 20
413.6857884759
 30
0.0
 10
319.4361793304
 20
413.6354162999
 30
0.0
 10
319.4544378557
 20
413.5562552937
 30
0.0
 10
319.4773593214
 20
413.4117079315
 30
0.0
 10
319.4880338673
 20
413.3026849108
 30
0.0
 10
319.4935478364
 20
413.2394192104
 30
0.0
  0
SPLINE
  5
54A
100
AcDbEntity
  8
0
100
AcDbSpline
 62
7
  6
CONTINUOUS
 70
0
 71
3
 72
9
 73
5
 74
0
 42
0.0000001
 43
0.0000001
 44
0.0000000001
 40
0.0
 40
0.0
 40
0.0
 40
0.0
 40
0.2146311338
 40
1.0
 40
1.0
 40
1.0
 40
1.0
 10
319.4935478364
 20
413.2394192104
 30
0.0
 10
319.5002474689
 20
413.1625495477
 30
0.0
 10
319.5249518449
 20
412.8038475221
 30
0.0
 10
319.5324514812
 20
412.4441328772
 30
0.0
 10
319.5324514812
 20
412.1617884759
 30
0.0
  0
SPLINE
  5
54B
100
AcDbEntity
  8
0
100
AcDbSpline
 62
7
  6
CONTINUOUS
 70
0
 71
3
 72
9
 73
5
 74
0
 42
0.0000001
 43
0.0000001
 44
0.0000000001
 40
0.0
 40
0.0
 40
0.0
 40
0.0
 40
0.5461571221
 40
1.0
 40
1.0
 40
1.0
 40
1.0
 10
319.1856207736
 20
407.2087884759
 30
0.0
 10
319.1579901844
 20
407.797135095
 30
0.0
 10
319.095448842
 20
408.8738520075
 30
0.0
 10
319.0000889215
 20
409.948419991
 30
0.0
 10
318.9435924209
 20
410.4345884759
 30
0.0
  0
SPLINE
  5
54C
100
AcDbEntity
  8
0
100
AcDbSpline
 62
7
  6
CONTINUOUS
 70
0
 71
3
 72
9
 73
5
 74
0
 42
0.0000001
 43
0.0000001
 44
0.0000000001
 40
0.0
 40
0.0
 40
0.0
 40
0.0
 40
0.2282512993
 40
1.0
 40
1.0
 40
1.0
 40
1.0
 10
318.0174489283
 20
409.5879645169
 30
0.0
 10
318.0335360182
 20
409.4072659943
 30
0.0
 10
318.0985236237
 20
408.6151130806
 30
0.0
 10
318.1447123118
 20
407.8214959011
 30
0.0
 10
318.1734869603
 20
407.2087884759
 30
0.0
  0
SPLINE
  5
54D
100
AcDbEntity
  8
0
100
AcDbSpline
 62
7
  6
CONTINUOUS
 70
0
 71
3
 72
14
 73
10
 74
0
 42
0.0000001
 43
0.0000001
 44
0.0000000001
 40
0.0
 40
0.0
 40
0.0
 40
0.0
 40
0.3436212817
 40
0.501019582
 40
0.6420179304
 40
0.7627043793
 40
0.8609676141
 40
0.9378157676
 40
1.0
 40
1.0
 40
1.0
 40
1.0
 10
178.2505778753
 20
271.5981884759
 30
0.0
 10
178.2505778753
 20
270.9843557405
 30
0.0
 10
178.3069609125
 20
270.0871776438
 30
0.0
 10
178.509071553
 20
268.9572118186
 30
0.0
 10
178.7069665902
 20
268.233925713
 30
0.0
 10
178.9476628179
 20
267.6354372957
 30
0.0
 10
179.2239547661
 20
267.1815157722
 30
0.0
 10
179.5322975479
 20
266.8794991556
 30
0.0
 10
179.7813960926
 20
266.7975884759
 30
0.0
 10
179.8924797754
 20
266.7975884759
 30
0.0
  0
SPLINE
  5
54E
100
AcDbEntity
  8
0
100
AcDbSpline
 62
7
  6
CONTINUOUS
 70
0
 71
3
 72
14
 73
10
 74
0
 42
0.0000001
 43
0.0000001
 44
0.0000000001
 40
0.0
 40
0.0
 40
0.0
 40
0.0
 40
0.0621842099
 40
0.1390323182
 40
0.2372955181
 40
0.357981937
 40
0.4989802729
 40
0.6563785856
 40
1.0
 40
1.0
 40
1.0
 40
1.0
 10
179.8924797754
 20
389.6827884759
 30
0.0
 10
179.7813961322
 20
389.6827884759
 30
0.0
 10
179.5322976736
 20
389.6008779577
 30
0.0
 10
179.2239550147
 20
389.2988614482
 30
0.0
 10
178.9476630712
 20
388.8449401683
 30
0.0
 10
178.7069668113
 20
388.2464519008
 30
0.0
 10
178.5090717079
 20
387.5231658671
 30
0.0
 10
178.3069609568
 20
386.3931998132
 30
0.0
 10
178.2505778753
 20
385.4960214513
 30
0.0
 10
178.2505778753
 20
384.8821884759
 30
0.0
  0
SPLINE
  5
54F
100
AcDbEntity
  8
0
100
AcDbSpline
 62
7
  6
CONTINUOUS
 70
0
 71
3
 72
15
 73
11
 74
0
 42
0.0000001
 43
0.0000001
 44
0.0000000001
 40
0.0
 40
0.0
 40
0.0
 40
0.0
 40
0.0621829299
 40
0.1389985204
 40
0.237251483
 40
0.3579121848
 40
0.4988729093
 40
0.6562579859
 40
0.8251930071
 40
1.0
 40
1.0
 40
1.0
 40
1.0
 10
144.0901909234
 20
392.8831884759
 30
0.0
 10
143.9050156047
 20
392.8831884759
 30
0.0
 10
143.4898022404
 20
392.7468262095
 30
0.0
 10
142.9760131807
 20
392.2432687518
 30
0.0
 10
142.5154695939
 20
391.4868265076
 30
0.0
 10
142.1143550064
 20
390.4892768129
 30
0.0
 10
141.784547429
 20
389.2838522829
 30
0.0
 10
141.5389738508
 20
387.9125543118
 30
0.0
 10
141.3876256544
 20
386.4267322703
 30
0.0
 10
141.3536877567
 20
385.4027483892
 30
0.0
 10
141.3536877567
 20
384.8821884759
 30
0.0
  0
SPLINE
  5
550
100
AcDbEntity
  8
0
100
AcDbSpline
 62
7
  6
CONTINUOUS
 70
0
 71
3
 72
15
 73
11
 74
0
 42
0.0000001
 43
0.0000001
 44
0.0000000001
 40
0.0
 40
0.0
 40
0.0
 40
0.0
 40
0.1748069929
 40
0.3437420141
 40
0.5011270907
 40
0.6420878152
 40
0.762748517
 40
0.8610014796
 40
0.9378170701
 40
1.0
 40
1.0
 40
1.0
 40
1.0
 10
141.3536877567
 20
271.5981884759
 30
0.0
 10
141.3536877567
 20
271.0776285625
 30
0.0
 10
141.3876256544
 20
270.0536446814
 30
0.0
 10
141.5389738508
 20
268.5678226399
 30
0.0
 10
141.784547429
 20
267.1965246688
 30
0.0
 10
142.1143550064
 20
265.9911001388
 30
0.0
 10
142.5154695939
 20
264.9935504441
 30
0.0
 10
142.9760131807
 20
264.2371081999
 30
0.0
 10
143.4898022404
 20
263.7335507422
 30
0.0
 10
143.9050156047
 20
263.5971884759
 30
0.0
 10
144.0901909234
 20
263.5971884759
 30
0.0
  0
SPLINE
  5
551
100
AcDbEntity
  8
0
100
AcDbSpline
 62
7
  6
CONTINUOUS
 70
0
 71
3
 72
11
 73
7
 74
0
 42
0.0000001
 43
0.0000001
 44
0.0000000001
 40
0.0
 40
0.0
 40
0.0
 40
0.0
 40
0.2571577685
 40
0.5101513182
 40
0.757200815
 40
1.0
 40
1.0
 40
1.0
 40
1.0
 10
178.2505778753
 20
312.3651884759
 30
0.0
 10
178.2505778753
 20
312.7772426927
 30
0.0
 10
178.0984411457
 20
313.6028563078
 30
0.0
 10
177.4416770377
 20
314.6571690621
 30
0.0
 10
176.4502761876
 20
315.3711141902
 30
0.0
 10
175.6561006864
 20
315.5401884759
 30
0.0
 10
175.2670538043
 20
315.5401884759
 30
0.0
  0
SPLINE
  5
552
100
AcDbEntity
  8
0
100
AcDbSpline
 62
7
  6
CONTINUOUS
 70
0
 71
3
 72
11
 73
7
 74
0
 42
0.0000001
 43
0.0000001
 44
0.0000000001
 40
0.0
 40
0.0
 40
0.0
 40
0.0
 40
0.2438306906
 40
0.4921943946
 40
0.7447905273
 40
1.0
 40
1.0
 40
1.0
 40
1.0
 10
156.3227392038
 20
315.7405913135
 30
0.0
 10
156.0390675804
 20
315.8532758621
 30
0.0
 10
155.4996785913
 20
316.1751223276
 30
0.0
 10
154.872959475
 20
316.8837817748
 30
0.0
 10
154.4734489445
 20
317.7562678924
 30
0.0
 10
154.3823853074
 20
318.3957108831
 30
0.0
 10
154.3823853074
 20
318.7151884759
 30
0.0
  0
SPLINE
  5
553
100
AcDbEntity
  8
0
100
AcDbSpline
 62
7
  6
CONTINUOUS
 70
0
 71
3
 72
11
 73
7
 74
0
 42
0.0000001
 43
0.0000001
 44
0.0000000001
 40
0.0
 40
0.0
 40
0.0
 40
0.0
 40
0.2552094094
 40
0.5078055193
 40
0.7561692477
 40
1.0
 40
1.0
 40
1.0
 40
1.0
 10
154.3823853074
 20
337.7651884759
 30
0.0
 10
154.3823853074
 20
338.0846663313
 30
0.0
 10
154.4734490986
 20
338.7241099038
 30
0.0
 10
154.8729603723
 20
339.5965967582
 30
0.0
 10
155.499680773
 20
340.305256574
 30
0.0
 10
156.0390708316
 20
340.6271028396
 30
0.0
 10
156.3227429876
 20
340.7397871417
 30
0.0
  0
SPLINE
  5
554
100
AcDbEntity
  8
0
100
AcDbSpline
 62
7
  6
CONTINUOUS
 70
0
 71
3
 72
11
 73
7
 74
0
 42
0.0000001
 43
0.0000001
 44
0.0000000001
 40
0.0
 40
0.0
 40
0.0
 40
0.0
 40
0.2427990859
 40
0.4898485542
 40
0.7428421277
 40
1.0
 40
1.0
 40
1.0
 40
1.0
 10
175.2670538043
 20
340.9401884759
 30
0.0
 10
175.6561005277
 20
340.9401884759
 30
0.0
 10
176.4502758158
 20
341.1092626364
 30
0.0
 10
177.4416766585
 20
341.8232074805
 30
0.0
 10
178.098441037
 20
342.8775202637
 30
0.0
 10
178.2505778753
 20
343.7031340925
 30
0.0
 10
178.2505778753
 20
344.1151884759
 30
0.0
  0
SPLINE
  5
555
100
AcDbEntity
  8
0
100
AcDbSpline
 62
7
  6
CONTINUOUS
 70
0
 71
3
 72
13
 73
9
 74
0
 42
0.0000001
 43
0.0000001
 44
0.0000000001
 40
0.0
 40
0.0
 40
0.0
 40
0.0
 40
0.122657536
 40
0.2475173294
 40
0.4999991065
 40
0.752476533
 40
0.87733844
 40
1.0
 40
1.0
 40
1.0
 40
1.0
 10
165.9074195408
 20
351.3858545442
 30
0.0
 10
165.702568631
 20
351.4820027263
 30
0.0
 10
165.3165862107
 20
351.7409587708
 30
0.0
 10
164.7229737855
 20
352.4606650745
 30
0.0
 10
164.3946911932
 20
353.6409507038
 30
0.0
 10
164.7236354014
 20
354.8210624981
 30
0.0
 10
165.3176850179
 20
355.5404170425
 30
0.0
 10
165.7038441446
 20
355.7991334256
 30
0.0
 10
165.9087645524
 20
355.8951508958
 30
0.0
  0
SPLINE
  5
556
100
AcDbEntity
  8
0
100
AcDbSpline
 62
7
  6
CONTINUOUS
 70
0
 71
3
 72
13
 73
9
 74
0
 42
0.0000001
 43
0.0000001
 44
0.0000000001
 40
0.0
 40
0.0
 40
0.0
 40
0.0
 40
0.122657536
 40
0.2475173294
 40
0.4999991065
 40
0.752476533
 40
0.87733844
 40
1.0
 40
1.0
 40
1.0
 40
1.0
 10
165.9074195408
 20
300.5858545442
 30
0.0
 10
165.702568631
 20
300.6820027263
 30
0.0
 10
165.3165862107
 20
300.9409587708
 30
0.0
 10
164.7229737855
 20
301.6606650745
 30
0.0
 10
164.3946911932
 20
302.8409507038
 30
0.0
 10
164.7236354014
 20
304.0210624981
 30
0.0
 10
165.3176850179
 20
304.7404170425
 30
0.0
 10
165.7038441446
 20
304.9991334256
 30
0.0
 10
165.9087645524
 20
305.0951508958
 30
0.0
  0
SPLINE
  5
557
100
AcDbEntity
  8
0
100
AcDbSpline
 62
7
  6
CONTINUOUS
 70
0
 71
3
 72
11
 73
7
 74
0
 42
0.0000001
 43
0.0000001
 44
0.0000000001
 40
0.0
 40
0.0
 40
0.0
 40
0.0
 40
0.2427990859
 40
0.4898485542
 40
0.7428421277
 40
1.0
 40
1.0
 40
1.0
 40
1.0
 10
156.2713081117
 20
340.9401884759
 30
0.0
 10
155.8822613883
 20
340.9401884759
 30
0.0
 10
155.0880861002
 20
340.7711143153
 30
0.0
 10
154.0966852575
 20
340.0571694712
 30
0.0
 10
153.4399208789
 20
339.002856688
 30
0.0
 10
153.2877840407
 20
338.1772428592
 30
0.0
 10
153.2877840407
 20
337.7651884759
 30
0.0
  0
SPLINE
  5
558
100
AcDbEntity
  8
0
100
AcDbSpline
 62
7
  6
CONTINUOUS
 70
0
 71
3
 72
11
 73
7
 74
0
 42
0.0000001
 43
0.0000001
 44
0.0000000001
 40
0.0
 40
0.0
 40
0.0
 40
0.0
 40
0.2571577685
 40
0.5101513182
 40
0.757200815
 40
1.0
 40
1.0
 40
1.0
 40
1.0
 10
153.2877840407
 20
318.7151884759
 30
0.0
 10
153.2877840407
 20
318.303134259
 30
0.0
 10
153.4399207703
 20
317.4775206439
 30
0.0
 10
154.0966848783
 20
316.4232078896
 30
0.0
 10
155.0880857284
 20
315.7092627615
 30
0.0
 10
155.8822612295
 20
315.5401884759
 30
0.0
 10
156.2713081117
 20
315.5401884759
 30
0.0
  0
SPLINE
  5
559
100
AcDbEntity
  8
0
100
AcDbSpline
 62
7
  6
CONTINUOUS
 70
0
 71
3
 72
15
 73
11
 74
0
 42
0.0000001
 43
0.0000001
 44
0.0000000001
 40
0.0
 40
0.0
 40
0.0
 40
0.0
 40
0.1214044646
 40
0.2449228771
 40
0.3714243267
 40
0.499991235
 40
0.6285575604
 40
0.7550638074
 40
0.8785908449
 40
1.0
 40
1.0
 40
1.0
 40
1.0
 10
165.7469805611
 20
305.3039884759
 30
0.0
 10
165.4450702984
 20
305.3039884759
 30
0.0
 10
164.8287844501
 20
305.1727469575
 30
0.0
 10
164.0595103558
 20
304.6189443287
 30
0.0
 10
163.5498288736
 20
303.7997987002
 30
0.0
 10
163.3723563661
 20
302.8402602088
 30
0.0
 10
163.5497753781
 20
301.8806968051
 30
0.0
 10
164.0594488082
 20
301.0615072692
 30
0.0
 10
164.8287373514
 20
300.5076426264
 30
0.0
 10
165.445058634
 20
300.3763884759
 30
0.0
 10
165.7469805611
 20
300.3763884759
 30
0.0
  0
SPLINE
  5
55A
100
AcDbEntity
  8
0
100
AcDbSpline
 62
7
  6
CONTINUOUS
 70
0
 71
3
 72
11
 73
7
 74
0
 42
0.0000001
 43
0.0000001
 44
0.0000000001
 40
0.0
 40
0.0
 40
0.0
 40
0.0
 40
0.2571577685
 40
0.5101513182
 40
0.757200815
 40
1.0
 40
1.0
 40
1.0
 40
1.0
 10
177.1559766086
 20
344.1151884759
 30
0.0
 10
177.1559766086
 20
343.703134259
 30
0.0
 10
177.003839879
 20
342.8775206439
 30
0.0
 10
176.347075771
 20
341.8232078896
 30
0.0
 10
175.3556749209
 20
341.1092627615
 30
0.0
 10
174.5614994197
 20
340.9401884759
 30
0.0
 10
174.1724525376
 20
340.9401884759
 30
0.0
  0
SPLINE
  5
55B
100
AcDbEntity
  8
0
100
AcDbSpline
 62
7
  6
CONTINUOUS
 70
0
 71
3
 72
11
 73
7
 74
0
 42
0.0000001
 43
0.0000001
 44
0.0000000001
 40
0.0
 40
0.0
 40
0.0
 40
0.0
 40
0.2427990859
 40
0.4898485542
 40
0.7428421277
 40
1.0
 40
1.0
 40
1.0
 40
1.0
 10
174.1724525376
 20
315.5401884759
 30
0.0
 10
174.561499261
 20
315.5401884759
 30
0.0
 10
175.3556745491
 20
315.3711143153
 30
0.0
 10
176.3470753918
 20
314.6571694712
 30
0.0
 10
177.0038397703
 20
313.602856688
 30
0.0
 10
177.1559766086
 20
312.7772428592
 30
0.0
 10
177.1559766086
 20
312.3651884759
 30
0.0
  0
SPLINE
  5
55C
100
AcDbEntity
  8
0
100
AcDbSpline
 62
7
  6
CONTINUOUS
 70
0
 71
3
 72
15
 73
11
 74
0
 42
0.0000001
 43
0.0000001
 44
0.0000000001
 40
0.0
 40
0.0
 40
0.0
 40
0.0
 40
0.1748069929
 40
0.3437420141
 40
0.5011270907
 40
0.6420878152
 40
0.762748517
 40
0.8610014796
 40
0.9378170701
 40
1.0
 40
1.0
 40
1.0
 40
1.0
 10
177.1559766086
 20
384.8821884759
 30
0.0
 10
177.1559766086
 20
385.4027483892
 30
0.0
 10
177.1899145063
 20
386.4267322703
 30
0.0
 10
177.3412627027
 20
387.9125543118
 30
0.0
 10
177.586836281
 20
389.2838522829
 30
0.0
 10
177.9166438583
 20
390.4892768129
 30
0.0
 10
178.3177584458
 20
391.4868265076
 30
0.0
 10
178.7783020326
 20
392.2432687518
 30
0.0
 10
179.2920910923
 20
392.7468262095
 30
0.0
 10
179.7073044567
 20
392.8831884759
 30
0.0
 10
179.8924797754
 20
392.8831884759
 30
0.0
  0
SPLINE
  5
55D
100
AcDbEntity
  8
0
100
AcDbSpline
 62
7
  6
CONTINUOUS
 70
0
 71
3
 72
15
 73
11
 74
0
 42
0.0000001
 43
0.0000001
 44
0.0000000001
 40
0.0
 40
0.0
 40
0.0
 40
0.0
 40
0.0621829299
 40
0.1389985204
 40
0.237251483
 40
0.3579121848
 40
0.4988729093
 40
0.6562579859
 40
0.8251930071
 40
1.0
 40
1.0
 40
1.0
 40
1.0
 10
179.8924797754
 20
263.5971884759
 30
0.0
 10
179.7073044567
 20
263.5971884759
 30
0.0
 10
179.2920910923
 20
263.7335507422
 30
0.0
 10
178.7783020326
 20
264.2371081999
 30
0.0
 10
178.3177584458
 20
264.9935504441
 30
0.0
 10
177.9166438583
 20
265.9911001388
 30
0.0
 10
177.586836281
 20
267.1965246688
 30
0.0
 10
177.3412627027
 20
268.5678226399
 30
0.0
 10
177.1899145063
 20
270.0536446814
 30
0.0
 10
177.1559766086
 20
271.0776285625
 30
0.0
 10
177.1559766086
 20
271.5981884759
 30
0.0
  0
SPLINE
  5
55E
100
AcDbEntity
  8
0
100
AcDbSpline
 62
7
  6
CONTINUOUS
 70
0
 71
3
 72
15
 73
11
 74
0
 42
0.0000001
 43
0.0000001
 44
0.0000000001
 40
0.0
 40
0.0
 40
0.0
 40
0.0
 40
0.1214044646
 40
0.2449228771
 40
0.3714243267
 40
0.499991235
 40
0.6285575604
 40
0.7550638074
 40
0.8785908449
 40
1.0
 40
1.0
 40
1.0
 40
1.0
 10
165.7469805611
 20
356.1039884759
 30
0.0
 10
165.4450702984
 20
356.1039884759
 30
0.0
 10
164.8287844501
 20
355.9727469575
 30
0.0
 10
164.0595103558
 20
355.4189443287
 30
0.0
 10
163.5498288736
 20
354.5997987002
 30
0.0
 10
163.3723563661
 20
353.6402602088
 30
0.0
 10
163.5497753781
 20
352.6806968051
 30
0.0
 10
164.0594488082
 20
351.8615072692
 30
0.0
 10
164.8287373514
 20
351.3076426264
 30
0.0
 10
165.445058634
 20
351.1763884759
 30
0.0
 10
165.7469805611
 20
351.1763884759
 30
0.0
  0
ENDSEC
  0
SECTION
  2
OBJECTS
  0
DICTIONARY
  5
C
100
AcDbDictionary
280
0
281
1
  3
ACAD_GROUP
350
D
  3
ACAD_MLINESTYLE
350
17
  3
ACAD_LAYOUT
350
1A
  3
ACAD_PLOTSETTINGS
350
19
  3
ACAD_PLOTSTYLENAME
350
E
  0
DICTIONARY
  5
D
102
{ACAD_REACTORS
330
C
102
}
100
AcDbDictionary
280
0
281
1
  0
ACDBDICTIONARYWDFLT
  5
E
102
{ACAD_REACTORS
330
C
102
}
100
AcDbDictionary
281
1
  3
Normal
350
F
100
AcDbDictionaryWithDefault
340
F
  0
DICTIONARY
  5
17
102
{ACAD_REACTORS
330
C
102
}
100
AcDbDictionary
280
0
281
1
  3
Standard
350
18
  0
DICTIONARY
  5
19
102
{ACAD_REACTORS
330
C
102
}
100
AcDbDictionary
281
1
  0
DICTIONARY
  5
1A
102
{ACAD_REACTORS
330
C
102
}
100
AcDbDictionary
281
1
  3
Model
350
55F
  3
Layout1
350
560
  0
ACDBPLACEHOLDER
  5
F
102
{ACAD_REACTORS
330
E
102
}
  0
MLINESTYLE
  5
18
102
{ACAD_REACTORS
330
17
102
}
100
AcDbMlineStyle
  2
STANDARD
 70
0
  3

 62
256
 51
90.0
 52
90.0
 71
2
 49
0.5
 62
256
  6
BYLAYER
 49
-0.5
 62
256
  6
BYLAYER
  0
LAYOUT
  5
55F
102
{ACAD_REACTORS
330
1A
102
}
100
AcDbPlotSettings
  1

  2
none_device
  4

  6

 40
0.0
 41
0.0
 42
0.0
 43
0.0
 44
210.0
 45
297.0
 46
0.0
 47
0.0
 48
0.0
 49
0.0
140
0.0
141
0.0
142
1.0
143
1.0
 70
1024
 72
1
 73
0
 74
0
  7

 75
0
147
1.0
148
0.0
149
0.0
100
AcDbLayout
  1
Model
 70
0
 71
0
 10
0.0
 20
0.0
 11
210.0
 21
297.0
 12
0.0
 22
0.0
 32
0.0
 14
0.0
 24
0.0
 34
0.0
 15
0.0
 25
0.0
 35
0.0
146
0.0
 13
0.0
 23
0.0
 33
0.0
 16
1.0
 26
0.0
 36
0.0
 17
0.0
 27
1.0
 37
0.0
 76
0
330
210
345
0
346
0
  0
LAYOUT
  5
560
102
{ACAD_REACTORS
330
1A
102
}
100
AcDbPlotSettings
  1

  2
none_device
  4

  6

 40
0.0
 41
0.0
 42
0.0
 43
0.0
 44
210.0
 45
297.0
 46
0.0
 47
0.0
 48
0.0
 49
0.0
140
0.0
141
0.0
142
1.0
143
1.0
 70
0
 72
1
 73
0
 74
0
  7

 75
0
147
1.0
148
0.0
149
0.0
100
AcDbLayout
  1
Layout1
 70
0
 71
1
 10
0.0
 20
0.0
 11
210.0
 21
297.0
 12
0.0
 22
0.0
 32
0.0
 14
0.0
 24
0.0
 34
0.0
 15
0.0
 25
0.0
 35
0.0
146
0.0
 13
0.0
 23
0.0
 33
0.0
 16
1.0
 26
0.0
 36
0.0
 17
0.0
 27
1.0
 37
0.0
 76
0
330
211
345
0
346
0
  0
ENDSEC
  0
EOF
