  0
SECTION
  2
HEADER
  9
$ACADVER
  1
AC1009
  9
$DWGCODEPAGE
  3
ansi_1250
  9
$INSBASE
 10
0.0
 20
0.0
 30
0.0
  9
$EXTMIN
 10
-1.496063
 20
-1.577264
 30
0.0
  9
$EXTMAX
 10
1.692913
 20
1.577264
 30
0.0
  9
$LIMMIN
 10
0.0
 20
0.0
  9
$LIMMAX
 10
0.0
 20
0.0
  9
$ORTHOMODE
 70
     0
  9
$REGENMODE
 70
     1
  9
$FILLMODE
 70
     1
  9
$QTEXTMODE
 70
     0
  9
$MIRRTEXT
 70
     1
  9
$DRAGMODE
 70
     2
  9
$LTSCALE
 40
1.0
  9
$OSMODE
 70
     0
  9
$ATTMODE
 70
     1
  9
$TEXTSIZE
 40
0.2
  9
$TRACEWID
 40
0.05
  9
$TEXTSTYLE
  7
STANDARD
  9
$CLAYER
  8
0
  9
$CELTYPE
  6
CONTINUOUS
  9
$CECOLOR
 62
   256
  9
$DIMSCALE
 40
1.0
  9
$DIMASZ
 40
0.18
  9
$DIMEXO
 40
0.0625
  9
$DIMDLI
 40
0.38
  9
$DIMRND
 40
0.0
  9
$DIMDLE
 40
0.0
  9
$DIMEXE
 40
0.18
  9
$DIMTP
 40
0.0
  9
$DIMTM
 40
0.0
  9
$DIMTXT
 40
0.18
  9
$DIMCEN
 40
0.09
  9
$DIMTSZ
 40
0.0
  9
$DIMTOL
 70
     0
  9
$DIMLIM
 70
     0
  9
$DIMTIH
 70
     1
  9
$DIMTOH
 70
     1
  9
$DIMSE1
 70
     0
  9
$DIMSE2
 70
     0
  9
$DIMTAD
 70
     0
  9
$DIMZIN
 70
     0
  9
$DIMBLK
  1

  9
$DIMASO
 70
     1
  9
$DIMSHO
 70
     1
  9
$DIMPOST
  1

  9
$DIMAPOST
  1

  9
$DIMALT
 70
     0
  9
$DIMALTD
 70
     2
  9
$DIMALTF
 40
25.4
  9
$DIMLFAC
 40
1.0
  9
$DIMTOFL
 70
     0
  9
$DIMTVP
 40
0.0
  9
$DIMTIX
 70
     0
  9
$DIMSOXD
 70
     0
  9
$DIMSAH
 70
     0
  9
$DIMBLK1
  1

  9
$DIMBLK2
  1

  9
$DIMSTYLE
  2
STANDARD
  9
$DIMCLRD
 70
     0
  9
$DIMCLRE
 70
     0
  9
$DIMCLRT
 70
     0
  9
$DIMTFAC
 40
1.0
  9
$DIMGAP
 40
0.09
  9
$LUNITS
 70
     2
  9
$LUPREC
 70
     4
  9
$AXISMODE
 70
     0
  9
$AXISUNIT
 10
0.0
 20
0.0
  9
$SKETCHINC
 40
0.1
  9
$FILLETRAD
 40
0.0
  9
$AUNITS
 70
     0
  9
$AUPREC
 70
     0
  9
$MENU
  1
acad
  9
$ELEVATION
 40
0.0
  9
$PELEVATION
 40
0.0
  9
$THICKNESS
 40
0.0
  9
$LIMCHECK
 70
     0
  9
$BLIPMODE
 70
     1
  9
$CHAMFERA
 40
0.0
  9
$CHAMFERB
 40
0.0
  9
$SKPOLY
 70
     0
  9
$TDCREATE
 40
0.000000000
  9
$TDUPDATE
 40
0.000000000
  9
$TDINDWG
 40
0.0000000000
  9
$TDUSRTIMER
 40
0.0000000000
  9
$USRTIMER
 70
     1
  9
$ANGBASE
 50
0.0
  9
$ANGDIR
 70
     0
  9
$PDMODE
 70
     0
  9
$PDSIZE
 40
0.0
  9
$PLINEWID
 40
0.0
  9
$COORDS
 70
     0
  9
$SPLFRAME
 70
     0
  9
$SPLINETYPE
 70
     6
  9
$SPLINESEGS
 70
     8
  9
$ATTDIA
 70
     0
  9
$ATTREQ
 70
     1
  9
$HANDLING
 70
     1
  9
$HANDSEED
  5
2A8
  9
$SURFTAB1
 70
     6
  9
$SURFTAB2
 70
     6
  9
$SURFTYPE
 70
     6
  9
$SURFU
 70
     6
  9
$SURFV
 70
     6
  9
$UCSNAME
  2

  9
$UCSORG
 10
0.0
 20
0.0
 30
0.0
  9
$UCSXDIR
 10
1.0
 20
0.0
 30
0.0
  9
$UCSYDIR
 10
0.0
 20
1.0
 30
0.0
  9
$PUCSNAME
  2

  9
$PUCSORG
 10
0.0
 20
0.0
 30
0.0
  9
$PUCSXDIR
 10
1.0
 20
0.0
 30
0.0
  9
$PUCSYDIR
 10
0.0
 20
1.0
 30
0.0
  9
$USERI1
 70
     0
  9
$USERI2
 70
     0
  9
$USERI3
 70
     0
  9
$USERI4
 70
     0
  9
$USERI5
 70
     0
  9
$USERR1
 40
0.0
  9
$USERR2
 40
0.0
  9
$USERR3
 40
0.0
  9
$USERR4
 40
0.0
  9
$USERR5
 40
0.0
  9
$WORLDVIEW
 70
     1
  9
$SHADEDGE
 70
     3
  9
$SHADEDIF
 70
    70
  9
$TILEMODE
 70
     1
  9
$MAXACTVP
 70
    16
  9
$PINSBASE
 10
0.0
 20
0.0
 30
0.0
  9
$PLIMCHECK
 70
     0
  9
$PEXTMIN
 10
1.000000E+20
 20
1.000000E+20
 30
1.000000E+20
  9
$PEXTMAX
 10
-1.000000E+20
 20
-1.000000E+20
 30
-1.000000E+20
  9
$PLIMMIN
 10
0.0
 20
0.0
  9
$PLIMMAX
 10
12.0
 20
9.0
  9
$UNITMODE
 70
     0
  9
$VISRETAIN
 70
     0
  9
$PLINEGEN
 70
     1
  9
$PSLTSCALE
 70
     0
  9
$TREEDEPTH
 70
  3020
  0
ENDSEC
  0
SECTION
  2
TABLES
  0
TABLE
  2
VPORT
 70
     1
  0
VPORT
  2
*ACTIVE
 70
     0
 10
0.0
 20
0.0
 11
1.0
 21
1.0
 12
6.591288
 22
4.579184
 13
0.0
 23
0.0
 14
1.0
 24
1.0
 15
0.0
 25
0.0
 16
0.0
 26
0.0
 36
1.0
 17
0.0
 27
0.0
 37
0.0
 40
9.158369
 41
0.688564
 42
50.0
 43
0.0
 44
0.0
 50
0.0
 51
0.0
 71
     0
 72
   100
 73
     1
 74
     1
 75
     0
 76
     0
 77
     0
 78
     0
  0
ENDTAB
  0
TABLE
  2
LTYPE
 70
     5
  0
LTYPE
  2
CONTINUOUS
 70
    64
  3
Solid line
 72
    65
 73
     0
 40
0.0
  0
LTYPE
  2
CENTER
 70
    64
  3
Center ____ _ ____ _ ____ _ ____ _ ____ _ ____
 72
    65
 73
     4
 40
50.8
 49
31.75
 49
-6.35
 49
6.35
 49
-6.35
  0
LTYPE
  2
HIDDEN
 70
    64
  3
Hidden __ __ __ __ __ __ __ __ __ __ __ __ __ __
 72
    65
 73
     2
 40
9.525
 49
6.35
 49
-3.175
  0
LTYPE
  2
CENTER2
 70
    64
  3
Center (.5x) ___ _ ___ _ ___ _ ___ _ ___ _ ___
 72
    65
 73
     4
 40
28.575
 49
19.05
 49
-3.175
 49
3.175
 49
-3.175
  0
LTYPE
  2
HIDDEN2
 70
    64
  3
Hidden (.5x) _ _ _ _ _ _ _ _ _ _ _ _ _ _ _ _ _
 72
    65
 73
     2
 40
4.7625
 49
3.175
 49
-1.5875
  0
ENDTAB
  0
TABLE
  2
LAYER
 70
     1
  0
LAYER
  2
0
 70
     0
 62
     7
  6
CONTINUOUS
  0
ENDTAB
  0
TABLE
  2
STYLE
 70
     1
  0
STYLE
  2
STANDARD
 70
     0
 40
0.0
 41
1.0
 50
0.0
 71
     0
 42
0.0
  3
txt
  4

  0
ENDTAB
  0
TABLE
  2
VIEW
 70
     0
  0
ENDTAB
  0
TABLE
  2
UCS
 70
     0
  0
ENDTAB
  0
TABLE
  2
APPID
 70
     1
  0
APPID
  2
ACAD
 70
     0
  0
ENDTAB
  0
TABLE
  2
DIMSTYLE
 70
     1
  0
DIMSTYLE
  2
STANDARD
 70
     0
  3

  4

  5

  6

  7

 40
1.0
 41
0.18
 42
0.0625
 43
0.38
 44
0.18
 45
0.0
 46
0.0
 47
0.0
 48
0.0
 71
     0
 72
     0
 73
     1
 74
     1
 75
     0
 76
     0
 77
     0
 78
     0
140
0.18
141
0.09
142
0.0
143
25.4
144
1.0
145
0.0
146
1.0
147
0.09
170
     0
171
     2
172
     0
173
     0
174
     0
175
     0
176
     0
177
     0
178
     0
  0
ENDTAB
  0
ENDSEC
  0
SECTION
  2
BLOCKS
  0
ENDSEC
  0
SECTION
  2
ENTITIES
  0
LINE
  8
0
  6
CONTINUOUS
 62
     7
  5
176
 10
0.0
 20
0.452756
 30
0.0
 11
0.0
 21
-0.452756
 31
0.0
  0
LINE
  8
0
  6
CONTINUOUS
 62
     7
  5
177
 10
-1.460762
 20
0.33183
 30
0.0
 11
-1.460762
 21
0.092229
 31
0.0
  0
LINE
  8
0
  6
CONTINUOUS
 62
     7
  5
178
 10
-1.460762
 20
0.092229
 30
0.0
 11
-1.460996
 21
0.09075
 31
0.0
  0
LINE
  8
0
  6
CONTINUOUS
 62
     7
  5
179
 10
-1.460996
 20
0.09075
 30
0.0
 11
-1.461229
 21
0.089271
 31
0.0
  0
LINE
  8
0
  6
CONTINUOUS
 62
     7
  5
17A
 10
-1.461229
 20
0.089271
 30
0.0
 11
-1.461459
 21
0.087792
 31
0.0
  0
LINE
  8
0
  6
CONTINUOUS
 62
     7
  5
17B
 10
-1.461459
 20
0.087792
 30
0.0
 11
-1.461688
 21
0.086312
 31
0.0
  0
LINE
  8
0
  6
CONTINUOUS
 62
     7
  5
17C
 10
-1.461688
 20
0.086312
 30
0.0
 11
-1.461915
 21
0.084833
 31
0.0
  0
LINE
  8
0
  6
CONTINUOUS
 62
     7
  5
17D
 10
-1.461915
 20
0.084833
 30
0.0
 11
-1.462141
 21
0.083353
 31
0.0
  0
LINE
  8
0
  6
CONTINUOUS
 62
     7
  5
17E
 10
-1.462141
 20
0.083353
 30
0.0
 11
-1.462364
 21
0.081872
 31
0.0
  0
LINE
  8
0
  6
CONTINUOUS
 62
     7
  5
17F
 10
-1.462364
 20
0.081872
 30
0.0
 11
-1.462586
 21
0.080392
 31
0.0
  0
LINE
  8
0
  6
CONTINUOUS
 62
     7
  5
180
 10
-1.462586
 20
0.080392
 30
0.0
 11
-1.462806
 21
0.078911
 31
0.0
  0
LINE
  8
0
  6
CONTINUOUS
 62
     7
  5
181
 10
-1.462806
 20
0.078911
 30
0.0
 11
-1.463025
 21
0.077431
 31
0.0
  0
LINE
  8
0
  6
CONTINUOUS
 62
     7
  5
182
 10
-1.463025
 20
0.077431
 30
0.0
 11
-1.463241
 21
0.075949
 31
0.0
  0
LINE
  8
0
  6
CONTINUOUS
 62
     7
  5
183
 10
-1.463241
 20
0.075949
 30
0.0
 11
-1.463456
 21
0.074468
 31
0.0
  0
LINE
  8
0
  6
CONTINUOUS
 62
     7
  5
184
 10
-1.463456
 20
0.074468
 30
0.0
 11
-1.463669
 21
0.072987
 31
0.0
  0
LINE
  8
0
  6
CONTINUOUS
 62
     7
  5
185
 10
-1.463669
 20
0.072987
 30
0.0
 11
-1.463881
 21
0.071505
 31
0.0
  0
LINE
  8
0
  6
CONTINUOUS
 62
     7
  5
186
 10
-1.463881
 20
0.071505
 30
0.0
 11
-1.46409
 21
0.070023
 31
0.0
  0
LINE
  8
0
  6
CONTINUOUS
 62
     7
  5
187
 10
-1.46409
 20
0.070023
 30
0.0
 11
-1.464298
 21
0.068541
 31
0.0
  0
LINE
  8
0
  6
CONTINUOUS
 62
     7
  5
188
 10
-1.464298
 20
0.068541
 30
0.0
 11
-1.464504
 21
0.067059
 31
0.0
  0
LINE
  8
0
  6
CONTINUOUS
 62
     7
  5
189
 10
-1.464504
 20
0.067059
 30
0.0
 11
-1.464709
 21
0.065576
 31
0.0
  0
LINE
  8
0
  6
CONTINUOUS
 62
     7
  5
18A
 10
-1.464709
 20
0.065576
 30
0.0
 11
-1.464911
 21
0.064094
 31
0.0
  0
LINE
  8
0
  6
CONTINUOUS
 62
     7
  5
18B
 10
-1.464911
 20
0.064094
 30
0.0
 11
-1.465112
 21
0.062611
 31
0.0
  0
LINE
  8
0
  6
CONTINUOUS
 62
     7
  5
18C
 10
-1.465112
 20
0.062611
 30
0.0
 11
-1.465312
 21
0.061128
 31
0.0
  0
LINE
  8
0
  6
CONTINUOUS
 62
     7
  5
18D
 10
-1.465312
 20
0.061128
 30
0.0
 11
-1.465509
 21
0.059645
 31
0.0
  0
LINE
  8
0
  6
CONTINUOUS
 62
     7
  5
18E
 10
-1.465509
 20
0.059645
 30
0.0
 11
-1.465705
 21
0.058161
 31
0.0
  0
LINE
  8
0
  6
CONTINUOUS
 62
     7
  5
18F
 10
-1.465705
 20
0.058161
 30
0.0
 11
-1.465899
 21
0.056678
 31
0.0
  0
LINE
  8
0
  6
CONTINUOUS
 62
     7
  5
190
 10
-1.465899
 20
0.056678
 30
0.0
 11
-1.466091
 21
0.055194
 31
0.0
  0
LINE
  8
0
  6
CONTINUOUS
 62
     7
  5
191
 10
-1.466091
 20
0.055194
 30
0.0
 11
-1.466281
 21
0.05371
 31
0.0
  0
LINE
  8
0
  6
CONTINUOUS
 62
     7
  5
192
 10
-1.466281
 20
0.05371
 30
0.0
 11
-1.46647
 21
0.052226
 31
0.0
  0
LINE
  8
0
  6
CONTINUOUS
 62
     7
  5
193
 10
-1.46647
 20
0.052226
 30
0.0
 11
-1.466657
 21
0.050741
 31
0.0
  0
LINE
  8
0
  6
CONTINUOUS
 62
     7
  5
194
 10
-1.466657
 20
0.050741
 30
0.0
 11
-1.466842
 21
0.049257
 31
0.0
  0
LINE
  8
0
  6
CONTINUOUS
 62
     7
  5
195
 10
-1.466842
 20
0.049257
 30
0.0
 11
-1.467025
 21
0.047772
 31
0.0
  0
LINE
  8
0
  6
CONTINUOUS
 62
     7
  5
196
 10
-1.467025
 20
0.047772
 30
0.0
 11
-1.467207
 21
0.046287
 31
0.0
  0
LINE
  8
0
  6
CONTINUOUS
 62
     7
  5
197
 10
-1.467207
 20
0.046287
 30
0.0
 11
-1.467387
 21
0.044802
 31
0.0
  0
LINE
  8
0
  6
CONTINUOUS
 62
     7
  5
198
 10
-1.467387
 20
0.044802
 30
0.0
 11
-1.467565
 21
0.043317
 31
0.0
  0
LINE
  8
0
  6
CONTINUOUS
 62
     7
  5
199
 10
-1.467565
 20
0.043317
 30
0.0
 11
-1.467741
 21
0.041831
 31
0.0
  0
LINE
  8
0
  6
CONTINUOUS
 62
     7
  5
19A
 10
-1.467741
 20
0.041831
 30
0.0
 11
-1.467916
 21
0.040346
 31
0.0
  0
LINE
  8
0
  6
CONTINUOUS
 62
     7
  5
19B
 10
-1.467916
 20
0.040346
 30
0.0
 11
-1.468135
 21
0.04131
 31
0.0
  0
LINE
  8
0
  6
CONTINUOUS
 62
     7
  5
19C
 10
-1.468135
 20
0.04131
 30
0.0
 11
-1.468352
 21
0.042275
 31
0.0
  0
LINE
  8
0
  6
CONTINUOUS
 62
     7
  5
19D
 10
-1.468352
 20
0.042275
 30
0.0
 11
-1.468568
 21
0.043239
 31
0.0
  0
LINE
  8
0
  6
CONTINUOUS
 62
     7
  5
19E
 10
-1.468568
 20
0.043239
 30
0.0
 11
-1.468781
 21
0.044204
 31
0.0
  0
LINE
  8
0
  6
CONTINUOUS
 62
     7
  5
19F
 10
-1.468781
 20
0.044204
 30
0.0
 11
-1.468993
 21
0.045169
 31
0.0
  0
LINE
  8
0
  6
CONTINUOUS
 62
     7
  5
1A0
 10
-1.468993
 20
0.045169
 30
0.0
 11
-1.469204
 21
0.046133
 31
0.0
  0
LINE
  8
0
  6
CONTINUOUS
 62
     7
  5
1A1
 10
-1.469204
 20
0.046133
 30
0.0
 11
-1.469413
 21
0.047098
 31
0.0
  0
LINE
  8
0
  6
CONTINUOUS
 62
     7
  5
1A2
 10
-1.469413
 20
0.047098
 30
0.0
 11
-1.46962
 21
0.048064
 31
0.0
  0
LINE
  8
0
  6
CONTINUOUS
 62
     7
  5
1A3
 10
-1.46962
 20
0.048064
 30
0.0
 11
-1.469825
 21
0.049029
 31
0.0
  0
LINE
  8
0
  6
CONTINUOUS
 62
     7
  5
1A4
 10
-1.469825
 20
0.049029
 30
0.0
 11
-1.470029
 21
0.049994
 31
0.0
  0
LINE
  8
0
  6
CONTINUOUS
 62
     7
  5
1A5
 10
-1.470029
 20
0.049994
 30
0.0
 11
-1.470231
 21
0.05096
 31
0.0
  0
LINE
  8
0
  6
CONTINUOUS
 62
     7
  5
1A6
 10
-1.470231
 20
0.05096
 30
0.0
 11
-1.470431
 21
0.051926
 31
0.0
  0
LINE
  8
0
  6
CONTINUOUS
 62
     7
  5
1A7
 10
-1.470431
 20
0.051926
 30
0.0
 11
-1.47063
 21
0.052891
 31
0.0
  0
LINE
  8
0
  6
CONTINUOUS
 62
     7
  5
1A8
 10
-1.47063
 20
0.052891
 30
0.0
 11
-1.470827
 21
0.053857
 31
0.0
  0
LINE
  8
0
  6
CONTINUOUS
 62
     7
  5
1A9
 10
-1.470827
 20
0.053857
 30
0.0
 11
-1.471023
 21
0.054823
 31
0.0
  0
LINE
  8
0
  6
CONTINUOUS
 62
     7
  5
1AA
 10
-1.471023
 20
0.054823
 30
0.0
 11
-1.471216
 21
0.05579
 31
0.0
  0
LINE
  8
0
  6
CONTINUOUS
 62
     7
  5
1AB
 10
-1.471216
 20
0.05579
 30
0.0
 11
-1.471408
 21
0.056756
 31
0.0
  0
LINE
  8
0
  6
CONTINUOUS
 62
     7
  5
1AC
 10
-1.471408
 20
0.056756
 30
0.0
 11
-1.471599
 21
0.057722
 31
0.0
  0
LINE
  8
0
  6
CONTINUOUS
 62
     7
  5
1AD
 10
-1.471599
 20
0.057722
 30
0.0
 11
-1.471787
 21
0.058689
 31
0.0
  0
LINE
  8
0
  6
CONTINUOUS
 62
     7
  5
1AE
 10
-1.471787
 20
0.058689
 30
0.0
 11
-1.471974
 21
0.059656
 31
0.0
  0
LINE
  8
0
  6
CONTINUOUS
 62
     7
  5
1AF
 10
-1.471974
 20
0.059656
 30
0.0
 11
-1.47216
 21
0.060622
 31
0.0
  0
LINE
  8
0
  6
CONTINUOUS
 62
     7
  5
1B0
 10
-1.47216
 20
0.060622
 30
0.0
 11
-1.472343
 21
0.061589
 31
0.0
  0
LINE
  8
0
  6
CONTINUOUS
 62
     7
  5
1B1
 10
-1.472343
 20
0.061589
 30
0.0
 11
-1.472525
 21
0.062556
 31
0.0
  0
LINE
  8
0
  6
CONTINUOUS
 62
     7
  5
1B2
 10
-1.472525
 20
0.062556
 30
0.0
 11
-1.472705
 21
0.063523
 31
0.0
  0
LINE
  8
0
  6
CONTINUOUS
 62
     7
  5
1B3
 10
-1.472705
 20
0.063523
 30
0.0
 11
-1.472884
 21
0.06449
 31
0.0
  0
LINE
  8
0
  6
CONTINUOUS
 62
     7
  5
1B4
 10
-1.472884
 20
0.06449
 30
0.0
 11
-1.473061
 21
0.065458
 31
0.0
  0
LINE
  8
0
  6
CONTINUOUS
 62
     7
  5
1B5
 10
-1.473061
 20
0.065458
 30
0.0
 11
-1.473236
 21
0.066425
 31
0.0
  0
LINE
  8
0
  6
CONTINUOUS
 62
     7
  5
1B6
 10
-1.473236
 20
0.066425
 30
0.0
 11
-1.47341
 21
0.067393
 31
0.0
  0
LINE
  8
0
  6
CONTINUOUS
 62
     7
  5
1B7
 10
-1.47341
 20
0.067393
 30
0.0
 11
-1.473581
 21
0.06836
 31
0.0
  0
LINE
  8
0
  6
CONTINUOUS
 62
     7
  5
1B8
 10
-1.473581
 20
0.06836
 30
0.0
 11
-1.473752
 21
0.069328
 31
0.0
  0
LINE
  8
0
  6
CONTINUOUS
 62
     7
  5
1B9
 10
-1.473752
 20
0.069328
 30
0.0
 11
-1.47392
 21
0.070296
 31
0.0
  0
LINE
  8
0
  6
CONTINUOUS
 62
     7
  5
1BA
 10
-1.47392
 20
0.070296
 30
0.0
 11
-1.474087
 21
0.071264
 31
0.0
  0
LINE
  8
0
  6
CONTINUOUS
 62
     7
  5
1BB
 10
-1.474087
 20
0.071264
 30
0.0
 11
-1.474252
 21
0.072232
 31
0.0
  0
LINE
  8
0
  6
CONTINUOUS
 62
     7
  5
1BC
 10
-1.474252
 20
0.072232
 30
0.0
 11
-1.474416
 21
0.0732
 31
0.0
  0
LINE
  8
0
  6
CONTINUOUS
 62
     7
  5
1BD
 10
-1.474416
 20
0.0732
 30
0.0
 11
-1.474577
 21
0.074169
 31
0.0
  0
LINE
  8
0
  6
CONTINUOUS
 62
     7
  5
1BE
 10
-1.474577
 20
0.074169
 30
0.0
 11
-1.463499
 21
0.074169
 31
0.0
  0
LINE
  8
0
  6
CONTINUOUS
 62
     7
  5
1BF
 10
-1.474577
 20
0.074169
 30
0.0
 11
-1.474573
 21
0.083398
 31
0.0
  0
LINE
  8
0
  6
CONTINUOUS
 62
     7
  5
1C0
 10
-1.474573
 20
0.083398
 30
0.0
 11
-1.474569
 21
0.092504
 31
0.0
  0
LINE
  8
0
  6
CONTINUOUS
 62
     7
  5
1C1
 10
-1.474569
 20
0.092504
 30
0.0
 11
-1.474565
 21
0.101467
 31
0.0
  0
LINE
  8
0
  6
CONTINUOUS
 62
     7
  5
1C2
 10
-1.474565
 20
0.101467
 30
0.0
 11
-1.474562
 21
0.110266
 31
0.0
  0
LINE
  8
0
  6
CONTINUOUS
 62
     7
  5
1C3
 10
-1.474562
 20
0.110266
 30
0.0
 11
-1.474559
 21
0.11888
 31
0.0
  0
LINE
  8
0
  6
CONTINUOUS
 62
     7
  5
1C4
 10
-1.474559
 20
0.11888
 30
0.0
 11
-1.474556
 21
0.12729
 31
0.0
  0
LINE
  8
0
  6
CONTINUOUS
 62
     7
  5
1C5
 10
-1.474556
 20
0.12729
 30
0.0
 11
-1.474553
 21
0.135476
 31
0.0
  0
LINE
  8
0
  6
CONTINUOUS
 62
     7
  5
1C6
 10
-1.474553
 20
0.135476
 30
0.0
 11
-1.47455
 21
0.143422
 31
0.0
  0
LINE
  8
0
  6
CONTINUOUS
 62
     7
  5
1C7
 10
-1.47455
 20
0.143422
 30
0.0
 11
-1.474548
 21
0.15111
 31
0.0
  0
LINE
  8
0
  6
CONTINUOUS
 62
     7
  5
1C8
 10
-1.474548
 20
0.15111
 30
0.0
 11
-1.474546
 21
0.158527
 31
0.0
  0
LINE
  8
0
  6
CONTINUOUS
 62
     7
  5
1C9
 10
-1.474546
 20
0.158527
 30
0.0
 11
-1.474544
 21
0.165676
 31
0.0
  0
LINE
  8
0
  6
CONTINUOUS
 62
     7
  5
1CA
 10
-1.474544
 20
0.165676
 30
0.0
 11
-1.474542
 21
0.172674
 31
0.0
  0
LINE
  8
0
  6
CONTINUOUS
 62
     7
  5
1CB
 10
-1.474542
 20
0.172674
 30
0.0
 11
-1.474541
 21
0.179525
 31
0.0
  0
LINE
  8
0
  6
CONTINUOUS
 62
     7
  5
1CC
 10
-1.474541
 20
0.179525
 30
0.0
 11
-1.47454
 21
0.186203
 31
0.0
  0
LINE
  8
0
  6
CONTINUOUS
 62
     7
  5
1CD
 10
-1.47454
 20
0.186203
 30
0.0
 11
-1.474539
 21
0.192685
 31
0.0
  0
LINE
  8
0
  6
CONTINUOUS
 62
     7
  5
1CE
 10
-1.474539
 20
0.192685
 30
0.0
 11
-1.474538
 21
0.19895
 31
0.0
  0
LINE
  8
0
  6
CONTINUOUS
 62
     7
  5
1CF
 10
-1.474538
 20
0.19895
 30
0.0
 11
-1.474538
 21
0.204977
 31
0.0
  0
LINE
  8
0
  6
CONTINUOUS
 62
     7
  5
1D0
 10
-1.474538
 20
0.204977
 30
0.0
 11
-1.474537
 21
0.210745
 31
0.0
  0
LINE
  8
0
  6
CONTINUOUS
 62
     7
  5
1D1
 10
-1.474537
 20
0.210745
 30
0.0
 11
-1.474537
 21
0.216238
 31
0.0
  0
LINE
  8
0
  6
CONTINUOUS
 62
     7
  5
1D2
 10
-1.474537
 20
0.216238
 30
0.0
 11
-1.474538
 21
0.22144
 31
0.0
  0
LINE
  8
0
  6
CONTINUOUS
 62
     7
  5
1D3
 10
-1.474538
 20
0.22144
 30
0.0
 11
-1.474538
 21
0.226339
 31
0.0
  0
LINE
  8
0
  6
CONTINUOUS
 62
     7
  5
1D4
 10
-1.474538
 20
0.226339
 30
0.0
 11
-1.474539
 21
0.230923
 31
0.0
  0
LINE
  8
0
  6
CONTINUOUS
 62
     7
  5
1D5
 10
-1.474539
 20
0.230923
 30
0.0
 11
-1.47454
 21
0.235182
 31
0.0
  0
LINE
  8
0
  6
CONTINUOUS
 62
     7
  5
1D6
 10
-1.47454
 20
0.235182
 30
0.0
 11
-1.474541
 21
0.239107
 31
0.0
  0
LINE
  8
0
  6
CONTINUOUS
 62
     7
  5
1D7
 10
-1.474541
 20
0.239107
 30
0.0
 11
-1.474543
 21
0.242693
 31
0.0
  0
LINE
  8
0
  6
CONTINUOUS
 62
     7
  5
1D8
 10
-1.474543
 20
0.242693
 30
0.0
 11
-1.474544
 21
0.245931
 31
0.0
  0
LINE
  8
0
  6
CONTINUOUS
 62
     7
  5
1D9
 10
-1.474544
 20
0.245931
 30
0.0
 11
-1.474546
 21
0.24882
 31
0.0
  0
LINE
  8
0
  6
CONTINUOUS
 62
     7
  5
1DA
 10
-1.474546
 20
0.24882
 30
0.0
 11
-1.474549
 21
0.251355
 31
0.0
  0
LINE
  8
0
  6
CONTINUOUS
 62
     7
  5
1DB
 10
-1.474549
 20
0.251355
 30
0.0
 11
-1.474551
 21
0.253537
 31
0.0
  0
LINE
  8
0
  6
CONTINUOUS
 62
     7
  5
1DC
 10
-1.474551
 20
0.253537
 30
0.0
 11
-1.474554
 21
0.255369
 31
0.0
  0
LINE
  8
0
  6
CONTINUOUS
 62
     7
  5
1DD
 10
-1.474554
 20
0.255369
 30
0.0
 11
-1.474557
 21
0.256855
 31
0.0
  0
LINE
  8
0
  6
CONTINUOUS
 62
     7
  5
1DE
 10
-1.474557
 20
0.256855
 30
0.0
 11
-1.47456
 21
0.258
 31
0.0
  0
LINE
  8
0
  6
CONTINUOUS
 62
     7
  5
1DF
 10
-1.47456
 20
0.258
 30
0.0
 11
-1.474563
 21
0.258824
 31
0.0
  0
LINE
  8
0
  6
CONTINUOUS
 62
     7
  5
1E0
 10
-1.474563
 20
0.258824
 30
0.0
 11
-1.474566
 21
0.259327
 31
0.0
  0
LINE
  8
0
  6
CONTINUOUS
 62
     7
  5
1E1
 10
-1.474566
 20
0.259327
 30
0.0
 11
-1.47457
 21
0.259496
 31
0.0
  0
LINE
  8
0
  6
CONTINUOUS
 62
     7
  5
1E2
 10
-1.468108
 20
-0.083199
 30
0.0
 11
-1.467936
 21
-0.081894
 31
0.0
  0
LINE
  8
0
  6
CONTINUOUS
 62
     7
  5
1E3
 10
-1.467936
 20
-0.081894
 30
0.0
 11
-1.467762
 21
-0.08059
 31
0.0
  0
LINE
  8
0
  6
CONTINUOUS
 62
     7
  5
1E4
 10
-1.467762
 20
-0.08059
 30
0.0
 11
-1.467585
 21
-0.079286
 31
0.0
  0
LINE
  8
0
  6
CONTINUOUS
 62
     7
  5
1E5
 10
-1.467585
 20
-0.079286
 30
0.0
 11
-1.467406
 21
-0.077982
 31
0.0
  0
LINE
  8
0
  6
CONTINUOUS
 62
     7
  5
1E6
 10
-1.467406
 20
-0.077982
 30
0.0
 11
-1.467225
 21
-0.076678
 31
0.0
  0
LINE
  8
0
  6
CONTINUOUS
 62
     7
  5
1E7
 10
-1.467225
 20
-0.076678
 30
0.0
 11
-1.467042
 21
-0.075374
 31
0.0
  0
LINE
  8
0
  6
CONTINUOUS
 62
     7
  5
1E8
 10
-1.467042
 20
-0.075374
 30
0.0
 11
-1.466856
 21
-0.07407
 31
0.0
  0
LINE
  8
0
  6
CONTINUOUS
 62
     7
  5
1E9
 10
-1.466856
 20
-0.07407
 30
0.0
 11
-1.466668
 21
-0.072767
 31
0.0
  0
LINE
  8
0
  6
CONTINUOUS
 62
     7
  5
1EA
 10
-1.466668
 20
-0.072767
 30
0.0
 11
-1.466478
 21
-0.071463
 31
0.0
  0
LINE
  8
0
  6
CONTINUOUS
 62
     7
  5
1EB
 10
-1.466478
 20
-0.071463
 30
0.0
 11
-1.466286
 21
-0.07016
 31
0.0
  0
LINE
  8
0
  6
CONTINUOUS
 62
     7
  5
1EC
 10
-1.466286
 20
-0.07016
 30
0.0
 11
-1.466092
 21
-0.068857
 31
0.0
  0
LINE
  8
0
  6
CONTINUOUS
 62
     7
  5
1ED
 10
-1.466092
 20
-0.068857
 30
0.0
 11
-1.465895
 21
-0.067554
 31
0.0
  0
LINE
  8
0
  6
CONTINUOUS
 62
     7
  5
1EE
 10
-1.465895
 20
-0.067554
 30
0.0
 11
-1.465696
 21
-0.066252
 31
0.0
  0
LINE
  8
0
  6
CONTINUOUS
 62
     7
  5
1EF
 10
-1.465696
 20
-0.066252
 30
0.0
 11
-1.465495
 21
-0.064949
 31
0.0
  0
LINE
  8
0
  6
CONTINUOUS
 62
     7
  5
1F0
 10
-1.465495
 20
-0.064949
 30
0.0
 11
-1.465292
 21
-0.063647
 31
0.0
  0
LINE
  8
0
  6
CONTINUOUS
 62
     7
  5
1F1
 10
-1.465292
 20
-0.063647
 30
0.0
 11
-1.465087
 21
-0.062345
 31
0.0
  0
LINE
  8
0
  6
CONTINUOUS
 62
     7
  5
1F2
 10
-1.465087
 20
-0.062345
 30
0.0
 11
-1.464879
 21
-0.061043
 31
0.0
  0
LINE
  8
0
  6
CONTINUOUS
 62
     7
  5
1F3
 10
-1.464879
 20
-0.061043
 30
0.0
 11
-1.464669
 21
-0.059741
 31
0.0
  0
LINE
  8
0
  6
CONTINUOUS
 62
     7
  5
1F4
 10
-1.464669
 20
-0.059741
 30
0.0
 11
-1.464457
 21
-0.058439
 31
0.0
  0
LINE
  8
0
  6
CONTINUOUS
 62
     7
  5
1F5
 10
-1.464457
 20
-0.058439
 30
0.0
 11
-1.464243
 21
-0.057138
 31
0.0
  0
LINE
  8
0
  6
CONTINUOUS
 62
     7
  5
1F6
 10
-1.464243
 20
-0.057138
 30
0.0
 11
-1.464026
 21
-0.055836
 31
0.0
  0
LINE
  8
0
  6
CONTINUOUS
 62
     7
  5
1F7
 10
-1.464026
 20
-0.055836
 30
0.0
 11
-1.463807
 21
-0.054535
 31
0.0
  0
LINE
  8
0
  6
CONTINUOUS
 62
     7
  5
1F8
 10
-1.463807
 20
-0.054535
 30
0.0
 11
-1.463586
 21
-0.053234
 31
0.0
  0
LINE
  8
0
  6
CONTINUOUS
 62
     7
  5
1F9
 10
-1.463586
 20
-0.053234
 30
0.0
 11
-1.463363
 21
-0.051934
 31
0.0
  0
LINE
  8
0
  6
CONTINUOUS
 62
     7
  5
1FA
 10
-1.463363
 20
-0.051934
 30
0.0
 11
-1.463138
 21
-0.050633
 31
0.0
  0
LINE
  8
0
  6
CONTINUOUS
 62
     7
  5
1FB
 10
-1.463138
 20
-0.050633
 30
0.0
 11
-1.46291
 21
-0.049333
 31
0.0
  0
LINE
  8
0
  6
CONTINUOUS
 62
     7
  5
1FC
 10
-1.46291
 20
-0.049333
 30
0.0
 11
-1.46268
 21
-0.048033
 31
0.0
  0
LINE
  8
0
  6
CONTINUOUS
 62
     7
  5
1FD
 10
-1.46268
 20
-0.048033
 30
0.0
 11
-1.462448
 21
-0.046733
 31
0.0
  0
LINE
  8
0
  6
CONTINUOUS
 62
     7
  5
1FE
 10
-1.462448
 20
-0.046733
 30
0.0
 11
-1.462214
 21
-0.045433
 31
0.0
  0
LINE
  8
0
  6
CONTINUOUS
 62
     7
  5
1FF
 10
-1.462214
 20
-0.045433
 30
0.0
 11
-1.461978
 21
-0.044133
 31
0.0
  0
LINE
  8
0
  6
CONTINUOUS
 62
     7
  5
200
 10
-1.461978
 20
-0.044133
 30
0.0
 11
-1.461739
 21
-0.042834
 31
0.0
  0
LINE
  8
0
  6
CONTINUOUS
 62
     7
  5
201
 10
-1.461739
 20
-0.042834
 30
0.0
 11
-1.461498
 21
-0.041535
 31
0.0
  0
LINE
  8
0
  6
CONTINUOUS
 62
     7
  5
202
 10
-1.461498
 20
-0.041535
 30
0.0
 11
-1.461255
 21
-0.040236
 31
0.0
  0
LINE
  8
0
  6
CONTINUOUS
 62
     7
  5
203
 10
-1.461255
 20
-0.040236
 30
0.0
 11
-1.46101
 21
-0.038937
 31
0.0
  0
LINE
  8
0
  6
CONTINUOUS
 62
     7
  5
204
 10
-1.46101
 20
-0.038937
 30
0.0
 11
-1.460762
 21
-0.037639
 31
0.0
  0
LINE
  8
0
  6
CONTINUOUS
 62
     7
  5
205
 10
-1.468108
 20
-0.083199
 30
0.0
 11
-1.460762
 21
-0.083199
 31
0.0
  0
LINE
  8
0
  6
CONTINUOUS
 62
     7
  5
206
 10
-1.460762
 20
-0.037639
 30
0.0
 11
-1.460762
 21
-0.33183
 31
0.0
  0
LINE
  8
0
  6
CONTINUOUS
 62
     7
  5
207
 10
-1.474806
 20
-0.029273
 30
0.0
 11
-1.474648
 21
-0.030817
 31
0.0
  0
LINE
  8
0
  6
CONTINUOUS
 62
     7
  5
208
 10
-1.474648
 20
-0.030817
 30
0.0
 11
-1.474487
 21
-0.03236
 31
0.0
  0
LINE
  8
0
  6
CONTINUOUS
 62
     7
  5
209
 10
-1.474487
 20
-0.03236
 30
0.0
 11
-1.474324
 21
-0.033904
 31
0.0
  0
LINE
  8
0
  6
CONTINUOUS
 62
     7
  5
20A
 10
-1.474324
 20
-0.033904
 30
0.0
 11
-1.47416
 21
-0.035447
 31
0.0
  0
LINE
  8
0
  6
CONTINUOUS
 62
     7
  5
20B
 10
-1.47416
 20
-0.035447
 30
0.0
 11
-1.473993
 21
-0.03699
 31
0.0
  0
LINE
  8
0
  6
CONTINUOUS
 62
     7
  5
20C
 10
-1.473993
 20
-0.03699
 30
0.0
 11
-1.473825
 21
-0.038533
 31
0.0
  0
LINE
  8
0
  6
CONTINUOUS
 62
     7
  5
20D
 10
-1.473825
 20
-0.038533
 30
0.0
 11
-1.473655
 21
-0.040076
 31
0.0
  0
LINE
  8
0
  6
CONTINUOUS
 62
     7
  5
20E
 10
-1.473655
 20
-0.040076
 30
0.0
 11
-1.473483
 21
-0.041619
 31
0.0
  0
LINE
  8
0
  6
CONTINUOUS
 62
     7
  5
20F
 10
-1.473483
 20
-0.041619
 30
0.0
 11
-1.473309
 21
-0.043161
 31
0.0
  0
LINE
  8
0
  6
CONTINUOUS
 62
     7
  5
210
 10
-1.473309
 20
-0.043161
 30
0.0
 11
-1.473133
 21
-0.044703
 31
0.0
  0
LINE
  8
0
  6
CONTINUOUS
 62
     7
  5
211
 10
-1.473133
 20
-0.044703
 30
0.0
 11
-1.472955
 21
-0.046246
 31
0.0
  0
LINE
  8
0
  6
CONTINUOUS
 62
     7
  5
212
 10
-1.472955
 20
-0.046246
 30
0.0
 11
-1.472775
 21
-0.047788
 31
0.0
  0
LINE
  8
0
  6
CONTINUOUS
 62
     7
  5
213
 10
-1.472775
 20
-0.047788
 30
0.0
 11
-1.472593
 21
-0.049329
 31
0.0
  0
LINE
  8
0
  6
CONTINUOUS
 62
     7
  5
214
 10
-1.472593
 20
-0.049329
 30
0.0
 11
-1.472409
 21
-0.050871
 31
0.0
  0
LINE
  8
0
  6
CONTINUOUS
 62
     7
  5
215
 10
-1.472409
 20
-0.050871
 30
0.0
 11
-1.472224
 21
-0.052412
 31
0.0
  0
LINE
  8
0
  6
CONTINUOUS
 62
     7
  5
216
 10
-1.472224
 20
-0.052412
 30
0.0
 11
-1.472036
 21
-0.053953
 31
0.0
  0
LINE
  8
0
  6
CONTINUOUS
 62
     7
  5
217
 10
-1.472036
 20
-0.053953
 30
0.0
 11
-1.471847
 21
-0.055495
 31
0.0
  0
LINE
  8
0
  6
CONTINUOUS
 62
     7
  5
218
 10
-1.471847
 20
-0.055495
 30
0.0
 11
-1.471655
 21
-0.057035
 31
0.0
  0
LINE
  8
0
  6
CONTINUOUS
 62
     7
  5
219
 10
-1.471655
 20
-0.057035
 30
0.0
 11
-1.471462
 21
-0.058576
 31
0.0
  0
LINE
  8
0
  6
CONTINUOUS
 62
     7
  5
21A
 10
-1.471462
 20
-0.058576
 30
0.0
 11
-1.471267
 21
-0.060116
 31
0.0
  0
LINE
  8
0
  6
CONTINUOUS
 62
     7
  5
21B
 10
-1.471267
 20
-0.060116
 30
0.0
 11
-1.47107
 21
-0.061657
 31
0.0
  0
LINE
  8
0
  6
CONTINUOUS
 62
     7
  5
21C
 10
-1.47107
 20
-0.061657
 30
0.0
 11
-1.470871
 21
-0.063197
 31
0.0
  0
LINE
  8
0
  6
CONTINUOUS
 62
     7
  5
21D
 10
-1.470871
 20
-0.063197
 30
0.0
 11
-1.47067
 21
-0.064737
 31
0.0
  0
LINE
  8
0
  6
CONTINUOUS
 62
     7
  5
21E
 10
-1.47067
 20
-0.064737
 30
0.0
 11
-1.470467
 21
-0.066276
 31
0.0
  0
LINE
  8
0
  6
CONTINUOUS
 62
     7
  5
21F
 10
-1.470467
 20
-0.066276
 30
0.0
 11
-1.470262
 21
-0.067816
 31
0.0
  0
LINE
  8
0
  6
CONTINUOUS
 62
     7
  5
220
 10
-1.470262
 20
-0.067816
 30
0.0
 11
-1.470055
 21
-0.069355
 31
0.0
  0
LINE
  8
0
  6
CONTINUOUS
 62
     7
  5
221
 10
-1.470055
 20
-0.069355
 30
0.0
 11
-1.469847
 21
-0.070894
 31
0.0
  0
LINE
  8
0
  6
CONTINUOUS
 62
     7
  5
222
 10
-1.469847
 20
-0.070894
 30
0.0
 11
-1.469636
 21
-0.072433
 31
0.0
  0
LINE
  8
0
  6
CONTINUOUS
 62
     7
  5
223
 10
-1.469636
 20
-0.072433
 30
0.0
 11
-1.469423
 21
-0.073972
 31
0.0
  0
LINE
  8
0
  6
CONTINUOUS
 62
     7
  5
224
 10
-1.469423
 20
-0.073972
 30
0.0
 11
-1.469209
 21
-0.07551
 31
0.0
  0
LINE
  8
0
  6
CONTINUOUS
 62
     7
  5
225
 10
-1.469209
 20
-0.07551
 30
0.0
 11
-1.468993
 21
-0.077048
 31
0.0
  0
LINE
  8
0
  6
CONTINUOUS
 62
     7
  5
226
 10
-1.468993
 20
-0.077048
 30
0.0
 11
-1.468775
 21
-0.078586
 31
0.0
  0
LINE
  8
0
  6
CONTINUOUS
 62
     7
  5
227
 10
-1.468775
 20
-0.078586
 30
0.0
 11
-1.468554
 21
-0.080124
 31
0.0
  0
LINE
  8
0
  6
CONTINUOUS
 62
     7
  5
228
 10
-1.468554
 20
-0.080124
 30
0.0
 11
-1.468332
 21
-0.081662
 31
0.0
  0
LINE
  8
0
  6
CONTINUOUS
 62
     7
  5
229
 10
-1.468332
 20
-0.081662
 30
0.0
 11
-1.468108
 21
-0.083199
 31
0.0
  0
LINE
  8
0
  6
CONTINUOUS
 62
     7
  5
22A
 10
-1.47457
 20
-0.259496
 30
0.0
 11
-1.474575
 21
-0.259248
 31
0.0
  0
LINE
  8
0
  6
CONTINUOUS
 62
     7
  5
22B
 10
-1.474575
 20
-0.259248
 30
0.0
 11
-1.474579
 21
-0.258551
 31
0.0
  0
LINE
  8
0
  6
CONTINUOUS
 62
     7
  5
22C
 10
-1.474579
 20
-0.258551
 30
0.0
 11
-1.474584
 21
-0.257398
 31
0.0
  0
LINE
  8
0
  6
CONTINUOUS
 62
     7
  5
22D
 10
-1.474584
 20
-0.257398
 30
0.0
 11
-1.47459
 21
-0.255786
 31
0.0
  0
LINE
  8
0
  6
CONTINUOUS
 62
     7
  5
22E
 10
-1.47459
 20
-0.255786
 30
0.0
 11
-1.474595
 21
-0.253714
 31
0.0
  0
LINE
  8
0
  6
CONTINUOUS
 62
     7
  5
22F
 10
-1.474595
 20
-0.253714
 30
0.0
 11
-1.474601
 21
-0.251186
 31
0.0
  0
LINE
  8
0
  6
CONTINUOUS
 62
     7
  5
230
 10
-1.474601
 20
-0.251186
 30
0.0
 11
-1.474607
 21
-0.248207
 31
0.0
  0
LINE
  8
0
  6
CONTINUOUS
 62
     7
  5
231
 10
-1.474607
 20
-0.248207
 30
0.0
 11
-1.474613
 21
-0.244786
 31
0.0
  0
LINE
  8
0
  6
CONTINUOUS
 62
     7
  5
232
 10
-1.474613
 20
-0.244786
 30
0.0
 11
-1.474619
 21
-0.240933
 31
0.0
  0
LINE
  8
0
  6
CONTINUOUS
 62
     7
  5
233
 10
-1.474619
 20
-0.240933
 30
0.0
 11
-1.474626
 21
-0.236661
 31
0.0
  0
LINE
  8
0
  6
CONTINUOUS
 62
     7
  5
234
 10
-1.474626
 20
-0.236661
 30
0.0
 11
-1.474632
 21
-0.231989
 31
0.0
  0
LINE
  8
0
  6
CONTINUOUS
 62
     7
  5
235
 10
-1.474632
 20
-0.231989
 30
0.0
 11
-1.474639
 21
-0.226938
 31
0.0
  0
LINE
  8
0
  6
CONTINUOUS
 62
     7
  5
236
 10
-1.474639
 20
-0.226938
 30
0.0
 11
-1.474646
 21
-0.221531
 31
0.0
  0
LINE
  8
0
  6
CONTINUOUS
 62
     7
  5
237
 10
-1.474646
 20
-0.221531
 30
0.0
 11
-1.474653
 21
-0.215796
 31
0.0
  0
LINE
  8
0
  6
CONTINUOUS
 62
     7
  5
238
 10
-1.474653
 20
-0.215796
 30
0.0
 11
-1.47466
 21
-0.209762
 31
0.0
  0
LINE
  8
0
  6
CONTINUOUS
 62
     7
  5
239
 10
-1.47466
 20
-0.209762
 30
0.0
 11
-1.474667
 21
-0.203461
 31
0.0
  0
LINE
  8
0
  6
CONTINUOUS
 62
     7
  5
23A
 10
-1.474667
 20
-0.203461
 30
0.0
 11
-1.474674
 21
-0.196852
 31
0.0
  0
LINE
  8
0
  6
CONTINUOUS
 62
     7
  5
23B
 10
-1.474674
 20
-0.196852
 30
0.0
 11
-1.474681
 21
-0.189839
 31
0.0
  0
LINE
  8
0
  6
CONTINUOUS
 62
     7
  5
23C
 10
-1.474681
 20
-0.189839
 30
0.0
 11
-1.474688
 21
-0.182433
 31
0.0
  0
LINE
  8
0
  6
CONTINUOUS
 62
     7
  5
23D
 10
-1.474688
 20
-0.182433
 30
0.0
 11
-1.474696
 21
-0.17465
 31
0.0
  0
LINE
  8
0
  6
CONTINUOUS
 62
     7
  5
23E
 10
-1.474696
 20
-0.17465
 30
0.0
 11
-1.474703
 21
-0.166507
 31
0.0
  0
LINE
  8
0
  6
CONTINUOUS
 62
     7
  5
23F
 10
-1.474703
 20
-0.166507
 30
0.0
 11
-1.474711
 21
-0.158027
 31
0.0
  0
LINE
  8
0
  6
CONTINUOUS
 62
     7
  5
240
 10
-1.474711
 20
-0.158027
 30
0.0
 11
-1.474719
 21
-0.149232
 31
0.0
  0
LINE
  8
0
  6
CONTINUOUS
 62
     7
  5
241
 10
-1.474719
 20
-0.149232
 30
0.0
 11
-1.474726
 21
-0.140147
 31
0.0
  0
LINE
  8
0
  6
CONTINUOUS
 62
     7
  5
242
 10
-1.474726
 20
-0.140147
 30
0.0
 11
-1.474734
 21
-0.130798
 31
0.0
  0
LINE
  8
0
  6
CONTINUOUS
 62
     7
  5
243
 10
-1.474734
 20
-0.130798
 30
0.0
 11
-1.474742
 21
-0.121211
 31
0.0
  0
LINE
  8
0
  6
CONTINUOUS
 62
     7
  5
244
 10
-1.474742
 20
-0.121211
 30
0.0
 11
-1.474749
 21
-0.111413
 31
0.0
  0
LINE
  8
0
  6
CONTINUOUS
 62
     7
  5
245
 10
-1.474749
 20
-0.111413
 30
0.0
 11
-1.474757
 21
-0.101431
 31
0.0
  0
LINE
  8
0
  6
CONTINUOUS
 62
     7
  5
246
 10
-1.474757
 20
-0.101431
 30
0.0
 11
-1.474764
 21
-0.091297
 31
0.0
  0
LINE
  8
0
  6
CONTINUOUS
 62
     7
  5
247
 10
-1.474764
 20
-0.091297
 30
0.0
 11
-1.474772
 21
-0.081044
 31
0.0
  0
LINE
  8
0
  6
CONTINUOUS
 62
     7
  5
248
 10
-1.474772
 20
-0.081044
 30
0.0
 11
-1.474779
 21
-0.070708
 31
0.0
  0
LINE
  8
0
  6
CONTINUOUS
 62
     7
  5
249
 10
-1.474779
 20
-0.070708
 30
0.0
 11
-1.474786
 21
-0.060326
 31
0.0
  0
LINE
  8
0
  6
CONTINUOUS
 62
     7
  5
24A
 10
-1.474786
 20
-0.060326
 30
0.0
 11
-1.474793
 21
-0.049934
 31
0.0
  0
LINE
  8
0
  6
CONTINUOUS
 62
     7
  5
24B
 10
-1.474793
 20
-0.049934
 30
0.0
 11
-1.4748
 21
-0.039571
 31
0.0
  0
LINE
  8
0
  6
CONTINUOUS
 62
     7
  5
24C
 10
-1.4748
 20
-0.039571
 30
0.0
 11
-1.474806
 21
-0.029273
 31
0.0
  0
LINE
  8
0
  6
CONTINUOUS
 62
     7
  5
24D
 10
-1.417323
 20
0.492126
 30
0.0
 11
-1.417323
 21
-0.492126
 31
0.0
  0
LINE
  8
0
  6
CONTINUOUS
 62
     7
  5
24E
 10
-1.299213
 20
0.570866
 30
0.0
 11
-1.299213
 21
-0.570866
 31
0.0
  0
LINE
  8
0
  6
CONTINUOUS
 62
     7
  5
24F
 10
-0.905512
 20
0.472441
 30
0.0
 11
-0.905512
 21
-0.472441
 31
0.0
  0
LINE
  8
0
  6
CONTINUOUS
 62
     7
  5
250
 10
-0.334646
 20
0.482283
 30
0.0
 11
-0.334646
 21
-0.482283
 31
0.0
  0
LINE
  8
0
  6
CONTINUOUS
 62
     7
  5
251
 10
-0.364173
 20
-0.452756
 30
0.0
 11
-0.364173
 21
0.452756
 31
0.0
  0
LINE
  8
0
  6
CONTINUOUS
 62
     7
  5
252
 10
-0.03937
 20
0.482283
 30
0.0
 11
-0.03937
 21
-0.482283
 31
0.0
  0
LINE
  8
0
  6
CONTINUOUS
 62
     7
  5
253
 10
0.551181
 20
-0.39685
 30
0.0
 11
0.551181
 21
0.39685
 31
0.0
  0
LINE
  8
0
  6
CONTINUOUS
 62
     7
  5
254
 10
0.514961
 20
-0.169728
 30
0.0
 11
0.137795
 21
-0.169728
 31
0.0
  0
LINE
  8
0
  6
CONTINUOUS
 62
     7
  5
255
 10
0.514961
 20
0.169728
 30
0.0
 11
0.518955
 21
0.159261
 31
0.0
  0
LINE
  8
0
  6
CONTINUOUS
 62
     7
  5
256
 10
0.518955
 20
0.159261
 30
0.0
 11
0.522679
 21
0.148935
 31
0.0
  0
LINE
  8
0
  6
CONTINUOUS
 62
     7
  5
257
 10
0.522679
 20
0.148935
 30
0.0
 11
0.526141
 21
0.138741
 31
0.0
  0
LINE
  8
0
  6
CONTINUOUS
 62
     7
  5
258
 10
0.526141
 20
0.138741
 30
0.0
 11
0.529345
 21
0.128668
 31
0.0
  0
LINE
  8
0
  6
CONTINUOUS
 62
     7
  5
259
 10
0.529345
 20
0.128668
 30
0.0
 11
0.532299
 21
0.118707
 31
0.0
  0
LINE
  8
0
  6
CONTINUOUS
 62
     7
  5
25A
 10
0.532299
 20
0.118707
 30
0.0
 11
0.535006
 21
0.108847
 31
0.0
  0
LINE
  8
0
  6
CONTINUOUS
 62
     7
  5
25B
 10
0.535006
 20
0.108847
 30
0.0
 11
0.537472
 21
0.09908
 31
0.0
  0
LINE
  8
0
  6
CONTINUOUS
 62
     7
  5
25C
 10
0.537472
 20
0.09908
 30
0.0
 11
0.5397
 21
0.089397
 31
0.0
  0
LINE
  8
0
  6
CONTINUOUS
 62
     7
  5
25D
 10
0.5397
 20
0.089397
 30
0.0
 11
0.541696
 21
0.079789
 31
0.0
  0
LINE
  8
0
  6
CONTINUOUS
 62
     7
  5
25E
 10
0.541696
 20
0.079789
 30
0.0
 11
0.543461
 21
0.070247
 31
0.0
  0
LINE
  8
0
  6
CONTINUOUS
 62
     7
  5
25F
 10
0.543461
 20
0.070247
 30
0.0
 11
0.544999
 21
0.060765
 31
0.0
  0
LINE
  8
0
  6
CONTINUOUS
 62
     7
  5
260
 10
0.544999
 20
0.060765
 30
0.0
 11
0.546313
 21
0.051332
 31
0.0
  0
LINE
  8
0
  6
CONTINUOUS
 62
     7
  5
261
 10
0.546313
 20
0.051332
 30
0.0
 11
0.547405
 21
0.041941
 31
0.0
  0
LINE
  8
0
  6
CONTINUOUS
 62
     7
  5
262
 10
0.547405
 20
0.041941
 30
0.0
 11
0.548276
 21
0.032586
 31
0.0
  0
LINE
  8
0
  6
CONTINUOUS
 62
     7
  5
263
 10
0.548276
 20
0.032586
 30
0.0
 11
0.548928
 21
0.023256
 31
0.0
  0
LINE
  8
0
  6
CONTINUOUS
 62
     7
  5
264
 10
0.548928
 20
0.023256
 30
0.0
 11
0.549362
 21
0.013946
 31
0.0
  0
LINE
  8
0
  6
CONTINUOUS
 62
     7
  5
265
 10
0.549362
 20
0.013946
 30
0.0
 11
0.549579
 21
0.004647
 31
0.0
  0
LINE
  8
0
  6
CONTINUOUS
 62
     7
  5
266
 10
0.549579
 20
0.004647
 30
0.0
 11
0.549579
 21
-0.004647
 31
0.0
  0
LINE
  8
0
  6
CONTINUOUS
 62
     7
  5
267
 10
0.549579
 20
-0.004647
 30
0.0
 11
0.549362
 21
-0.013946
 31
0.0
  0
LINE
  8
0
  6
CONTINUOUS
 62
     7
  5
268
 10
0.549362
 20
-0.013946
 30
0.0
 11
0.548928
 21
-0.023256
 31
0.0
  0
LINE
  8
0
  6
CONTINUOUS
 62
     7
  5
269
 10
0.548928
 20
-0.023256
 30
0.0
 11
0.548276
 21
-0.032586
 31
0.0
  0
LINE
  8
0
  6
CONTINUOUS
 62
     7
  5
26A
 10
0.548276
 20
-0.032586
 30
0.0
 11
0.547405
 21
-0.041941
 31
0.0
  0
LINE
  8
0
  6
CONTINUOUS
 62
     7
  5
26B
 10
0.547405
 20
-0.041941
 30
0.0
 11
0.546313
 21
-0.051332
 31
0.0
  0
LINE
  8
0
  6
CONTINUOUS
 62
     7
  5
26C
 10
0.546313
 20
-0.051332
 30
0.0
 11
0.544999
 21
-0.060765
 31
0.0
  0
LINE
  8
0
  6
CONTINUOUS
 62
     7
  5
26D
 10
0.544999
 20
-0.060765
 30
0.0
 11
0.543461
 21
-0.070247
 31
0.0
  0
LINE
  8
0
  6
CONTINUOUS
 62
     7
  5
26E
 10
0.543461
 20
-0.070247
 30
0.0
 11
0.541696
 21
-0.079789
 31
0.0
  0
LINE
  8
0
  6
CONTINUOUS
 62
     7
  5
26F
 10
0.541696
 20
-0.079789
 30
0.0
 11
0.5397
 21
-0.089397
 31
0.0
  0
LINE
  8
0
  6
CONTINUOUS
 62
     7
  5
270
 10
0.5397
 20
-0.089397
 30
0.0
 11
0.537472
 21
-0.09908
 31
0.0
  0
LINE
  8
0
  6
CONTINUOUS
 62
     7
  5
271
 10
0.537472
 20
-0.09908
 30
0.0
 11
0.535006
 21
-0.108847
 31
0.0
  0
LINE
  8
0
  6
CONTINUOUS
 62
     7
  5
272
 10
0.535006
 20
-0.108847
 30
0.0
 11
0.532299
 21
-0.118707
 31
0.0
  0
LINE
  8
0
  6
CONTINUOUS
 62
     7
  5
273
 10
0.532299
 20
-0.118707
 30
0.0
 11
0.529345
 21
-0.128668
 31
0.0
  0
LINE
  8
0
  6
CONTINUOUS
 62
     7
  5
274
 10
0.529345
 20
-0.128668
 30
0.0
 11
0.526141
 21
-0.138741
 31
0.0
  0
LINE
  8
0
  6
CONTINUOUS
 62
     7
  5
275
 10
0.526141
 20
-0.138741
 30
0.0
 11
0.522679
 21
-0.148935
 31
0.0
  0
LINE
  8
0
  6
CONTINUOUS
 62
     7
  5
276
 10
0.522679
 20
-0.148935
 30
0.0
 11
0.518955
 21
-0.159261
 31
0.0
  0
LINE
  8
0
  6
CONTINUOUS
 62
     7
  5
277
 10
0.518955
 20
-0.159261
 30
0.0
 11
0.514961
 21
-0.169728
 31
0.0
  0
LINE
  8
0
  6
CONTINUOUS
 62
     7
  5
278
 10
0.137795
 20
0.169728
 30
0.0
 11
0.514961
 21
0.169728
 31
0.0
  0
LINE
  8
0
  6
CONTINUOUS
 62
     7
  5
279
 10
0.137795
 20
-0.169728
 30
0.0
 11
0.137795
 21
0.169728
 31
0.0
  0
LINE
  8
0
  6
CONTINUOUS
 62
     7
  5
27A
 10
0.137795
 20
0.169728
 30
0.0
 11
0.137795
 21
0.433071
 31
0.0
  0
LINE
  8
0
  6
CONTINUOUS
 62
     7
  5
27B
 10
0.137795
 20
-0.433071
 30
0.0
 11
0.137795
 21
-0.169728
 31
0.0
  0
LINE
  8
0
  6
CONTINUOUS
 62
     7
  5
27C
 10
0.514961
 20
0.169728
 30
0.0
 11
0.514961
 21
0.433071
 31
0.0
  0
LINE
  8
0
  6
CONTINUOUS
 62
     7
  5
27D
 10
0.11811
 20
-0.424409
 30
0.0
 11
0.11811
 21
0.424409
 31
0.0
  0
LINE
  8
0
  6
CONTINUOUS
 62
     7
  5
27E
 10
0.514961
 20
-0.433071
 30
0.0
 11
0.514961
 21
-0.169728
 31
0.0
  0
LINE
  8
0
  6
CONTINUOUS
 62
     7
  5
27F
 10
1.692913
 20
-0.391732
 30
0.0
 11
1.692913
 21
0.391732
 31
0.0
  0
LINE
  8
0
  6
CONTINUOUS
 62
     7
  5
280
 10
1.614173
 20
0.03937
 30
0.0
 11
1.614173
 21
0.393701
 31
0.0
  0
LINE
  8
0
  6
CONTINUOUS
 62
     7
  5
281
 10
1.299213
 20
0.03937
 30
0.0
 11
1.614173
 21
0.03937
 31
0.0
  0
LINE
  8
0
  6
CONTINUOUS
 62
     7
  5
282
 10
1.614173
 20
-0.03937
 30
0.0
 11
1.299213
 21
-0.03937
 31
0.0
  0
LINE
  8
0
  6
CONTINUOUS
 62
     7
  5
283
 10
1.299213
 20
-0.03937
 30
0.0
 11
1.299213
 21
0.03937
 31
0.0
  0
LINE
  8
0
  6
CONTINUOUS
 62
     7
  5
284
 10
1.614173
 20
-0.393701
 30
0.0
 11
1.614173
 21
-0.03937
 31
0.0
  0
LINE
  8
0
  6
CONTINUOUS
 62
     7
  5
285
 10
-1.460762
 20
0.259496
 30
0.0
 11
-1.47457
 21
0.259496
 31
0.0
  0
LINE
  8
0
  6
CONTINUOUS
 62
     7
  5
286
 10
-1.47457
 20
-0.259496
 30
0.0
 11
-1.460762
 21
-0.259496
 31
0.0
  0
ARC
  8
0
  6
CONTINUOUS
 62
     7
  5
287
 10
0.081201
 20
0.0
 30
0.0
 40
1.577264
 50
161.819446
 51
167.855181
  0
ARC
  8
0
  6
CONTINUOUS
 62
     7
  5
288
 10
0.081201
 20
0.0
 30
0.0
 40
1.577264
 50
170.530497
 51
180.0
  0
ARC
  8
0
  6
CONTINUOUS
 62
     7
  5
289
 10
0.081201
 20
0.0
 30
0.0
 40
1.577264
 50
180.0
 51
189.469503
  0
ARC
  8
0
  6
CONTINUOUS
 62
     7
  5
28A
 10
0.081201
 20
0.0
 30
0.0
 40
1.577264
 50
192.144819
 51
198.180554
  0
ARC
  8
0
  6
CONTINUOUS
 62
     7
  5
28B
 10
-1.338583
 20
-0.492126
 30
0.0
 40
0.07874
 50
180.0
 51
270.0
  0
ARC
  8
0
  6
CONTINUOUS
 62
     7
  5
28C
 10
-1.338583
 20
0.492126
 30
0.0
 40
0.07874
 50
90.0
 51
180.0
  0
LINE
  8
0
  6
CONTINUOUS
 62
     7
  5
28D
 10
-1.299213
 20
0.570866
 30
0.0
 11
-1.338583
 21
0.570866
 31
0.0
  0
LINE
  8
0
  6
CONTINUOUS
 62
     7
  5
28E
 10
-1.338583
 20
-0.570866
 30
0.0
 11
-1.299213
 21
-0.570866
 31
0.0
  0
LINE
  8
0
  6
CONTINUOUS
 62
     7
  5
28F
 10
-0.905512
 20
0.472441
 30
0.0
 11
-1.299213
 21
0.551181
 31
0.0
  0
LINE
  8
0
  6
CONTINUOUS
 62
     7
  5
290
 10
-1.299213
 20
-0.551181
 30
0.0
 11
-0.905512
 21
-0.472441
 31
0.0
  0
LINE
  8
0
  6
CONTINUOUS
 62
     7
  5
291
 10
-0.334646
 20
0.482283
 30
0.0
 11
-0.364173
 21
0.452756
 31
0.0
  0
LINE
  8
0
  6
CONTINUOUS
 62
     7
  5
292
 10
-0.364173
 20
-0.452756
 30
0.0
 11
-0.334646
 21
-0.482283
 31
0.0
  0
LINE
  8
0
  6
CONTINUOUS
 62
     7
  5
293
 10
-0.364173
 20
0.452756
 30
0.0
 11
-0.905512
 21
0.452756
 31
0.0
  0
LINE
  8
0
  6
CONTINUOUS
 62
     7
  5
294
 10
-0.905512
 20
-0.452756
 30
0.0
 11
-0.364173
 21
-0.452756
 31
0.0
  0
LINE
  8
0
  6
CONTINUOUS
 62
     7
  5
295
 10
-0.03937
 20
0.482283
 30
0.0
 11
-0.334646
 21
0.482283
 31
0.0
  0
LINE
  8
0
  6
CONTINUOUS
 62
     7
  5
296
 10
-0.334646
 20
-0.482283
 30
0.0
 11
-0.03937
 21
-0.482283
 31
0.0
  0
LINE
  8
0
  6
CONTINUOUS
 62
     7
  5
297
 10
0.0
 20
0.452756
 30
0.0
 11
-0.03937
 21
0.452756
 31
0.0
  0
LINE
  8
0
  6
CONTINUOUS
 62
     7
  5
298
 10
-0.03937
 20
-0.452756
 30
0.0
 11
0.0
 21
-0.452756
 31
0.0
  0
LINE
  8
0
  6
CONTINUOUS
 62
     7
  5
299
 10
0.514961
 20
0.433071
 30
0.0
 11
0.137795
 21
0.433071
 31
0.0
  0
LINE
  8
0
  6
CONTINUOUS
 62
     7
  5
29A
 10
0.11811
 20
-0.393701
 30
0.0
 11
0.137795
 21
-0.393701
 31
0.0
  0
LINE
  8
0
  6
CONTINUOUS
 62
     7
  5
29B
 10
0.137795
 20
0.393701
 30
0.0
 11
0.11811
 21
0.393701
 31
0.0
  0
LINE
  8
0
  6
CONTINUOUS
 62
     7
  5
29C
 10
0.000003
 20
-0.433071
 30
0.0
 11
0.11811
 21
-0.424409
 31
0.0
  0
LINE
  8
0
  6
CONTINUOUS
 62
     7
  5
29D
 10
0.11811
 20
0.424409
 30
0.0
 11
0.0
 21
0.433071
 31
0.0
  0
LINE
  8
0
  6
CONTINUOUS
 62
     7
  5
29E
 10
0.514961
 20
-0.433071
 30
0.0
 11
0.551181
 21
-0.39685
 31
0.0
  0
LINE
  8
0
  6
CONTINUOUS
 62
     7
  5
29F
 10
0.551181
 20
0.39685
 30
0.0
 11
0.514961
 21
0.433071
 31
0.0
  0
LINE
  8
0
  6
CONTINUOUS
 62
     7
  5
2A0
 10
0.137795
 20
-0.433071
 30
0.0
 11
0.514961
 21
-0.433071
 31
0.0
  0
LINE
  8
0
  6
CONTINUOUS
 62
     7
  5
2A1
 10
1.614173
 20
-0.391732
 30
0.0
 11
1.692913
 21
-0.391732
 31
0.0
  0
LINE
  8
0
  6
CONTINUOUS
 62
     7
  5
2A2
 10
1.692913
 20
0.391732
 30
0.0
 11
1.614173
 21
0.391732
 31
0.0
  0
LINE
  8
0
  6
CONTINUOUS
 62
     7
  5
2A3
 10
0.551181
 20
-0.393701
 30
0.0
 11
1.614173
 21
-0.393701
 31
0.0
  0
LINE
  8
0
  6
CONTINUOUS
 62
     7
  5
2A4
 10
1.614173
 20
0.393701
 30
0.0
 11
0.551181
 21
0.393701
 31
0.0
  0
LINE
  8
0
  6
CONTINUOUS
 62
     3
  5
2A5
 10
-1.496063
 20
0.0
 30
0.0
 11
1.692913
 21
0.0
 31
0.0
  0
ENDSEC
  0
EOF
