999
DXF file: C:\Users\sesa63760\Dev\_Creo\CAD\MCADID0005483_3D-CAD\drw0001_1.dxf
999
Pro/ENGINEER 2019471 by Parametric Technology Corporation
  0
SECTION
  2
HEADER
  9
$ACADVER
  1
AC1024
  9
$DWGCODEPAGE
  3
ANSI_1252
  9
$EXTMAX
 10
48.4996458905
 20
68.5923563309
 30
0.0
  9
$EXTMIN
 10
0.0
 20
0.0
 30
0.0
  9
$LIMMIN
 10
0.0
 20
0.0
  9
$LIMMAX
 10
48.4996458905
 20
68.5923563309
  9
$VIEWCTR
 10
24.2498229453
 20
34.2961781654
  9
$VIEWSIZE
 40
68.5923563309
  9
$CLAYER
  8
0
  9
$LTSCALE
 40
4.4712054497
  9
$CELTYPE
  6
BYLAYER
  9
$DIMSCALE
 40
1.0
  9
$DIMASZ
 40
0.5773767368
  9
$DIMEXO
 40
1.0
  9
$DIMDLI
 40
3.0891964925
  9
$DIMEXE
 40
1.0
  9
$DIMCEN
 40
0.7316518009
  9
$DIMLFAC
 40
1.0
  9
$DIMBLK
  1
_FILLED
  9
$DIMALT
 70
0
  9
$DIMALTF
 40
0.0393700787
  9
$DIMTXT
 40
0.8083274315
  9
$DIMTOL
 70
1
  9
$DIMLIM
 70
0
  9
$DIMTFAC
 40
1.0
  9
$DIMTP
 40
0.01
  9
$DIMTM
 40
0.01
  9
$DIMGAP
 40
0.625
  9
$DIMDSEP
 70
46
  9
$AUNITS
 70
0
  9
$PDMODE
 70
3
  9
$PDSIZE
 40
0.3125
  9
$HANDSEED
  5
35D
  9
$TILEMODE
 70
1
  9
$MEASUREMENT
 70
1
  9
$INSUNITS
 70
4
  0
ENDSEC
  0
SECTION
  2
CLASSES
  0
CLASS
  1
ACDBDICTIONARYWDFLT
  2
AcDbDictionaryWithDefault
  3
AutoCAD 2000
 90
0
 91
1
280
0
281
0
  0
CLASS
  1
ACDBPLACEHOLDER
  2
AcDbPlaceHolder
  3
AutoCAD 2000
 90
0
 91
1
280
0
281
0
  0
CLASS
  1
LAYOUT
  2
AcDbLayout
  3
AutoCAD 2000
 90
0
 91
0
280
0
281
0
  0
ENDSEC
  0
SECTION
  2
TABLES
  0
TABLE
  2
VPORT
  5
8
100
AcDbSymbolTable
 70
2
  0
VPORT
  5
1F4
100
AcDbSymbolTableRecord
100
AcDbViewportTableRecord
  2
*ACTIVE
 70
0
 10
0.0
 20
0.0
 11
1.0
 21
1.0
 12
24.2498229453
 22
34.2961781654
 13
0.0
 23
0.0
 14
1.0
 24
1.0
 15
0.0
 25
0.0
 16
0.0
 26
0.0
 36
1.0
 17
0.0
 27
0.0
 37
0.0
 40
68.5923563309
 41
0.7070707071
 42
50.0
 43
0.0
 44
0.0
 50
0.0
 51
0.0
 71
0
 72
100
 73
1
 74
1
 75
0
 76
0
 77
0
 78
0
  0
ENDTAB
  0
TABLE
  2
LTYPE
  5
5
100
AcDbSymbolTable
 70
6
  0
LTYPE
  5
14
100
AcDbSymbolTableRecord
100
AcDbLinetypeTableRecord
  2
BYBLOCK
 70
0
  3

 72
65
 73
0
 40
0.0
  0
LTYPE
  5
15
100
AcDbSymbolTableRecord
100
AcDbLinetypeTableRecord
  2
BYLAYER
 70
0
  3

 72
65
 73
0
 40
0.0
  0
LTYPE
  5
16
100
AcDbSymbolTableRecord
100
AcDbLinetypeTableRecord
  2
CONTINUOUS
 70
64
  3
Solid line
 72
65
 73
0
 40
0.0
  0
LTYPE
  5
1F5
100
AcDbSymbolTableRecord
100
AcDbLinetypeTableRecord
  2
CENTER
 70
64
  3
____ _ ____ _ ____ _ ____ _ ____ _ ____ _ ____
 72
65
 73
4
 40
0.6
 49
0.375
 74
0
 49
-0.075
 74
0
 49
0.075
 74
0
 49
-0.075
 74
0
  0
LTYPE
  5
1F6
100
AcDbSymbolTableRecord
100
AcDbLinetypeTableRecord
  2
HIDDEN
 70
64
  3
- - - - - - - - - - - - - - - - - - - -
 72
65
 73
2
 40
0.2
 49
0.1
 74
0
 49
-0.1
 74
0
  0
LTYPE
  5
1F7
100
AcDbSymbolTableRecord
100
AcDbLinetypeTableRecord
  2
PHANTOM
 70
64
  3
_____ _ _ _____ _ _ _____ _ _ _____
 72
65
 73
6
 40
0.8
 49
0.45
 74
0
 49
-0.05
 74
0
 49
0.1
 74
0
 49
-0.05
 74
0
 49
0.1
 74
0
 49
-0.05
 74
0
  0
LTYPE
  5
1F8
100
AcDbSymbolTableRecord
100
AcDbLinetypeTableRecord
  2
DOT
 70
64
  3
. . . . . . . . . . . . . . . . . . . .
 72
65
 73
2
 40
0.2
 49
0.1
 74
0
 49
-0.1
 74
0
  0
LTYPE
  5
1F9
100
AcDbSymbolTableRecord
100
AcDbLinetypeTableRecord
  2
DASHED
 70
64
  3
- - - - - - - - - - - - - - - - - - - -
 72
65
 73
2
 40
0.2
 49
0.1
 74
0
 49
-0.1
 74
0
  0
ENDTAB
  0
TABLE
  2
LAYER
  5
2
100
AcDbSymbolTable
 70
36
  0
LAYER
  5
10
100
AcDbSymbolTableRecord
100
AcDbLayerTableRecord
  2
0
 70
0
 62
7
  6
CONTINUOUS
370
-3
390
F
  0
LAYER
  5
1FA
100
AcDbSymbolTableRecord
100
AcDbLayerTableRecord
  2
DEFAULT_1
 70
0
 62
7
  6
CENTER
370
-3
390
F
  0
LAYER
  5
1FB
100
AcDbSymbolTableRecord
100
AcDbLayerTableRecord
  2
DEFAULT_2
 70
0
 62
7
  6
HIDDEN
370
-3
390
F
  0
LAYER
  5
1FC
100
AcDbSymbolTableRecord
100
AcDbLayerTableRecord
  2
DEFAULT_3
 70
0
 62
7
  6
PHANTOM
370
-3
390
F
  0
LAYER
  5
1FD
100
AcDbSymbolTableRecord
100
AcDbLayerTableRecord
  2
00_COMPONENTS
 70
0
 62
7
  6
CONTINUOUS
370
-3
390
F
  0
LAYER
  5
1FE
100
AcDbSymbolTableRecord
100
AcDbLayerTableRecord
  2
01_1_DEFAULT_DATUMS
 70
0
 62
7
  6
CONTINUOUS
370
-3
390
F
  0
LAYER
  5
1FF
100
AcDbSymbolTableRecord
100
AcDbLayerTableRecord
  2
01_PLANES
 70
0
 62
7
  6
CONTINUOUS
370
-3
390
F
  0
LAYER
  5
200
100
AcDbSymbolTableRecord
100
AcDbLayerTableRecord
  2
02_COORD_SYS
 70
0
 62
7
  6
CONTINUOUS
370
-3
390
F
  0
LAYER
  5
201
100
AcDbSymbolTableRecord
100
AcDbLayerTableRecord
  2
03_AXES
 70
0
 62
7
  6
CONTINUOUS
370
-3
390
F
  0
LAYER
  5
202
100
AcDbSymbolTableRecord
100
AcDbLayerTableRecord
  2
04_POINTS
 70
0
 62
7
  6
CONTINUOUS
370
-3
390
F
  0
LAYER
  5
203
100
AcDbSymbolTableRecord
100
AcDbLayerTableRecord
  2
05_CURVES
 70
0
 62
7
  6
CONTINUOUS
370
-3
390
F
  0
LAYER
  5
204
100
AcDbSymbolTableRecord
100
AcDbLayerTableRecord
  2
06_SURFS
 70
0
 62
7
  6
CONTINUOUS
370
-3
390
F
  0
LAYER
  5
205
100
AcDbSymbolTableRecord
100
AcDbLayerTableRecord
  2
07_COSMETICS
 70
0
 62
7
  6
CONTINUOUS
370
-3
390
F
  0
LAYER
  5
206
100
AcDbSymbolTableRecord
100
AcDbLayerTableRecord
  2
10_NOTES
 70
0
 62
7
  6
CONTINUOUS
370
-3
390
F
  0
LAYER
  5
207
100
AcDbSymbolTableRecord
100
AcDbLayerTableRecord
  2
11_NOTES_PUB
 70
0
 62
7
  6
CONTINUOUS
370
-3
390
F
  0
LAYER
  5
208
100
AcDbSymbolTableRecord
100
AcDbLayerTableRecord
  2
13_REF_GTOL
 70
0
 62
7
  6
CONTINUOUS
370
-3
390
F
  0
LAYER
  5
209
100
AcDbSymbolTableRecord
100
AcDbLayerTableRecord
  2
16_MISC
 70
0
 62
7
  6
CONTINUOUS
370
-3
390
F
  0
LAYER
  5
20A
100
AcDbSymbolTableRecord
100
AcDbLayerTableRecord
  2
17_NO_PRINT
 70
0
 62
7
  6
CONTINUOUS
370
-3
390
F
  0
LAYER
  5
20B
100
AcDbSymbolTableRecord
100
AcDbLayerTableRecord
  2
18_DATUM_CAMS_JOINTS
 70
0
 62
7
  6
CONTINUOUS
370
-3
390
F
  0
LAYER
  5
20C
100
AcDbSymbolTableRecord
100
AcDbLayerTableRecord
  2
19_DATUM_FUNCTIONAL
 70
0
 62
7
  6
CONTINUOUS
370
-3
390
F
  0
LAYER
  5
20D
100
AcDbSymbolTableRecord
100
AcDbLayerTableRecord
  2
20_DATUM_KINEMATIC_SCHEME
 70
0
 62
7
  6
CONTINUOUS
370
-3
390
F
  0
ENDTAB
  0
TABLE
  2
STYLE
  5
3
100
AcDbSymbolTable
 70
1
  0
STYLE
  5
11
100
AcDbSymbolTableRecord
100
AcDbTextStyleTableRecord
  2
STANDARD
 70
0
 40
0.0
 41
1.0
 50
0.0
 71
0
 42
0.2
  3
ARIAL.TTF
  4

  0
STYLE
  5
20E
100
AcDbSymbolTableRecord
100
AcDbTextStyleTableRecord
  2
TEXTSTYLE_1
 70
0
 40
0.0
 41
0.8
 50
0.0
 71
0
 42
0.2
  3
gdt
  4

  0
ENDTAB
  0
TABLE
  2
VIEW
  5
6
100
AcDbSymbolTable
 70
0
  0
ENDTAB
  0
TABLE
  2
UCS
  5
7
100
AcDbSymbolTable
 70
0
  0
ENDTAB
  0
TABLE
  2
APPID
  5
9
100
AcDbSymbolTable
 70
1
  0
APPID
  5
20F
100
AcDbSymbolTableRecord
100
AcDbRegAppTableRecord
  2
ACAD
 70
0
  0
ENDTAB
  0
TABLE
  2
BLOCK_RECORD
  5
1
100
AcDbSymbolTable
 70
0
  0
BLOCK_RECORD
  5
210
100
AcDbSymbolTableRecord
100
AcDbBlockTableRecord
  2
*Model_Space
  0
BLOCK_RECORD
  5
211
100
AcDbSymbolTableRecord
100
AcDbBlockTableRecord
  2
*Paper_Space
  0
BLOCK_RECORD
  5
212
100
AcDbSymbolTableRecord
100
AcDbBlockTableRecord
  2
_FILLED
  0
ENDTAB
  0
TABLE
  2
DIMSTYLE
  5
A
100
AcDbSymbolTable
 70
1
100
AcDbDimStyleTable
 71
0
  0
DIMSTYLE
105
213
100
AcDbSymbolTableRecord
100
AcDbDimStyleTableRecord
  2
STANDARD
 70
0
  3

  4

 40
1.0
 41
0.5773767368
 42
1.0
 43
0.38
 44
1.0
 45
0.0
 46
0.0
 47
0.01
 48
0.01
140
0.8083274315
141
0.09
142
0.0
143
25.4
144
1.0
145
0.0
146
1.0
147
0.625
 71
1
 72
0
 73
0
 74
0
 75
0
 76
0
 77
1
 78
8
 79
2
170
0
171
1
172
0
173
0
174
0
175
0
176
0
177
0
178
0
270
2
179
2
271
2
272
2
273
2
274
2
275
0
280
0
281
0
282
0
283
1
284
8
285
0
286
0
287
3
288
0
340
11
278
46
341
212
342
212
343
212
344
212
  0
ENDTAB
  0
ENDSEC
  0
SECTION
  2
BLOCKS
  0
BLOCK
  5
20
100
AcDbEntity
  8
0
100
AcDbBlockBegin
  2
*Model_Space
 70
0
 10
0.0
 20
0.0
 30
0.0
  3
*Model_Space
  1

  0
ENDBLK
  5
21
100
AcDbEntity
  8
0
100
AcDbBlockEnd
  0
BLOCK
  5
1C
100
AcDbEntity
  8
0
100
AcDbBlockBegin
  2
*Paper_Space
 70
0
 10
0.0
 20
0.0
 30
0.0
  3
*Paper_Space
  1

  0
ENDBLK
  5
1D
100
AcDbEntity
  8
0
100
AcDbBlockEnd
  0
BLOCK
  5
214
100
AcDbEntity
  8
0
100
AcDbBlockBegin
  2
_FILLED
 70
64
 10
0.0
 20
0.0
  3
_FILLED
  1

  0
SOLID
  5
215
100
AcDbEntity
  8
0
  6
BYBLOCK
 62
0
100
AcDbTrace
 10
0.0
 20
0.0
 11
-1.0
 21
0.25
 12
-1.0
 22
-0.25
 13
-1.0
 23
-0.25
  0
ENDBLK
  5
216
100
AcDbEntity
  8
0
  6
BYBLOCK
 62
0
100
AcDbBlockEnd
  0
ENDSEC
  0
SECTION
  2
ENTITIES
  0
LINE
  5
217
100
AcDbEntity
  8
0
100
AcDbLine
 62
7
  6
BYLAYER
 10
18.0806758148
 20
62.3204661419
 11
15.5941763563
 21
61.0593999315
  0
LINE
  5
218
100
AcDbEntity
  8
0
100
AcDbLine
 62
7
  6
BYLAYER
 10
16.8064551107
 20
61.7523044966
 11
19.5118327145
 21
62.7773401241
  0
LINE
  5
219
100
AcDbEntity
  8
0
100
AcDbLine
 62
7
  6
BYLAYER
 10
15.5941763563
 20
61.0593999315
 11
13.8466657178
 21
59.5046391474
  0
LINE
  5
21A
100
AcDbEntity
  8
0
100
AcDbLine
 62
7
  6
BYLAYER
 10
16.517895305
 20
61.5856952242
 11
16.8064551107
 21
61.7523044966
  0
LINE
  5
21B
100
AcDbEntity
  8
0
100
AcDbLine
 62
7
  6
BYLAYER
 10
13.8466657178
 20
59.5046391474
 11
13.0028046366
 21
58.0893334544
  0
LWPOLYLINE
  5
21C
100
AcDbEntity
  8
0
100
AcDbPolyline
 62
7
  6
BYLAYER
 90
3
 70
0
 10
12.5264786911
 20
56.3017276971
 10
11.3248880259
 20
54.8432785178
 10
10.7586838031
 20
52.8563639682
  0
LINE
  5
21D
100
AcDbEntity
  8
0
100
AcDbLine
 62
7
  6
BYLAYER
 10
27.4584733181
 20
10.4252794457
 11
27.6838467262
 21
10.3931140349
  0
LINE
  5
21E
100
AcDbEntity
  8
0
100
AcDbLine
 62
7
  6
BYLAYER
 10
23.9285386588
 20
8.5767482673
 11
23.1765680715
 21
9.0108888667
  0
LINE
  5
21F
100
AcDbEntity
  8
0
100
AcDbLine
 62
7
  6
BYLAYER
 10
14.4290586321
 20
14.0611515441
 11
14.3501579441
 21
14.106703847
  0
LINE
  5
220
100
AcDbEntity
  8
0
100
AcDbLine
 62
7
  6
BYLAYER
 10
25.3990011116
 20
9.1729678513
 11
26.3158858574
 21
8.643616172
  0
LWPOLYLINE
  5
221
100
AcDbEntity
  8
0
100
AcDbPolyline
 62
7
  6
BYLAYER
 90
3
 70
0
 10
12.5264786911
 20
55.0109203305
 10
11.9324830169
 20
53.9513955232
 10
11.9349483895
 20
51.6306024599
  0
LINE
  5
222
100
AcDbEntity
  8
0
100
AcDbLine
 62
7
  6
BYLAYER
 10
26.9068777235
 20
9.0944114686
 11
26.0313331316
 21
9.5998959389
  0
LINE
  5
223
100
AcDbEntity
  8
0
100
AcDbLine
 62
7
  6
BYLAYER
 10
28.3068501049
 20
8.9556603332
 11
27.7930612625
 21
9.252289749
  0
LINE
  5
224
100
AcDbEntity
  8
0
100
AcDbLine
 62
7
  6
BYLAYER
 10
26.0313331316
 20
10.6123589361
 11
26.9068777235
 21
10.1068744659
  0
LINE
  5
225
100
AcDbEntity
  8
0
100
AcDbLine
 62
7
  6
BYLAYER
 10
27.2476490227
 20
10.3918646691
 11
26.3928623949
 21
10.8853647943
  0
LINE
  5
226
100
AcDbEntity
  8
0
100
AcDbLine
 62
7
  6
BYLAYER
 10
26.615531867
 20
10.9119409096
 11
27.4584733181
 21
10.4252794457
  0
LINE
  5
227
100
AcDbEntity
  8
0
100
AcDbLine
 62
7
  6
BYLAYER
 10
27.683903115
 20
10.3931789037
 11
26.8528456104
 21
10.8729793231
  0
LWPOLYLINE
  5
228
100
AcDbEntity
  8
0
100
AcDbPolyline
 62
7
  6
BYLAYER
 90
3
 70
0
 10
10.5927112936
 20
45.4727249473
 10
10.2026430231
 20
44.5484188038
 10
10.1265599033
 20
43.6914970696
  0
LINE
  5
229
100
AcDbEntity
  8
0
100
AcDbLine
 62
7
  6
BYLAYER
 10
26.6318423954
 20
11.5883276193
 11
30.2204058177
 21
9.5165154853
  0
LINE
  5
22A
100
AcDbEntity
  8
0
100
AcDbLine
 62
7
  6
BYLAYER
 10
30.6406983693
 20
10.0821921096
 11
27.6623648868
 21
11.8016948471
  0
LINE
  5
22B
100
AcDbEntity
  8
0
100
AcDbLine
 62
7
  6
BYLAYER
 10
10.7586838031
 20
52.8563639682
 11
10.3862725515
 21
47.0582540366
  0
LWPOLYLINE
  5
22C
100
AcDbEntity
  8
0
100
AcDbPolyline
 62
7
  6
BYLAYER
 90
24
 70
0
 10
13.0028046366
 20
58.0893334544
 10
12.7250395844
 20
56.9285514817
 10
12.7511084174
 20
55.9922702475
 10
12.9340185953
 20
55.2397584199
 10
13.1903003346
 20
54.6349543619
 10
13.4735238563
 20
54.1459117998
 10
13.7606051501
 20
53.7446486644
 10
14.0353874078
 20
53.4160508222
 10
14.2886844194
 20
53.1474250555
 10
14.5185426011
 20
52.9258013839
 10
14.7235683063
 20
52.7428011667
 10
14.9045667865
 20
52.5911544481
 10
15.0643894404
 20
52.4641099429
 10
15.2071648305
 20
52.3555600015
 10
15.3337555998
 20
52.2629204653
 10
15.4419486326
 20
52.1862606466
 10
15.5308063333
 20
52.1249455186
 10
15.605908656
 20
52.074230359
 10
15.6765947893
 20
52.0273924555
 10
15.748898911
 20
51.9803521713
 10
15.8198653146
 20
51.9350118198
 10
15.8779452613
 20
51.8984993255
 10
15.9241435704
 20
51.869829618
 10
15.9951723352
 20
51.8263810491
  0
LINE
  5
22D
100
AcDbEntity
  8
0
100
AcDbLine
 62
7
  6
BYLAYER
 10
30.2244400038
 20
12.4454198367
 11
30.6406983693
 21
12.2050983941
  0
LINE
  5
22E
100
AcDbEntity
  8
0
100
AcDbLine
 62
7
  6
BYLAYER
 10
33.2750946261
 20
11.28013031
 11
32.9918141014
 21
11.4436786972
  0
LINE
  5
22F
100
AcDbEntity
  8
0
100
AcDbLine
 62
7
  6
BYLAYER
 10
10.1264740783
 20
43.6914970794
 11
10.1264740783
 21
42.4667434537
  0
LINE
  5
230
100
AcDbEntity
  8
0
100
AcDbLine
 62
7
  6
BYLAYER
 10
10.3478353504
 20
41.0875856057
 11
10.3478353504
 21
37.6582754537
  0
LINE
  5
231
100
AcDbEntity
  8
0
100
AcDbLine
 62
7
  6
BYLAYER
 10
10.3733770357
 20
37.4991418559
 11
10.3733770357
 21
40.9284520078
  0
LINE
  5
232
100
AcDbEntity
  8
0
100
AcDbLine
 62
7
  6
BYLAYER
 10
10.9507515689
 20
36.2551111409
 11
10.9507515689
 21
39.6844212928
  0
LINE
  5
233
100
AcDbEntity
  8
0
100
AcDbLine
 62
7
  6
BYLAYER
 10
33.4444707082
 20
12.8479654741
 11
34.2465223375
 21
12.3849112257
  0
LINE
  5
234
100
AcDbEntity
  8
0
100
AcDbLine
 62
7
  6
BYLAYER
 10
34.43062619
 20
13.111443233
 11
33.604591361
 21
13.5883438749
  0
LINE
  5
235
100
AcDbEntity
  8
0
100
AcDbLine
 62
7
  6
BYLAYER
 10
34.7869898273
 20
13.5343811354
 11
34.6708778561
 21
13.6014168967
  0
LINE
  5
236
100
AcDbEntity
  8
0
100
AcDbLine
 62
7
  6
BYLAYER
 10
10.38285711
 20
37.4385552373
 11
10.3478353504
 21
37.6582754537
  0
LWPOLYLINE
  5
237
100
AcDbEntity
  8
0
100
AcDbPolyline
 62
7
  6
BYLAYER
 90
8
 70
0
 10
10.1265599033
 20
43.6914970696
 10
10.3371286574
 20
42.2697266331
 10
11.5311305804
 20
40.0970248181
 10
13.7001779196
 20
38.1880660861
 10
15.1003577396
 20
37.3801450016
 10
18.4014453861
 20
36.1307665866
 10
22.1575053935
 20
35.4422908024
 10
26.0981244611
 20
35.3632680249
  0
LINE
  5
238
100
AcDbEntity
  8
0
100
AcDbLine
 62
7
  6
BYLAYER
 10
14.3533589758
 20
17.0116050046
 11
14.3266613822
 21
17.440944392
  0
LINE
  5
239
100
AcDbEntity
  8
0
100
AcDbLine
 62
7
  6
BYLAYER
 10
14.32647948
 20
14.5097006912
 11
14.3501579441
 21
14.106703847
  0
LINE
  5
23A
100
AcDbEntity
  8
0
100
AcDbLine
 62
7
  6
BYLAYER
 10
12.3273889686
 20
53.6691566167
 11
12.3273889686
 21
51.3829498488
  0
LINE
  5
23B
100
AcDbEntity
  8
0
100
AcDbLine
 62
7
  6
BYLAYER
 10
12.5264786911
 20
56.3742130263
 11
12.5264786911
 21
53.6691566167
  0
LINE
  5
23C
100
AcDbEntity
  8
0
100
AcDbLine
 62
7
  6
BYLAYER
 10
12.7537162008
 20
35.7064342116
 11
12.75371661
 21
36.4512694416
  0
LINE
  5
23D
100
AcDbEntity
  8
0
100
AcDbLine
 62
7
  6
BYLAYER
 10
13.5264740783
 20
34.6691453701
 11
13.5264740783
 21
35.3788472432
  0
LWPOLYLINE
  5
23E
100
AcDbEntity
  8
0
100
AcDbPolyline
 62
7
  6
BYLAYER
 90
3
 70
0
 10
12.063099402
 20
51.6396291859
 10
12.0636542136
 20
53.953363016
 10
12.4784161929
 20
54.6857943478
  0
LINE
  5
23F
100
AcDbEntity
  8
0
100
AcDbLine
 62
7
  6
BYLAYER
 10
33.604591361
 20
14.543651703
 11
34.43062619
 21
14.066751061
  0
LINE
  5
240
100
AcDbEntity
  8
0
100
AcDbLine
 62
7
  6
BYLAYER
 10
34.5295116902
 20
14.5077209844
 11
33.8136967876
 21
14.9209875618
  0
LINE
  5
241
100
AcDbEntity
  8
0
100
AcDbLine
 62
7
  6
BYLAYER
 10
33.8953766989
 20
15.0289621966
 11
34.587386853
 21
14.6294389863
  0
LINE
  5
242
100
AcDbEntity
  8
0
100
AcDbLine
 62
7
  6
BYLAYER
 10
34.6490031197
 20
14.6990476235
 11
33.9507571807
 21
15.1021709845
  0
LINE
  5
243
100
AcDbEntity
  8
0
100
AcDbLine
 62
7
  6
BYLAYER
 10
34.1403944155
 20
15.3528569962
 11
34.9027902124
 21
14.9126975354
  0
LINE
  5
244
100
AcDbEntity
  8
0
100
AcDbLine
 62
7
  6
BYLAYER
 10
34.8229424543
 20
15.7916190467
 11
34.5788925151
 21
15.9325181572
  0
LINE
  5
245
100
AcDbEntity
  8
0
100
AcDbLine
 62
7
  6
BYLAYER
 10
10.9776282199
 20
36.1563802427
 11
10.9507515689
 21
36.2551111409
  0
LINE
  5
246
100
AcDbEntity
  8
0
100
AcDbLine
 62
7
  6
BYLAYER
 10
14.3180369098
 20
32.2924783121
 11
14.3180369004
 21
34.6769128186
  0
LINE
  5
247
100
AcDbEntity
  8
0
100
AcDbLine
 62
7
  6
BYLAYER
 10
14.3264786128
 20
11.2355259985
 11
14.3264786128
 21
14.5097006912
  0
LINE
  5
248
100
AcDbEntity
  8
0
100
AcDbLine
 62
7
  6
BYLAYER
 10
14.3264786128
 20
17.4409443687
 11
14.3264786128
 21
32.2924783121
  0
LINE
  5
249
100
AcDbEntity
  8
0
100
AcDbLine
 62
7
  6
BYLAYER
 10
14.4300057022
 20
16.1916861099
 11
14.4300057022
 21
14.1096049462
  0
LINE
  5
24A
100
AcDbEntity
  8
0
100
AcDbLine
 62
7
  6
BYLAYER
 10
33.6005654124
 20
47.5894192203
 11
30.3841966357
 21
46.2459082057
  0
LINE
  5
24B
100
AcDbEntity
  8
0
100
AcDbLine
 62
7
  6
BYLAYER
 10
27.6838467262
 20
10.3931140349
 11
27.7838501202
 21
10.2292560146
  0
LINE
  5
24C
100
AcDbEntity
  8
0
100
AcDbLine
 62
7
  6
BYLAYER
 10
13.0820203058
 20
35.757223273
 11
12.75371661
 21
36.4512694416
  0
LINE
  5
24D
100
AcDbEntity
  8
0
100
AcDbLine
 62
7
  6
BYLAYER
 10
14.3180369098
 20
32.2924783121
 11
20.5099929386
 21
28.7176317059
  0
LWPOLYLINE
  5
24E
100
AcDbEntity
  8
0
100
AcDbPolyline
 62
7
  6
BYLAYER
 90
3
 70
0
 10
12.0263047314
 20
42.9107855726
 10
10.6251856722
 20
45.2230423469
 10
10.386493808
 20
47.0582492971
  0
LWPOLYLINE
  5
24F
100
AcDbEntity
  8
0
100
AcDbPolyline
 62
7
  6
BYLAYER
 90
9
 70
0
 10
12.3439681339
 20
42.6622277556
 10
12.8186125133
 20
41.4795587718
 10
14.5234149821
 20
39.7047177042
 10
17.0095548776
 20
38.2687401952
 10
20.0813330561
 20
37.284078387
 10
23.4997233176
 20
36.8254032532
 10
27.0067262408
 20
36.9268264811
 10
30.3358954893
 20
37.5825571278
 10
33.229229561
 20
38.745228739
  0
LINE
  5
250
100
AcDbEntity
  8
0
100
AcDbLine
 62
7
  6
BYLAYER
 10
12.6975111592
 20
50.4078003655
 11
12.0555103694
 21
52.585576843
  0
LINE
  5
251
100
AcDbEntity
  8
0
100
AcDbLine
 62
7
  6
BYLAYER
 10
18.8059210612
 20
33.697999861
 11
18.8059210612
 21
31.9586263547
  0
LINE
  5
252
100
AcDbEntity
  8
0
100
AcDbLine
 62
7
  6
BYLAYER
 10
19.8073957131
 20
31.1418409377
 11
19.8073957131
 21
34.5711510897
  0
LINE
  5
253
100
AcDbEntity
  8
0
100
AcDbLine
 62
7
  6
BYLAYER
 10
20.50999294
 20
38.4337191852
 11
20.5099929399
 21
37.8846146054
  0
LINE
  5
254
100
AcDbEntity
  8
0
100
AcDbLine
 62
7
  6
BYLAYER
 10
20.5099929389
 20
30.8873410659
 11
20.5099929386
 21
28.7176317059
  0
LINE
  5
255
100
AcDbEntity
  8
0
100
AcDbLine
 62
7
  6
BYLAYER
 10
35.9477229282
 20
49.4451353529
 11
33.6005654124
 21
47.5894192203
  0
LINE
  5
256
100
AcDbEntity
  8
0
100
AcDbLine
 62
7
  6
BYLAYER
 10
21.9621557293
 20
30.8085087198
 11
21.9621557293
 21
34.2378188718
  0
LINE
  5
257
100
AcDbEntity
  8
0
100
AcDbLine
 62
7
  6
BYLAYER
 10
13.2926639145
 20
49.4593105399
 11
12.063099402
 21
51.6396291859
  0
LWPOLYLINE
  5
258
100
AcDbEntity
  8
0
100
AcDbPolyline
 62
7
  6
BYLAYER
 90
3
 70
0
 10
11.9349483895
 20
51.6306024599
 10
13.1698425912
 20
49.4344189424
 10
15.5395433316
 20
47.549188434
  0
LINE
  5
259
100
AcDbEntity
  8
0
100
AcDbLine
 62
7
  6
BYLAYER
 10
23.169871217
 20
9.0637553909
 11
23.169871217
 21
11.1458365546
  0
LINE
  5
25A
100
AcDbEntity
  8
0
100
AcDbLine
 62
7
  6
BYLAYER
 10
23.4800504318
 20
11.3254103983
 11
23.4800504318
 21
11.4509780077
  0
LINE
  5
25B
100
AcDbEntity
  8
0
100
AcDbLine
 62
7
  6
BYLAYER
 10
23.6866652549
 20
31.4356396995
 11
23.6866653604
 21
32.180475074
  0
LINE
  5
25C
100
AcDbEntity
  8
0
100
AcDbLine
 62
7
  6
BYLAYER
 10
23.6690090892
 20
31.3541751031
 11
23.6866652247
 21
31.435639697
  0
LINE
  5
25D
100
AcDbEntity
  8
0
100
AcDbLine
 62
7
  6
BYLAYER
 10
31.6905709403
 20
32.7832921627
 11
31.7370934372
 21
32.7716047124
  0
LINE
  5
25E
100
AcDbEntity
  8
0
100
AcDbLine
 62
7
  6
BYLAYER
 10
14.5502520773
 20
40.9359063846
 11
12.0263047314
 21
42.9107855726
  0
LWPOLYLINE
  5
25F
100
AcDbEntity
  8
0
100
AcDbPolyline
 62
7
  6
BYLAYER
 90
3
 70
0
 10
14.7942533282
 20
40.488143705
 10
12.6349415662
 20
42.2037120797
 10
12.4020427706
 20
42.6167868745
  0
LINE
  5
260
100
AcDbEntity
  8
0
100
AcDbLine
 62
7
  6
BYLAYER
 10
23.7746328092
 20
31.6251840081
 11
23.6866653604
 21
32.180475074
  0
LINE
  5
261
100
AcDbEntity
  8
0
100
AcDbLine
 62
7
  6
BYLAYER
 10
26.0313331316
 20
9.5998959389
 11
26.0313331316
 21
10.6123589361
  0
LINE
  5
262
100
AcDbEntity
  8
0
100
AcDbLine
 62
7
  6
BYLAYER
 10
26.4800504318
 20
11.3254103983
 11
26.4800504318
 21
11.6437865862
  0
LINE
  5
263
100
AcDbEntity
  8
0
100
AcDbLine
 62
7
  6
BYLAYER
 10
26.9068777235
 20
10.1068744659
 11
26.9068777235
 21
9.0944114686
  0
LINE
  5
264
100
AcDbEntity
  8
0
100
AcDbLine
 62
7
  6
BYLAYER
 10
23.7746328092
 20
31.6251840081
 11
23.6866652549
 21
31.4356396995
  0
LINE
  5
265
100
AcDbEntity
  8
0
100
AcDbLine
 62
7
  6
BYLAYER
 10
23.6690090892
 20
31.3541751031
 11
23.7569766483
 21
31.5437192969
  0
LINE
  5
266
100
AcDbEntity
  8
0
100
AcDbLine
 62
7
  6
BYLAYER
 10
37.1892939429
 20
51.6376350448
 11
35.9477229282
 21
49.4451353529
  0
LWPOLYLINE
  5
267
100
AcDbEntity
  8
0
100
AcDbPolyline
 62
7
  6
BYLAYER
 90
3
 70
0
 10
23.7565904173
 20
31.5429048924
 10
23.774429511
 20
31.5612586403
 10
23.8001342745
 20
31.5795426274
  0
LWPOLYLINE
  5
268
100
AcDbEntity
  8
0
100
AcDbPolyline
 62
7
  6
BYLAYER
 90
6
 70
0
 10
36.6034976052
 20
42.1873384406
 10
34.1196355196
 20
40.2240526806
 10
30.716253807
 20
38.8028528375
 10
26.7226277032
 20
38.0567898676
 10
22.5122070061
 20
38.0584440429
 10
18.5298167537
 20
38.804863766
  0
LINE
  5
269
100
AcDbEntity
  8
0
100
AcDbLine
 62
7
  6
BYLAYER
 10
33.5705226104
 20
39.9947515777
 11
32.7858592557
 21
39.38903163
  0
LWPOLYLINE
  5
26A
100
AcDbEntity
  8
0
100
AcDbPolyline
 62
7
  6
BYLAYER
 90
4
 70
0
 10
26.0981244611
 20
35.3632680249
 10
29.9319696578
 20
35.90055231
 10
33.3840523729
 20
37.019391036
 10
34.8795650929
 20
37.7720061389
  0
LINE
  5
26B
100
AcDbEntity
  8
0
100
AcDbLine
 62
7
  6
BYLAYER
 10
13.0502942867
 20
35.6280592988
 11
13.2223981516
 21
35.6369147139
  0
LINE
  5
26C
100
AcDbEntity
  8
0
100
AcDbLine
 62
7
  6
BYLAYER
 10
13.2223981516
 20
35.6369147139
 11
13.2587013472
 21
35.6343468836
  0
LINE
  5
26D
100
AcDbEntity
  8
0
100
AcDbLine
 62
7
  6
BYLAYER
 10
31.7370934372
 20
32.7716047124
 11
31.8455015453
 21
32.7269529237
  0
LINE
  5
26E
100
AcDbEntity
  8
0
100
AcDbLine
 62
7
  6
BYLAYER
 10
18.5298167537
 20
38.804863766
 11
15.1091519674
 21
40.2379574391
  0
LINE
  5
26F
100
AcDbEntity
  8
0
100
AcDbLine
 62
7
  6
BYLAYER
 10
31.8457011537
 20
32.7268373752
 11
32.0860377294
 21
32.5880821276
  0
LINE
  5
270
100
AcDbEntity
  8
0
100
AcDbLine
 62
7
  6
BYLAYER
 10
32.0239039479
 20
32.7254180552
 11
31.7835673924
 21
32.8641734112
  0
LINE
  5
271
100
AcDbEntity
  8
0
100
AcDbLine
 62
7
  6
BYLAYER
 10
27.7838501202
 20
9.2739481866
 11
27.7838501202
 21
10.2292560146
  0
LINE
  5
272
100
AcDbEntity
  8
0
100
AcDbLine
 62
7
  6
BYLAYER
 10
12.7219338542
 20
35.5772615207
 11
13.050237989
 21
35.6280504668
  0
LINE
  5
273
100
AcDbEntity
  8
0
100
AcDbLine
 62
7
  6
BYLAYER
 10
13.0820203058
 20
35.757223273
 11
12.7537162008
 21
35.7064342116
  0
LINE
  5
274
100
AcDbEntity
  8
0
100
AcDbLine
 62
7
  6
BYLAYER
 10
30.6406983693
 20
12.2050983941
 11
30.6406983693
 21
10.0821921096
  0
LWPOLYLINE
  5
275
100
AcDbEntity
  8
0
100
AcDbPolyline
 62
7
  6
BYLAYER
 90
8
 70
0
 10
37.1974377871
 20
52.585576843
 10
36.443097583
 20
50.2232865087
 10
34.3794948195
 20
48.139797465
 10
31.2317308177
 20
46.5547619801
 10
27.3422319659
 20
45.6486389317
 10
23.1463034074
 20
45.5283651727
 10
19.1164116852
 20
46.2085140629
 10
15.7057695883
 20
47.6092875408
  0
LINE
  5
276
100
AcDbEntity
  8
0
100
AcDbLine
 62
7
  6
BYLAYER
 10
36.9345445902
 20
42.7716766644
 11
36.6034976052
 21
42.1873384406
  0
LWPOLYLINE
  5
277
100
AcDbEntity
  8
0
100
AcDbPolyline
 62
7
  6
BYLAYER
 90
3
 70
0
 10
15.7057695883
 20
47.6092875408
 10
13.4454481278
 20
49.3908294845
 10
12.6975111592
 20
50.4078003655
  0
LINE
  5
278
100
AcDbEntity
  8
0
100
AcDbLine
 62
7
  6
BYLAYER
 10
15.6307708609
 20
47.6018583581
 11
13.2926639145
 21
49.4593105399
  0
LINE
  5
279
100
AcDbEntity
  8
0
100
AcDbLine
 62
7
  6
BYLAYER
 10
32.0239036468
 20
33.470253381
 11
32.0239039479
 21
32.7254180552
  0
LINE
  5
27A
100
AcDbEntity
  8
0
100
AcDbLine
 62
7
  6
BYLAYER
 10
32.9882831088
 20
11.4375627005
 11
32.9882831088
 21
13.560468985
  0
LINE
  5
27B
100
AcDbEntity
  8
0
100
AcDbLine
 62
7
  6
BYLAYER
 10
32.0239036468
 20
33.470253381
 11
31.7835673924
 21
32.8641734112
  0
LWPOLYLINE
  5
27C
100
AcDbEntity
  8
0
100
AcDbPolyline
 62
7
  6
BYLAYER
 90
4
 70
0
 10
38.7868297292
 20
45.8321022115
 10
37.6892077128
 20
43.4657267549
 10
35.4324398085
 20
41.3902179335
 10
35.2514558734
 20
41.2856153322
  0
LWPOLYLINE
  5
27D
100
AcDbEntity
  8
0
100
AcDbPolyline
 62
7
  6
BYLAYER
 90
3
 70
0
 10
35.9987674635
 20
36.0561306347
 10
36.6229611067
 20
36.8119181847
 10
36.8503653459
 20
37.2493816895
  0
LINE
  5
27E
100
AcDbEntity
  8
0
100
AcDbLine
 62
7
  6
BYLAYER
 10
34.9264686765
 20
14.5097006912
 11
34.9027902124
 21
14.9126975354
  0
LINE
  5
27F
100
AcDbEntity
  8
0
100
AcDbLine
 62
7
  6
BYLAYER
 10
33.604591361
 20
13.5883438749
 11
33.604591361
 21
14.543651703
  0
LINE
  5
280
100
AcDbEntity
  8
0
100
AcDbLine
 62
7
  6
BYLAYER
 10
34.0604927556
 20
32.6801323836
 11
34.0604927556
 21
36.1094425356
  0
LINE
  5
281
100
AcDbEntity
  8
0
100
AcDbLine
 62
7
  6
BYLAYER
 10
34.43062619
 20
14.066751061
 11
34.43062619
 21
13.111443233
  0
LINE
  5
282
100
AcDbEntity
  8
0
100
AcDbLine
 62
7
  6
BYLAYER
 10
34.6708778561
 20
13.5769322782
 11
34.6708778561
 21
14.5893952754
  0
LINE
  5
283
100
AcDbEntity
  8
0
100
AcDbLine
 62
7
  6
BYLAYER
 10
34.8229424543
 20
16.9666782837
 11
34.8229424543
 21
15.7916190467
  0
LINE
  5
284
100
AcDbEntity
  8
0
100
AcDbLine
 62
7
  6
BYLAYER
 10
34.9264695437
 20
11.2355259985
 11
34.9264695437
 21
14.5097006912
  0
LINE
  5
285
100
AcDbEntity
  8
0
100
AcDbLine
 62
7
  6
BYLAYER
 10
34.9264695437
 20
17.4409443687
 11
34.9264695437
 21
32.4682861775
  0
LINE
  5
286
100
AcDbEntity
  8
0
100
AcDbLine
 62
7
  6
BYLAYER
 10
35.6378782387
 20
33.5908308808
 11
35.6378782387
 21
37.0201410327
  0
LINE
  5
287
100
AcDbEntity
  8
0
100
AcDbLine
 62
7
  6
BYLAYER
 10
36.8503653459
 20
37.2493816895
 11
37.6081885986
 21
38.8921582062
  0
LWPOLYLINE
  5
288
100
AcDbEntity
  8
0
100
AcDbPolyline
 62
7
  6
BYLAYER
 90
3
 70
0
 10
36.9529076566
 20
37.2017916533
 10
36.5888806198
 20
36.4174221411
 10
35.9987674635
 20
35.7468405112
  0
LINE
  5
289
100
AcDbEntity
  8
0
100
AcDbLine
 62
7
  6
BYLAYER
 10
30.3841966357
 20
46.2459082057
 11
26.608725463
 21
45.5403241841
  0
LINE
  5
28A
100
AcDbEntity
  8
0
100
AcDbLine
 62
7
  6
BYLAYER
 10
16.149491788
 20
51.7345262937
 11
16.1995217688
 21
51.7054696161
  0
LINE
  5
28B
100
AcDbEntity
  8
0
100
AcDbLine
 62
7
  6
BYLAYER
 10
16.0928973699
 20
51.7678167712
 11
16.149491788
 21
51.7345262937
  0
LINE
  5
28C
100
AcDbEntity
  8
0
100
AcDbLine
 62
7
  6
BYLAYER
 10
16.0448657859
 20
51.7964278566
 11
16.0928973699
 21
51.7678167712
  0
LINE
  5
28D
100
AcDbEntity
  8
0
100
AcDbLine
 62
7
  6
BYLAYER
 10
15.9951723352
 20
51.8263810491
 11
16.0448657859
 21
51.7964278566
  0
LINE
  5
28E
100
AcDbEntity
  8
0
100
AcDbLine
 62
7
  6
BYLAYER
 10
35.9987674635
 20
37.2973170104
 11
35.9987674635
 21
34.1542725105
  0
LINE
  5
28F
100
AcDbEntity
  8
0
100
AcDbLine
 62
7
  6
BYLAYER
 10
36.7264694654
 20
56.3742130263
 11
36.7264694654
 21
53.6691566167
  0
LINE
  5
290
100
AcDbEntity
  8
0
100
AcDbLine
 62
7
  6
BYLAYER
 10
36.9255591879
 20
53.6691566167
 11
36.9255591879
 21
51.3829498488
  0
LINE
  5
291
100
AcDbEntity
  8
0
100
AcDbLine
 62
7
  6
BYLAYER
 10
37.1898487545
 20
53.9513688749
 11
37.1892939429
 21
51.6376350448
  0
LINE
  5
292
100
AcDbEntity
  8
0
100
AcDbLine
 62
7
  6
BYLAYER
 10
26.608725463
 20
45.5403241841
 11
23.0683002074
 21
45.5415302385
  0
LINE
  5
293
100
AcDbEntity
  8
0
100
AcDbLine
 62
7
  6
BYLAYER
 10
38.4942643534
 20
52.8563639682
 11
38.866675605
 21
47.0582540366
  0
LINE
  5
294
100
AcDbEntity
  8
0
100
AcDbLine
 62
7
  6
BYLAYER
 10
38.9051128061
 20
41.1801370613
 11
38.9051128061
 21
40.4165911498
  0
LINE
  5
295
100
AcDbEntity
  8
0
100
AcDbLine
 62
7
  6
BYLAYER
 10
39.1264740783
 20
43.6914970794
 11
39.1264740783
 21
42.4667434537
  0
LINE
  5
296
100
AcDbEntity
  8
0
100
AcDbLine
 62
7
  6
BYLAYER
 10
38.8666704498
 20
47.0582539263
 11
38.7868297292
 21
45.8321022115
  0
LINE
  5
297
100
AcDbEntity
  8
0
100
AcDbLine
 62
7
  6
BYLAYER
 10
34.9262867743
 20
17.4409443453
 11
34.6051621933
 21
15.9672446754
  0
LWPOLYLINE
  5
298
100
AcDbEntity
  8
0
100
AcDbPolyline
 62
7
  6
BYLAYER
 90
3
 70
0
 10
39.1263882532
 20
43.6914970892
 10
38.9158194991
 20
45.1132675257
 10
38.6650580254
 20
45.5695732472
  0
LINE
  5
299
100
AcDbEntity
  8
0
100
AcDbLine
 62
7
  6
BYLAYER
 10
34.6051621933
 20
15.9672446754
 11
33.2806453969
 21
14.2163341361
  0
LINE
  5
29A
100
AcDbEntity
  8
0
100
AcDbLine
 62
7
  6
BYLAYER
 10
38.4942643534
 20
52.8563639682
 11
37.7828261988
 21
55.1083138718
  0
LINE
  5
29B
100
AcDbEntity
  8
0
100
AcDbLine
 62
7
  6
BYLAYER
 10
36.6260967663
 20
54.9510390501
 11
37.1898487545
 21
53.9513688749
  0
LINE
  5
29C
100
AcDbEntity
  8
0
100
AcDbLine
 62
7
  6
BYLAYER
 10
37.7828261988
 20
55.1083138718
 11
36.6827622753
 21
56.3350137247
  0
LINE
  5
29D
100
AcDbEntity
  8
0
100
AcDbLine
 62
7
  6
BYLAYER
 10
31.0744265402
 20
62.3206596703
 11
30.6748825921
 21
62.4992616371
  0
LINE
  5
29E
100
AcDbEntity
  8
0
100
AcDbLine
 62
7
  6
BYLAYER
 10
18.526187755
 20
62.4422444567
 11
18.0806758148
 21
62.3204661419
  0
LINE
  5
29F
100
AcDbEntity
  8
0
100
AcDbLine
 62
7
  6
BYLAYER
 10
19.5118327145
 20
62.7773401241
 11
22.5979818815
 21
63.3438510107
  0
LINE
  5
2A0
100
AcDbEntity
  8
0
100
AcDbLine
 62
7
  6
BYLAYER
 10
22.5979818815
 20
63.3438510107
 11
25.83927337
 21
63.4086408528
  0
LINE
  5
2A1
100
AcDbEntity
  8
0
100
AcDbLine
 62
7
  6
BYLAYER
 10
27.6235327312
 20
63.2301248244
 11
24.3728396065
 21
63.4467975406
  0
LINE
  5
2A2
100
AcDbEntity
  8
0
100
AcDbLine
 62
7
  6
BYLAYER
 10
25.83927337
 20
63.4086408528
 11
28.9852787692
 21
62.9668567784
  0
LINE
  5
2A3
100
AcDbEntity
  8
0
100
AcDbLine
 62
7
  6
BYLAYER
 10
30.6748825921
 20
62.4992616371
 11
27.6235327312
 21
63.2301248244
  0
LWPOLYLINE
  5
2A4
100
AcDbEntity
  8
0
100
AcDbPolyline
 62
7
  6
BYLAYER
 90
3
 70
0
 10
28.9852787692
 20
62.9668567784
 10
31.8135432406
 20
62.0495570722
 10
33.0395582083
 20
61.4325019534
  0
ARC
  5
2A5
100
AcDbEntity
  8
0
100
AcDbCircle
 62
7
  6
BYLAYER
 10
-80.6541582469
 20
17.1661900456
 40
100.6361219197
100
AcDbArc
 50
8.8513036581
 51
9.1684918509
  0
ARC
  5
2A6
100
AcDbEntity
  8
0
100
AcDbCircle
 62
7
  6
BYLAYER
 10
-125.7545499791
 20
95.3710616129
 40
169.1108161387
100
AcDbArc
 50
338.3458018841
 51
338.5644266503
  0
ARC
  5
2A7
100
AcDbEntity
  8
0
100
AcDbCircle
 62
7
  6
BYLAYER
 10
-36.9544923686
 20
12.7654751982
 40
55.3556981511
100
AcDbArc
 50
25.3226554425
 51
27.4366858349
  0
ARC
  5
2A8
100
AcDbEntity
  8
0
100
AcDbCircle
 62
7
  6
BYLAYER
 10
-31.62487193
 20
19.1582918088
 40
47.6288378595
100
AcDbArc
 50
21.289340799
 51
23.9807995081
  0
ARC
  5
2A9
100
AcDbEntity
  8
0
100
AcDbCircle
 62
7
  6
BYLAYER
 10
24.4416609382
 20
53.6343360216
 40
23.0849213036
100
AcDbArc
 50
258.5203244831
 51
263.8913302744
  0
ARC
  5
2AA
100
AcDbEntity
  8
0
100
AcDbCircle
 62
7
  6
BYLAYER
 10
24.6254564604
 20
26.3455751167
 40
17.7824886342
100
AcDbArc
 50
267.7539320579
 51
275.4548574307
  0
ARC
  5
2AB
100
AcDbEntity
  8
0
100
AcDbCircle
 62
7
  6
BYLAYER
 10
24.7538502537
 20
26.8078081182
 40
16.6042835324
100
AcDbArc
 50
278.6379424679
 51
279.3745118995
  0
ARC
  5
2AC
100
AcDbEntity
  8
0
100
AcDbCircle
 62
7
  6
BYLAYER
 10
24.6777608829
 20
26.2015513245
 40
15.4119156183
100
AcDbArc
 50
276.3893449145
 51
277.2230298473
  0
ARC
  5
2AD
100
AcDbEntity
  8
0
100
AcDbCircle
 62
7
  6
BYLAYER
 10
26.1409065432
 20
47.0141252809
 40
15.320673746
100
AcDbArc
 50
291.3259850564
 51
291.5003983966
  0
ARC
  5
2AE
100
AcDbEntity
  8
0
100
AcDbCircle
 62
7
  6
BYLAYER
 10
27.5308352975
 20
45.6271400527
 40
14.5955230527
100
AcDbArc
 50
296.302737389
 51
299.949402056
  0
ARC
  5
2AF
100
AcDbEntity
  8
0
100
AcDbCircle
 62
7
  6
BYLAYER
 10
27.6602372026
 20
45.6407523803
 40
14.4547895814
100
AcDbArc
 50
296.2812311215
 51
299.4834393918
  0
ARC
  5
2B0
100
AcDbEntity
  8
0
100
AcDbCircle
 62
7
  6
BYLAYER
 10
21.474244017
 20
52.9352561821
 40
13.8537381217
100
AcDbArc
 50
240.0137389364
 51
241.8014685609
  0
ARC
  5
2B1
100
AcDbEntity
  8
0
100
AcDbCircle
 62
7
  6
BYLAYER
 10
28.0009485767
 20
45.0322827226
 40
13.7574296808
100
AcDbArc
 50
299.495446879
 51
299.9995271601
  0
ARC
  5
2B2
100
AcDbEntity
  8
0
100
AcDbCircle
 62
7
  6
BYLAYER
 10
28.2978202754
 20
44.281553269
 40
13.0467132515
100
AcDbArc
 50
299.981009026
 51
303.9166465464
  0
ARC
  5
2B3
100
AcDbEntity
  8
0
100
AcDbCircle
 62
7
  6
BYLAYER
 10
28.444582
 20
44.2830824377
 40
12.8867901485
100
AcDbArc
 50
299.9568231334
 51
303.3774170154
  0
ARC
  5
2B4
100
AcDbEntity
  8
0
100
AcDbCircle
 62
7
  6
BYLAYER
 10
21.2840921619
 20
50.9354853632
 40
12.351801087
100
AcDbArc
 50
238.0098416853
 51
240.0051437465
  0
ARC
  5
2B5
100
AcDbEntity
  8
0
100
AcDbCircle
 62
7
  6
BYLAYER
 10
27.4138697635
 20
49.6062033655
 40
12.3198692936
100
AcDbArc
 50
298.1662118607
 51
299.987153789
  0
ARC
  5
2B6
100
AcDbEntity
  8
0
100
AcDbCircle
 62
7
  6
BYLAYER
 10
28.8107584882
 20
43.7220383422
 40
12.2168297326
100
AcDbArc
 50
303.3909157229
 51
303.9748596164
  0
ARC
  5
2B7
100
AcDbEntity
  8
0
100
AcDbCircle
 62
7
  6
BYLAYER
 10
27.7486516998
 20
49.0227000768
 40
11.6471493825
100
AcDbArc
 50
299.9953746867
 51
301.8856673644
  0
ARC
  5
2B8
100
AcDbEntity
  8
0
100
AcDbCircle
 62
7
  6
BYLAYER
 10
27.4811507711
 20
51.7842158633
 40
11.1448435667
100
AcDbArc
 50
59.6369408735
 51
60.0008676902
  0
ARC
  5
2B9
100
AcDbEntity
  8
0
100
AcDbCircle
 62
7
  6
BYLAYER
 10
27.4777601507
 20
51.7988488923
 40
11.1238703581
100
AcDbArc
 50
59.585243929
 51
60.0006060993
  0
ARC
  5
2BA
100
AcDbEntity
  8
0
100
AcDbCircle
 62
7
  6
BYLAYER
 10
21.660044581
 20
52.003883975
 40
10.8888933749
100
AcDbArc
 50
118.264665458
 51
122.9376135924
  0
ARC
  5
2BB
100
AcDbEntity
  8
0
100
AcDbCircle
 62
7
  6
BYLAYER
 10
27.7172101949
 20
52.1828914533
 40
10.6815278966
100
AcDbArc
 50
56.4773726316
 51
59.6485265306
  0
ARC
  5
2BC
100
AcDbEntity
  8
0
100
AcDbCircle
 62
7
  6
BYLAYER
 10
27.9055781307
 20
52.5043126151
 40
10.298911603
100
AcDbArc
 50
55.3345592708
 51
59.6508791875
  0
ARC
  5
2BD
100
AcDbEntity
  8
0
100
AcDbCircle
 62
7
  6
BYLAYER
 10
21.0385595269
 20
52.9622723322
 40
9.7466361148
100
AcDbArc
 50
122.9347374799
 51
125.8940002034
  0
ARC
  5
2BE
100
AcDbEntity
  8
0
100
AcDbCircle
 62
7
  6
BYLAYER
 10
28.5927135374
 20
53.4879515234
 40
9.0990516028
100
AcDbArc
 50
51.3714273208
 51
55.3703414864
  0
ARC
  5
2BF
100
AcDbEntity
  8
0
100
AcDbCircle
 62
7
  6
BYLAYER
 10
15.4614599419
 20
39.146649734
 40
5.3481650937
100
AcDbArc
 50
197.9418169619
 51
198.5805626151
  0
ARC
  5
2C0
100
AcDbEntity
  8
0
100
AcDbCircle
 62
7
  6
BYLAYER
 10
15.3959326616
 20
42.5548244068
 40
5.2793136103
100
AcDbArc
 50
196.1608889359
 51
197.9426644693
  0
ARC
  5
2C1
100
AcDbEntity
  8
0
100
AcDbCircle
 62
7
  6
BYLAYER
 10
32.6088711505
 20
52.5924667588
 40
4.5989961104
100
AcDbArc
 50
15.3596899889
 51
19.0478375104
  0
ARC
  5
2C2
100
AcDbEntity
  8
0
100
AcDbCircle
 62
7
  6
BYLAYER
 10
16.6309821065
 20
52.5968257564
 40
4.5852143818
100
AcDbArc
 50
160.1212292873
 51
164.650264827
  0
ARC
  5
2C3
100
AcDbEntity
  8
0
100
AcDbCircle
 62
7
  6
BYLAYER
 10
30.7750132094
 20
16.3675495268
 40
4.189895112
100
AcDbArc
 50
333.6480231032
 51
335.4911430285
  0
ARC
  5
2C4
100
AcDbEntity
  8
0
100
AcDbCircle
 62
7
  6
BYLAYER
 10
31.596224557
 20
34.7684193579
 40
4.1429158964
100
AcDbArc
 50
340.4021894433
 51
340.7975866566
  0
ARC
  5
2C5
100
AcDbEntity
  8
0
100
AcDbCircle
 62
7
  6
BYLAYER
 10
17.8156214006
 20
14.5068751893
 40
3.4891428048
100
AcDbArc
 50
166.494791832
 51
179.95360197
  0
ARC
  5
2C6
100
AcDbEntity
  8
0
100
AcDbCircle
 62
7
  6
BYLAYER
 10
16.3561655467
 20
14.3579016888
 40
2.0216742709
100
AcDbArc
 50
187.1375837894
 51
187.4007540813
  0
ARC
  5
2C7
100
AcDbEntity
  8
0
100
AcDbCircle
 62
7
  6
BYLAYER
 10
33.3292435742
 20
34.1596894127
 40
1.6503982452
100
AcDbArc
 50
292.6350676214
 51
296.3002039084
  0
ARC
  5
2C8
100
AcDbEntity
  8
0
100
AcDbCircle
 62
7
  6
BYLAYER
 10
32.7848501472
 20
34.0474015873
 40
1.5253457531
100
AcDbArc
 50
240.0748571618
 51
244.2516772948
  0
ARC
  5
2C9
100
AcDbEntity
  8
0
100
AcDbCircle
 62
7
  6
BYLAYER
 10
35.307247651
 20
14.2797385675
 40
0.800306161
100
AcDbArc
 50
153.3141934538
 51
154.0900309083
  0
ARC
  5
2CA
100
AcDbEntity
  8
0
100
AcDbCircle
 62
7
  6
BYLAYER
 10
23.5745821021
 20
31.6251399152
 40
0.2000506865
100
AcDbArc
 50
348.5798356192
 51
0.0125948788
  0
ARC
  5
2CB
100
AcDbEntity
  8
0
100
AcDbCircle
 62
7
  6
BYLAYER
 10
24.4859168964
 20
54.2540377776
 40
23.5809712104
100
AcDbArc
 50
258.5564489833
 51
263.8561330678
  0
ARC
  5
2CC
100
AcDbEntity
  8
0
100
AcDbCircle
 62
7
  6
BYLAYER
 10
22.265139015
 20
59.9626422072
 40
15.0455585828
100
AcDbArc
 50
244.3903651406
 51
245.0180243041
  0
ARC
  5
2CD
100
AcDbEntity
  8
0
100
AcDbCircle
 62
7
  6
BYLAYER
 10
21.7295871225
 20
58.8850486967
 40
13.8423531013
100
AcDbArc
 50
240.0255953861
 51
244.46140558
  0
ARC
  5
2CE
100
AcDbEntity
  8
0
100
AcDbCircle
 62
7
  6
BYLAYER
 10
21.8036371758
 20
58.4068374539
 40
12.5350673265
100
AcDbArc
 50
240.5443878249
 51
241.5396732516
  0
ARC
  5
2CF
100
AcDbEntity
  8
0
100
AcDbCircle
 62
7
  6
BYLAYER
 10
21.6468914397
 20
58.1279826898
 40
12.2151786241
100
AcDbArc
 50
240.001306393
 51
240.5413751404
  0
ARC
  5
2D0
100
AcDbEntity
  8
0
100
AcDbCircle
 62
7
  6
BYLAYER
 10
21.631889228
 20
57.9964337311
 40
12.0025255193
100
AcDbArc
 50
240.0007959069
 51
240.2923381166
  0
ARC
  5
2D1
100
AcDbEntity
  8
0
100
AcDbCircle
 62
7
  6
BYLAYER
 10
31.0068815125
 20
55.8805568807
 40
5.6991754784
100
AcDbArc
 50
33.5351967866
 51
35.2966233386
  0
SPLINE
  5
2D2
100
AcDbEntity
  8
0
100
AcDbSpline
 62
7
  6
BYLAYER
 70
0
 71
3
 72
9
 73
5
 74
0
 42
0.0000001
 43
0.0000001
 44
0.0000000001
 40
0.0
 40
0.0
 40
0.0
 40
0.0
 40
0.5037865547
 40
1.0
 40
1.0
 40
1.0
 40
1.0
 10
12.5180227152
 20
54.914502275
 30
0.0
 10
12.4554661377
 20
54.7117715739
 30
0.0
 10
12.3598450738
 20
54.2998741169
 30
0.0
 10
12.3273917653
 20
53.8781301318
 30
0.0
 10
12.3273986537
 20
53.6691566225
 30
0.0
  0
SPLINE
  5
2D3
100
AcDbEntity
  8
0
100
AcDbSpline
 62
7
  6
BYLAYER
 70
0
 71
3
 72
15
 73
11
 74
0
 42
0.0000001
 43
0.0000001
 44
0.0000000001
 40
0.0
 40
0.0
 40
0.0
 40
0.0
 40
0.1098571497
 40
0.2214579831
 40
0.3364448359
 40
0.4562100313
 40
0.5818539562
 40
0.7141270256
 40
0.8534947355
 40
1.0
 40
1.0
 40
1.0
 40
1.0
 10
36.7264740783
 20
56.3742130263
 30
0.0
 10
36.7264740783
 20
56.6119617766
 30
0.0
 10
36.6853873277
 20
57.0921938381
 30
0.0
 10
36.5023565313
 20
57.8001246236
 30
0.0
 10
36.2014734492
 20
58.4898605655
 30
0.0
 10
35.7877271849
 20
59.1539643371
 30
0.0
 10
35.2668847518
 20
59.7866231952
 30
0.0
 10
34.6449950688
 20
60.3829069646
 30
0.0
 10
33.9285364652
 20
60.9380594826
 30
0.0
 10
33.4052370653
 20
61.2698858974
 30
0.0
 10
33.1306524284
 20
61.4284138251
 30
0.0
  0
SPLINE
  5
2D4
100
AcDbEntity
  8
0
100
AcDbSpline
 62
7
  6
BYLAYER
 70
0
 71
3
 72
28
 73
24
 74
0
 42
0.0000001
 43
0.0000001
 44
0.0000000001
 40
0.0
 40
0.0
 40
0.0
 40
0.0
 40
0.0306394441
 40
0.0623111758
 40
0.1283872734
 40
0.1975955295
 40
0.2691095682
 40
0.3419758543
 40
0.4151774455
 40
0.4876802661
 40
0.5584842644
 40
0.6266741
 40
0.6914743105
 40
0.7523106356
 40
0.8088796571
 40
0.8355843278
 40
0.8612731453
 40
0.8860174172
 40
0.9099179713
 40
0.9331038094
 40
0.9557255413
 40
0.9779600449
 40
1.0
 40
1.0
 40
1.0
 40
1.0
 10
33.1306524284
 20
61.4284138251
 30
0.0
 10
32.9168891431
 20
61.5518273234
 30
0.0
 10
32.473905311
 20
61.7887582905
 30
0.0
 10
31.5341949712
 20
62.2219624398
 30
0.0
 10
30.2669998136
 20
62.6810031201
 30
0.0
 10
28.6498371569
 20
63.0911109587
 30
0.0
 10
26.9480161216
 20
63.3602293785
 30
0.0
 10
25.1973332437
 20
63.4828575445
 30
0.0
 10
23.434609929
 20
63.4565303348
 30
0.0
 10
21.6970120722
 20
63.2817719049
 30
0.0
 10
20.0210628954
 20
62.962138041
 30
0.0
 10
18.4417940412
 20
62.5040410433
 30
0.0
 10
16.991787848
 20
61.9163210124
 30
0.0
 10
15.7009833911
 20
61.210079654
 30
0.0
 10
14.7619437881
 20
60.5196422309
 30
0.0
 10
14.1214765293
 20
59.9180440017
 30
0.0
 10
13.7060767659
 20
59.4547321432
 30
0.0
 10
13.3490502915
 20
58.972805745
 30
0.0
 10
13.052709129
 20
58.4745336115
 30
0.0
 10
12.819403165
 20
57.9624269049
 30
0.0
 10
12.6509562887
 20
57.439417879
 30
0.0
 10
12.5492695173
 20
56.9088414121
 30
0.0
 10
12.5264740783
 20
56.5517667777
 30
0.0
 10
12.5264740783
 20
56.3742130263
 30
0.0
  0
SPLINE
  5
2D5
100
AcDbEntity
  8
0
100
AcDbSpline
 62
7
  6
BYLAYER
 70
0
 71
3
 72
9
 73
5
 74
0
 42
0.0000001
 43
0.0000001
 44
0.0000000001
 40
0.0
 40
0.0
 40
0.0
 40
0.0
 40
0.4973024387
 40
1.0
 40
1.0
 40
1.0
 40
1.0
 10
36.9255495028
 20
53.6691566109
 30
0.0
 10
36.9255437138
 20
53.8447793944
 30
0.0
 10
36.9027496413
 20
54.1982930441
 30
0.0
 10
36.835136584
 20
54.5459693634
 30
0.0
 10
36.7906791289
 20
54.7178406884
 30
0.0
  0
SPLINE
  5
2D6
100
AcDbEntity
  8
0
100
AcDbSpline
 62
7
  6
BYLAYER
 70
0
 71
3
 72
24
 73
20
 74
0
 42
0.0000001
 43
0.0000001
 44
0.0000000001
 40
0.0
 40
0.0
 40
0.0
 40
0.0
 40
0.0755001089
 40
0.1473932671
 40
0.2156411025
 40
0.2484543835
 40
0.2804253934
 40
0.3419758374
 40
0.4007575876
 40
0.4573766703
 40
0.5125844371
 40
0.5672379782
 40
0.6222389306
 40
0.6784607397
 40
0.7366835818
 40
0.7975491058
 40
0.8615368701
 40
0.9289647891
 40
1.0
 40
1.0
 40
1.0
 40
1.0
 10
16.2135616804
 20
51.7181218763
 30
0.0
 10
15.9638549613
 20
51.8621883321
 30
0.0
 10
15.4869367892
 20
52.1624318613
 30
0.0
 10
14.8298375695
 20
52.6603536031
 30
0.0
 10
14.3431851224
 20
53.10864041
 30
0.0
 10
13.9984658412
 20
53.4820566751
 30
0.0
 10
13.6915222207
 20
53.8544578171
 30
0.0
 10
13.3614227512
 20
54.3351809721
 30
0.0
 10
13.0538538555
 20
54.9391066549
 30
0.0
 10
12.8429053478
 20
55.557960692
 30
0.0
 10
12.7309309843
 20
56.1863059336
 30
0.0
 10
12.7192961141
 20
56.8183543344
 30
0.0
 10
12.8081984436
 20
57.4480830165
 30
0.0
 10
12.996482031
 20
58.0696127266
 30
0.0
 10
13.2819920605
 20
58.6774633408
 30
0.0
 10
13.6618064648
 20
59.2665702382
 30
0.0
 10
14.1323224155
 20
59.8322994681
 30
0.0
 10
14.6893382421
 20
60.3702209761
 30
0.0
 10
15.1045278654
 20
60.6989881695
 30
0.0
 10
15.3242283228
 20
60.8580518659
 30
0.0
  0
SPLINE
  5
2D7
100
AcDbEntity
  8
0
100
AcDbSpline
 62
7
  6
BYLAYER
 70
0
 71
3
 72
9
 73
5
 74
0
 42
0.0000001
 43
0.0000001
 44
0.0000000001
 40
0.0
 40
0.0
 40
0.0
 40
0.0
 40
0.4883065396
 40
1.0
 40
1.0
 40
1.0
 40
1.0
 10
33.0534263877
 20
61.4360179012
 30
0.0
 10
32.7497943256
 20
61.6113159882
 30
0.0
 10
32.1110098394
 20
61.9414132688
 30
0.0
 10
31.4474658197
 20
62.2177953475
 30
0.0
 10
31.1033279939
 20
62.3464320009
 30
0.0
  0
SPLINE
  5
2D8
100
AcDbEntity
  8
0
100
AcDbSpline
 62
7
  6
BYLAYER
 70
0
 71
3
 72
9
 73
5
 74
0
 42
0.0000001
 43
0.0000001
 44
0.0000000001
 40
0.0
 40
0.0
 40
0.0
 40
0.0
 40
0.5038494444
 40
1.0
 40
1.0
 40
1.0
 40
1.0
 10
24.3727328609
 20
63.4496920226
 30
0.0
 10
23.8118882831
 20
63.4427977598
 30
0.0
 10
22.6988540658
 20
63.3838299945
 30
0.0
 10
21.5943944013
 20
63.2329627431
 30
0.0
 10
21.0509641239
 20
63.1342861359
 30
0.0
  0
SPLINE
  5
2D9
100
AcDbEntity
  8
0
100
AcDbSpline
 62
7
  6
BYLAYER
 70
0
 71
3
 72
9
 73
5
 74
0
 42
0.0000001
 43
0.0000001
 44
0.0000000001
 40
0.0
 40
0.0
 40
0.0
 40
0.0
 40
0.508267085
 40
1.0
 40
1.0
 40
1.0
 40
1.0
 10
21.0509641239
 20
63.1342861359
 30
0.0
 10
20.6106510243
 20
63.0543336479
 30
0.0
 10
19.7496244226
 20
62.8661378509
 30
0.0
 10
18.9052783234
 20
62.612824142
 30
0.0
 10
18.4961596302
 20
62.4711476701
 30
0.0
  0
SPLINE
  5
2DA
100
AcDbEntity
  8
0
100
AcDbSpline
 62
7
  6
BYLAYER
 70
0
 71
3
 72
37
 73
33
 74
0
 42
0.0000001
 43
0.0000001
 44
0.0000000001
 40
0.0
 40
0.0
 40
0.0
 40
0.0
 40
0.0309948716
 40
0.060378946
 40
0.0881660827
 40
0.1144271277
 40
0.1393215014
 40
0.1630850887
 40
0.1746479271
 40
0.186055395
 40
0.2085832083
 40
0.231110135
 40
0.2540621357
 40
0.2778264097
 40
0.30271928
 40
0.3289818804
 40
0.3567684805
 40
0.3861538027
 40
0.4171476198
 40
0.449698738
 40
0.4837099899
 40
0.5190397622
 40
0.5555155256
 40
0.5929398851
 40
0.6310905835
 40
0.6697359054
 40
0.7086299262
 40
0.7475240473
 40
0.7861708984
 40
0.8617156169
 40
0.9334854828
 40
1.0
 40
1.0
 40
1.0
 40
1.0
 10
19.2665046596
 20
53.6756553447
 30
0.0
 10
19.0955187651
 20
53.7743729169
 30
0.0
 10
18.7701323499
 20
53.980554127
 30
0.0
 10
18.3253833078
 20
54.324942612
 30
0.0
 10
17.9405963826
 20
54.6931178765
 30
0.0
 10
17.6198153588
 20
55.082076283
 30
0.0
 10
17.3661720842
 20
55.4880560953
 30
0.0
 10
17.2116607594
 20
55.8409686031
 30
0.0
 10
17.1258824955
 20
56.1263467214
 30
0.0
 10
17.0650488943
 20
56.4099852836
 30
0.0
 10
17.0339255478
 20
56.7702008908
 30
0.0
 10
17.0714664996
 20
57.2038335218
 30
0.0
 10
17.1824190702
 20
57.6327815217
 30
0.0
 10
17.3662706896
 20
58.0521773237
 30
0.0
 10
17.6197087584
 20
58.4583434842
 30
0.0
 10
17.940595407
 20
58.8472096639
 30
0.0
 10
18.3253443073
 20
59.2154282451
 30
0.0
 10
18.7701378174
 20
59.5598152239
 30
0.0
 10
19.270824156
 20
59.8770862834
 30
0.0
 10
19.8225477218
 20
60.1645156294
 30
0.0
 10
20.420154293
 20
60.4192780831
 30
0.0
 10
21.0578958254
 20
60.6391394627
 30
0.0
 10
21.7297433008
 20
60.8219608564
 30
0.0
 10
22.4293115732
 20
60.9658005717
 30
0.0
 10
23.1498360141
 20
61.0698824482
 30
0.0
 10
23.8845340192
 20
61.13237591
 30
0.0
 10
24.6262984482
 20
61.153545325
 30
0.0
 10
25.3681149485
 20
61.1324480028
 30
0.0
 10
26.3401390716
 20
61.049582896
 30
0.0
 10
27.5104700958
 20
60.8472503007
 30
0.0
 10
28.8170254178
 20
60.4501779192
 30
0.0
 10
29.6194334297
 20
60.0765775119
 30
0.0
 10
29.9863686166
 20
59.8647347421
 30
0.0
  0
SPLINE
  5
2DB
100
AcDbEntity
  8
0
100
AcDbSpline
 62
7
  6
BYLAYER
 70
0
 71
3
 72
37
 73
33
 74
0
 42
0.0000001
 43
0.0000001
 44
0.0000000001
 40
0.0
 40
0.0
 40
0.0
 40
0.0
 40
0.0324653261
 40
0.0663292886
 40
0.1014519405
 40
0.1376876415
 40
0.1748608314
 40
0.2127783671
 40
0.2512345229
 40
0.2900100961
 40
0.3675981952
 40
0.4059928073
 40
0.4438214811
 40
0.5169366236
 40
0.5518937376
 40
0.5855653251
 40
0.6178307123
 40
0.6486090349
 40
0.6778622001
 40
0.7056000601
 40
0.7318897422
 40
0.7568693247
 40
0.7807472119
 40
0.8037984729
 40
0.8263621534
 40
0.8488134869
 40
0.871538429
 40
0.8949020951
 40
0.919219887
 40
0.944735243
 40
0.9716243539
 40
1.0
 40
1.0
 40
1.0
 40
1.0
 10
16.2134722687
 20
51.7179544575
 30
0.0
 10
16.4806399253
 20
51.563711735
 30
0.0
 10
17.0396350278
 20
51.2709351763
 30
0.0
 10
17.924881581
 20
50.8873548077
 30
0.0
 10
18.8679408238
 20
50.5529610415
 30
0.0
 10
19.860503238
 20
50.270589215
 30
0.0
 10
20.8940800945
 20
50.0424094971
 30
0.0
 10
21.9598447365
 20
49.870604665
 30
0.0
 10
23.0486928213
 20
49.7568944133
 30
0.0
 10
24.5185228484
 20
49.683407373
 30
0.0
 10
25.9918171712
 20
49.7279603487
 30
0.0
 10
27.4448395314
 20
49.8915092301
 30
0.0
 10
28.8444903562
 20
50.1284930942
 30
0.0
 10
30.1907831968
 20
50.4762929223
 30
0.0
 10
31.45672913
 20
50.9386019062
 30
0.0
 10
32.3333621454
 20
51.3288462014
 30
0.0
 10
33.1435972852
 20
51.764512343
 30
0.0
 10
33.8805581044
 20
52.2419562059
 30
0.0
 10
34.5379525307
 20
52.7572012289
 30
0.0
 10
35.1101604979
 20
53.3059640814
 30
0.0
 10
35.5919597668
 20
53.883977973
 30
0.0
 10
35.9789116744
 20
54.4864985572
 30
0.0
 10
36.267726671
 20
55.1083152088
 30
0.0
 10
36.4545746782
 20
55.7444020769
 30
0.0
 10
36.537253911
 20
56.3886872255
 30
0.0
 10
36.5150555047
 20
57.0348125058
 30
0.0
 10
36.388130429
 20
57.6763889698
 30
0.0
 10
36.1579305774
 20
58.3072252021
 30
0.0
 10
35.8270744895
 20
58.9215247504
 30
0.0
 10
35.3993459255
 20
59.51423946
 30
0.0
 10
34.8787951382
 20
60.0804695445
 30
0.0
 10
34.4835543284
 20
60.4278182071
 30
0.0
 10
34.2729716889
 20
60.5962148419
 30
0.0
  0
SPLINE
  5
2DC
100
AcDbEntity
  8
0
100
AcDbSpline
 62
7
  6
BYLAYER
 70
0
 71
3
 72
36
 73
32
 74
0
 42
0.0000001
 43
0.0000001
 44
0.0000000001
 40
0.0
 40
0.0
 40
0.0
 40
0.0
 40
0.0603161507
 40
0.0881047512
 40
0.1143681825
 40
0.1392640566
 40
0.1630290934
 40
0.1745937176
 40
0.18600158
 40
0.2085297911
 40
0.2310596443
 40
0.2540118308
 40
0.2777789099
 40
0.3026721449
 40
0.3289363853
 40
0.3567250713
 40
0.3861120697
 40
0.4171080802
 40
0.4496612867
 40
0.4836749769
 40
0.5190070466
 40
0.5554852844
 40
0.5929124551
 40
0.6310654929
 40
0.6697135469
 40
0.7086101374
 40
0.7475068392
 40
0.7861563395
 40
0.8617060464
 40
0.9334808051
 40
1.0
 40
1.0
 40
1.0
 40
1.0
 10
29.9864434969
 20
59.8646915109
 30
0.0
 10
30.3191603526
 20
59.6725993631
 30
0.0
 10
30.7850712414
 20
59.3517151506
 30
0.0
 10
31.3123349354
 20
58.8472554615
 30
0.0
 10
31.6331331924
 20
58.4582508355
 30
0.0
 10
31.8867738627
 20
58.0522818004
 30
0.0
 10
32.0412947905
 20
57.6993646079
 30
0.0
 10
32.1270611923
 20
57.4139800409
 30
0.0
 10
32.1879005111
 20
57.1303458441
 30
0.0
 10
32.2190206063
 20
56.7701306598
 30
0.0
 10
32.1814889517
 20
56.3365028309
 30
0.0
 10
32.0705168146
 20
55.9075526419
 30
0.0
 10
31.8866933709
 20
55.488154186
 30
0.0
 10
31.6332294925
 20
55.0820041953
 30
0.0
 10
31.3123509377
 20
54.6931437263
 30
0.0
 10
30.927608921
 20
54.3249182103
 30
0.0
 10
30.4828053865
 20
53.9805440314
 30
0.0
 10
29.9821272511
 20
53.6632635293
 30
0.0
 10
29.4303969562
 20
53.3758442699
 30
0.0
 10
28.8327969073
 20
53.1210676111
 30
0.0
 10
28.1950512991
 20
52.9012126975
 30
0.0
 10
27.5232011511
 20
52.7184013337
 30
0.0
 10
26.8236435909
 20
52.5744981387
 30
0.0
 10
26.1031067677
 20
52.470495791
 30
0.0
 10
25.3684170155
 20
52.4079169067
 30
0.0
 10
24.6266492555
 20
52.3868187596
 30
0.0
 10
23.8848322399
 20
52.4078642113
 30
0.0
 10
22.9128110359
 20
52.4907735649
 30
0.0
 10
21.7424762105
 20
52.6930727296
 30
0.0
 10
20.4359208132
 20
53.0901592542
 30
0.0
 10
19.6335158115
 20
53.4637684111
 30
0.0
 10
19.2665795399
 20
53.6756121135
 30
0.0
  0
SPLINE
  5
2DD
100
AcDbEntity
  8
0
100
AcDbSpline
 62
7
  6
BYLAYER
 70
0
 71
3
 72
29
 73
25
 74
0
 42
0.0000001
 43
0.0000001
 44
0.0000000001
 40
0.0
 40
0.0
 40
0.0
 40
0.0
 40
0.0623733941
 40
0.1286992121
 40
0.1982802478
 40
0.2702442139
 40
0.3436087403
 40
0.417327589
 40
0.4903393313
 40
0.561613551
 40
0.6301989776
 40
0.6952753738
 40
0.7263053642
 40
0.7562420424
 40
0.7850476136
 40
0.8127068156
 40
0.8392274444
 40
0.8646461471
 40
0.8890284405
 40
0.9124737712
 40
0.9351142469
 40
0.9571155448
 40
0.9786719772
 40
1.0
 40
1.0
 40
1.0
 40
1.0
 10
16.0705209097
 20
51.4344606476
 30
0.0
 10
16.5052594587
 20
51.1834699075
 30
0.0
 10
17.4368836951
 20
50.7241278497
 30
0.0
 10
18.9397304263
 20
50.179621148
 30
0.0
 10
20.5637563543
 20
49.7673332903
 30
0.0
 10
22.2742626189
 20
49.4961184749
 30
0.0
 10
24.0349409118
 20
49.37165261
 30
0.0
 10
25.8082376045
 20
49.3966104183
 30
0.0
 10
27.5563146536
 20
49.5704474764
 30
0.0
 10
29.2419760863
 20
49.8894852495
 30
0.0
 10
30.8292215149
 20
50.3469272507
 30
0.0
 10
32.0613977771
 20
50.8432893133
 30
0.0
 10
32.9658538824
 20
51.3038235043
 30
0.0
 10
33.5885468406
 20
51.6712464631
 30
0.0
 10
34.162917065
 20
52.0642025359
 30
0.0
 10
34.6859208449
 20
52.4805877374
 30
0.0
 10
35.1546741918
 20
52.9182927366
 30
0.0
 10
35.5666801098
 20
53.3749731912
 30
0.0
 10
35.9195703317
 20
53.8483337124
 30
0.0
 10
36.211404115
 20
54.3358463004
 30
0.0
 10
36.4403519623
 20
54.8349798776
 30
0.0
 10
36.6050426183
 20
55.3430189263
 30
0.0
 10
36.7043022783
 20
55.8570254383
 30
0.0
 10
36.7264692454
 20
56.2025620483
 30
0.0
 10
36.7264633761
 20
56.3742130262
 30
0.0
  0
SPLINE
  5
2DE
100
AcDbEntity
  8
0
100
AcDbSpline
 62
7
  6
BYLAYER
 70
0
 71
3
 72
9
 73
5
 74
0
 42
0.0000001
 43
0.0000001
 44
0.0000000001
 40
0.0
 40
0.0
 40
0.0
 40
0.0
 40
0.2551095824
 40
1.0
 40
1.0
 40
1.0
 40
1.0
 10
33.6162576807
 20
61.0877371547
 30
0.0
 10
33.6799743836
 20
61.0454679302
 30
0.0
 10
33.9278446535
 20
60.8769532806
 30
0.0
 10
34.1679524832
 20
60.6969428887
 30
0.0
 10
34.3412278466
 20
60.5561546192
 30
0.0
  0
SPLINE
  5
2DF
100
AcDbEntity
  8
0
100
AcDbSpline
 62
7
  6
BYLAYER
 70
0
 71
3
 72
9
 73
5
 74
0
 42
0.0000001
 43
0.0000001
 44
0.0000000001
 40
0.0
 40
0.0
 40
0.0
 40
0.0
 40
0.262821211
 40
1.0
 40
1.0
 40
1.0
 40
1.0
 10
34.3412278466
 20
60.5561546192
 30
0.0
 10
34.4712812119
 20
60.4504847314
 30
0.0
 10
34.9541105603
 20
60.0342181877
 30
0.0
 10
35.3868268084
 20
59.5572201771
 30
0.0
 10
35.6583869324
 20
59.1735947582
 30
0.0
  0
SPLINE
  5
2E0
100
AcDbEntity
  8
0
100
AcDbSpline
 62
7
  6
BYLAYER
 70
0
 71
3
 72
34
 73
30
 74
0
 42
0.0000001
 43
0.0000001
 44
0.0000000001
 40
0.0
 40
0.0
 40
0.0
 40
0.0
 40
0.0242896947
 40
0.0476481758
 40
0.0703167399
 40
0.0925791366
 40
0.1147470381
 40
0.1371387145
 40
0.1600567534
 40
0.1837689906
 40
0.2084963721
 40
0.2344058596
 40
0.2616113682
 40
0.2901767758
 40
0.320119967
 40
0.3514202453
 40
0.3840221343
 40
0.4178410532
 40
0.452768476
 40
0.4886744792
 40
0.5627982044
 40
0.6389245483
 40
0.7156148945
 40
0.7913973969
 40
0.8648544067
 40
0.9003176102
 40
0.9347385996
 40
0.9680050189
 40
1.0
 40
1.0
 40
1.0
 40
1.0
 10
35.7574099121
 20
59.0290614556
 30
0.0
 10
35.8754590151
 20
58.8508921177
 30
0.0
 10
36.0872400522
 20
58.4876241443
 30
0.0
 10
36.3287475023
 20
57.9160742326
 30
0.0
 10
36.4851207513
 20
57.3337963755
 30
0.0
 10
36.5546979732
 20
56.7453649213
 30
0.0
 10
36.5368487321
 20
56.1555079317
 30
0.0
 10
36.4317042369
 20
55.569028762
 30
0.0
 10
36.2403435913
 20
54.9905924186
 30
0.0
 10
35.9646282783
 20
54.4245464815
 30
0.0
 10
35.6068924995
 20
53.8749890567
 30
0.0
 10
35.1700689722
 20
53.3457006972
 30
0.0
 10
34.6574721438
 20
52.8402923657
 30
0.0
 10
34.0728514002
 20
52.3622402731
 30
0.0
 10
33.4204688035
 20
51.91477648
 30
0.0
 10
32.7049747122
 20
51.5010399829
 30
0.0
 10
31.9314924905
 20
51.1239143219
 30
0.0
 10
31.1055682582
 20
50.7860331283
 30
0.0
 10
30.2330725641
 20
50.4898252845
 30
0.0
 10
29.0031604687
 20
50.1496953484
 30
0.0
 10
27.3905114028
 20
49.8441152097
 30
0.0
 10
25.3979392829
 20
49.6717670291
 30
0.0
 10
23.3833342371
 20
49.694758169
 30
0.0
 10
21.4041109039
 20
49.9124327166
 30
0.0
 10
19.8118805174
 20
50.2549764195
 30
0.0
 10
18.6050117608
 20
50.6234981871
 30
0.0
 10
17.7535538859
 20
50.9395616616
 30
0.0
 10
16.9515772661
 20
51.296190707
 30
0.0
 10
16.443333995
 20
51.5647077461
 30
0.0
 10
16.1995217688
 20
51.7054696161
 30
0.0
  0
SPLINE
  5
2E1
100
AcDbEntity
  8
0
100
AcDbSpline
 62
7
  6
BYLAYER
 70
0
 71
3
 72
15
 73
11
 74
0
 42
0.0000001
 43
0.0000001
 44
0.0000000001
 40
0.0
 40
0.0
 40
0.0
 40
0.0
 40
0.1485902885
 40
0.2895079651
 40
0.4227234146
 40
0.5486444662
 40
0.6680023886
 40
0.7819390141
 40
0.8919879095
 40
1.0
 40
1.0
 40
1.0
 40
1.0
 10
16.0705209097
 20
48.729404238
 30
0.0
 10
15.797611019
 20
48.8869652724
 30
0.0
 10
15.2782184315
 20
49.2161640341
 30
0.0
 10
14.5681521029
 20
49.7657618684
 30
0.0
 10
13.9539867629
 20
50.3536383648
 30
0.0
 10
13.4418223418
 20
50.9743932306
 30
0.0
 10
13.0369193381
 20
51.6225644122
 30
0.0
 10
12.7438365754
 20
52.2922599883
 30
0.0
 10
12.5662567348
 20
52.976696023
 30
0.0
 10
12.5264955424
 20
53.4400866678
 30
0.0
 10
12.526487904
 20
53.6691566241
 30
0.0
  0
SPLINE
  5
2E2
100
AcDbEntity
  8
0
100
AcDbSpline
 62
7
  6
BYLAYER
 70
0
 71
3
 72
15
 73
11
 74
0
 42
0.0000001
 43
0.0000001
 44
0.0000000001
 40
0.0
 40
0.0
 40
0.0
 40
0.0
 40
0.1080120169
 40
0.2180608004
 40
0.3319977059
 40
0.4513560087
 40
0.5772770264
 40
0.7104922712
 40
0.8514097651
 40
1.0
 40
1.0
 40
1.0
 40
1.0
 10
12.5264847804
 20
56.3742130264
 30
0.0
 10
12.526492613
 20
56.1451431741
 30
0.0
 10
12.56625415
 20
55.6817528827
 30
0.0
 10
12.7438340135
 20
54.9973164394
 30
0.0
 10
13.0369185998
 20
54.3276202123
 30
0.0
 10
13.4418221082
 20
53.6794475937
 30
0.0
 10
13.9539877942
 20
53.058693093
 30
0.0
 10
14.5681528348
 20
52.4708173606
 30
0.0
 10
15.2782187503
 20
51.9212201789
 30
0.0
 10
15.7976110555
 20
51.5920216609
 30
0.0
 10
16.0705209097
 20
51.4344606476
 30
0.0
  0
SPLINE
  5
2E3
100
AcDbEntity
  8
0
100
AcDbSpline
 62
7
  6
BYLAYER
 70
0
 71
3
 72
29
 73
25
 74
0
 42
0.0000001
 43
0.0000001
 44
0.0000000001
 40
0.0
 40
0.0
 40
0.0
 40
0.0
 40
0.0213280192
 40
0.0428844378
 40
0.0648857044
 40
0.0875261448
 40
0.1109714661
 40
0.1353537837
 40
0.1607725518
 40
0.1872932546
 40
0.2149525203
 40
0.2437581367
 40
0.2736948474
 40
0.3047248448
 40
0.3698012267
 40
0.4383865836
 40
0.5096605648
 40
0.5826720367
 40
0.6563906921
 40
0.7297551602
 40
0.8017189838
 40
0.8713001926
 40
0.9376263909
 40
1.0
 40
1.0
 40
1.0
 40
1.0
 10
36.7264602525
 20
53.6691566094
 30
0.0
 10
36.7264659762
 20
53.4975057044
 30
0.0
 10
36.7042986584
 20
53.1519693504
 30
0.0
 10
36.6050388715
 20
52.6379634088
 30
0.0
 10
36.4403482726
 20
52.129925171
 30
0.0
 10
36.2114006894
 20
51.6307923002
 30
0.0
 10
35.9195668961
 20
51.1432800879
 30
0.0
 10
35.5666764891
 20
50.6699190826
 30
0.0
 10
35.1546695152
 20
50.2132380139
 30
0.0
 10
34.6859151448
 20
49.7755319545
 30
0.0
 10
34.1629100504
 20
49.3591463048
 30
0.0
 10
33.5885389754
 20
48.9661897761
 30
0.0
 10
32.9658453025
 20
48.5987670463
 30
0.0
 10
32.0613892128
 20
48.1382329647
 30
0.0
 10
30.8292135991
 20
47.6418718374
 30
0.0
 10
29.2419710642
 20
47.1844307974
 30
0.0
 10
27.5563146853
 20
46.8653937884
 30
0.0
 10
25.8082437958
 20
46.6915567608
 30
0.0
 10
24.0349517899
 20
46.6665975803
 30
0.0
 10
22.2742770355
 20
46.7910619444
 30
0.0
 10
20.5637711084
 20
47.0622745037
 30
0.0
 10
18.9397419472
 20
47.4745614292
 30
0.0
 10
17.4368893512
 20
48.0190689812
 30
0.0
 10
16.5052608459
 20
48.478412697
 30
0.0
 10
16.0705209097
 20
48.729404238
 30
0.0
  0
SPLINE
  5
2E4
100
AcDbEntity
  8
0
100
AcDbSpline
 62
7
  6
BYLAYER
 70
0
 71
3
 72
15
 73
11
 74
0
 42
0.0000001
 43
0.0000001
 44
0.0000000001
 40
0.0
 40
0.0
 40
0.0
 40
0.0
 40
0.1080116981
 40
0.2180602914
 40
0.331996766
 40
0.4513547082
 40
0.5772758034
 40
0.7104914471
 40
0.8514096408
 40
1.0
 40
1.0
 40
1.0
 40
1.0
 10
12.3273986537
 20
53.6691566225
 30
0.0
 10
12.3274063287
 20
53.4363184693
 30
0.0
 10
12.3678214586
 20
52.9653048585
 30
0.0
 10
12.5483217595
 20
52.2696088674
 30
0.0
 10
12.8462262297
 20
51.588895076
 30
0.0
 10
13.2577907634
 20
50.9300589918
 30
0.0
 10
13.7783814159
 20
50.2990890681
 30
0.0
 10
14.402653109
 20
49.7015385413
 30
0.0
 10
15.1244040201
 20
49.1428968553
 30
0.0
 10
15.6523434095
 20
48.8082805914
 30
0.0
 10
15.929743803
 20
48.6481270227
 30
0.0
  0
SPLINE
  5
2E5
100
AcDbEntity
  8
0
100
AcDbSpline
 62
7
  6
BYLAYER
 70
0
 71
3
 72
30
 73
26
 74
0
 42
0.0000001
 43
0.0000001
 44
0.0000000001
 40
0.0
 40
0.0
 40
0.0
 40
0.0
 40
0.0306638483
 40
0.062399242
 40
0.1287233702
 40
0.1983024798
 40
0.2702642899
 40
0.343626898
 40
0.4173437595
 40
0.4903534402
 40
0.5616256955
 40
0.6302094085
 40
0.6952841599
 40
0.7263133297
 40
0.7562491916
 40
0.7850539604
 40
0.8127123793
 40
0.8392322625
 40
0.8646502421
 40
0.8890318178
 40
0.9124764328
 40
0.935116203
 40
0.9571168194
 40
0.9786726072
 40
1.0
 40
1.0
 40
1.0
 40
1.0
 10
15.929743803
 20
48.6481270227
 30
0.0
 10
16.1469913413
 20
48.5227019355
 30
0.0
 10
16.5974715531
 20
48.28175801
 30
0.0
 10
17.5542446708
 20
47.8407077066
 30
0.0
 10
18.8463019429
 20
47.3725968946
 30
0.0
 10
20.4968730148
 20
46.9535817987
 30
0.0
 10
22.2355718917
 20
46.6778899103
 30
0.0
 10
24.0252054215
 20
46.5513806358
 30
0.0
 10
25.8276833384
 20
46.5767486727
 30
0.0
 10
27.6045211038
 20
46.7534465376
 30
0.0
 10
29.3179185425
 20
47.0777341962
 30
0.0
 10
30.9312818584
 20
47.5427040267
 30
0.0
 10
32.1837340029
 20
48.0472348425
 30
0.0
 10
33.1030725968
 20
48.5153476385
 30
0.0
 10
33.7360107411
 20
48.8888168696
 30
0.0
 10
34.3198309262
 20
49.2882386417
 30
0.0
 10
34.8514390435
 20
49.71147527
 30
0.0
 10
35.3279042018
 20
50.1563821144
 30
0.0
 10
35.7466880214
 20
50.6205764762
 30
0.0
 10
36.1053833956
 20
51.1017247894
 30
0.0
 10
36.4020173639
 20
51.5972575742
 30
0.0
 10
36.6347315309
 20
52.1046018616
 30
0.0
 10
36.8021305874
 20
52.6209984767
 30
0.0
 10
36.9030240231
 20
53.1434606119
 30
0.0
 10
36.9255552541
 20
53.4946817396
 30
0.0
 10
36.9255495028
 20
53.6691566109
 30
0.0
  0
SPLINE
  5
2E6
100
AcDbEntity
  8
0
100
AcDbSpline
 62
7
  6
BYLAYER
 70
0
 71
3
 72
14
 73
10
 74
0
 42
0.0000001
 43
0.0000001
 44
0.0000000001
 40
0.0
 40
0.0
 40
0.0
 40
0.0
 40
0.1415511073
 40
0.2789600615
 40
0.4118092112
 40
0.5398025048
 40
0.6626978066
 40
0.7803709397
 40
1.0
 40
1.0
 40
1.0
 40
1.0
 10
18.7766097323
 20
32.3169296489
 30
0.0
 10
18.4812169506
 20
32.4058880725
 30
0.0
 10
17.9035833848
 20
32.5966928499
 30
0.0
 10
17.0682929641
 20
32.9263477881
 30
0.0
 10
16.2811644133
 20
33.2934745657
 30
0.0
 10
15.5472815635
 20
33.6957707083
 30
0.0
 10
14.8710331274
 20
34.1308124336
 30
0.0
 10
14.0710834399
 20
34.7365285788
 30
0.0
 10
13.5395645669
 20
35.2521533856
 30
0.0
 10
13.2326813058
 20
35.6194933568
 30
0.0
  0
SPLINE
  5
2E7
100
AcDbEntity
  8
0
100
AcDbSpline
 62
7
  6
BYLAYER
 70
0
 71
3
 72
13
 73
9
 74
0
 42
0.0000001
 43
0.0000001
 44
0.0000000001
 40
0.0
 40
0.0
 40
0.0
 40
0.0
 40
0.1168927186
 40
0.2371252207
 40
0.3601930598
 40
0.4856339843
 40
0.7413909509
 40
1.0
 40
1.0
 40
1.0
 40
1.0
 10
31.7126332357
 20
32.7425133994
 30
0.0
 10
31.4200280399
 20
32.6282780342
 30
0.0
 10
30.8192469912
 20
32.4146441162
 30
0.0
 10
29.8899795645
 20
32.1422584297
 30
0.0
 10
28.9250429099
 20
31.9149028597
 30
0.0
 10
27.5913413873
 20
31.6724144184
 30
0.0
 10
25.8786887609
 20
31.4919952175
 30
0.0
 10
24.4941702387
 20
31.4784512736
 30
0.0
 10
23.7997327981
 20
31.5047089612
 30
0.0
  0
SPLINE
  5
2E8
100
AcDbEntity
  8
0
100
AcDbSpline
 62
7
  6
BYLAYER
 70
0
 71
3
 72
9
 73
5
 74
0
 42
0.0000001
 43
0.0000001
 44
0.0000000001
 40
0.0
 40
0.0
 40
0.0
 40
0.0
 40
0.4995626842
 40
1.0
 40
1.0
 40
1.0
 40
1.0
 10
10.3478353504
 20
37.6582754537
 30
0.0
 10
10.3478353504
 20
37.6211112781
 30
0.0
 10
10.3537973614
 20
37.5465995237
 30
0.0
 10
10.3713888481
 20
37.4739740948
 30
0.0
 10
10.38285711
 20
37.4385552373
 30
0.0
  0
SPLINE
  5
2E9
100
AcDbEntity
  8
0
100
AcDbSpline
 62
7
  6
BYLAYER
 70
0
 71
3
 72
9
 73
5
 74
0
 42
0.0000001
 43
0.0000001
 44
0.0000000001
 40
0.0
 40
0.0
 40
0.0
 40
0.0
 40
0.4926175375
 40
1.0
 40
1.0
 40
1.0
 40
1.0
 10
10.38285711
 20
37.4385552373
 30
0.0
 10
10.4544748349
 20
37.2173693233
 30
0.0
 10
10.6284356678
 20
36.7772150049
 30
0.0
 10
10.8528726854
 20
36.3607746529
 30
0.0
 10
10.9776282199
 20
36.1563802427
 30
0.0
  0
SPLINE
  5
2EA
100
AcDbEntity
  8
0
100
AcDbSpline
 62
7
  6
BYLAYER
 70
0
 71
3
 72
15
 73
11
 74
0
 42
0.0000001
 43
0.0000001
 44
0.0000000001
 40
0.0
 40
0.0
 40
0.0
 40
0.0
 40
0.1085910133
 40
0.2214912792
 40
0.3401409663
 40
0.4649902841
 40
0.5953319989
 40
0.7294665254
 40
0.8652355435
 40
1.0
 40
1.0
 40
1.0
 40
1.0
 10
10.9776282199
 20
36.1563802427
 30
0.0
 10
11.014082296
 20
36.0966553623
 30
0.0
 10
11.1040258229
 20
35.9839305197
 30
0.0
 10
11.2742046676
 20
35.8439073059
 30
0.0
 10
11.4749269001
 20
35.7303194416
 30
0.0
 10
11.7002890925
 20
35.6431937368
 30
0.0
 10
11.9445027531
 20
35.5831829168
 30
0.0
 10
12.2009451839
 20
35.5510042019
 30
0.0
 10
12.4621632841
 20
35.5473117007
 30
0.0
 10
12.636118536
 20
35.5639858135
 30
0.0
 10
12.7219338542
 20
35.5772615207
 30
0.0
  0
SPLINE
  5
2EB
100
AcDbEntity
  8
0
100
AcDbSpline
 62
7
  6
BYLAYER
 70
0
 71
3
 72
15
 73
11
 74
0
 42
0.0000001
 43
0.0000001
 44
0.0000000001
 40
0.0
 40
0.0
 40
0.0
 40
0.0
 40
0.1147514616
 40
0.2299587954
 40
0.3469753876
 40
0.4671584549
 40
0.592009834
 40
0.7224506138
 40
0.8587344638
 40
1.0
 40
1.0
 40
1.0
 40
1.0
 10
18.8059210612
 20
31.9586263547
 30
0.0
 10
18.8059210612
 20
31.9004446715
 30
0.0
 10
18.8206643554
 20
31.7833377197
 30
0.0
 10
18.8847830338
 20
31.6178870331
 30
0.0
 10
18.9847729052
 20
31.46824813
 30
0.0
 10
19.1149639568
 20
31.3374598499
 30
0.0
 10
19.2700905948
 20
31.2258641105
 30
0.0
 10
19.4464492766
 20
31.133434146
 30
0.0
 10
19.6404842098
 20
31.0604652324
 30
0.0
 10
19.7771054926
 20
31.025499332
 30
0.0
 10
19.8472926511
 20
31.0112201523
 30
0.0
  0
SPLINE
  5
2EC
100
AcDbEntity
  8
0
100
AcDbSpline
 62
7
  6
BYLAYER
 70
0
 71
3
 72
15
 73
11
 74
0
 42
0.0000001
 43
0.0000001
 44
0.0000000001
 40
0.0
 40
0.0
 40
0.0
 40
0.0
 40
0.1370543239
 40
0.2740943179
 40
0.4084694113
 40
0.5381816615
 40
0.6618549967
 40
0.7793006371
 40
0.8913650523
 40
1.0
 40
1.0
 40
1.0
 40
1.0
 10
21.9850899194
 20
30.680494286
 30
0.0
 10
22.0723020151
 20
30.6710821957
 30
0.0
 10
22.2479323292
 20
30.6621721916
 30
0.0
 10
22.5094134437
 20
30.6776680847
 30
0.0
 10
22.762924828
 20
30.7217618109
 30
0.0
 10
23.0011608462
 20
30.7936474487
 30
0.0
 10
23.21780499
 20
30.8925857983
 30
0.0
 10
23.4070696721
 20
31.018246911
 30
0.0
 10
23.5627759955
 20
31.17060761
 30
0.0
 10
23.6397391097
 20
31.2911069137
 30
0.0
 10
23.6690090892
 20
31.3541751031
 30
0.0
  0
SPLINE
  5
2ED
100
AcDbEntity
  8
0
100
AcDbSpline
 62
7
  6
BYLAYER
 70
0
 71
3
 72
15
 73
11
 74
0
 42
0.0000001
 43
0.0000001
 44
0.0000000001
 40
0.0
 40
0.0
 40
0.0
 40
0.0
 40
0.1168876275
 40
0.2396248791
 40
0.3668016071
 40
0.4967636543
 40
0.6272178095
 40
0.7558039045
 40
0.8806346015
 40
1.0
 40
1.0
 40
1.0
 40
1.0
 10
32.0860377294
 20
32.5880821276
 30
0.0
 10
32.1528734643
 20
32.549495371
 30
0.0
 10
32.2964186163
 20
32.4813869783
 30
0.0
 10
32.5277252844
 20
32.4076512916
 30
0.0
 10
32.7746712907
 20
32.3606419861
 30
0.0
 10
33.0303251147
 20
32.3409294188
 30
0.0
 10
33.2875359353
 20
32.3489923534
 30
0.0
 10
33.5390250079
 20
32.3845652263
 30
0.0
 10
33.7776306859
 20
32.4471765621
 30
0.0
 10
33.9276749475
 20
32.5078185909
 30
0.0
 10
33.9983162098
 20
32.54276067
 30
0.0
  0
SPLINE
  5
2EE
100
AcDbEntity
  8
0
100
AcDbSpline
 62
7
  6
BYLAYER
 70
0
 71
3
 72
12
 73
8
 74
0
 42
0.0000001
 43
0.0000001
 44
0.0000000001
 40
0.0
 40
0.0
 40
0.0
 40
0.0
 40
0.2607736573
 40
0.5113662522
 40
0.7563870818
 40
0.878045911
 40
1.0
 40
1.0
 40
1.0
 40
1.0
 10
35.5777066785
 20
33.4547356099
 30
0.0
 10
35.6389199763
 20
33.495986102
 30
0.0
 10
35.752489777
 20
33.5873605343
 30
0.0
 10
35.8889747142
 20
33.7546011985
 30
0.0
 10
35.9632925511
 20
33.9153256986
 30
0.0
 10
35.9936449237
 20
34.05067697
 30
0.0
 10
35.9987674635
 20
34.1197519421
 30
0.0
 10
35.9987674635
 20
34.1542725105
 30
0.0
  0
SPLINE
  5
2EF
100
AcDbEntity
  8
0
100
AcDbSpline
 62
7
  6
BYLAYER
 70
0
 71
3
 72
9
 73
5
 74
0
 42
0.0000001
 43
0.0000001
 44
0.0000000001
 40
0.0
 40
0.0
 40
0.0
 40
0.0
 40
0.2475411362
 40
1.0
 40
1.0
 40
1.0
 40
1.0
 10
37.163198641
 20
37.8173322208
 30
0.0
 10
37.1510625347
 20
37.7653235668
 30
0.0
 10
37.0982585377
 20
37.5561173052
 30
0.0
 10
37.0304447669
 20
37.3507367057
 30
0.0
 10
36.9718260085
 20
37.1993499197
 30
0.0
  0
SPLINE
  5
2F0
100
AcDbEntity
  8
0
100
AcDbSpline
 62
7
  6
BYLAYER
 70
0
 71
3
 72
14
 73
10
 74
0
 42
0.0000001
 43
0.0000001
 44
0.0000000001
 40
0.0
 40
0.0
 40
0.0
 40
0.0
 40
0.2690702588
 40
0.397058596
 40
0.521329419
 40
0.6428585822
 40
0.7626826617
 40
0.8812664196
 40
1.0
 40
1.0
 40
1.0
 40
1.0
 10
38.2132528573
 20
39.5739459462
 30
0.0
 10
38.3092040087
 20
39.6132544055
 30
0.0
 10
38.446394589
 20
39.6843195167
 30
0.0
 10
38.6062129922
 20
39.8067386031
 30
0.0
 10
38.7085633761
 20
39.9087828502
 30
0.0
 10
38.7927970068
 20
40.0224480676
 30
0.0
 10
38.8562453749
 20
40.1465842499
 30
0.0
 10
38.8960886521
 20
40.2791264558
 30
0.0
 10
38.9051128061
 20
40.370835153
 30
0.0
 10
38.9051128061
 20
40.4165911498
 30
0.0
  0
SPLINE
  5
2F1
100
AcDbEntity
  8
0
100
AcDbSpline
 62
7
  6
BYLAYER
 70
0
 71
3
 72
18
 73
14
 74
0
 42
0.0000001
 43
0.0000001
 44
0.0000000001
 40
0.0
 40
0.0
 40
0.0
 40
0.0
 40
0.0550686689
 40
0.1103523146
 40
0.1660641956
 40
0.2224051704
 40
0.3376516003
 40
0.4575153972
 40
0.5195519844
 40
0.5831133385
 40
0.7150917173
 40
0.8540083905
 40
1.0
 40
1.0
 40
1.0
 40
1.0
 10
39.126472809
 20
42.4667434555
 30
0.0
 10
39.1264716818
 20
42.3431506738
 30
0.0
 10
39.1169554926
 20
42.095377626
 30
0.0
 10
39.0741753677
 20
41.7247941912
 30
0.0
 10
39.0029614263
 20
41.3556741431
 30
0.0
 10
38.8694319674
 20
40.862912143
 30
0.0
 10
38.6295476761
 20
40.251860925
 30
0.0
 10
38.3034530166
 20
39.6679200076
 30
0.0
 10
37.9917922868
 20
39.2133295071
 30
0.0
 10
37.6372524472
 20
38.7563460431
 30
0.0
 10
37.1272797552
 20
38.2033845694
 30
0.0
 10
36.4257481779
 20
37.5822952064
 30
0.0
 10
35.9095953025
 20
37.2032460604
 30
0.0
 10
35.637878239
 20
37.0201410329
 30
0.0
  0
SPLINE
  5
2F2
100
AcDbEntity
  8
0
100
AcDbSpline
 62
7
  6
BYLAYER
 70
0
 71
3
 72
23
 73
19
 74
0
 42
0.0000001
 43
0.0000001
 44
0.0000000001
 40
0.0
 40
0.0
 40
0.0
 40
0.0
 40
0.0567271209
 40
0.1162186252
 40
0.1781496772
 40
0.2421626423
 40
0.3078240754
 40
0.374664025
 40
0.44218403
 40
0.5098689014
 40
0.5771998821
 40
0.6436664075
 40
0.708778718
 40
0.7720800736
 40
0.8331600022
 40
0.8916701398
 40
0.9473408785
 40
1.0
 40
1.0
 40
1.0
 40
1.0
 10
32.7858592557
 20
39.38903163
 30
0.0
 10
32.4863983233
 20
39.2161388122
 30
0.0
 10
31.855773625
 20
38.8909689469
 30
0.0
 10
30.8514295437
 20
38.475181119
 30
0.0
 10
29.7760091779
 20
38.1237308697
 30
0.0
 10
28.6419529927
 20
37.8405582146
 30
0.0
 10
27.4620457676
 20
37.6289053653
 30
0.0
 10
26.2497762176
 20
37.4911587051
 30
0.0
 10
25.0189698687
 20
37.4288773292
 30
0.0
 10
23.7836793908
 20
37.442782933
 30
0.0
 10
22.5580159954
 20
37.5327299651
 30
0.0
 10
21.3559714329
 20
37.6976781544
 30
0.0
 10
20.191254798
 20
37.9357422677
 30
0.0
 10
19.0771299427
 20
38.2442246019
 30
0.0
 10
18.0262824529
 20
38.6196487526
 30
0.0
 10
17.0505899255
 20
39.0578188838
 30
0.0
 10
16.1612235881
 20
39.5537615349
 30
0.0
 10
15.6169503231
 20
39.9301134463
 30
0.0
 10
15.3635068638
 20
40.1270934335
 30
0.0
  0
SPLINE
  5
2F3
100
AcDbEntity
  8
0
100
AcDbSpline
 62
7
  6
BYLAYER
 70
0
 71
3
 72
15
 73
11
 74
0
 42
0.0000001
 43
0.0000001
 44
0.0000000001
 40
0.0
 40
0.0
 40
0.0
 40
0.0
 40
0.1133609278
 40
0.2318068876
 40
0.3545741932
 40
0.4807981928
 40
0.6095049904
 40
0.7396543624
 40
0.8701865481
 40
1.0
 40
1.0
 40
1.0
 40
1.0
 10
34.060492755
 20
36.1094425353
 30
0.0
 10
33.6406612137
 20
35.9017765562
 30
0.0
 10
32.7623386062
 20
35.5163432442
 30
0.0
 10
31.3761348691
 20
35.0380132823
 30
0.0
 10
29.9065839523
 20
34.6514789647
 30
0.0
 10
28.3719539042
 20
34.3614730094
 30
0.0
 10
26.7910872285
 20
34.1715962766
 30
0.0
 10
25.183456497
 20
34.0841316061
 30
0.0
 10
23.5690376347
 20
34.1002206955
 30
0.0
 10
22.4954217866
 20
34.180267815
 30
0.0
 10
21.9621557292
 20
34.2378188718
 30
0.0
  0
SPLINE
  5
2F4
100
AcDbEntity
  8
0
100
AcDbSpline
 62
7
  6
BYLAYER
 70
0
 71
3
 72
15
 73
11
 74
0
 42
0.0000001
 43
0.0000001
 44
0.0000000001
 40
0.0
 40
0.0
 40
0.0
 40
0.0
 40
0.1464086599
 40
0.2880213354
 40
0.4238817543
 40
0.5532524945
 40
0.6756055204
 40
0.7907018568
 40
0.8986626154
 40
1.0
 40
1.0
 40
1.0
 40
1.0
 10
19.8073957134
 20
34.5711510896
 30
0.0
 10
19.3055933865
 20
34.6732399296
 30
0.0
 10
18.3248995724
 20
34.9079607545
 30
0.0
 10
16.9109523282
 20
35.358360688
 30
0.0
 10
15.5919863453
 20
35.8967455335
 30
0.0
 10
14.3842378055
 20
36.5165351607
 30
0.0
 10
13.3024657589
 20
37.2104295229
 30
0.0
 10
12.3598192761
 20
37.9703995295
 30
0.0
 10
11.5682911232
 20
38.7875026266
 30
0.0
 10
11.1354100822
 20
39.3818842707
 30
0.0
 10
10.9507515689
 20
39.6844212929
 30
0.0
  0
SPLINE
  5
2F5
100
AcDbEntity
  8
0
100
AcDbSpline
 62
7
  6
BYLAYER
 70
0
 71
3
 72
9
 73
5
 74
0
 42
0.0000001
 43
0.0000001
 44
0.0000000001
 40
0.0
 40
0.0
 40
0.0
 40
0.0
 40
0.5033411789
 40
1.0
 40
1.0
 40
1.0
 40
1.0
 10
10.3252369044
 20
41.0854038632
 30
0.0
 10
10.2599161977
 20
41.3108676072
 30
0.0
 10
10.1602264804
 20
41.7681726234
 30
0.0
 10
10.126473235
 20
42.2351244275
 30
0.0
 10
10.1264753475
 20
42.4667434519
 30
0.0
  0
SPLINE
  5
2F6
100
AcDbEntity
  8
0
100
AcDbSpline
 62
7
  6
BYLAYER
 70
0
 71
3
 72
15
 73
11
 74
0
 42
0.0000001
 43
0.0000001
 44
0.0000000001
 40
0.0
 40
0.0
 40
0.0
 40
0.0
 40
0.0556159897
 40
0.1246547746
 40
0.2141973732
 40
0.3268542033
 40
0.4629403644
 40
0.6218451773
 40
0.8017285921
 40
1.0
 40
1.0
 40
1.0
 40
1.0
 10
12.7219338136
 20
35.5772617832
 30
0.0
 10
12.7244723827
 20
35.5776576979
 30
0.0
 10
12.7298915232
 20
35.5803652722
 30
0.0
 10
12.7361313892
 20
35.5882501812
 30
0.0
 10
12.7414378733
 20
35.599668382
 30
0.0
 10
12.7458453436
 20
35.6147025939
 30
0.0
 10
12.7493557105
 20
35.6332242339
 30
0.0
 10
12.7518828812
 20
35.6550303343
 30
0.0
 10
12.753403991
 20
35.6798027525
 30
0.0
 10
12.7537160848
 20
35.6972748333
 30
0.0
 10
12.7537160837
 20
35.7064342534
 30
0.0
  0
SPLINE
  5
2F7
100
AcDbEntity
  8
0
100
AcDbSpline
 62
7
  6
BYLAYER
 70
0
 71
3
 72
9
 73
5
 74
0
 42
0.0000001
 43
0.0000001
 44
0.0000000001
 40
0.0
 40
0.0
 40
0.0
 40
0.0
 40
0.5007092779
 40
1.0
 40
1.0
 40
1.0
 40
1.0
 10
18.8157375153
 20
33.1218005025
 30
0.0
 10
18.8001032401
 20
33.1402416897
 30
0.0
 10
18.7629593739
 20
33.1723297621
 30
0.0
 10
18.7188345967
 20
33.1932100865
 30
0.0
 10
18.6960173833
 20
33.2009931119
 30
0.0
  0
SPLINE
  5
2F8
100
AcDbEntity
  8
0
100
AcDbSpline
 62
7
  6
BYLAYER
 70
0
 71
3
 72
13
 73
9
 74
0
 42
0.0000001
 43
0.0000001
 44
0.0000000001
 40
0.0
 40
0.0
 40
0.0
 40
0.0
 40
0.1055960487
 40
0.2135943165
 40
0.3262257915
 40
0.4452077061
 40
0.7059421147
 40
1.0
 40
1.0
 40
1.0
 40
1.0
 10
38.9051063196
 20
40.4165911492
 30
0.0
 10
38.9051159023
 20
40.3849988281
 30
0.0
 10
38.8989808339
 20
40.3209375621
 30
0.0
 10
38.8717003427
 20
40.226702018
 30
0.0
 10
38.8267785783
 20
40.135037969
 30
0.0
 10
38.7418241788
 20
40.0140763322
 30
0.0
 10
38.5919748825
 20
39.875881066
 30
0.0
 10
38.4479599725
 20
39.7912681907
 30
0.0
 10
38.3687737265
 20
39.7529353815
 30
0.0
  0
SPLINE
  5
2F9
100
AcDbEntity
  8
0
100
AcDbSpline
 62
7
  6
BYLAYER
 70
0
 71
3
 72
14
 73
10
 74
0
 42
0.0000001
 43
0.0000001
 44
0.0000000001
 40
0.0
 40
0.0
 40
0.0
 40
0.0
 40
0.0671069454
 40
0.1442010636
 40
0.2377192068
 40
0.3507556058
 40
0.4842336364
 40
0.6380249128
 40
1.0
 40
1.0
 40
1.0
 40
1.0
 10
19.8472929061
 20
31.011221405
 30
0.0
 10
19.8441474479
 20
31.011865297
 30
0.0
 10
19.8376683999
 20
31.0148416046
 30
0.0
 10
19.8296673787
 20
31.023161244
 30
0.0
 10
19.8229056875
 20
31.0350313206
 30
0.0
 10
19.8173126386
 20
31.0503625416
 30
0.0
 10
19.8128829727
 20
31.0690284915
 30
0.0
 10
19.8084015138
 20
31.0997935226
 30
0.0
 10
19.8073957131
 20
31.124522487
 30
0.0
 10
19.8073957131
 20
31.1418409378
 30
0.0
  0
SPLINE
  5
2FA
100
AcDbEntity
  8
0
100
AcDbSpline
 62
7
  6
BYLAYER
 70
0
 71
3
 72
14
 73
10
 74
0
 42
0.0000001
 43
0.0000001
 44
0.0000000001
 40
0.0
 40
0.0
 40
0.0
 40
0.0
 40
0.101062718
 40
0.187494475
 40
0.300673764
 40
0.4401578761
 40
0.6048313354
 40
0.7924403592
 40
1.0
 40
1.0
 40
1.0
 40
1.0
 10
21.9850898865
 20
30.6804939807
 30
0.0
 10
21.980622719
 20
30.6809820918
 30
0.0
 10
21.9750201447
 20
30.6895901868
 30
0.0
 10
21.971049766
 20
30.7017303579
 30
0.0
 10
21.9677834816
 20
30.7166915586
 30
0.0
 10
21.9653063637
 20
30.7350164646
 30
0.0
 10
21.9634722814
 20
30.7568391508
 30
0.0
 10
21.9623813541
 20
30.7817049572
 30
0.0
 10
21.9621557294
 20
30.799279577
 30
0.0
 10
21.9621557294
 20
30.8085087198
 30
0.0
  0
SPLINE
  5
2FB
100
AcDbEntity
  8
0
100
AcDbSpline
 62
7
  6
BYLAYER
 70
0
 71
3
 72
15
 73
11
 74
0
 42
0.0000001
 43
0.0000001
 44
0.0000000001
 40
0.0
 40
0.0
 40
0.0
 40
0.0
 40
0.1077758171
 40
0.2187257466
 40
0.3340381973
 40
0.454655926
 40
0.5812425953
 40
0.7142348184
 40
0.8538608104
 40
1.0
 40
1.0
 40
1.0
 40
1.0
 10
37.2124237626
 20
42.9575428317
 30
0.0
 10
37.1757909529
 20
42.7482045666
 30
0.0
 10
37.0700164287
 20
42.3282829399
 30
0.0
 10
36.821200228
 20
41.7163730658
 30
0.0
 10
36.4828808797
 20
41.1198349605
 30
0.0
 10
36.0578616244
 20
40.5431753728
 30
0.0
 10
35.5496188647
 20
39.9902573116
 30
0.0
 10
34.9618499723
 20
39.4649085745
 30
0.0
 10
34.2990028954
 20
38.9709107448
 30
0.0
 10
33.8209721829
 20
38.6713342549
 30
0.0
 10
33.5714121014
 20
38.5272515347
 30
0.0
  0
SPLINE
  5
2FC
100
AcDbEntity
  8
0
100
AcDbSpline
 62
7
  6
BYLAYER
 70
0
 71
3
 72
9
 73
5
 74
0
 42
0.0000001
 43
0.0000001
 44
0.0000000001
 40
0.0
 40
0.0
 40
0.0
 40
0.0
 40
0.5129076182
 40
1.0
 40
1.0
 40
1.0
 40
1.0
 10
23.8001353068
 20
31.5795414503
 30
0.0
 10
23.8226799523
 20
31.5934844145
 30
0.0
 10
23.8640560551
 20
31.6249897854
 30
0.0
 10
23.8966032072
 20
31.66674708
 30
0.0
 10
23.9072388274
 20
31.6895637137
 30
0.0
  0
SPLINE
  5
2FD
100
AcDbEntity
  8
0
100
AcDbSpline
 62
7
  6
BYLAYER
 70
0
 71
3
 72
9
 73
5
 74
0
 42
0.0000001
 43
0.0000001
 44
0.0000000001
 40
0.0
 40
0.0
 40
0.0
 40
0.0
 40
0.4891373196
 40
1.0
 40
1.0
 40
1.0
 40
1.0
 10
31.8454837253
 20
32.7269632863
 30
0.0
 10
31.8363607668
 20
32.732262357
 30
0.0
 10
31.8194607351
 20
32.7463035794
 30
0.0
 10
31.8073423914
 20
32.7644762402
 30
0.0
 10
31.8023494157
 20
32.7742989681
 30
0.0
  0
SPLINE
  5
2FE
100
AcDbEntity
  8
0
100
AcDbSpline
 62
7
  6
BYLAYER
 70
0
 71
3
 72
9
 73
5
 74
0
 42
0.0000001
 43
0.0000001
 44
0.0000000001
 40
0.0
 40
0.0
 40
0.0
 40
0.0
 40
0.4851142145
 40
1.0
 40
1.0
 40
1.0
 40
1.0
 10
31.8023494157
 20
32.7742989681
 30
0.0
 10
31.7955767604
 20
32.7876228764
 30
0.0
 10
31.7861409688
 20
32.8174251962
 30
0.0
 10
31.7835674523
 20
32.8483096312
 30
0.0
 10
31.7835674575
 20
32.8641733137
 30
0.0
  0
SPLINE
  5
2FF
100
AcDbEntity
  8
0
100
AcDbSpline
 62
7
  6
BYLAYER
 70
0
 71
3
 72
11
 73
7
 74
0
 42
0.0000001
 43
0.0000001
 44
0.0000000001
 40
0.0
 40
0.0
 40
0.0
 40
0.0
 40
0.2091788318
 40
0.4384286573
 40
0.7009350564
 40
1.0
 40
1.0
 40
1.0
 40
1.0
 10
33.9983105314
 20
32.5427721466
 30
0.0
 10
34.0081940793
 20
32.5476657644
 30
0.0
 10
34.0269776254
 20
32.5622365745
 30
0.0
 10
34.0466347366
 20
32.5942244714
 30
0.0
 10
34.0582330678
 20
32.6346597605
 30
0.0
 10
34.0604927557
 20
32.6643645611
 30
0.0
 10
34.0604927557
 20
32.6801323836
 30
0.0
  0
SPLINE
  5
300
100
AcDbEntity
  8
0
100
AcDbSpline
 62
7
  6
BYLAYER
 70
0
 71
3
 72
11
 73
7
 74
0
 42
0.0000001
 43
0.0000001
 44
0.0000000001
 40
0.0
 40
0.0
 40
0.0
 40
0.0
 40
0.2249344371
 40
0.4615258064
 40
0.718749577
 40
1.0
 40
1.0
 40
1.0
 40
1.0
 10
35.5776997458
 20
33.4547459009
 30
0.0
 10
35.5873141081
 20
33.4612194638
 30
0.0
 10
35.605092099
 20
33.4776377522
 30
0.0
 10
35.6241993695
 20
33.5098696403
 30
0.0
 10
35.6355754976
 20
33.5485014825
 30
0.0
 10
35.6378782387
 20
33.5763383336
 30
0.0
 10
35.6378782387
 20
33.5908308807
 30
0.0
  0
SPLINE
  5
301
100
AcDbEntity
  8
0
100
AcDbSpline
 62
7
  6
BYLAYER
 70
0
 71
3
 72
11
 73
7
 74
0
 42
0.0000001
 43
0.0000001
 44
0.0000000001
 40
0.0
 40
0.0
 40
0.0
 40
0.0
 40
0.2895368933
 40
0.5491086308
 40
0.7822509855
 40
1.0
 40
1.0
 40
1.0
 40
1.0
 10
32.0239040332
 20
32.725418066
 30
0.0
 10
32.0239040282
 20
32.7102264558
 30
0.0
 10
32.0262226729
 20
32.6813194862
 30
0.0
 10
32.0379084166
 20
32.6415959042
 30
0.0
 10
32.0576192457
 20
32.609350102
 30
0.0
 10
32.0761503052
 20
32.5938066008
 30
0.0
 10
32.086044698
 20
32.5880941978
 30
0.0
  0
SPLINE
  5
302
100
AcDbEntity
  8
0
100
AcDbSpline
 62
7
  6
BYLAYER
 70
0
 71
3
 72
15
 73
11
 74
0
 42
0.0000001
 43
0.0000001
 44
0.0000000001
 40
0.0
 40
0.0
 40
0.0
 40
0.0
 40
0.1188128888
 40
0.2437325806
 40
0.3727967643
 40
0.5037357564
 40
0.6341721378
 40
0.7617581943
 40
0.8843046852
 40
1.0
 40
1.0
 40
1.0
 40
1.0
 10
33.9644163335
 20
32.6364133597
 30
0.0
 10
33.8953107864
 20
32.6075238727
 30
0.0
 10
33.7496984609
 20
32.5571926675
 30
0.0
 10
33.5201447245
 20
32.5050060073
 30
0.0
 10
33.2789330616
 20
32.4751360001
 30
0.0
 10
33.032518744
 20
32.4683823183
 30
0.0
 10
32.7874986774
 20
32.4849401693
 30
0.0
 10
32.5504294635
 20
32.5243560436
 30
0.0
 10
32.3276480314
 20
32.5855714937
 30
0.0
 10
32.1878924618
 20
32.6417949074
 30
0.0
 10
32.1222111385
 20
32.6735059542
 30
0.0
  0
SPLINE
  5
303
100
AcDbEntity
  8
0
100
AcDbSpline
 62
7
  6
BYLAYER
 70
0
 71
3
 72
15
 73
11
 74
0
 42
0.0000001
 43
0.0000001
 44
0.0000000001
 40
0.0
 40
0.0
 40
0.0
 40
0.0
 40
0.1432573685
 40
0.2809745174
 40
0.4130622
 40
0.5396882591
 40
0.6611683938
 40
0.777949625
 40
0.890635024
 40
1.0
 40
1.0
 40
1.0
 40
1.0
 10
33.9009782063
 20
39.1330606852
 30
0.0
 10
34.1062998081
 20
39.2608589114
 30
0.0
 10
34.5010717105
 20
39.5246001199
 30
0.0
 10
35.0525618619
 20
39.9523531885
 30
0.0
 10
35.5487832843
 20
40.4024975411
 30
0.0
 10
35.9870257905
 20
40.8725488577
 30
0.0
 10
36.3649055183
 20
41.3601911082
 30
0.0
 10
36.6804150721
 20
41.8629116621
 30
0.0
 10
36.9315635002
 20
42.3780628448
 30
0.0
 10
37.056733651
 20
42.7324975218
 30
0.0
 10
37.1074919441
 20
42.9100121009
 30
0.0
  0
SPLINE
  5
304
100
AcDbEntity
  8
0
100
AcDbSpline
 62
7
  6
BYLAYER
 70
0
 71
3
 72
11
 73
7
 74
0
 42
0.0000001
 43
0.0000001
 44
0.0000000001
 40
0.0
 40
0.0
 40
0.0
 40
0.0
 40
0.2505885398
 40
0.4960408727
 40
0.744288986
 40
1.0
 40
1.0
 40
1.0
 40
1.0
 10
31.5641089662
 20
32.8743197418
 30
0.0
 10
31.5696099646
 20
32.8620332521
 30
0.0
 10
31.5846809278
 20
32.8394471841
 30
0.0
 10
31.615308961
 20
32.8131944895
 30
0.0
 10
31.651081874
 20
32.7941389962
 30
0.0
 10
31.6771381018
 20
32.7861666239
 30
0.0
 10
31.6905709566
 20
32.7832922864
 30
0.0
  0
SPLINE
  5
305
100
AcDbEntity
  8
0
100
AcDbSpline
 62
7
  6
BYLAYER
 70
0
 71
3
 72
12
 73
8
 74
0
 42
0.0000001
 43
0.0000001
 44
0.0000000001
 40
0.0
 40
0.0
 40
0.0
 40
0.0
 40
0.2182731403
 40
0.4591481866
 40
0.5874396625
 40
0.7209563411
 40
1.0
 40
1.0
 40
1.0
 40
1.0
 10
31.7837887334
 20
32.864301579
 30
0.0
 10
31.7681445546
 20
32.8679620582
 30
0.0
 10
31.7348375718
 20
32.8740436891
 30
0.0
 10
31.6916937076
 20
32.8777177564
 30
0.0
 10
31.6546973468
 20
32.8786381225
 30
0.0
 10
31.6148856465
 20
32.8784081823
 30
0.0
 10
31.5845191952
 20
32.8766037502
 30
0.0
 10
31.5641070477
 20
32.8743161491
 30
0.0
  0
SPLINE
  5
306
100
AcDbEntity
  8
0
100
AcDbSpline
 62
7
  6
BYLAYER
 70
0
 71
3
 72
11
 73
7
 74
0
 42
0.0000001
 43
0.0000001
 44
0.0000000001
 40
0.0
 40
0.0
 40
0.0
 40
0.0
 40
0.216695224
 40
0.4355861501
 40
0.6859064075
 40
1.0
 40
1.0
 40
1.0
 40
1.0
 10
13.258701367
 20
35.6343468549
 30
0.0
 10
13.2659888087
 20
35.6336679827
 30
0.0
 10
13.2810854446
 20
35.6348622482
 30
0.0
 10
13.302059444
 20
35.6460537602
 30
0.0
 10
13.3194209664
 20
35.6667144271
 30
0.0
 10
13.3265787863
 20
35.6847169067
 30
0.0
 10
13.3293557936
 20
35.6949556667
 30
0.0
  0
SPLINE
  5
307
100
AcDbEntity
  8
0
100
AcDbSpline
 62
7
  6
BYLAYER
 70
0
 71
3
 72
15
 73
11
 74
0
 42
0.0000001
 43
0.0000001
 44
0.0000000001
 40
0.0
 40
0.0
 40
0.0
 40
0.0
 40
0.2343237881
 40
0.4743713466
 40
0.5985628195
 40
0.7270965848
 40
0.7934710028
 40
0.8612821851
 40
0.9303454305
 40
1.0
 40
1.0
 40
1.0
 40
1.0
 10
23.9072417167
 20
31.6895625846
 30
0.0
 10
23.9150015283
 20
31.7061394662
 30
0.0
 10
23.9325379009
 20
31.73888173
 30
0.0
 10
23.9609088025
 20
31.7764818307
 30
0.0
 10
23.9894186315
 20
31.8025191444
 30
0.0
 10
24.0104713632
 20
31.8161646467
 30
0.0
 10
24.0292757361
 20
31.8244990169
 30
0.0
 10
24.044552412
 20
31.8289754293
 30
0.0
 10
24.0604533809
 20
31.8318238288
 30
0.0
 10
24.0713218686
 20
31.8324593737
 30
0.0
 10
24.0767590467
 20
31.832261619
 30
0.0
  0
SPLINE
  5
308
100
AcDbEntity
  8
0
100
AcDbSpline
 62
7
  6
BYLAYER
 70
0
 71
3
 72
12
 73
8
 74
0
 42
0.0000001
 43
0.0000001
 44
0.0000000001
 40
0.0
 40
0.0
 40
0.0
 40
0.0
 40
0.1880137123
 40
0.4143441031
 40
0.5436252411
 40
0.6849385115
 40
1.0
 40
1.0
 40
1.0
 40
1.0
 10
23.7743218869
 20
31.6252324603
 30
0.0
 10
23.7802939763
 20
31.6324905672
 30
0.0
 10
23.795876998
 20
31.6465083639
 30
0.0
 10
23.8195142201
 20
31.6601800594
 30
0.0
 10
23.8422652011
 20
31.6701884868
 30
0.0
 10
23.8697183588
 20
31.6803945743
 30
0.0
 10
23.8918086849
 20
31.6864153189
 30
0.0
 10
23.9072417167
 20
31.6895625846
 30
0.0
  0
SPLINE
  5
309
100
AcDbEntity
  8
0
100
AcDbSpline
 62
7
  6
BYLAYER
 70
0
 71
3
 72
13
 73
9
 74
0
 42
0.0000001
 43
0.0000001
 44
0.0000000001
 40
0.0
 40
0.0
 40
0.0
 40
0.0
 40
0.2560563669
 40
0.390136813
 40
0.5237373061
 40
0.6536901774
 40
0.7775522013
 40
1.0
 40
1.0
 40
1.0
 40
1.0
 10
23.9902541254
 20
32.3819865344
 30
0.0
 10
23.9571718246
 20
32.3815275865
 30
0.0
 10
23.9065048728
 20
32.3739083463
 30
0.0
 10
23.8430015215
 20
32.3500494141
 30
0.0
 10
23.7978261367
 20
32.3251346822
 30
0.0
 10
23.758275348
 20
32.2940540108
 30
0.0
 10
23.716490516
 20
32.2486484868
 30
0.0
 10
23.694933775
 20
32.2080035429
 30
0.0
 10
23.6866655574
 20
32.1804755797
 30
0.0
  0
SPLINE
  5
30A
100
AcDbEntity
  8
0
100
AcDbSpline
 62
7
  6
BYLAYER
 70
0
 71
3
 72
12
 73
8
 74
0
 42
0.0000001
 43
0.0000001
 44
0.0000000001
 40
0.0
 40
0.0
 40
0.0
 40
0.0
 40
0.2580315724
 40
0.5132020787
 40
0.7616702921
 40
0.8823294503
 40
1.0
 40
1.0
 40
1.0
 40
1.0
 10
24.0773235321
 20
31.8324893153
 30
0.0
 10
24.7197991552
 20
31.8163081364
 30
0.0
 10
25.9997778339
 20
31.8405195811
 30
0.0
 10
27.8883084254
 20
32.0434852891
 30
0.0
 10
29.4152472758
 20
32.3508579941
 30
0.0
 10
30.5831835797
 20
32.6779644418
 30
0.0
 10
31.1461054417
 20
32.8674326153
 30
0.0
 10
31.4211769822
 20
32.9685897249
 30
0.0
  0
SPLINE
  5
30B
100
AcDbEntity
  8
0
100
AcDbSpline
 62
7
  6
BYLAYER
 70
0
 71
3
 72
10
 73
6
 74
0
 42
0.0000001
 43
0.0000001
 44
0.0000000001
 40
0.0
 40
0.0
 40
0.0
 40
0.0
 40
0.2499527363
 40
0.6248992981
 40
1.0
 40
1.0
 40
1.0
 40
1.0
 10
23.9902774581
 20
32.3824019077
 30
0.0
 10
23.9974108844
 20
32.3365542383
 30
0.0
 10
24.0153019654
 20
32.221940761
 30
0.0
 10
24.0438054933
 20
32.0385097366
 30
0.0
 10
24.0657007742
 20
31.9010087092
 30
0.0
 10
24.0767590467
 20
31.832261619
 30
0.0
  0
SPLINE
  5
30C
100
AcDbEntity
  8
0
100
AcDbSpline
 62
7
  6
BYLAYER
 70
0
 71
3
 72
12
 73
8
 74
0
 42
0.0000001
 43
0.0000001
 44
0.0000000001
 40
0.0
 40
0.0
 40
0.0
 40
0.0
 40
0.1357007649
 40
0.2667010466
 40
0.5187383307
 40
0.7620709535
 40
1.0
 40
1.0
 40
1.0
 40
1.0
 10
23.3124104291
 20
34.1494229818
 30
0.0
 10
23.3621400334
 20
34.0788464131
 30
0.0
 10
23.4541054365
 20
33.9359934514
 30
0.0
 10
23.6125474006
 20
33.6462478086
 30
0.0
 10
23.7701484017
 20
33.2791052973
 30
0.0
 10
23.907071872
 20
32.8323100787
 30
0.0
 10
23.9673425571
 20
32.5315697265
 30
0.0
 10
23.990611137
 20
32.3819908873
 30
0.0
  0
SPLINE
  5
30D
100
AcDbEntity
  8
0
100
AcDbSpline
 62
7
  6
BYLAYER
 70
0
 71
3
 72
12
 73
8
 74
0
 42
0.0000001
 43
0.0000001
 44
0.0000000001
 40
0.0
 40
0.0
 40
0.0
 40
0.0
 40
0.2314736243
 40
0.4738250636
 40
0.728923226
 40
0.8621928565
 40
1.0
 40
1.0
 40
1.0
 40
1.0
 10
31.6587295979
 20
33.5682556863
 30
0.0
 10
31.721202985
 20
33.7266368976
 30
0.0
 10
31.8571347816
 20
34.0477397545
 30
0.0
 10
32.0913985818
 20
34.5302454897
 30
0.0
 10
32.3156941468
 20
34.9366340062
 30
0.0
 10
32.5171425562
 20
35.2671458603
 30
0.0
 10
32.6261665594
 20
35.4341403565
 30
0.0
 10
32.6830783844
 20
35.518017236
 30
0.0
  0
SPLINE
  5
30E
100
AcDbEntity
  8
0
100
AcDbSpline
 62
7
  6
BYLAYER
 70
0
 71
3
 72
16
 73
12
 74
0
 42
0.0000001
 43
0.0000001
 44
0.0000000001
 40
0.0
 40
0.0
 40
0.0
 40
0.0
 40
0.0748517167
 40
0.1458785785
 40
0.2135603512
 40
0.2777636413
 40
0.3997117314
 40
0.5183240776
 40
0.6367555154
 40
0.7562899135
 40
1.0
 40
1.0
 40
1.0
 40
1.0
 10
31.4217162921
 20
32.9685256587
 30
0.0
 10
31.4261407191
 20
32.9702142101
 30
0.0
 10
31.4350891874
 20
32.9726815041
 30
0.0
 10
31.4485207615
 20
32.9743974214
 30
0.0
 10
31.4614154061
 20
32.9743324445
 30
0.0
 10
31.4772789085
 20
32.9714101841
 30
0.0
 10
31.4952311905
 20
32.9637010014
 30
0.0
 10
31.5135256374
 20
32.9499957191
 30
0.0
 10
31.5290505725
 20
32.9335142402
 30
0.0
 10
31.5469923563
 20
32.9088145059
 30
0.0
 10
31.5577450558
 20
32.8883614082
 30
0.0
 10
31.5641070477
 20
32.8743161491
 30
0.0
  0
SPLINE
  5
30F
100
AcDbEntity
  8
0
100
AcDbSpline
 62
7
  6
BYLAYER
 70
0
 71
3
 72
13
 73
9
 74
0
 42
0.0000001
 43
0.0000001
 44
0.0000000001
 40
0.0
 40
0.0
 40
0.0
 40
0.0
 40
0.2438219019
 40
0.3762765948
 40
0.510988218
 40
0.644048945
 40
0.7718459473
 40
1.0
 40
1.0
 40
1.0
 40
1.0
 10
32.0239030692
 20
33.4702537364
 30
0.0
 10
32.0012669281
 20
33.4930551573
 30
0.0
 10
31.96114111
 20
33.5234437116
 30
0.0
 10
31.9006489157
 20
33.5532711285
 30
0.0
 10
31.8506212607
 20
33.5704777413
 30
0.0
 10
31.7993047331
 20
33.5805910902
 30
0.0
 10
31.7348848545
 20
33.584562091
 30
0.0
 10
31.6875657553
 20
33.5776238686
 30
0.0
 10
31.6589719138
 20
33.5683349162
 30
0.0
  0
SPLINE
  5
310
100
AcDbEntity
  8
0
100
AcDbSpline
 62
7
  6
BYLAYER
 70
0
 71
3
 72
9
 73
5
 74
0
 42
0.0000001
 43
0.0000001
 44
0.0000000001
 40
0.0
 40
0.0
 40
0.0
 40
0.0
 40
0.2487867388
 40
1.0
 40
1.0
 40
1.0
 40
1.0
 10
35.9987634214
 20
34.1542725104
 30
0.0
 10
35.9987643113
 20
34.1444813087
 30
0.0
 10
35.9976183265
 20
34.1051317917
 30
0.0
 10
35.9917860705
 20
34.0659348954
 30
0.0
 10
35.9849803089
 20
34.0371642988
 30
0.0
  0
SPLINE
  5
311
100
AcDbEntity
  8
0
100
AcDbSpline
 62
7
  6
BYLAYER
 70
0
 71
3
 72
11
 73
7
 74
0
 42
0.0000001
 43
0.0000001
 44
0.0000000001
 40
0.0
 40
0.0
 40
0.0
 40
0.0
 40
0.2233233609
 40
0.4616652232
 40
0.7199155621
 40
1.0
 40
1.0
 40
1.0
 40
1.0
 10
35.9849803089
 20
34.0371642988
 30
0.0
 10
35.9750792563
 20
33.9953087052
 30
0.0
 10
35.9438492793
 20
33.9110685452
 30
0.0
 10
35.868287939
 20
33.7937664526
 30
0.0
 10
35.7650280397
 20
33.6845601651
 30
0.0
 10
35.6826116449
 20
33.6209758833
 30
0.0
 10
35.6378782387
 20
33.5908308807
 30
0.0
  0
SPLINE
  5
312
100
AcDbEntity
  8
0
100
AcDbSpline
 62
7
  6
BYLAYER
 70
0
 71
3
 72
11
 73
7
 74
0
 42
0.0000001
 43
0.0000001
 44
0.0000000001
 40
0.0
 40
0.0
 40
0.0
 40
0.0
 40
0.2691591706
 40
0.5233823158
 40
0.7663174917
 40
1.0
 40
1.0
 40
1.0
 40
1.0
 10
32.9862423326
 20
35.6458618701
 30
0.0
 10
32.8764445025
 20
35.4623343025
 30
0.0
 10
32.6772929493
 20
35.0967567813
 30
0.0
 10
32.420231907
 20
34.5444655877
 30
0.0
 10
32.2037982406
 20
34.0053369733
 30
0.0
 10
32.0801846407
 20
33.6471944158
 30
0.0
 10
32.0239037974
 20
33.470253843
 30
0.0
  0
SPLINE
  5
313
100
AcDbEntity
  8
0
100
AcDbSpline
 62
7
  6
BYLAYER
 70
0
 71
3
 72
11
 73
7
 74
0
 42
0.0000001
 43
0.0000001
 44
0.0000000001
 40
0.0
 40
0.0
 40
0.0
 40
0.0
 40
0.2630237211
 40
0.5143187788
 40
0.7590816379
 40
1.0
 40
1.0
 40
1.0
 40
1.0
 10
23.0388387628
 20
34.1649654269
 30
0.0
 10
23.1367533862
 20
34.0088022911
 30
0.0
 10
23.301885311
 20
33.6865728888
 30
0.0
 10
23.4834401557
 20
33.1856020493
 30
0.0
 10
23.6104613261
 20
32.6842639274
 30
0.0
 10
23.6657555726
 20
32.3480056275
 30
0.0
 10
23.6866653076
 20
32.1804754857
 30
0.0
  0
SPLINE
  5
314
100
AcDbEntity
  8
0
100
AcDbSpline
 62
7
  6
BYLAYER
 70
0
 71
3
 72
9
 73
5
 74
0
 42
0.0000001
 43
0.0000001
 44
0.0000000001
 40
0.0
 40
0.0
 40
0.0
 40
0.0
 40
0.2468071739
 40
1.0
 40
1.0
 40
1.0
 40
1.0
 10
23.7706720953
 20
31.5855294152
 30
0.0
 10
23.7699614751
 20
31.5820307124
 30
0.0
 10
23.7666942331
 20
31.567937223
 30
0.0
 10
23.7618161513
 20
31.5542107585
 30
0.0
 10
23.7572593548
 20
31.5443142863
 30
0.0
  0
SPLINE
  5
315
100
AcDbEntity
  8
0
100
AcDbSpline
 62
7
  6
BYLAYER
 70
0
 71
3
 72
9
 73
5
 74
0
 42
0.0000001
 43
0.0000001
 44
0.0000000001
 40
0.0
 40
0.0
 40
0.0
 40
0.0
 40
0.2463138939
 40
1.0
 40
1.0
 40
1.0
 40
1.0
 10
23.6866653076
 20
31.4356397778
 30
0.0
 10
23.6840730833
 20
31.4300542951
 30
0.0
 10
23.6732000274
 20
31.4075410479
 30
0.0
 10
23.6609614503
 20
31.3856919522
 30
0.0
 10
23.6510782926
 20
31.36965036
 30
0.0
  0
SPLINE
  5
316
100
AcDbEntity
  8
0
100
AcDbSpline
 62
7
  6
BYLAYER
 70
0
 71
3
 72
9
 73
5
 74
0
 42
0.0000001
 43
0.0000001
 44
0.0000000001
 40
0.0
 40
0.0
 40
0.0
 40
0.0
 40
0.2432467988
 40
1.0
 40
1.0
 40
1.0
 40
1.0
 10
23.6510782926
 20
31.36965036
 30
0.0
 10
23.6454360138
 20
31.360492241
 30
0.0
 10
23.6213483282
 20
31.3233956964
 30
0.0
 10
23.5938417053
 20
31.2885518863
 30
0.0
 10
23.5715802764
 20
31.2635656959
 30
0.0
  0
SPLINE
  5
317
100
AcDbEntity
  8
0
100
AcDbSpline
 62
7
  6
BYLAYER
 70
0
 71
3
 72
15
 73
11
 74
0
 42
0.0000001
 43
0.0000001
 44
0.0000000001
 40
0.0
 40
0.0
 40
0.0
 40
0.0
 40
0.0999803383
 40
0.209295572
 40
0.3276108315
 40
0.4538207615
 40
0.5862896562
 40
0.7229730052
 40
0.8617050158
 40
1.0
 40
1.0
 40
1.0
 40
1.0
 10
23.5715802764
 20
31.2635656959
 30
0.0
 10
23.5332839827
 20
31.2205820003
 30
0.0
 10
23.4438334529
 20
31.1386788187
 30
0.0
 10
23.2855310354
 20
31.034955081
 30
0.0
 10
23.1010914779
 20
30.9470968251
 30
0.0
 10
22.8950906336
 20
30.8772668045
 30
0.0
 10
22.6726335411
 20
30.8271368382
 30
0.0
 10
22.4392398175
 20
30.7979080568
 30
0.0
 10
22.2008237634
 20
30.7903749547
 30
0.0
 10
22.0413268757
 20
30.7999644237
 30
0.0
 10
21.9621557293
 20
30.8085087198
 30
0.0
  0
SPLINE
  5
318
100
AcDbEntity
  8
0
100
AcDbSpline
 62
7
  6
BYLAYER
 70
0
 71
3
 72
31
 73
27
 74
0
 42
0.0000001
 43
0.0000001
 44
0.0000000001
 40
0.0
 40
0.0
 40
0.0
 40
0.0
 40
0.030124438
 40
0.0612550017
 40
0.0933126883
 40
0.126226683
 40
0.1599219333
 40
0.1943070802
 40
0.2647269101
 40
0.3366473304
 40
0.4091501754
 40
0.4812941856
 40
0.5521524815
 40
0.6208502336
 40
0.6866042199
 40
0.7181794632
 40
0.7487905839
 40
0.7783862578
 40
0.8069311081
 40
0.8344069834
 40
0.8608159211
 40
0.9105088702
 40
0.9339636471
 40
0.9566044973
 40
0.9785637573
 40
1.0
 40
1.0
 40
1.0
 40
1.0
 10
33.5714121014
 20
38.5272515347
 30
0.0
 10
33.3595328019
 20
38.4049236943
 30
0.0
 10
32.9209455883
 20
38.1694064893
 30
0.0
 10
32.2338297029
 20
37.8488851678
 30
0.0
 10
31.5096399664
 20
37.5568595799
 30
0.0
 10
30.7520710608
 20
37.2947155265
 30
0.0
 10
29.9647107952
 20
37.063744347
 30
0.0
 10
28.8717160087
 20
36.7966468452
 30
0.0
 10
27.4560109025
 20
36.5489506077
 30
0.0
 10
25.7163865065
 20
36.3915815821
 30
0.0
 10
23.9556957343
 20
36.3747537636
 30
0.0
 10
22.2079504189
 20
36.4987926768
 30
0.0
 10
20.5067061484
 20
36.7613221248
 30
0.0
 10
18.8847821124
 20
37.157283577
 30
0.0
 10
17.6079299081
 20
37.5980800807
 30
0.0
 10
16.6548616777
 20
38.0130873437
 30
0.0
 10
15.988396535
 20
38.3478533927
 30
0.0
 10
15.3639066507
 20
38.7086902521
 30
0.0
 10
14.7844297633
 20
39.0938540348
 30
0.0
 10
14.2526884644
 20
39.5016087636
 30
0.0
 10
13.6239217207
 20
40.0611002753
 30
0.0
 10
13.0830476123
 20
40.6685492898
 30
0.0
 10
12.6524036434
 20
41.3176942722
 30
0.0
 10
12.3939688703
 20
41.8074324367
 30
0.0
 10
12.1953954938
 20
42.3067337549
 30
0.0
 10
12.1028112569
 20
42.6477640989
 30
0.0
 10
12.0672530399
 20
42.8181893749
 30
0.0
  0
SPLINE
  5
319
100
AcDbEntity
  8
0
100
AcDbSpline
 62
7
  6
BYLAYER
 70
0
 71
3
 72
15
 73
11
 74
0
 42
0.0000001
 43
0.0000001
 44
0.0000000001
 40
0.0
 40
0.0
 40
0.0
 40
0.0
 40
0.1568891248
 40
0.3061807511
 40
0.4459935506
 40
0.5753368984
 40
0.6939268466
 40
0.8025947122
 40
0.9034703557
 40
1.0
 40
1.0
 40
1.0
 40
1.0
 10
19.8073957131
 20
31.1418409377
 30
0.0
 10
19.7362507614
 20
31.156314975
 30
0.0
 10
19.598618767
 20
31.1911040593
 30
0.0
 10
19.4044427995
 20
31.2622055978
 30
0.0
 10
19.2311211031
 20
31.349677464
 30
0.0
 10
19.0826515489
 20
31.451557587
 30
0.0
 10
18.9624360275
 20
31.56580001
 30
0.0
 10
18.8734753373
 20
31.6902205357
 30
0.0
 10
18.8184595282
 20
31.8221827368
 30
0.0
 10
18.8059204251
 20
31.9139560853
 30
0.0
 10
18.8059189094
 20
31.9586263547
 30
0.0
  0
SPLINE
  5
31A
100
AcDbEntity
  8
0
100
AcDbSpline
 62
7
  6
BYLAYER
 70
0
 71
3
 72
18
 73
14
 74
0
 42
0.0000001
 43
0.0000001
 44
0.0000000001
 40
0.0
 40
0.0
 40
0.0
 40
0.0
 40
0.148549881
 40
0.2894292834
 40
0.4226085589
 40
0.5484954869
 40
0.667821177
 40
0.7254046611
 40
0.7818095909
 40
0.8372403825
 40
0.8919202896
 40
0.9460892407
 40
1.0
 40
1.0
 40
1.0
 40
1.0
 10
34.8795650929
 20
37.7720061389
 30
0.0
 10
35.2065998791
 20
37.9608186337
 30
0.0
 10
35.8290015579
 20
38.355314002
 30
0.0
 10
36.6798884669
 20
39.0139110288
 30
0.0
 10
37.4158660384
 20
39.7184153346
 30
0.0
 10
38.0295735077
 20
40.4621896755
 30
0.0
 10
38.4387701633
 20
41.1173875397
 30
0.0
 10
38.6957938507
 20
41.6524451001
 30
0.0
 10
38.8523588652
 20
42.0541359501
 30
0.0
 10
38.9745775134
 20
42.4598756251
 30
0.0
 10
39.062142049
 20
42.8687001472
 30
0.0
 10
39.1147395294
 20
43.2795621484
 30
0.0
 10
39.126458453
 20
43.5544512631
 30
0.0
 10
39.1264630221
 20
43.6914970884
 30
0.0
  0
SPLINE
  5
31B
100
AcDbEntity
  8
0
100
AcDbSpline
 62
7
  6
BYLAYER
 70
0
 71
3
 72
18
 73
14
 74
0
 42
0.0000001
 43
0.0000001
 44
0.0000000001
 40
0.0
 40
0.0
 40
0.0
 40
0.0
 40
0.1504717524
 40
0.2920283752
 40
0.4228012313
 40
0.5407725185
 40
0.6448790056
 40
0.693139544
 40
0.7410926177
 40
0.7923337551
 40
0.8516185706
 40
0.9198488022
 40
1.0
 40
1.0
 40
1.0
 40
1.0
 10
13.3293569263
 20
35.6949534077
 30
0.0
 10
13.3310484629
 20
35.7011570424
 30
0.0
 10
13.3346044658
 20
35.7131263791
 30
0.0
 10
13.3408129952
 20
35.7301076929
 30
0.0
 10
13.3479108692
 20
35.7452423887
 30
0.0
 10
13.3560727234
 20
35.7579701827
 30
0.0
 10
13.364463287
 20
35.7662357552
 30
0.0
 10
13.3721956177
 20
35.7700881163
 30
0.0
 10
13.3784549412
 20
35.7713615749
 30
0.0
 10
13.3853018925
 20
35.7706083683
 30
0.0
 10
13.3923672745
 20
35.7674966376
 30
0.0
 10
13.399713597
 20
35.7624569692
 30
0.0
 10
13.4042718413
 20
35.7579956098
 30
0.0
 10
13.4065385785
 20
35.7554278791
 30
0.0
  0
SPLINE
  5
31C
100
AcDbEntity
  8
0
100
AcDbSpline
 62
7
  6
BYLAYER
 70
0
 71
3
 72
9
 73
5
 74
0
 42
0.0000001
 43
0.0000001
 44
0.0000000001
 40
0.0
 40
0.0
 40
0.0
 40
0.0
 40
0.4912812857
 40
1.0
 40
1.0
 40
1.0
 40
1.0
 10
13.0819391523
 20
35.7573987583
 30
0.0
 10
13.109447831
 20
35.7547411384
 30
0.0
 10
13.1652470765
 20
35.7468065454
 30
0.0
 10
13.2198862726
 20
35.732969176
 30
0.0
 10
13.2472898519
 20
35.7247219932
 30
0.0
  0
SPLINE
  5
31D
100
AcDbEntity
  8
0
100
AcDbSpline
 62
7
  6
BYLAYER
 70
0
 71
3
 72
9
 73
5
 74
0
 42
0.0000001
 43
0.0000001
 44
0.0000000001
 40
0.0
 40
0.0
 40
0.0
 40
0.0
 40
0.2508536546
 40
1.0
 40
1.0
 40
1.0
 40
1.0
 10
13.2472898519
 20
35.7247219932
 30
0.0
 10
13.2542821826
 20
35.722617632
 30
0.0
 10
13.2820573343
 20
35.7139153124
 30
0.0
 10
13.3094046506
 20
35.7037540304
 30
0.0
 10
13.3293569263
 20
35.6949534077
 30
0.0
  0
SPLINE
  5
31E
100
AcDbEntity
  8
0
100
AcDbSpline
 62
7
  6
BYLAYER
 70
0
 71
3
 72
14
 73
10
 74
0
 42
0.0000001
 43
0.0000001
 44
0.0000000001
 40
0.0
 40
0.0
 40
0.0
 40
0.0
 40
0.0913115892
 40
0.1939489776
 40
0.3095131976
 40
0.4370740475
 40
0.5743168114
 40
0.7170904915
 40
1.0
 40
1.0
 40
1.0
 40
1.0
 10
13.0821151259
 20
36.44212118
 30
0.0
 10
13.0748776508
 20
36.4498419979
 30
0.0
 10
13.0573208035
 20
36.4642696708
 30
0.0
 10
13.0250185571
 20
36.4804458929
 30
0.0
 10
12.9861125738
 20
36.4909536845
 30
0.0
 10
12.9420760611
 20
36.4953579383
 30
0.0
 10
12.8947417713
 20
36.4930342003
 30
0.0
 10
12.8303534577
 20
36.4818477643
 30
0.0
 10
12.7833974789
 20
36.4652032825
 30
0.0
 10
12.7537173779
 20
36.4512696424
 30
0.0
  0
SPLINE
  5
31F
100
AcDbEntity
  8
0
100
AcDbSpline
 62
7
  6
BYLAYER
 70
0
 71
3
 72
15
 73
11
 74
0
 42
0.0000001
 43
0.0000001
 44
0.0000000001
 40
0.0
 40
0.0
 40
0.0
 40
0.0
 40
0.1083041651
 40
0.2214924606
 40
0.3396111502
 40
0.462650453
 40
0.5904696736
 40
0.7228445882
 40
0.8595025905
 40
1.0
 40
1.0
 40
1.0
 40
1.0
 10
13.4069974597
 20
35.7553148063
 30
0.0
 10
13.5588660311
 20
35.5869358033
 30
0.0
 10
13.885934149
 20
35.2571733124
 30
0.0
 10
14.4280740178
 20
34.7960115174
 30
0.0
 10
15.0292794208
 20
34.3601620505
 30
0.0
 10
15.6859765974
 20
33.9521898707
 30
0.0
 10
16.3943872115
 20
33.5743152248
 30
0.0
 10
17.1505053835
 20
33.2287178091
 30
0.0
 10
17.9498440708
 20
32.9173787927
 30
0.0
 10
18.5014155365
 20
32.7361569385
 30
0.0
 10
18.7831150927
 20
32.6514798925
 30
0.0
  0
LINE
  5
320
100
AcDbEntity
  8
0
100
AcDbLine
 62
7
  6
BYLAYER
 10
13.0825392122
 20
36.4423883108
 11
13.4065385785
 21
35.7554278791
  0
SPLINE
  5
321
100
AcDbEntity
  8
0
100
AcDbSpline
 62
7
  6
BYLAYER
 70
0
 71
3
 72
13
 73
9
 74
0
 42
0.0000001
 43
0.0000001
 44
0.0000000001
 40
0.0
 40
0.0
 40
0.0
 40
0.0
 40
0.2647301528
 40
0.5188251883
 40
0.6421474866
 40
0.7631830199
 40
0.8822619505
 40
1.0
 40
1.0
 40
1.0
 40
1.0
 10
18.6957522079
 20
33.2010830526
 30
0.0
 10
18.6726592473
 20
33.3448597451
 30
0.0
 10
18.6372511738
 20
33.6283849607
 30
0.0
 10
18.6265574992
 20
33.9821919941
 30
0.0
 10
18.6430100638
 20
34.2560513315
 30
0.0
 10
18.6689334098
 20
34.4544873861
 30
0.0
 10
18.7108751923
 20
34.6470574305
 30
0.0
 10
18.7515829169
 20
34.7711889608
 30
0.0
 10
18.7759124723
 20
34.8312092204
 30
0.0
  0
SPLINE
  5
322
100
AcDbEntity
  8
0
100
AcDbSpline
 62
7
  6
BYLAYER
 70
0
 71
3
 72
9
 73
5
 74
0
 42
0.0000001
 43
0.0000001
 44
0.0000000001
 40
0.0
 40
0.0
 40
0.0
 40
0.0
 40
0.2434508242
 40
1.0
 40
1.0
 40
1.0
 40
1.0
 10
18.7834408554
 20
32.6511284054
 30
0.0
 10
18.7853965612
 20
32.6505663217
 30
0.0
 10
18.7933401044
 20
32.6479437692
 30
0.0
 10
18.800928052
 20
32.6443401751
 30
0.0
 10
18.8064960241
 20
32.6413425869
 30
0.0
  0
SPLINE
  5
323
100
AcDbEntity
  8
0
100
AcDbSpline
 62
7
  6
BYLAYER
 70
0
 71
3
 72
11
 73
7
 74
0
 42
0.0000001
 43
0.0000001
 44
0.0000000001
 40
0.0
 40
0.0
 40
0.0
 40
0.0
 40
0.2431237387
 40
0.49030874
 40
0.742510577
 40
1.0
 40
1.0
 40
1.0
 40
1.0
 10
18.9724828296
 20
34.7791584274
 30
0.0
 10
18.9397398021
 20
34.6962753667
 30
0.0
 10
18.8871574688
 20
34.5237075432
 30
0.0
 10
18.8378290309
 20
34.255682826
 30
0.0
 10
18.8111319883
 20
33.9792639855
 30
0.0
 10
18.8059220495
 20
33.7923780438
 30
0.0
 10
18.8059167275
 20
33.6979960876
 30
0.0
  0
SPLINE
  5
324
100
AcDbEntity
  8
0
100
AcDbSpline
 62
7
  6
BYLAYER
 70
0
 71
3
 72
15
 73
11
 74
0
 42
0.0000001
 43
0.0000001
 44
0.0000000001
 40
0.0
 40
0.0
 40
0.0
 40
0.0
 40
0.1820183332
 40
0.3545576433
 40
0.5130609292
 40
0.6533015564
 40
0.7722748942
 40
0.8683262952
 40
0.9419300536
 40
1.0
 40
1.0
 40
1.0
 40
1.0
 10
13.0820202184
 20
35.7572231995
 30
0.0
 10
13.0820202194
 20
35.7488210762
 30
0.0
 10
13.0817499945
 20
35.7324523374
 30
0.0
 10
13.0804185557
 20
35.708799533
 30
0.0
 10
13.0781140735
 20
35.6871538636
 30
0.0
 10
13.0747500404
 20
35.6681492299
 30
0.0
 10
13.0703596436
 20
35.6523049544
 30
0.0
 10
13.0650171809
 20
35.6400506546
 30
0.0
 10
13.0586691281
 20
35.6314339536
 30
0.0
 10
13.0529386813
 20
35.6285355052
 30
0.0
 10
13.0502885955
 20
35.6281324651
 30
0.0
  0
SPLINE
  5
325
100
AcDbEntity
  8
0
100
AcDbSpline
 62
7
  6
BYLAYER
 70
0
 71
3
 72
15
 73
11
 74
0
 42
0.0000001
 43
0.0000001
 44
0.0000000001
 40
0.0
 40
0.0
 40
0.0
 40
0.0
 40
0.1377676089
 40
0.2769815673
 40
0.4147201402
 40
0.5482985419
 40
0.6752229879
 40
0.7934988008
 40
0.901829827
 40
1.0
 40
1.0
 40
1.0
 40
1.0
 10
12.7537164054
 20
35.7064342093
 30
0.0
 10
12.6681320105
 20
35.6931942202
 30
0.0
 10
12.4945272396
 20
35.6757454288
 30
0.0
 10
12.2334148872
 20
35.6758834839
 30
0.0
 10
11.9762217698
 20
35.7020681661
 30
0.0
 10
11.730709592
 20
35.7534582434
 30
0.0
 10
11.5041646397
 20
35.8285738934
 30
0.0
 10
11.3032674212
 20
35.9252833477
 30
0.0
 10
11.1339267515
 20
36.040809279
 30
0.0
 10
11.0410099883
 20
36.132995858
 30
0.0
 10
11.0025690711
 20
36.181271574
 30
0.0
  0
SPLINE
  5
326
100
AcDbEntity
  8
0
100
AcDbSpline
 62
7
  6
BYLAYER
 70
0
 71
3
 72
9
 73
5
 74
0
 42
0.0000001
 43
0.0000001
 44
0.0000000001
 40
0.0
 40
0.0
 40
0.0
 40
0.0
 40
0.2549771153
 40
1.0
 40
1.0
 40
1.0
 40
1.0
 10
11.0025690711
 20
36.181271574
 30
0.0
 10
10.9977914959
 20
36.1872714533
 30
0.0
 10
10.9793999707
 20
36.2110746178
 30
0.0
 10
10.9624269747
 20
36.2359826294
 30
0.0
 10
10.9507515689
 20
36.2551111409
 30
0.0
  0
SPLINE
  5
327
100
AcDbEntity
  8
0
100
AcDbSpline
 62
7
  6
BYLAYER
 70
0
 71
3
 72
9
 73
5
 74
0
 42
0.0000001
 43
0.0000001
 44
0.0000000001
 40
0.0
 40
0.0
 40
0.0
 40
0.0
 40
0.5081565963
 40
1.0
 40
1.0
 40
1.0
 40
1.0
 10
10.9507515689
 20
36.2551111409
 30
0.0
 10
10.8347640657
 20
36.445140364
 30
0.0
 10
10.625491199
 20
36.8311141523
 30
0.0
 10
10.4607192832
 20
37.2382704481
 30
0.0
 10
10.3920596039
 20
37.4425223673
 30
0.0
  0
SPLINE
  5
328
100
AcDbEntity
  8
0
100
AcDbSpline
 62
7
  6
BYLAYER
 70
0
 71
3
 72
9
 73
5
 74
0
 42
0.0000001
 43
0.0000001
 44
0.0000000001
 40
0.0
 40
0.0
 40
0.0
 40
0.0
 40
0.4809906718
 40
1.0
 40
1.0
 40
1.0
 40
1.0
 10
26.8528775734
 20
10.8730158787
 30
0.0
 10
26.8190512029
 20
10.892515409
 30
0.0
 10
26.7394455828
 20
10.9175667708
 30
0.0
 10
26.6574332489
 20
10.9163280187
 30
0.0
 10
26.615531867
 20
10.9119409096
 30
0.0
  0
SPLINE
  5
329
100
AcDbEntity
  8
0
100
AcDbSpline
 62
7
  6
BYLAYER
 70
0
 71
3
 72
11
 73
7
 74
0
 42
0.0000001
 43
0.0000001
 44
0.0000000001
 40
0.0
 40
0.0
 40
0.0
 40
0.0
 40
0.2226735022
 40
0.4612303655
 40
0.7206374248
 40
1.0
 40
1.0
 40
1.0
 40
1.0
 10
30.5200846115
 20
12.4416099527
 30
0.0
 10
30.4996691538
 20
12.4533978925
 30
0.0
 10
30.4534687264
 20
12.4714160823
 30
0.0
 10
30.3769366796
 20
12.4798455923
 30
0.0
 10
30.2946268198
 20
12.4706151662
 30
0.0
 10
30.2396223772
 20
12.4546277203
 30
0.0
 10
30.2118147434
 20
12.4445545083
 30
0.0
  0
SPLINE
  5
32A
100
AcDbEntity
  8
0
100
AcDbSpline
 62
7
  6
BYLAYER
 70
0
 71
3
 72
11
 73
7
 74
0
 42
0.0000001
 43
0.0000001
 44
0.0000000001
 40
0.0
 40
0.0
 40
0.0
 40
0.0
 40
0.2635957727
 40
0.5159416853
 40
0.7600886956
 40
1.0
 40
1.0
 40
1.0
 40
1.0
 10
14.3180369246
 20
32.2924783093
 30
0.0
 10
14.1909844495
 20
32.4761634153
 30
0.0
 10
13.9646052654
 20
32.851957528
 30
0.0
 10
13.7129259855
 20
33.4472816716
 30
0.0
 10
13.56057625
 20
34.0549571069
 30
0.0
 10
13.5265035659
 20
34.4658691419
 30
0.0
 10
13.5265014246
 20
34.6691453694
 30
0.0
  0
SPLINE
  5
32B
100
AcDbEntity
  8
0
100
AcDbSpline
 62
7
  6
BYLAYER
 70
0
 71
3
 72
15
 73
11
 74
0
 42
0.0000001
 43
0.0000001
 44
0.0000000001
 40
0.0
 40
0.0
 40
0.0
 40
0.0
 40
0.2573611383
 40
0.468085417
 40
0.6384484885
 40
0.7701808282
 40
0.8649356402
 40
0.9276782592
 40
0.966925839
 40
1.0
 40
1.0
 40
1.0
 40
1.0
 10
14.4300057022
 20
14.1096049462
 30
0.0
 10
14.4301509914
 20
14.0933993838
 30
0.0
 10
14.4298436628
 20
14.0639123737
 30
0.0
 10
14.4275390005
 20
14.0237639707
 30
0.0
 10
14.4241090398
 20
13.9916297894
 30
0.0
 10
14.4198928862
 20
13.9669969712
 30
0.0
 10
14.4148395567
 20
13.9493765512
 30
0.0
 10
14.4095906802
 20
13.9382227483
 30
0.0
 10
14.4027638153
 20
13.9319352673
 30
0.0
 10
14.397677529
 20
13.932967318
 30
0.0
 10
14.3958737756
 20
13.9340085322
 30
0.0
  0
SPLINE
  5
32C
100
AcDbEntity
  8
0
100
AcDbSpline
 62
7
  6
BYLAYER
 70
0
 71
3
 72
11
 73
7
 74
0
 42
0.0000001
 43
0.0000001
 44
0.0000000001
 40
0.0
 40
0.0
 40
0.0
 40
0.0
 40
0.377627866
 40
0.6717515705
 40
0.8742751801
 40
1.0
 40
1.0
 40
1.0
 40
1.0
 10
34.6708778561
 20
14.5893952754
 30
0.0
 10
34.6708923981
 20
14.6037895217
 30
0.0
 10
34.6703026087
 20
14.6293832619
 30
0.0
 10
34.6664884622
 20
14.662655852
 30
0.0
 10
34.6605421101
 20
14.6855234133
 30
0.0
 10
34.6531524374
 20
14.6966516994
 30
0.0
 10
34.6490034369
 20
14.6990500657
 30
0.0
  0
SPLINE
  5
32D
100
AcDbEntity
  8
0
100
AcDbSpline
 62
7
  6
BYLAYER
 70
0
 71
3
 72
15
 73
11
 74
0
 42
0.0000001
 43
0.0000001
 44
0.0000000001
 40
0.0
 40
0.0
 40
0.0
 40
0.0
 40
0.1110198197
 40
0.2290161304
 40
0.3527735261
 40
0.4807827597
 40
0.6113366527
 40
0.7426161708
 40
0.8727712693
 40
1.0
 40
1.0
 40
1.0
 40
1.0
 10
32.4753920274
 20
30.137672995
 30
0.0
 10
32.0810479483
 20
29.9099996938
 30
0.0
 10
31.2365496565
 20
29.4928547308
 30
0.0
 10
29.8748297507
 20
28.9967567341
 30
0.0
 10
28.4036354676
 20
28.6191803523
 30
0.0
 10
26.8537530057
 20
28.3680367259
 30
0.0
 10
25.257377165
 20
28.2484833872
 30
0.0
 10
23.6477923577
 20
28.2630351018
 30
0.0
 10
22.0587830609
 20
28.4113468988
 30
0.0
 10
21.0184835416
 20
28.6003992232
 30
0.0
 10
20.5099929408
 20
28.7176317032
 30
0.0
  0
SPLINE
  5
32E
100
AcDbEntity
  8
0
100
AcDbSpline
 62
7
  6
BYLAYER
 70
0
 71
3
 72
15
 73
11
 74
0
 42
0.0000001
 43
0.0000001
 44
0.0000000001
 40
0.0
 40
0.0
 40
0.0
 40
0.0
 40
0.1485651011
 40
0.2895098225
 40
0.4227292074
 40
0.5486402608
 40
0.6680023701
 40
0.7819385223
 40
0.8919861443
 40
1.0
 40
1.0
 40
1.0
 40
1.0
 10
17.3433077613
 20
7.0306130648
 30
0.0
 10
17.1110357305
 20
7.1647123506
 30
0.0
 10
16.6689255787
 20
7.444969994
 30
0.0
 10
16.0644487318
 20
7.9127698922
 30
0.0
 10
15.5416134601
 20
8.4132190088
 30
0.0
 10
15.1056904942
 20
8.9416625397
 30
0.0
 10
14.7609717621
 20
9.493366658
 30
0.0
 10
14.5115204481
 20
10.0634580793
 30
0.0
 10
14.3603439825
 20
10.6460717663
 30
0.0
 10
14.3265099995
 20
11.0405297424
 30
0.0
 10
14.3264972481
 20
11.2355260979
 30
0.0
  0
SPLINE
  5
32F
100
AcDbEntity
  8
0
100
AcDbSpline
 62
7
  6
BYLAYER
 70
0
 71
3
 72
25
 73
21
 74
0
 42
0.0000001
 43
0.0000001
 44
0.0000000001
 40
0.0
 40
0.0
 40
0.0
 40
0.0
 40
0.0213321258
 40
0.0428927528
 40
0.0648979608
 40
0.0875430083
 40
0.1353180942
 40
0.1872188081
 40
0.2436561222
 40
0.3046036213
 40
0.3696910531
 40
0.4382881178
 40
0.509574471
 40
0.5825986979
 40
0.6563307065
 40
0.7297071031
 40
0.8016836448
 40
0.8712746949
 40
0.9376183452
 40
1.0
 40
1.0
 40
1.0
 40
1.0
 10
34.9264509084
 20
11.2355258991
 30
0.0
 10
34.9264604634
 20
11.0894075318
 30
0.0
 10
34.907598946
 20
10.7952648486
 30
0.0
 10
34.8230713623
 20
10.3577305643
 30
0.0
 10
34.6829090609
 20
9.9252292262
 30
0.0
 10
34.4184133355
 20
9.3486894083
 30
0.0
 10
33.9438742528
 20
8.6503643756
 30
0.0
 10
33.1857817149
 20
7.8892465527
 30
0.0
 10
32.2463008721
 20
7.2027018984
 30
0.0
 10
31.1455513745
 20
6.6040301041
 30
0.0
 10
29.906548759
 20
6.1048753564
 30
0.0
 10
28.555333566
 20
5.7154615365
 30
0.0
 10
27.1204682987
 20
5.4438980526
 30
0.0
 10
25.6324332933
 20
5.2959197025
 30
0.0
 10
24.1229452547
 20
5.2746842462
 30
0.0
 10
22.6241916184
 20
5.3806181397
 30
0.0
 10
21.1681699776
 20
5.6115061976
 30
0.0
 10
19.7856985694
 20
5.9624231203
 30
0.0
 10
18.5064218038
 20
6.4259676682
 30
0.0
 10
17.7133579702
 20
6.8169693104
 30
0.0
 10
17.3433077613
 20
7.0306130648
 30
0.0
  0
SPLINE
  5
330
100
AcDbEntity
  8
0
100
AcDbSpline
 62
7
  6
BYLAYER
 70
0
 71
3
 72
12
 73
8
 74
0
 42
0.0000001
 43
0.0000001
 44
0.0000000001
 40
0.0
 40
0.0
 40
0.0
 40
0.0
 40
0.1088878166
 40
0.2214443467
 40
0.4598221618
 40
0.718949739
 40
1.0
 40
1.0
 40
1.0
 40
1.0
 10
35.4991424571
 20
33.3788208582
 30
0.0
 10
35.4441198566
 20
33.2242795319
 30
0.0
 10
35.3134485924
 20
32.9163746283
 30
0.0
 10
34.973938893
 20
32.3112485923
 30
0.0
 10
34.4010555413
 20
31.5846024248
 30
0.0
 10
33.5235390034
 20
30.7995715747
 30
0.0
 10
32.8420802254
 20
30.3493792611
 30
0.0
 10
32.4753920274
 20
30.137672995
 30
0.0
  0
SPLINE
  5
331
100
AcDbEntity
  8
0
100
AcDbSpline
 62
7
  6
BYLAYER
 70
0
 71
3
 72
21
 73
17
 74
0
 42
0.0000001
 43
0.0000001
 44
0.0000000001
 40
0.0
 40
0.0
 40
0.0
 40
0.0
 40
0.0544390196
 40
0.1115275039
 40
0.1710572334
 40
0.2327548517
 40
0.2962921794
 40
0.3612994648
 40
0.4940408537
 40
0.6276144095
 40
0.6936444099
 40
0.7585848629
 40
0.8220353695
 40
0.8836232394
 40
0.9430368013
 40
1.0
 40
1.0
 40
1.0
 40
1.0
 10
35.2640260596
 20
41.2791462423
 30
0.0
 10
34.9416411248
 20
41.0703418679
 30
0.0
 10
34.2609313544
 20
40.6732397972
 30
0.0
 10
33.17090198
 20
40.1524242145
 30
0.0
 10
31.997103806
 20
39.6964820016
 30
0.0
 10
30.7510881608
 20
39.3099570211
 30
0.0
 10
29.4449683979
 20
38.9965296114
 30
0.0
 10
27.6281662414
 20
38.6780732631
 30
0.0
 10
25.2931125393
 20
38.481760136
 30
0.0
 10
22.9438257284
 20
38.5518342734
 30
0.0
 10
21.0891657235
 20
38.7698256033
 30
0.0
 10
19.7379162959
 20
39.0111423873
 30
0.0
 10
18.4347018901
 20
39.3285053348
 30
0.0
 10
17.1921303291
 20
39.7187931298
 30
0.0
 10
16.0224545724
 20
40.1782320249
 30
0.0
 10
15.2821556704
 20
40.5358021544
 30
0.0
 10
14.927962414
 20
40.7257411582
 30
0.0
  0
SPLINE
  5
332
100
AcDbEntity
  8
0
100
AcDbSpline
 62
7
  6
BYLAYER
 70
0
 71
3
 72
13
 73
9
 74
0
 42
0.0000001
 43
0.0000001
 44
0.0000000001
 40
0.0
 40
0.0
 40
0.0
 40
0.0
 40
0.1309334322
 40
0.275247982
 40
0.4195656677
 40
0.5572029158
 40
0.8027905398
 40
1.0
 40
1.0
 40
1.0
 40
1.0
 10
14.4300057022
 20
16.1916861099
 30
0.0
 10
14.4302254658
 20
16.2276446779
 30
0.0
 10
14.4275345171
 20
16.3032389282
 30
0.0
 10
14.4198133044
 20
16.4182093807
 30
0.0
 10
14.4091504055
 20
16.5348037856
 30
0.0
 10
14.3937918125
 20
16.6788713657
 30
0.0
 10
14.3752417602
 20
16.837202466
 30
0.0
 10
14.3597470929
 20
16.9578219253
 30
0.0
 10
14.3533589758
 20
17.0116050046
 30
0.0
  0
SPLINE
  5
333
100
AcDbEntity
  8
0
100
AcDbSpline
 62
7
  6
BYLAYER
 70
0
 71
3
 72
13
 73
9
 74
0
 42
0.0000001
 43
0.0000001
 44
0.0000000001
 40
0.0
 40
0.0
 40
0.0
 40
0.0
 40
0.1981553147
 40
0.4447239733
 40
0.5821735058
 40
0.7258986695
 40
0.8696130631
 40
1.0
 40
1.0
 40
1.0
 40
1.0
 10
34.9027902124
 20
14.9126975354
 30
0.0
 10
34.8963750897
 20
14.9706628409
 30
0.0
 10
34.8805494259
 20
15.1005923161
 30
0.0
 10
34.8613022873
 20
15.2708506604
 30
0.0
 10
34.845177746
 20
15.4253322081
 30
0.0
 10
34.8338912241
 20
15.5498829255
 30
0.0
 10
34.8256295462
 20
15.6725735998
 30
0.0
 10
34.8226608701
 20
15.7532458209
 30
0.0
 10
34.8229424543
 20
15.7916190467
 30
0.0
  0
SPLINE
  5
334
100
AcDbEntity
  8
0
100
AcDbSpline
 62
7
  6
BYLAYER
 70
0
 71
3
 72
12
 73
8
 74
0
 42
0.0000001
 43
0.0000001
 44
0.0000000001
 40
0.0
 40
0.0
 40
0.0
 40
0.0
 40
0.3829558558
 40
0.675726567
 40
0.7885915599
 40
0.8790439867
 40
1.0
 40
1.0
 40
1.0
 40
1.0
 10
34.6708778561
 20
13.5769322782
 30
0.0
 10
34.6707155486
 20
13.5537523892
 30
0.0
 10
34.6719073453
 20
13.5128011593
 30
0.0
 10
34.6776586121
 20
13.4653598308
 30
0.0
 10
34.6848265384
 20
13.4360380676
 30
0.0
 10
34.6914923908
 20
13.4178174357
 30
0.0
 10
34.6988055036
 20
13.4060815503
 30
0.0
 10
34.7051445224
 20
13.4024180313
 30
0.0
  0
SPLINE
  5
335
100
AcDbEntity
  8
0
100
AcDbSpline
 62
7
  6
BYLAYER
 70
0
 71
3
 72
11
 73
7
 74
0
 42
0.0000001
 43
0.0000001
 44
0.0000000001
 40
0.0
 40
0.0
 40
0.0
 40
0.0
 40
0.3081908255
 40
0.5757256523
 40
0.8027651807
 40
1.0
 40
1.0
 40
1.0
 40
1.0
 10
32.9882831088
 20
11.4375627005
 30
0.0
 10
32.9883600689
 20
11.4130954142
 30
0.0
 10
32.9914466065
 20
11.3672875261
 30
0.0
 10
33.00691963
 20
11.3050092933
 30
0.0
 10
33.0329546368
 20
11.255829634
 30
0.0
 10
33.0585517982
 20
11.2324696342
 30
0.0
 10
33.0721118631
 20
11.2246392349
 30
0.0
  0
SPLINE
  5
336
100
AcDbEntity
  8
0
100
AcDbSpline
 62
7
  6
BYLAYER
 70
0
 71
3
 72
12
 73
8
 74
0
 42
0.0000001
 43
0.0000001
 44
0.0000000001
 40
0.0
 40
0.0
 40
0.0
 40
0.0
 40
0.2238277437
 40
0.3516864462
 40
0.4857286202
 40
0.7554764768
 40
1.0
 40
1.0
 40
1.0
 40
1.0
 10
33.2806453969
 20
14.2163341361
 30
0.0
 10
33.2402447173
 20
14.1793327305
 30
0.0
 10
33.1840817468
 20
14.1129493111
 30
0.0
 10
33.1208503635
 20
14.0121909658
 30
0.0
 10
33.0615349903
 20
13.8961827026
 30
0.0
 10
33.0074724277
 20
13.746180627
 30
0.0
 10
32.988467465
 20
13.6203185145
 30
0.0
 10
32.9882831088
 20
13.560468985
 30
0.0
  0
SPLINE
  5
337
100
AcDbEntity
  8
0
100
AcDbSpline
 62
7
  6
BYLAYER
 70
0
 71
3
 72
14
 73
10
 74
0
 42
0.0000001
 43
0.0000001
 44
0.0000000001
 40
0.0
 40
0.0
 40
0.0
 40
0.0
 40
0.1095119287
 40
0.2252789693
 40
0.3473518273
 40
0.4744078619
 40
0.6047163137
 40
0.7365795675
 40
1.0
 40
1.0
 40
1.0
 40
1.0
 10
26.0313331316
 20
10.6123589361
 30
0.0
 10
26.0306562317
 20
10.6302185648
 30
0.0
 10
26.036975989
 20
10.6673997363
 30
0.0
 10
26.0633834102
 20
10.7182398085
 30
0.0
 10
26.1026126633
 20
10.7636451775
 30
0.0
 10
26.1515037336
 20
10.8021228115
 30
0.0
 10
26.2069606301
 20
10.8335401318
 30
0.0
 10
26.2868041512
 20
10.8654463757
 30
0.0
 10
26.3503256887
 20
10.8791351163
 30
0.0
 10
26.3928623949
 20
10.8853647943
 30
0.0
  0
SPLINE
  5
338
100
AcDbEntity
  8
0
100
AcDbSpline
 62
7
  6
BYLAYER
 70
0
 71
3
 72
14
 73
10
 74
0
 42
0.0000001
 43
0.0000001
 44
0.0000000001
 40
0.0
 40
0.0
 40
0.0
 40
0.0
 40
0.1097164921
 40
0.2257486504
 40
0.3480749302
 40
0.4750934597
 40
0.6049765435
 40
0.736373718
 40
1.0
 40
1.0
 40
1.0
 40
1.0
 10
26.0313331316
 20
9.5998959389
 30
0.0
 10
26.031483357
 20
9.5695179328
 30
0.0
 10
26.019479324
 20
9.5066265084
 30
0.0
 10
25.9723195408
 20
9.4212349096
 30
0.0
 10
25.902426104
 20
9.346897975
 30
0.0
 10
25.8162797861
 20
9.2859440888
 30
0.0
 10
25.7195963288
 20
9.2380519727
 30
0.0
 10
25.5811411741
 20
9.1924473315
 30
0.0
 10
25.4718084335
 20
9.1781712802
 30
0.0
 10
25.3990011116
 20
9.1729678513
 30
0.0
  0
SPLINE
  5
339
100
AcDbEntity
  8
0
100
AcDbSpline
 62
7
  6
BYLAYER
 70
0
 71
3
 72
11
 73
7
 74
0
 42
0.0000001
 43
0.0000001
 44
0.0000000001
 40
0.0
 40
0.0
 40
0.0
 40
0.0
 40
0.229764491
 40
0.4752776729
 40
0.7334209277
 40
1.0
 40
1.0
 40
1.0
 40
1.0
 10
23.169871217
 20
9.0637553909
 30
0.0
 10
23.1676002444
 20
9.0290662896
 30
0.0
 10
23.1868625465
 20
8.9564672346
 30
0.0
 10
23.2469438996
 20
8.8623864388
 30
0.0
 10
23.3317859856
 20
8.781058175
 30
0.0
 10
23.3980116317
 20
8.736739683
 30
0.0
 10
23.4329414379
 20
8.7165730766
 30
0.0
  0
SPLINE
  5
33A
100
AcDbEntity
  8
0
100
AcDbSpline
 62
7
  6
BYLAYER
 70
0
 71
3
 72
16
 73
12
 74
0
 42
0.0000001
 43
0.0000001
 44
0.0000000001
 40
0.0
 40
0.0
 40
0.0
 40
0.0
 40
0.1361816412
 40
0.2710805382
 40
0.4034041084
 40
0.5323849044
 40
0.6569549393
 40
0.7758892133
 40
0.8890164103
 40
0.9444542412
 40
1.0
 40
1.0
 40
1.0
 40
1.0
 10
23.8829113969
 20
11.5098398155
 30
0.0
 10
23.8431125003
 20
11.510225052
 30
0.0
 10
23.7638493024
 20
11.5096598096
 30
0.0
 10
23.646178805
 20
11.4994119896
 30
0.0
 10
23.532563941
 20
11.4756650149
 30
0.0
 10
23.4253017079
 20
11.4399418561
 30
0.0
 10
23.3274593843
 20
11.3911218283
 30
0.0
 10
23.2443411467
 20
11.3266777007
 30
0.0
 10
23.1944420398
 20
11.2569296384
 30
0.0
 10
23.1724549222
 20
11.1947892588
 30
0.0
 10
23.1691963837
 20
11.1620564541
 30
0.0
 10
23.169871217
 20
11.1458365546
 30
0.0
  0
SPLINE
  5
33B
100
AcDbEntity
  8
0
100
AcDbSpline
 62
7
  6
BYLAYER
 70
0
 71
3
 72
11
 73
7
 74
0
 42
0.0000001
 43
0.0000001
 44
0.0000000001
 40
0.0
 40
0.0
 40
0.0
 40
0.0
 40
0.2528587582
 40
0.4998412555
 40
0.7468201988
 40
1.0
 40
1.0
 40
1.0
 40
1.0
 10
27.7838501202
 20
9.2739481866
 30
0.0
 10
27.783516791
 20
9.2457349418
 30
0.0
 10
27.7912412575
 20
9.189554497
 30
0.0
 10
27.8253785895
 20
9.1124641841
 30
0.0
 10
27.8785911816
 20
9.047073732
 30
0.0
 10
27.9240945932
 20
9.0136903191
 30
0.0
 10
27.9485612268
 20
8.999565697
 30
0.0
  0
SPLINE
  5
33C
100
AcDbEntity
  8
0
100
AcDbSpline
 62
7
  6
BYLAYER
 70
0
 71
3
 72
11
 73
7
 74
0
 42
0.0000001
 43
0.0000001
 44
0.0000000001
 40
0.0
 40
0.0
 40
0.0
 40
0.0
 40
0.2379358659
 40
0.4866129042
 40
0.7420764939
 40
1.0
 40
1.0
 40
1.0
 40
1.0
 10
30.2118147434
 20
12.4445545083
 30
0.0
 10
29.7334813033
 20
12.2663205632
 30
0.0
 10
28.7330174122
 20
11.9595221606
 30
0.0
 10
27.1684711207
 20
11.6519141358
 30
0.0
 10
25.5390272226
 20
11.4920397977
 30
0.0
 10
24.4357706048
 20
11.486737108
 30
0.0
 10
23.8829113969
 20
11.5098398155
 30
0.0
  0
SPLINE
  5
33D
100
AcDbEntity
  8
0
100
AcDbSpline
 62
7
  6
BYLAYER
 70
0
 71
3
 72
15
 73
11
 74
0
 42
0.0000001
 43
0.0000001
 44
0.0000000001
 40
0.0
 40
0.0
 40
0.0
 40
0.0
 40
0.0595487721
 40
0.1250148117
 40
0.2108316679
 40
0.3221179119
 40
0.4600125363
 40
0.6218890134
 40
0.8031869026
 40
1.0
 40
1.0
 40
1.0
 40
1.0
 10
34.7051445224
 20
13.4024180313
 30
0.0
 10
34.7080097127
 20
13.4007621474
 30
0.0
 10
34.7153575923
 20
13.3990785201
 30
0.0
 10
34.7264302298
 20
13.4043408787
 30
0.0
 10
34.7367213447
 20
13.4148210341
 30
0.0
 10
34.7470929646
 20
13.4303783261
 30
0.0
 10
34.7573556592
 20
13.4508199589
 30
0.0
 10
34.7675395652
 20
13.4755562256
 30
0.0
 10
34.777561013
 20
13.5038506521
 30
0.0
 10
34.7838530788
 20
13.5239032002
 30
0.0
 10
34.7869898273
 20
13.5343811354
 30
0.0
  0
SPLINE
  5
33E
100
AcDbEntity
  8
0
100
AcDbSpline
 62
7
  6
BYLAYER
 70
0
 71
3
 72
11
 73
7
 74
0
 42
0.0000001
 43
0.0000001
 44
0.0000000001
 40
0.0
 40
0.0
 40
0.0
 40
0.0
 40
0.2086937493
 40
0.4338323563
 40
0.6960144716
 40
1.0
 40
1.0
 40
1.0
 40
1.0
 10
33.0721118631
 20
11.2246392349
 30
0.0
 10
33.085607219
 20
11.2168462025
 30
0.0
 10
33.1176877818
 20
11.2067844951
 30
0.0
 10
33.1704567143
 20
11.2134377165
 30
0.0
 10
33.2243248687
 20
11.2392863071
 30
0.0
 10
33.2580345689
 20
11.2651561488
 30
0.0
 10
33.2750946261
 20
11.28013031
 30
0.0
  0
SPLINE
  5
33F
100
AcDbEntity
  8
0
100
AcDbSpline
 62
7
  6
BYLAYER
 70
0
 71
3
 72
9
 73
5
 74
0
 42
0.0000001
 43
0.0000001
 44
0.0000000001
 40
0.0
 40
0.0
 40
0.0
 40
0.0
 40
0.4784380033
 40
1.0
 40
1.0
 40
1.0
 40
1.0
 10
27.9485612268
 20
8.999565697
 30
0.0
 10
27.9992720745
 20
8.9702902533
 30
0.0
 10
28.1199670539
 20
8.9331321527
 30
0.0
 10
28.244467436
 20
8.9421332992
 30
0.0
 10
28.3068501049
 20
8.9556603332
 30
0.0
  0
SPLINE
  5
340
100
AcDbEntity
  8
0
100
AcDbSpline
 62
7
  6
BYLAYER
 70
0
 71
3
 72
11
 73
7
 74
0
 42
0.0000001
 43
0.0000001
 44
0.0000000001
 40
0.0
 40
0.0
 40
0.0
 40
0.0
 40
0.2662914181
 40
0.5243549089
 40
0.7700383931
 40
1.0
 40
1.0
 40
1.0
 40
1.0
 10
23.0607689274
 20
45.506458925
 30
0.0
 10
22.377406059
 20
45.5553730707
 30
0.0
 10
21.0353756612
 20
45.7152982252
 30
0.0
 10
19.0977190493
 20
46.1443064471
 30
0.0
 10
17.3054776148
 20
46.7487375741
 30
0.0
 10
16.1976185703
 20
47.2782519835
 30
0.0
 10
15.6837397822
 20
47.5714571358
 30
0.0
  0
SPLINE
  5
341
100
AcDbEntity
  8
0
100
AcDbSpline
 62
7
  6
BYLAYER
 70
0
 71
3
 72
11
 73
7
 74
0
 42
0.0000001
 43
0.0000001
 44
0.0000000001
 40
0.0
 40
0.0
 40
0.0
 40
0.0
 40
0.2471197264
 40
0.4970131878
 40
0.7484200087
 40
1.0
 40
1.0
 40
1.0
 40
1.0
 10
23.4329414379
 20
8.7165730766
 30
0.0
 10
23.4699934004
 20
8.6951812504
 30
0.0
 10
23.5475858194
 20
8.6573695395
 30
0.0
 10
23.6703051382
 20
8.6147370303
 30
0.0
 10
23.7983836867
 20
8.5887926106
 30
0.0
 10
23.8851021401
 20
8.5799730448
 30
0.0
 10
23.9285386588
 20
8.5767482673
 30
0.0
  0
SPLINE
  5
342
100
AcDbEntity
  8
0
100
AcDbSpline
 62
7
  6
BYLAYER
 70
0
 71
3
 72
10
 73
6
 74
0
 42
0.0000001
 43
0.0000001
 44
0.0000000001
 40
0.0
 40
0.0
 40
0.0
 40
0.0
 40
0.2378690438
 40
0.4810750551
 40
1.0
 40
1.0
 40
1.0
 40
1.0
 10
26.4800280024
 20
11.3254103538
 30
0.0
 10
26.4800345543
 20
11.2943611532
 30
0.0
 10
26.4741243888
 20
11.2313989349
 30
0.0
 10
26.4382709128
 20
11.1053169759
 30
0.0
 10
26.3860608716
 20
11.0181019212
 30
0.0
 10
26.3439770721
 20
10.9650258732
 30
0.0
  0
SPLINE
  5
343
100
AcDbEntity
  8
0
100
AcDbSpline
 62
7
  6
BYLAYER
 70
0
 71
3
 72
9
 73
5
 74
0
 42
0.0000001
 43
0.0000001
 44
0.0000000001
 40
0.0
 40
0.0
 40
0.0
 40
0.0
 40
0.238463121
 40
1.0
 40
1.0
 40
1.0
 40
1.0
 10
25.9777269528
 20
10.6787309117
 30
0.0
 10
25.9467454242
 20
10.6627989287
 30
0.0
 10
25.8145536661
 20
10.600429963
 30
0.0
 10
25.674707679
 20
10.5548762532
 30
0.0
 10
25.5666538628
 20
10.5283770057
 30
0.0
  0
SPLINE
  5
344
100
AcDbEntity
  8
0
100
AcDbSpline
 62
7
  6
BYLAYER
 70
0
 71
3
 72
11
 73
7
 74
0
 42
0.0000001
 43
0.0000001
 44
0.0000000001
 40
0.0
 40
0.0
 40
0.0
 40
0.0
 40
0.247057872
 40
0.500850107
 40
0.754221576
 40
1.0
 40
1.0
 40
1.0
 40
1.0
 10
25.5666538628
 20
10.5283770057
 30
0.0
 10
25.4692376282
 20
10.5044865315
 30
0.0
 10
25.2683067661
 20
10.4693290355
 30
0.0
 10
24.9618256411
 20
10.4533743581
 30
0.0
 10
24.656118892
 20
10.4736080797
 30
0.0
 10
24.4563917166
 20
10.5115831584
 30
0.0
 10
24.3598692486
 20
10.5368844881
 30
0.0
  0
SPLINE
  5
345
100
AcDbEntity
  8
0
100
AcDbSpline
 62
7
  6
BYLAYER
 70
0
 71
3
 72
9
 73
5
 74
0
 42
0.0000001
 43
0.0000001
 44
0.0000000001
 40
0.0
 40
0.0
 40
0.0
 40
0.0
 40
0.5180391184
 40
1.0
 40
1.0
 40
1.0
 40
1.0
 10
24.3598692486
 20
10.5368844881
 30
0.0
 10
24.2804542773
 20
10.5577014482
 30
0.0
 10
24.1292716484
 20
10.6066207474
 30
0.0
 10
23.9855424083
 20
10.6748546204
 30
0.0
 10
23.9193946759
 20
10.7130441675
 30
0.0
  0
SPLINE
  5
346
100
AcDbEntity
  8
0
100
AcDbSpline
 62
7
  6
BYLAYER
 70
0
 71
3
 72
26
 73
22
 74
0
 42
0.0000001
 43
0.0000001
 44
0.0000000001
 40
0.0
 40
0.0
 40
0.0
 40
0.0
 40
0.0655055385
 40
0.1344144363
 40
0.2059522973
 40
0.2792234931
 40
0.3532577803
 40
0.427055042
 40
0.4996227666
 40
0.5700151334
 40
0.6373827354
 40
0.7010220913
 40
0.7604331938
 40
0.8153873064
 40
0.8660060017
 40
0.889873959
 40
0.9129071244
 40
0.9352514889
 40
0.9570809424
 40
0.9785929002
 40
1.0
 40
1.0
 40
1.0
 40
1.0
 10
15.9109011451
 20
46.3247356904
 30
0.0
 10
16.4403225168
 20
46.0780487596
 30
0.0
 10
17.5563154598
 20
45.633858147
 30
0.0
 10
19.3237525247
 20
45.1262354873
 30
0.0
 10
21.1979135061
 20
44.7679575466
 30
0.0
 10
23.1410433698
 20
44.5663189443
 30
0.0
 10
25.1142800545
 20
44.525372751
 30
0.0
 10
27.0779850018
 20
44.6460071795
 30
0.0
 10
28.9926912035
 20
44.9258733451
 30
0.0
 10
30.819901482
 20
45.359431152
 30
0.0
 10
32.5229668047
 20
45.9381279843
 30
0.0
 10
34.0678859553
 20
46.6506213052
 30
0.0
 10
35.4240850971
 20
47.4834693055
 30
0.0
 10
36.564380713
 20
48.4209581355
 30
0.0
 10
37.330332877
 20
49.293336896
 30
0.0
 10
37.8033665533
 20
50.0245049523
 30
0.0
 10
38.0839819264
 20
50.5758211337
 30
0.0
 10
38.2956454629
 20
51.1378108207
 30
0.0
 10
38.4370965119
 20
51.7076106003
 30
0.0
 10
38.5073651239
 20
52.2820391467
 30
0.0
 10
38.5065032627
 20
52.6658828369
 30
0.0
 10
38.4942596269
 20
52.856363867
 30
0.0
  0
SPLINE
  5
347
100
AcDbEntity
  8
0
100
AcDbSpline
 62
7
  6
BYLAYER
 70
0
 71
3
 72
29
 73
25
 74
0
 42
0.0000001
 43
0.0000001
 44
0.0000000001
 40
0.0
 40
0.0
 40
0.0
 40
0.0
 40
0.0238988405
 40
0.046961493
 40
0.0694320605
 40
0.0915910041
 40
0.1137393121
 40
0.1361786684
 40
0.1591915646
 40
0.1830250195
 40
0.2078803231
 40
0.2339087291
 40
0.2612119078
 40
0.2898452349
 40
0.3510780181
 40
0.4173615688
 40
0.4879601288
 40
0.5618295235
 40
0.6377197834
 40
0.7142634533
 40
0.7900564743
 40
0.8637360033
 40
0.9340589121
 40
1.0
 40
1.0
 40
1.0
 40
1.0
 10
36.7612118775
 20
55.237738706
 30
0.0
 10
36.8760176436
 20
55.0476015225
 30
0.0
 10
37.0801978902
 20
54.6603936593
 30
0.0
 10
37.3062789018
 20
54.0540649652
 30
0.0
 10
37.4440934573
 20
53.4381043298
 30
0.0
 10
37.4922807518
 20
52.8172084025
 30
0.0
 10
37.4503773685
 20
52.1961385526
 30
0.0
 10
37.3187957618
 20
51.5796963487
 30
0.0
 10
37.098788104
 20
50.9724932036
 30
0.0
 10
36.7922961434
 20
50.3788589995
 30
0.0
 10
36.4018122192
 20
49.8028341442
 30
0.0
 10
35.9303009635
 20
49.2482337034
 30
0.0
 10
35.3811535521
 20
48.7186463424
 30
0.0
 10
34.531664214
 20
48.0354019648
 30
0.0
 10
33.2912366309
 20
47.2704560998
 30
0.0
 10
31.6029113897
 20
46.5243480967
 30
0.0
 10
29.7264470245
 20
45.9485414979
 30
0.0
 10
27.7124010132
 20
45.5583629252
 30
0.0
 10
25.6148702935
 20
45.364159573
 30
0.0
 10
23.4905834049
 20
45.371194107
 30
0.0
 10
21.3970800357
 20
45.5792497617
 30
0.0
 10
19.3908554219
 20
45.9827796016
 30
0.0
 10
17.526421019
 20
46.5707268696
 30
0.0
 10
16.368818096
 20
47.0946071047
 30
0.0
 10
15.8300492421
 20
47.3866668528
 30
0.0
  0
SPLINE
  5
348
100
AcDbEntity
  8
0
100
AcDbSpline
 62
7
  6
BYLAYER
 70
0
 71
3
 72
9
 73
5
 74
0
 42
0.0000001
 43
0.0000001
 44
0.0000000001
 40
0.0
 40
0.0
 40
0.0
 40
0.0
 40
0.5030074226
 40
1.0
 40
1.0
 40
1.0
 40
1.0
 10
37.0436002977
 20
53.8106385919
 30
0.0
 10
37.0985133909
 20
53.6104710854
 30
0.0
 10
37.180133525
 20
53.2043691596
 30
0.0
 10
37.2018207781
 20
52.7906112193
 30
0.0
 10
37.1974304891
 20
52.585577018
 30
0.0
  0
SPLINE
  5
349
100
AcDbEntity
  8
0
100
AcDbSpline
 62
7
  6
BYLAYER
 70
0
 71
3
 72
13
 73
9
 74
0
 42
0.0000001
 43
0.0000001
 44
0.0000000001
 40
0.0
 40
0.0
 40
0.0
 40
0.0
 40
0.0688115246
 40
0.1411752436
 40
0.2288181907
 40
0.3382440037
 40
0.6283970833
 40
1.0
 40
1.0
 40
1.0
 40
1.0
 10
34.6490034369
 20
14.6990500657
 30
0.0
 10
34.6472404032
 20
14.7000692029
 30
0.0
 10
34.6430378942
 20
14.7013326883
 30
0.0
 10
34.6362268565
 20
14.6998133682
 30
0.0
 10
34.629393283
 20
14.6955339425
 30
0.0
 10
34.6190543803
 20
14.6853861986
 30
0.0
 10
34.6063298293
 20
14.6662496542
 30
0.0
 10
34.5971301419
 20
14.6489782982
 30
0.0
 10
34.5921879675
 20
14.639154205
 30
0.0
  0
SPLINE
  5
34A
100
AcDbEntity
  8
0
100
AcDbSpline
 62
7
  6
BYLAYER
 70
0
 71
3
 72
9
 73
5
 74
0
 42
0.0000001
 43
0.0000001
 44
0.0000000001
 40
0.0
 40
0.0
 40
0.0
 40
0.0
 40
0.4969923905
 40
1.0
 40
1.0
 40
1.0
 40
1.0
 10
12.0555179734
 20
52.585577019
 30
0.0
 10
12.051127214
 20
52.7906009322
 30
0.0
 10
12.0728102676
 20
53.2043383384
 30
0.0
 10
12.1544227248
 20
53.6104208252
 30
0.0
 10
12.2093314827
 20
53.8105788976
 30
0.0
  0
SPLINE
  5
34B
100
AcDbEntity
  8
0
100
AcDbSpline
 62
7
  6
BYLAYER
 70
0
 71
3
 72
9
 73
5
 74
0
 42
0.0000001
 43
0.0000001
 44
0.0000000001
 40
0.0
 40
0.0
 40
0.0
 40
0.0
 40
0.2439467766
 40
1.0
 40
1.0
 40
1.0
 40
1.0
 10
17.3433077613
 20
30.4642324364
 30
0.0
 10
17.4286781868
 20
30.4149449133
 30
0.0
 10
17.7816998915
 20
30.2182388411
 30
0.0
 10
18.1462844803
 20
30.0424733853
 30
0.0
 10
18.4264189238
 20
29.9205565104
 30
0.0
  0
SPLINE
  5
34C
100
AcDbEntity
  8
0
100
AcDbSpline
 62
7
  6
BYLAYER
 70
0
 71
3
 72
9
 73
5
 74
0
 42
0.0000001
 43
0.0000001
 44
0.0000000001
 40
0.0
 40
0.0
 40
0.0
 40
0.0
 40
0.2430934404
 40
1.0
 40
1.0
 40
1.0
 40
1.0
 10
16.4016109536
 20
31.0895534908
 30
0.0
 10
16.474360673
 20
31.0338358377
 30
0.0
 10
16.7776684182
 20
30.8099321155
 30
0.0
 10
17.0962129429
 20
30.6068894691
 30
0.0
 10
17.3433077613
 20
30.4642324364
 30
0.0
  0
SPLINE
  5
34D
100
AcDbEntity
  8
0
100
AcDbSpline
 62
7
  6
BYLAYER
 70
0
 71
3
 72
9
 73
5
 74
0
 42
0.0000001
 43
0.0000001
 44
0.0000000001
 40
0.0
 40
0.0
 40
0.0
 40
0.0
 40
0.5033175281
 40
1.0
 40
1.0
 40
1.0
 40
1.0
 10
34.7869898273
 20
13.5343811354
 30
0.0
 10
34.8328464837
 20
13.6936157696
 30
0.0
 10
34.9028017446
 20
14.0165342916
 30
0.0
 10
34.9264711403
 20
14.3461790653
 30
0.0
 10
34.9264684167
 20
14.5097006912
 30
0.0
  0
SPLINE
  5
34E
100
AcDbEntity
  8
0
100
AcDbSpline
 62
7
  6
BYLAYER
 70
0
 71
3
 72
17
 73
13
 74
0
 42
0.0000001
 43
0.0000001
 44
0.0000000001
 40
0.0
 40
0.0
 40
0.0
 40
0.0
 40
0.0542310508
 40
0.1085422341
 40
0.2184258523
 40
0.3318819063
 40
0.4507049124
 40
0.5126057204
 40
0.5763113057
 40
0.7094490202
 40
0.8506907733
 40
1.0
 40
1.0
 40
1.0
 40
1.0
 10
10.7586997178
 20
52.8563636273
 30
0.0
 10
10.7498953503
 20
52.7193615862
 30
0.0
 10
10.7444504427
 20
52.4441950107
 30
0.0
 10
10.7828627224
 20
51.892005728
 30
0.0
 10
10.9253107293
 20
51.1997176593
 30
0.0
 10
11.2421911384
 20
50.389619922
 30
0.0
 10
11.6194573767
 20
49.7441428225
 30
0.0
 10
11.9856794473
 20
49.244942975
 30
0.0
 10
12.4075175037
 20
48.7432893579
 30
0.0
 10
13.0197179229
 20
48.1420356089
 30
0.0
 10
13.8648651703
 20
47.478737121
 30
0.0
 10
14.4864305584
 20
47.0831118297
 30
0.0
 10
14.8137665105
 20
46.8941286051
 30
0.0
  0
SPLINE
  5
34F
100
AcDbEntity
  8
0
100
AcDbSpline
 62
7
  6
BYLAYER
 70
0
 71
3
 72
11
 73
7
 74
0
 42
0.0000001
 43
0.0000001
 44
0.0000000001
 40
0.0
 40
0.0
 40
0.0
 40
0.0
 40
0.2569572393
 40
0.5355410833
 40
0.7933533411
 40
1.0
 40
1.0
 40
1.0
 40
1.0
 10
34.43062619
 20
14.066751061
 30
0.0
 10
34.4306888662
 20
14.1056927282
 30
0.0
 10
34.4379726698
 20
14.1868090116
 30
0.0
 10
34.460093074
 20
14.3051090034
 30
0.0
 10
34.4903045604
 20
14.413717825
 30
0.0
 10
34.5157711192
 20
14.4795791578
 30
0.0
 10
34.5295116902
 20
14.5077209844
 30
0.0
  0
SPLINE
  5
350
100
AcDbEntity
  8
0
100
AcDbSpline
 62
7
  6
BYLAYER
 70
0
 71
3
 72
9
 73
5
 74
0
 42
0.0000001
 43
0.0000001
 44
0.0000000001
 40
0.0
 40
0.0
 40
0.0
 40
0.0
 40
0.2615816664
 40
1.0
 40
1.0
 40
1.0
 40
1.0
 10
33.2750946261
 20
11.28013031
 30
0.0
 10
33.3709329284
 20
11.3656778507
 30
0.0
 10
33.7280170349
 20
11.7027815993
 30
0.0
 10
34.0462084379
 20
12.0826107993
 30
0.0
 10
34.2465223375
 20
12.3849112257
 30
0.0
  0
SPLINE
  5
351
100
AcDbEntity
  8
0
100
AcDbSpline
 62
7
  6
BYLAYER
 70
0
 71
3
 72
9
 73
5
 74
0
 42
0.0000001
 43
0.0000001
 44
0.0000000001
 40
0.0
 40
0.0
 40
0.0
 40
0.0
 40
0.2435987434
 40
1.0
 40
1.0
 40
1.0
 40
1.0
 10
33.4444707082
 20
12.8479654741
 30
0.0
 10
33.4128565495
 20
12.7920469034
 30
0.0
 10
33.2775922624
 20
12.5656155593
 30
0.0
 10
33.121224621
 20
12.3519871395
 30
0.0
 10
32.9939530894
 20
12.1984066184
 30
0.0
  0
SPLINE
  5
352
100
AcDbEntity
  8
0
100
AcDbSpline
 62
7
  6
BYLAYER
 70
0
 71
3
 72
14
 73
10
 74
0
 42
0.0000001
 43
0.0000001
 44
0.0000000001
 40
0.0
 40
0.0
 40
0.0
 40
0.0
 40
0.0982959867
 40
0.2110583298
 40
0.3361447319
 40
0.4698628802
 40
0.7460648004
 40
0.8788684043
 40
1.0
 40
1.0
 40
1.0
 40
1.0
 10
34.2465223375
 20
12.3849112257
 30
0.0
 10
34.2600575872
 20
12.4057051426
 30
0.0
 10
34.2861894638
 20
12.4522780661
 30
0.0
 10
34.3204211129
 20
12.5300172247
 30
0.0
 10
34.3512822058
 20
12.6186735657
 30
0.0
 10
34.3875769198
 20
12.7488025419
 30
0.0
 10
34.4134173099
 20
12.8836777583
 30
0.0
 10
34.4277798993
 20
13.01676104
 30
0.0
 10
34.4306559676
 20
13.0808681805
 30
0.0
 10
34.43062619
 20
13.111443233
 30
0.0
  0
SPLINE
  5
353
100
AcDbEntity
  8
0
100
AcDbSpline
 62
7
  6
BYLAYER
 70
0
 71
3
 72
12
 73
8
 74
0
 42
0.0000001
 43
0.0000001
 44
0.0000000001
 40
0.0
 40
0.0
 40
0.0
 40
0.0
 40
0.2079751083
 40
0.4654335096
 40
0.7433354085
 40
0.8775518619
 40
1.0
 40
1.0
 40
1.0
 40
1.0
 10
33.4444707082
 20
12.8479654741
 30
0.0
 10
33.4701741964
 20
12.8942139093
 30
0.0
 10
33.5148890264
 20
13.0046973056
 30
0.0
 10
33.5622737549
 20
13.1880003878
 30
0.0
 10
33.589684043
 20
13.3564215473
 30
0.0
 10
33.60210073
 20
13.4918866195
 30
0.0
 10
33.6046170377
 20
13.5571917506
 30
0.0
 10
33.604591361
 20
13.5883438749
 30
0.0
  0
SPLINE
  5
354
100
AcDbEntity
  8
0
100
AcDbSpline
 62
7
  6
BYLAYER
 70
0
 71
3
 72
11
 73
7
 74
0
 42
0.0000001
 43
0.0000001
 44
0.0000000001
 40
0.0
 40
0.0
 40
0.0
 40
0.0
 40
0.2897258743
 40
0.5490865021
 40
0.7822189855
 40
1.0
 40
1.0
 40
1.0
 40
1.0
 10
23.9193946759
 20
10.7130441675
 30
0.0
 10
23.8535706678
 20
10.7510468166
 30
0.0
 10
23.7341542192
 20
10.8332858494
 30
0.0
 10
23.5914428229
 20
10.9832776195
 30
0.0
 10
23.5011774116
 20
11.1491942042
 30
0.0
 10
23.4800481051
 20
11.2682777918
 30
0.0
 10
23.4800563169
 20
11.3254103888
 30
0.0
  0
SPLINE
  5
355
100
AcDbEntity
  8
0
100
AcDbSpline
 62
7
  6
BYLAYER
 70
0
 71
3
 72
13
 73
9
 74
0
 42
0.0000001
 43
0.0000001
 44
0.0000000001
 40
0.0
 40
0.0
 40
0.0
 40
0.0
 40
0.2621970196
 40
0.5231355289
 40
0.6506442145
 40
0.7735183417
 40
0.8900878858
 40
1.0
 40
1.0
 40
1.0
 40
1.0
 10
26.3158858574
 20
8.643616172
 30
0.0
 10
26.3857556285
 20
8.652069419
 30
0.0
 10
26.5248481675
 20
8.6778254874
 30
0.0
 10
26.6846296778
 20
8.7550808054
 30
0.0
 10
26.791367768
 20
8.8423031513
 30
0.0
 10
26.8546556557
 20
8.9188043429
 30
0.0
 10
26.8964592397
 20
9.0038120144
 30
0.0
 10
26.9070148662
 20
9.0649090307
 30
0.0
 10
26.9068777235
 20
9.0944114686
 30
0.0
  0
SPLINE
  5
356
100
AcDbEntity
  8
0
100
AcDbSpline
 62
7
  6
BYLAYER
 70
0
 71
3
 72
9
 73
5
 74
0
 42
0.0000001
 43
0.0000001
 44
0.0000000001
 40
0.0
 40
0.0
 40
0.0
 40
0.0
 40
0.2559768067
 40
1.0
 40
1.0
 40
1.0
 40
1.0
 10
28.3068501049
 20
8.9556603332
 30
0.0
 10
28.4730643844
 20
8.9923731596
 30
0.0
 10
29.1199763129
 20
9.1464053815
 30
0.0
 10
29.7569050033
 20
9.3434317267
 30
0.0
 10
30.2204058177
 20
9.5165154853
 30
0.0
  0
SPLINE
  5
357
100
AcDbEntity
  8
0
100
AcDbSpline
 62
7
  6
BYLAYER
 70
0
 71
3
 72
13
 73
9
 74
0
 42
0.0000001
 43
0.0000001
 44
0.0000000001
 40
0.0
 40
0.0
 40
0.0
 40
0.0
 40
0.2474930251
 40
0.3779986475
 40
0.5100613564
 40
0.6409576206
 40
0.7679343852
 40
1.0
 40
1.0
 40
1.0
 40
1.0
 10
30.2204058262
 20
9.5165154819
 30
0.0
 10
30.277577819
 20
9.5385408799
 30
0.0
 10
30.3607199805
 20
9.5850331246
 30
0.0
 10
30.4551290331
 20
9.66933577
 30
0.0
 10
30.5185862159
 20
9.7436297883
 30
0.0
 10
30.5709637985
 20
9.8251327967
 30
0.0
 10
30.6216518457
 20
9.9355296001
 30
0.0
 10
30.6401595828
 20
10.024745859
 30
0.0
 10
30.6406983693
 20
10.0821921096
 30
0.0
  0
SPLINE
  5
358
100
AcDbEntity
  8
0
100
AcDbSpline
 62
7
  6
BYLAYER
 70
0
 71
3
 72
12
 73
8
 74
0
 42
0.0000001
 43
0.0000001
 44
0.0000000001
 40
0.0
 40
0.0
 40
0.0
 40
0.0
 40
0.2243550267
 40
0.3473878083
 40
0.4752960335
 40
0.7377112936
 40
1.0
 40
1.0
 40
1.0
 40
1.0
 10
26.9068777235
 20
10.1068744659
 30
0.0
 10
26.9056059405
 20
10.142530479
 30
0.0
 10
26.9252512478
 20
10.1984346271
 30
0.0
 10
26.9715995894
 20
10.2580912953
 30
0.0
 10
27.0328844103
 20
10.3127743965
 30
0.0
 10
27.1254524716
 20
10.3627592866
 30
0.0
 10
27.2066588288
 20
10.3841427566
 30
0.0
 10
27.2476490227
 20
10.3918646691
 30
0.0
  0
SPLINE
  5
359
100
AcDbEntity
  8
0
100
AcDbSpline
 62
7
  6
BYLAYER
 70
0
 71
3
 72
12
 73
8
 74
0
 42
0.0000001
 43
0.0000001
 44
0.0000000001
 40
0.0
 40
0.0
 40
0.0
 40
0.0
 40
0.0501569706
 40
0.1206011977
 40
0.3275617156
 40
0.6282731646
 40
1.0
 40
1.0
 40
1.0
 40
1.0
 10
14.3958737756
 20
13.9340085322
 30
0.0
 10
14.3933875259
 20
13.9354437164
 30
0.0
 10
14.3885949656
 20
13.9407211142
 30
0.0
 10
14.3795505224
 20
13.9571316419
 30
0.0
 10
14.3695625661
 20
13.9889780311
 30
0.0
 10
14.3596296571
 20
14.0382716121
 30
0.0
 10
14.3540740071
 20
14.0763939914
 30
0.0
 10
14.3513328997
 20
14.097492559
 30
0.0
  0
SPLINE
  5
35A
100
AcDbEntity
  8
0
100
AcDbSpline
 62
7
  6
BYLAYER
 70
0
 71
3
 72
11
 73
7
 74
0
 42
0.0000001
 43
0.0000001
 44
0.0000000001
 40
0.0
 40
0.0
 40
0.0
 40
0.0
 40
0.2742226393
 40
0.5274935085
 40
0.7657548862
 40
1.0
 40
1.0
 40
1.0
 40
1.0
 10
30.6406983693
 20
12.2050983941
 30
0.0
 10
30.6406983693
 20
12.2304935889
 30
0.0
 10
30.6359992648
 20
12.2795554151
 30
0.0
 10
30.6127730834
 20
12.347366851
 30
0.0
 10
30.5739160505
 20
12.4033428122
 30
0.0
 10
30.5388708382
 20
12.4307627353
 30
0.0
 10
30.5200846115
 20
12.4416099527
 30
0.0
  0
ENDSEC
  0
SECTION
  2
OBJECTS
  0
DICTIONARY
  5
C
100
AcDbDictionary
280
0
281
1
  3
ACAD_GROUP
350
D
  3
ACAD_MLINESTYLE
350
17
  3
ACAD_LAYOUT
350
1A
  3
ACAD_PLOTSETTINGS
350
19
  3
ACAD_PLOTSTYLENAME
350
E
  0
DICTIONARY
  5
D
102
{ACAD_REACTORS
330
C
102
}
100
AcDbDictionary
280
0
281
1
  0
ACDBDICTIONARYWDFLT
  5
E
102
{ACAD_REACTORS
330
C
102
}
100
AcDbDictionary
281
1
  3
Normal
350
F
100
AcDbDictionaryWithDefault
340
F
  0
DICTIONARY
  5
17
102
{ACAD_REACTORS
330
C
102
}
100
AcDbDictionary
280
0
281
1
  3
Standard
350
18
  0
DICTIONARY
  5
19
102
{ACAD_REACTORS
330
C
102
}
100
AcDbDictionary
281
1
  0
DICTIONARY
  5
1A
102
{ACAD_REACTORS
330
C
102
}
100
AcDbDictionary
281
1
  3
Model
350
35B
  3
Layout1
350
35C
  0
ACDBPLACEHOLDER
  5
F
102
{ACAD_REACTORS
330
E
102
}
  0
MLINESTYLE
  5
18
102
{ACAD_REACTORS
330
17
102
}
100
AcDbMlineStyle
  2
STANDARD
 70
0
  3

 62
256
 51
90.0
 52
90.0
 71
2
 49
0.5
 62
256
  6
BYLAYER
 49
-0.5
 62
256
  6
BYLAYER
  0
LAYOUT
  5
35B
102
{ACAD_REACTORS
330
1A
102
}
100
AcDbPlotSettings
  1

  2
none_device
  4

  6

 40
0.0
 41
0.0
 42
0.0
 43
0.0
 44
210.0
 45
297.0
 46
0.0
 47
0.0
 48
0.0
 49
0.0
140
0.0
141
0.0
142
1.0
143
1.0
 70
1024
 72
1
 73
0
 74
0
  7

 75
0
147
1.0
148
0.0
149
0.0
100
AcDbLayout
  1
Model
 70
0
 71
0
 10
0.0
 20
0.0
 11
210.0
 21
297.0
 12
0.0
 22
0.0
 32
0.0
 14
0.0
 24
0.0
 34
0.0
 15
0.0
 25
0.0
 35
0.0
146
0.0
 13
0.0
 23
0.0
 33
0.0
 16
1.0
 26
0.0
 36
0.0
 17
0.0
 27
1.0
 37
0.0
 76
0
330
210
345
0
346
0
  0
LAYOUT
  5
35C
102
{ACAD_REACTORS
330
1A
102
}
100
AcDbPlotSettings
  1

  2
none_device
  4

  6

 40
0.0
 41
0.0
 42
0.0
 43
0.0
 44
210.0
 45
297.0
 46
0.0
 47
0.0
 48
0.0
 49
0.0
140
0.0
141
0.0
142
1.0
143
1.0
 70
0
 72
1
 73
0
 74
0
  7

 75
0
147
1.0
148
0.0
149
0.0
100
AcDbLayout
  1
Layout1
 70
0
 71
1
 10
0.0
 20
0.0
 11
210.0
 21
297.0
 12
0.0
 22
0.0
 32
0.0
 14
0.0
 24
0.0
 34
0.0
 15
0.0
 25
0.0
 35
0.0
146
0.0
 13
0.0
 23
0.0
 33
0.0
 16
1.0
 26
0.0
 36
0.0
 17
0.0
 27
1.0
 37
0.0
 76
0
330
211
345
0
346
0
  0
ENDSEC
  0
EOF
