999
DXF file: C:\Users\sesa63760\Dev\_Creo\CAD\MCADID0005553_3D-CAD\drw0001_7.dxf
999
Pro/ENGINEER 2019471 by Parametric Technology Corporation
  0
SECTION
  2
HEADER
  9
$ACADVER
  1
AC1024
  9
$DWGCODEPAGE
  3
ANSI_1252
  9
$EXTMAX
 10
37.795482174
 20
53.4536105033
 30
0.0
  9
$EXTMIN
 10
0.0
 20
0.0
 30
0.0
  9
$LIMMIN
 10
0.0
 20
0.0
  9
$LIMMAX
 10
37.795482174
 20
53.4536105033
  9
$VIEWCTR
 10
18.897741087
 20
26.7268052516
  9
$VIEWSIZE
 40
53.4536105033
  9
$CLAYER
  8
0
  9
$LTSCALE
 40
3.4843834995
  9
$CELTYPE
  6
BYLAYER
  9
$DIMSCALE
 40
1.0
  9
$DIMASZ
 40
0.4499462164
  9
$DIMEXO
 40
1.0
  9
$DIMDLI
 40
2.407392236
  9
$DIMEXE
 40
1.0
  9
$DIMCEN
 40
0.5701718454
  9
$DIMLFAC
 40
1.0
  9
$DIMBLK
  1
_FILLED
  9
$DIMALT
 70
0
  9
$DIMALTF
 40
0.0393700787
  9
$DIMTXT
 40
0.6299247029
  9
$DIMTOL
 70
1
  9
$DIMLIM
 70
0
  9
$DIMTFAC
 40
1.0
  9
$DIMTP
 40
0.01
  9
$DIMTM
 40
0.01
  9
$DIMGAP
 40
0.625
  9
$DIMDSEP
 70
46
  9
$AUNITS
 70
0
  9
$PDMODE
 70
3
  9
$PDSIZE
 40
0.3125
  9
$HANDSEED
  5
280
  9
$TILEMODE
 70
1
  9
$MEASUREMENT
 70
1
  9
$INSUNITS
 70
4
  0
ENDSEC
  0
SECTION
  2
CLASSES
  0
CLASS
  1
ACDBDICTIONARYWDFLT
  2
AcDbDictionaryWithDefault
  3
AutoCAD 2000
 90
0
 91
1
280
0
281
0
  0
CLASS
  1
ACDBPLACEHOLDER
  2
AcDbPlaceHolder
  3
AutoCAD 2000
 90
0
 91
1
280
0
281
0
  0
CLASS
  1
LAYOUT
  2
AcDbLayout
  3
AutoCAD 2000
 90
0
 91
0
280
0
281
0
  0
ENDSEC
  0
SECTION
  2
TABLES
  0
TABLE
  2
VPORT
  5
8
100
AcDbSymbolTable
 70
2
  0
VPORT
  5
1F4
100
AcDbSymbolTableRecord
100
AcDbViewportTableRecord
  2
*ACTIVE
 70
0
 10
0.0
 20
0.0
 11
1.0
 21
1.0
 12
18.897741087
 22
26.7268052516
 13
0.0
 23
0.0
 14
1.0
 24
1.0
 15
0.0
 25
0.0
 16
0.0
 26
0.0
 36
1.0
 17
0.0
 27
0.0
 37
0.0
 40
53.4536105033
 41
0.7070707071
 42
50.0
 43
0.0
 44
0.0
 50
0.0
 51
0.0
 71
0
 72
100
 73
1
 74
1
 75
0
 76
0
 77
0
 78
0
  0
ENDTAB
  0
TABLE
  2
LTYPE
  5
5
100
AcDbSymbolTable
 70
6
  0
LTYPE
  5
14
100
AcDbSymbolTableRecord
100
AcDbLinetypeTableRecord
  2
BYBLOCK
 70
0
  3

 72
65
 73
0
 40
0.0
  0
LTYPE
  5
15
100
AcDbSymbolTableRecord
100
AcDbLinetypeTableRecord
  2
BYLAYER
 70
0
  3

 72
65
 73
0
 40
0.0
  0
LTYPE
  5
16
100
AcDbSymbolTableRecord
100
AcDbLinetypeTableRecord
  2
CONTINUOUS
 70
64
  3
Solid line
 72
65
 73
0
 40
0.0
  0
LTYPE
  5
1F5
100
AcDbSymbolTableRecord
100
AcDbLinetypeTableRecord
  2
CENTER
 70
64
  3
____ _ ____ _ ____ _ ____ _ ____ _ ____ _ ____
 72
65
 73
4
 40
0.6
 49
0.375
 74
0
 49
-0.075
 74
0
 49
0.075
 74
0
 49
-0.075
 74
0
  0
LTYPE
  5
1F6
100
AcDbSymbolTableRecord
100
AcDbLinetypeTableRecord
  2
HIDDEN
 70
64
  3
- - - - - - - - - - - - - - - - - - - -
 72
65
 73
2
 40
0.2
 49
0.1
 74
0
 49
-0.1
 74
0
  0
LTYPE
  5
1F7
100
AcDbSymbolTableRecord
100
AcDbLinetypeTableRecord
  2
PHANTOM
 70
64
  3
_____ _ _ _____ _ _ _____ _ _ _____
 72
65
 73
6
 40
0.8
 49
0.45
 74
0
 49
-0.05
 74
0
 49
0.1
 74
0
 49
-0.05
 74
0
 49
0.1
 74
0
 49
-0.05
 74
0
  0
LTYPE
  5
1F8
100
AcDbSymbolTableRecord
100
AcDbLinetypeTableRecord
  2
DOT
 70
64
  3
. . . . . . . . . . . . . . . . . . . .
 72
65
 73
2
 40
0.2
 49
0.1
 74
0
 49
-0.1
 74
0
  0
LTYPE
  5
1F9
100
AcDbSymbolTableRecord
100
AcDbLinetypeTableRecord
  2
DASHED
 70
64
  3
- - - - - - - - - - - - - - - - - - - -
 72
65
 73
2
 40
0.2
 49
0.1
 74
0
 49
-0.1
 74
0
  0
ENDTAB
  0
TABLE
  2
LAYER
  5
2
100
AcDbSymbolTable
 70
36
  0
LAYER
  5
10
100
AcDbSymbolTableRecord
100
AcDbLayerTableRecord
  2
0
 70
0
 62
7
  6
CONTINUOUS
370
-3
390
F
  0
LAYER
  5
1FA
100
AcDbSymbolTableRecord
100
AcDbLayerTableRecord
  2
DEFAULT_1
 70
0
 62
7
  6
CENTER
370
-3
390
F
  0
LAYER
  5
1FB
100
AcDbSymbolTableRecord
100
AcDbLayerTableRecord
  2
DEFAULT_2
 70
0
 62
7
  6
HIDDEN
370
-3
390
F
  0
LAYER
  5
1FC
100
AcDbSymbolTableRecord
100
AcDbLayerTableRecord
  2
DEFAULT_3
 70
0
 62
7
  6
PHANTOM
370
-3
390
F
  0
LAYER
  5
1FD
100
AcDbSymbolTableRecord
100
AcDbLayerTableRecord
  2
00_COMPONENTS
 70
0
 62
7
  6
CONTINUOUS
370
-3
390
F
  0
LAYER
  5
1FE
100
AcDbSymbolTableRecord
100
AcDbLayerTableRecord
  2
01_1_DEFAULT_DATUMS
 70
0
 62
7
  6
CONTINUOUS
370
-3
390
F
  0
LAYER
  5
1FF
100
AcDbSymbolTableRecord
100
AcDbLayerTableRecord
  2
01_PLANES
 70
0
 62
7
  6
CONTINUOUS
370
-3
390
F
  0
LAYER
  5
200
100
AcDbSymbolTableRecord
100
AcDbLayerTableRecord
  2
02_COORD_SYS
 70
0
 62
7
  6
CONTINUOUS
370
-3
390
F
  0
LAYER
  5
201
100
AcDbSymbolTableRecord
100
AcDbLayerTableRecord
  2
03_AXES
 70
0
 62
7
  6
CONTINUOUS
370
-3
390
F
  0
LAYER
  5
202
100
AcDbSymbolTableRecord
100
AcDbLayerTableRecord
  2
04_POINTS
 70
0
 62
7
  6
CONTINUOUS
370
-3
390
F
  0
LAYER
  5
203
100
AcDbSymbolTableRecord
100
AcDbLayerTableRecord
  2
05_CURVES
 70
0
 62
7
  6
CONTINUOUS
370
-3
390
F
  0
LAYER
  5
204
100
AcDbSymbolTableRecord
100
AcDbLayerTableRecord
  2
06_SURFS
 70
0
 62
7
  6
CONTINUOUS
370
-3
390
F
  0
LAYER
  5
205
100
AcDbSymbolTableRecord
100
AcDbLayerTableRecord
  2
07_COSMETICS
 70
0
 62
7
  6
CONTINUOUS
370
-3
390
F
  0
LAYER
  5
206
100
AcDbSymbolTableRecord
100
AcDbLayerTableRecord
  2
1
 70
0
 62
7
  6
CONTINUOUS
370
-3
390
F
  0
LAYER
  5
207
100
AcDbSymbolTableRecord
100
AcDbLayerTableRecord
  2
10_NOTES
 70
0
 62
7
  6
CONTINUOUS
370
-3
390
F
  0
LAYER
  5
208
100
AcDbSymbolTableRecord
100
AcDbLayerTableRecord
  2
11_NOTES_PUB
 70
0
 62
7
  6
CONTINUOUS
370
-3
390
F
  0
LAYER
  5
209
100
AcDbSymbolTableRecord
100
AcDbLayerTableRecord
  2
13_REF_GTOL
 70
0
 62
7
  6
CONTINUOUS
370
-3
390
F
  0
LAYER
  5
20A
100
AcDbSymbolTableRecord
100
AcDbLayerTableRecord
  2
16_MISC
 70
0
 62
7
  6
CONTINUOUS
370
-3
390
F
  0
LAYER
  5
20B
100
AcDbSymbolTableRecord
100
AcDbLayerTableRecord
  2
17_NO_PRINT
 70
0
 62
7
  6
CONTINUOUS
370
-3
390
F
  0
LAYER
  5
20C
100
AcDbSymbolTableRecord
100
AcDbLayerTableRecord
  2
18_DATUM_CAMS_JOINTS
 70
0
 62
7
  6
CONTINUOUS
370
-3
390
F
  0
LAYER
  5
20D
100
AcDbSymbolTableRecord
100
AcDbLayerTableRecord
  2
19_DATUM_FUNCTIONAL
 70
0
 62
7
  6
CONTINUOUS
370
-3
390
F
  0
LAYER
  5
20E
100
AcDbSymbolTableRecord
100
AcDbLayerTableRecord
  2
20_DATUM_KINEMATIC_SCHEME
 70
0
 62
7
  6
CONTINUOUS
370
-3
390
F
  0
ENDTAB
  0
TABLE
  2
STYLE
  5
3
100
AcDbSymbolTable
 70
1
  0
STYLE
  5
11
100
AcDbSymbolTableRecord
100
AcDbTextStyleTableRecord
  2
STANDARD
 70
0
 40
0.0
 41
1.0
 50
0.0
 71
0
 42
0.2
  3
ARIAL.TTF
  4

  0
STYLE
  5
20F
100
AcDbSymbolTableRecord
100
AcDbTextStyleTableRecord
  2
TEXTSTYLE_1
 70
0
 40
0.0
 41
0.8
 50
0.0
 71
0
 42
0.2
  3
gdt
  4

  0
ENDTAB
  0
TABLE
  2
VIEW
  5
6
100
AcDbSymbolTable
 70
0
  0
ENDTAB
  0
TABLE
  2
UCS
  5
7
100
AcDbSymbolTable
 70
0
  0
ENDTAB
  0
TABLE
  2
APPID
  5
9
100
AcDbSymbolTable
 70
1
  0
APPID
  5
210
100
AcDbSymbolTableRecord
100
AcDbRegAppTableRecord
  2
ACAD
 70
0
  0
ENDTAB
  0
TABLE
  2
BLOCK_RECORD
  5
1
100
AcDbSymbolTable
 70
0
  0
BLOCK_RECORD
  5
211
100
AcDbSymbolTableRecord
100
AcDbBlockTableRecord
  2
*Model_Space
  0
BLOCK_RECORD
  5
212
100
AcDbSymbolTableRecord
100
AcDbBlockTableRecord
  2
*Paper_Space
  0
BLOCK_RECORD
  5
213
100
AcDbSymbolTableRecord
100
AcDbBlockTableRecord
  2
_FILLED
  0
ENDTAB
  0
TABLE
  2
DIMSTYLE
  5
A
100
AcDbSymbolTable
 70
1
100
AcDbDimStyleTable
 71
0
  0
DIMSTYLE
105
214
100
AcDbSymbolTableRecord
100
AcDbDimStyleTableRecord
  2
STANDARD
 70
0
  3

  4

 40
1.0
 41
0.4499462164
 42
1.0
 43
0.38
 44
1.0
 45
0.0
 46
0.0
 47
0.01
 48
0.01
140
0.6299247029
141
0.09
142
0.0
143
25.4
144
1.0
145
0.0
146
1.0
147
0.625
 71
1
 72
0
 73
0
 74
0
 75
0
 76
0
 77
1
 78
8
 79
2
170
0
171
1
172
0
173
0
174
0
175
0
176
0
177
0
178
0
270
2
179
2
271
2
272
2
273
2
274
2
275
0
280
0
281
0
282
0
283
1
284
8
285
0
286
0
287
3
288
0
340
11
278
46
341
213
342
213
343
213
344
213
  0
ENDTAB
  0
ENDSEC
  0
SECTION
  2
BLOCKS
  0
BLOCK
  5
20
100
AcDbEntity
  8
0
100
AcDbBlockBegin
  2
*Model_Space
 70
0
 10
0.0
 20
0.0
 30
0.0
  3
*Model_Space
  1

  0
ENDBLK
  5
21
100
AcDbEntity
  8
0
100
AcDbBlockEnd
  0
BLOCK
  5
1C
100
AcDbEntity
  8
0
100
AcDbBlockBegin
  2
*Paper_Space
 70
0
 10
0.0
 20
0.0
 30
0.0
  3
*Paper_Space
  1

  0
ENDBLK
  5
1D
100
AcDbEntity
  8
0
100
AcDbBlockEnd
  0
BLOCK
  5
215
100
AcDbEntity
  8
0
100
AcDbBlockBegin
  2
_FILLED
 70
64
 10
0.0
 20
0.0
  3
_FILLED
  1

  0
SOLID
  5
216
100
AcDbEntity
  8
0
  6
BYBLOCK
 62
0
100
AcDbTrace
 10
0.0
 20
0.0
 11
-1.0
 21
0.25
 12
-1.0
 22
-0.25
 13
-1.0
 23
-0.25
  0
ENDBLK
  5
217
100
AcDbEntity
  8
0
  6
BYBLOCK
 62
0
100
AcDbBlockEnd
  0
ENDSEC
  0
SECTION
  2
ENTITIES
  0
LINE
  5
218
100
AcDbEntity
  8
1
100
AcDbLine
 62
7
  6
BYLAYER
 10
17.4861047925
 20
5.7722172537
 11
16.0631711216
 21
5.7722306258
  0
LINE
  5
219
100
AcDbEntity
  8
1
100
AcDbLine
 62
7
  6
BYLAYER
 10
21.8631668825
 20
5.7732861688
 11
17.4861047925
 21
5.7722172537
  0
LINE
  5
21A
100
AcDbEntity
  8
1
100
AcDbLine
 62
7
  6
BYLAYER
 10
4.0131677829
 20
18.9676553582
 11
4.0131677829
 21
28.7676553582
  0
LINE
  5
21B
100
AcDbEntity
  8
1
100
AcDbLine
 62
7
  6
BYLAYER
 10
4.1131677829
 20
25.8676553582
 11
4.1131677829
 21
49.4676553582
  0
LINE
  5
21C
100
AcDbEntity
  8
1
100
AcDbLine
 62
7
  6
BYLAYER
 10
4.2981677829
 20
12.9676553582
 11
4.2981677829
 21
18.9676553582
  0
LINE
  5
21D
100
AcDbEntity
  8
1
100
AcDbLine
 62
7
  6
BYLAYER
 10
22.4631677829
 20
10.9162848611
 11
15.4631677829
 21
10.9162848611
  0
LINE
  5
21E
100
AcDbEntity
  8
1
100
AcDbLine
 62
7
  6
BYLAYER
 10
4.9331677829
 20
25.8676553582
 11
4.9331677829
 21
25.7676553582
  0
LINE
  5
21F
100
AcDbEntity
  8
1
100
AcDbLine
 62
7
  6
BYLAYER
 10
5.1131677829
 20
39.480633052
 11
5.1131677829
 21
27.3676553582
  0
LINE
  5
220
100
AcDbEntity
  8
1
100
AcDbLine
 62
7
  6
BYLAYER
 10
5.5961258066
 20
45.1780292233
 11
5.5724082759
 21
40.2954164869
  0
LINE
  5
221
100
AcDbEntity
  8
1
100
AcDbLine
 62
7
  6
BYLAYER
 10
30.5881677829
 20
12.7676553582
 11
7.3381613461
 21
12.7676553582
  0
LINE
  5
222
100
AcDbEntity
  8
1
100
AcDbLine
 62
7
  6
BYLAYER
 10
33.6281677829
 20
12.9676553582
 11
30.5881677829
 21
12.9676553582
  0
LINE
  5
223
100
AcDbEntity
  8
1
100
AcDbLine
 62
7
  6
BYLAYER
 10
7.3381613461
 20
12.9676553582
 11
4.2981677829
 21
12.9676553582
  0
LINE
  5
224
100
AcDbEntity
  8
1
100
AcDbLine
 62
7
  6
BYLAYER
 10
6.7981677829
 20
12.9676553582
 11
6.7981677829
 21
18.9676553582
  0
LINE
  5
225
100
AcDbEntity
  8
1
100
AcDbLine
 62
7
  6
BYLAYER
 10
7.2981677829
 20
12.9676553582
 11
7.2981677829
 21
18.9676553582
  0
LINE
  5
226
100
AcDbEntity
  8
1
100
AcDbLine
 62
7
  6
BYLAYER
 10
7.3381613461
 20
18.9676553582
 11
7.3381613461
 21
12.7676553582
  0
LINE
  5
227
100
AcDbEntity
  8
1
100
AcDbLine
 62
7
  6
BYLAYER
 10
33.6281677829
 20
15.4676553582
 11
31.1281677829
 21
15.4676553582
  0
LINE
  5
228
100
AcDbEntity
  8
1
100
AcDbLine
 62
7
  6
BYLAYER
 10
6.7981677829
 20
15.4676553582
 11
4.2981677829
 21
15.4676553582
  0
LINE
  5
229
100
AcDbEntity
  8
1
100
AcDbLine
 62
7
  6
BYLAYER
 10
11.8492604854
 20
40.2749165031
 11
11.8467184761
 21
42.2549032652
  0
LINE
  5
22A
100
AcDbEntity
  8
1
100
AcDbLine
 62
7
  6
BYLAYER
 10
10.4631677829
 20
18.9676553582
 11
10.4631677829
 21
12.7676553582
  0
LINE
  5
22B
100
AcDbEntity
  8
1
100
AcDbLine
 62
7
  6
BYLAYER
 10
11.8979817122
 20
45.2325517969
 11
11.8738999094
 21
40.2749481364
  0
LINE
  5
22C
100
AcDbEntity
  8
1
100
AcDbLine
 62
7
  6
BYLAYER
 10
11.8979817122
 20
45.2325517969
 11
11.8467184761
 21
42.2549032652
  0
LINE
  5
22D
100
AcDbEntity
  8
1
100
AcDbLine
 62
7
  6
BYLAYER
 10
4.0131677829
 20
18.9676553582
 11
10.4631677829
 21
18.9676553582
  0
LINE
  5
22E
100
AcDbEntity
  8
1
100
AcDbLine
 62
7
  6
BYLAYER
 10
26.0126635748
 20
18.9676553582
 11
33.9131677829
 21
18.9676553582
  0
LINE
  5
22F
100
AcDbEntity
  8
1
100
AcDbLine
 62
7
  6
BYLAYER
 10
12.9131677829
 20
39.480633052
 11
12.9131677829
 21
27.3676553582
  0
LINE
  5
230
100
AcDbEntity
  8
1
100
AcDbLine
 62
7
  6
BYLAYER
 10
13.9131677829
 20
25.8676553582
 11
13.9131677829
 21
49.4676553582
  0
LINE
  5
231
100
AcDbEntity
  8
1
100
AcDbLine
 62
7
  6
BYLAYER
 10
14.0631677829
 20
25.8676553582
 11
14.0631677829
 21
49.4676553582
  0
LINE
  5
232
100
AcDbEntity
  8
1
100
AcDbLine
 62
7
  6
BYLAYER
 10
14.3371543804
 20
25.7676553582
 11
14.3371543804
 21
24.7676553582
  0
LINE
  5
233
100
AcDbEntity
  8
1
100
AcDbLine
 62
7
  6
BYLAYER
 10
15.0631677829
 20
39.480633052
 11
15.0631677829
 21
27.3676553582
  0
LINE
  5
234
100
AcDbEntity
  8
1
100
AcDbLine
 62
7
  6
BYLAYER
 10
15.1631677829
 20
25.3676553582
 11
15.1631677829
 21
24.7676553582
  0
LINE
  5
235
100
AcDbEntity
  8
1
100
AcDbLine
 62
7
  6
BYLAYER
 10
15.4631677829
 20
12.7676553582
 11
15.4631677829
 21
10.9162848611
  0
LINE
  5
236
100
AcDbEntity
  8
1
100
AcDbLine
 62
7
  6
BYLAYER
 10
15.5461258066
 20
45.1780292233
 11
15.5224082759
 21
40.2954164869
  0
LINE
  5
237
100
AcDbEntity
  8
1
100
AcDbLine
 62
7
  6
BYLAYER
 10
16.0631711216
 20
5.7722306249
 11
16.0622349562
 21
10.9162848611
  0
LINE
  5
238
100
AcDbEntity
  8
1
100
AcDbLine
 62
7
  6
BYLAYER
 10
15.8088820686
 20
10.9162848611
 11
15.8088820686
 21
12.7676553582
  0
LINE
  5
239
100
AcDbEntity
  8
1
100
AcDbLine
 62
7
  6
BYLAYER
 10
33.9131677829
 20
24.7676553582
 11
4.0131677829
 21
24.7676553582
  0
LINE
  5
23A
100
AcDbEntity
  8
1
100
AcDbLine
 62
7
  6
BYLAYER
 10
17.4851686246
 20
10.9162848611
 11
17.4861047925
 21
5.7722172537
  0
LINE
  5
23B
100
AcDbEntity
  8
1
100
AcDbLine
 62
7
  6
BYLAYER
 10
18.9994772645
 20
5.7724041783
 11
18.998541061
 21
10.916391387
  0
LINE
  5
23C
100
AcDbEntity
  8
1
100
AcDbLine
 62
7
  6
BYLAYER
 10
15.1631677829
 20
25.3676553582
 11
22.7631677829
 21
25.3676553582
  0
LINE
  5
23D
100
AcDbEntity
  8
1
100
AcDbLine
 62
7
  6
BYLAYER
 10
4.0131677829
 20
25.7676553582
 11
33.9131677829
 21
25.7676553582
  0
LINE
  5
23E
100
AcDbEntity
  8
1
100
AcDbLine
 62
7
  6
BYLAYER
 10
33.8131677829
 20
25.8676553582
 11
24.0131677829
 21
25.8676553582
  0
LINE
  5
23F
100
AcDbEntity
  8
1
100
AcDbLine
 62
7
  6
BYLAYER
 10
4.1131677829
 20
25.8676553582
 11
13.9131677829
 21
25.8676553582
  0
LINE
  5
240
100
AcDbEntity
  8
1
100
AcDbLine
 62
7
  6
BYLAYER
 10
14.0631677829
 20
25.8676553582
 11
23.8631677829
 21
25.8676553582
  0
LINE
  5
241
100
AcDbEntity
  8
1
100
AcDbLine
 62
7
  6
BYLAYER
 10
20.5077814168
 20
5.7727766578
 11
20.5068453508
 21
10.9162848611
  0
LINE
  5
242
100
AcDbEntity
  8
1
100
AcDbLine
 62
7
  6
BYLAYER
 10
32.8131677829
 20
27.3676553582
 11
25.0131677829
 21
27.3676553582
  0
LINE
  5
243
100
AcDbEntity
  8
1
100
AcDbLine
 62
7
  6
BYLAYER
 10
5.1131677829
 20
27.3676553582
 11
12.9131677829
 21
27.3676553582
  0
LINE
  5
244
100
AcDbEntity
  8
1
100
AcDbLine
 62
7
  6
BYLAYER
 10
15.0631677829
 20
27.3676553582
 11
22.8631677829
 21
27.3676553582
  0
LINE
  5
245
100
AcDbEntity
  8
1
100
AcDbLine
 62
7
  6
BYLAYER
 10
33.8131677829
 20
28.2676553582
 11
32.8131677829
 21
28.2676553582
  0
LINE
  5
246
100
AcDbEntity
  8
1
100
AcDbLine
 62
7
  6
BYLAYER
 10
23.8631677829
 20
28.2676553582
 11
22.8631677829
 21
28.2676553582
  0
LINE
  5
247
100
AcDbEntity
  8
1
100
AcDbLine
 62
7
  6
BYLAYER
 10
13.9131677829
 20
28.2676553582
 11
12.9131677829
 21
28.2676553582
  0
LINE
  5
248
100
AcDbEntity
  8
1
100
AcDbLine
 62
7
  6
BYLAYER
 10
4.1131677829
 20
28.2676553582
 11
5.1131677829
 21
28.2676553582
  0
LINE
  5
249
100
AcDbEntity
  8
1
100
AcDbLine
 62
7
  6
BYLAYER
 10
14.0631677829
 20
28.2676553582
 11
15.0631677829
 21
28.2676553582
  0
LINE
  5
24A
100
AcDbEntity
  8
1
100
AcDbLine
 62
7
  6
BYLAYER
 10
24.0131677829
 20
28.2676553582
 11
25.0131677829
 21
28.2676553582
  0
LINE
  5
24B
100
AcDbEntity
  8
1
100
AcDbLine
 62
7
  6
BYLAYER
 10
33.9131677829
 20
28.7676553582
 11
33.8131677829
 21
28.7676553582
  0
LINE
  5
24C
100
AcDbEntity
  8
1
100
AcDbLine
 62
7
  6
BYLAYER
 10
24.0131677829
 20
28.7676553582
 11
23.8631677829
 21
28.7676553582
  0
LINE
  5
24D
100
AcDbEntity
  8
1
100
AcDbLine
 62
7
  6
BYLAYER
 10
14.0631677829
 20
28.7676553582
 11
13.9131677829
 21
28.7676553582
  0
LINE
  5
24E
100
AcDbEntity
  8
1
100
AcDbLine
 62
7
  6
BYLAYER
 10
4.1131677829
 20
28.7676553582
 11
4.0131677829
 21
28.7676553582
  0
LINE
  5
24F
100
AcDbEntity
  8
1
100
AcDbLine
 62
7
  6
BYLAYER
 10
21.7992604854
 20
40.2749165031
 11
21.7967184761
 21
42.2549032652
  0
LINE
  5
250
100
AcDbEntity
  8
1
100
AcDbLine
 62
7
  6
BYLAYER
 10
21.8631668825
 20
5.7732861688
 11
21.8622309092
 21
10.9162848611
  0
LINE
  5
251
100
AcDbEntity
  8
1
100
AcDbLine
 62
7
  6
BYLAYER
 10
22.1174534971
 20
12.7676553582
 11
22.1174534971
 21
10.9162848611
  0
LINE
  5
252
100
AcDbEntity
  8
1
100
AcDbLine
 62
7
  6
BYLAYER
 10
22.4631677829
 20
10.9162848611
 11
22.4631677829
 21
12.7676553582
  0
LINE
  5
253
100
AcDbEntity
  8
1
100
AcDbLine
 62
7
  6
BYLAYER
 10
22.7631677829
 20
25.3676553582
 11
22.7631677829
 21
24.7676553582
  0
LINE
  5
254
100
AcDbEntity
  8
1
100
AcDbLine
 62
7
  6
BYLAYER
 10
21.8479817122
 20
45.2325517969
 11
21.8238999094
 21
40.2749481364
  0
LINE
  5
255
100
AcDbEntity
  8
1
100
AcDbLine
 62
7
  6
BYLAYER
 10
21.8479817122
 20
45.2325517969
 11
21.7967184761
 21
42.2549032652
  0
LINE
  5
256
100
AcDbEntity
  8
1
100
AcDbLine
 62
7
  6
BYLAYER
 10
22.8631677829
 20
39.480633052
 11
22.8631677829
 21
27.3676553582
  0
LINE
  5
257
100
AcDbEntity
  8
1
100
AcDbLine
 62
7
  6
BYLAYER
 10
23.5891811853
 20
24.7676553582
 11
23.5891811853
 21
25.7676553582
  0
LINE
  5
258
100
AcDbEntity
  8
1
100
AcDbLine
 62
7
  6
BYLAYER
 10
23.8631677829
 20
25.8676553582
 11
23.8631677829
 21
49.4676553582
  0
LINE
  5
259
100
AcDbEntity
  8
1
100
AcDbLine
 62
7
  6
BYLAYER
 10
24.0131677829
 20
25.8676553582
 11
24.0131677829
 21
49.4676553582
  0
LINE
  5
25A
100
AcDbEntity
  8
1
100
AcDbLine
 62
7
  6
BYLAYER
 10
26.0283538535
 20
45.2325517969
 11
26.0796170896
 21
42.2549032652
  0
LINE
  5
25B
100
AcDbEntity
  8
1
100
AcDbLine
 62
7
  6
BYLAYER
 10
26.0524356563
 20
40.2749481364
 11
26.0283538535
 21
45.2325517969
  0
LINE
  5
25C
100
AcDbEntity
  8
1
100
AcDbLine
 62
7
  6
BYLAYER
 10
25.0131677829
 20
39.480633052
 11
25.0131677829
 21
27.3676553582
  0
LINE
  5
25D
100
AcDbEntity
  8
1
100
AcDbLine
 62
7
  6
BYLAYER
 10
26.0126635748
 20
12.7676553582
 11
26.0126635748
 21
18.9676553582
  0
LINE
  5
25E
100
AcDbEntity
  8
1
100
AcDbLine
 62
7
  6
BYLAYER
 10
26.0770750803
 20
40.2749165031
 11
26.0796170896
 21
42.2549032652
  0
LINE
  5
25F
100
AcDbEntity
  8
1
100
AcDbLine
 62
7
  6
BYLAYER
 10
30.5881677829
 20
18.9676553582
 11
30.5881677829
 21
12.7676553582
  0
LINE
  5
260
100
AcDbEntity
  8
1
100
AcDbLine
 62
7
  6
BYLAYER
 10
30.6281677829
 20
18.9676553582
 11
30.6281677829
 21
12.9676553582
  0
LINE
  5
261
100
AcDbEntity
  8
1
100
AcDbLine
 62
7
  6
BYLAYER
 10
31.1281677829
 20
12.9676553582
 11
31.1281677829
 21
18.9676553582
  0
LINE
  5
262
100
AcDbEntity
  8
1
100
AcDbLine
 62
7
  6
BYLAYER
 10
33.8131677829
 20
39.480633052
 11
32.8131677829
 21
39.480633052
  0
LINE
  5
263
100
AcDbEntity
  8
1
100
AcDbLine
 62
7
  6
BYLAYER
 10
23.8631677829
 20
39.480633052
 11
22.8631677829
 21
39.480633052
  0
LINE
  5
264
100
AcDbEntity
  8
1
100
AcDbLine
 62
7
  6
BYLAYER
 10
13.9131677829
 20
39.480633052
 11
12.9131677829
 21
39.480633052
  0
LINE
  5
265
100
AcDbEntity
  8
1
100
AcDbLine
 62
7
  6
BYLAYER
 10
4.1131677829
 20
39.480633052
 11
5.1131677829
 21
39.480633052
  0
LINE
  5
266
100
AcDbEntity
  8
1
100
AcDbLine
 62
7
  6
BYLAYER
 10
14.0631677829
 20
39.480633052
 11
15.0631677829
 21
39.480633052
  0
LINE
  5
267
100
AcDbEntity
  8
1
100
AcDbLine
 62
7
  6
BYLAYER
 10
24.0131677829
 20
39.480633052
 11
25.0131677829
 21
39.480633052
  0
LINE
  5
268
100
AcDbEntity
  8
1
100
AcDbLine
 62
7
  6
BYLAYER
 10
32.3302097591
 20
45.1780292233
 11
32.3539272899
 21
40.2954164869
  0
LINE
  5
269
100
AcDbEntity
  8
1
100
AcDbLine
 62
7
  6
BYLAYER
 10
32.8131677829
 20
39.480633052
 11
32.8131677829
 21
27.3676553582
  0
LINE
  5
26A
100
AcDbEntity
  8
1
100
AcDbLine
 62
7
  6
BYLAYER
 10
32.9831677829
 20
25.7676553582
 11
32.9831677829
 21
25.8676553582
  0
LINE
  5
26B
100
AcDbEntity
  8
1
100
AcDbLine
 62
7
  6
BYLAYER
 10
33.6281677829
 20
12.9676553582
 11
33.6281677829
 21
18.9676553582
  0
LINE
  5
26C
100
AcDbEntity
  8
1
100
AcDbLine
 62
7
  6
BYLAYER
 10
32.3539272899
 20
40.2954164869
 11
26.0524356563
 21
40.2749481364
  0
LINE
  5
26D
100
AcDbEntity
  8
1
100
AcDbLine
 62
7
  6
BYLAYER
 10
11.8738999094
 20
40.2749481364
 11
5.5724082759
 21
40.2954164869
  0
LINE
  5
26E
100
AcDbEntity
  8
1
100
AcDbLine
 62
7
  6
BYLAYER
 10
21.8238999094
 20
40.2749481364
 11
15.5224082759
 21
40.2954164869
  0
LINE
  5
26F
100
AcDbEntity
  8
1
100
AcDbLine
 62
7
  6
BYLAYER
 10
33.8131677829
 20
49.4676553582
 11
33.8131677829
 21
25.8676553582
  0
LINE
  5
270
100
AcDbEntity
  8
1
100
AcDbLine
 62
7
  6
BYLAYER
 10
33.9131677829
 20
28.7676553582
 11
33.9131677829
 21
18.9676553582
  0
LINE
  5
271
100
AcDbEntity
  8
1
100
AcDbLine
 62
7
  6
BYLAYER
 10
26.0796170896
 20
42.2549032652
 11
32.3441592424
 21
42.3063169249
  0
LINE
  5
272
100
AcDbEntity
  8
1
100
AcDbLine
 62
7
  6
BYLAYER
 10
11.8467184761
 20
42.2549032652
 11
5.5821763233
 21
42.3063169249
  0
LINE
  5
273
100
AcDbEntity
  8
1
100
AcDbLine
 62
7
  6
BYLAYER
 10
21.7967184761
 20
42.2549032652
 11
15.5321763233
 21
42.3063169249
  0
LINE
  5
274
100
AcDbEntity
  8
1
100
AcDbLine
 62
7
  6
BYLAYER
 10
15.5461258066
 20
45.1780292233
 11
21.8479817122
 21
45.2325517969
  0
LINE
  5
275
100
AcDbEntity
  8
1
100
AcDbLine
 62
7
  6
BYLAYER
 10
5.5961258066
 20
45.1780292233
 11
11.8979817122
 21
45.2325517969
  0
LINE
  5
276
100
AcDbEntity
  8
1
100
AcDbLine
 62
7
  6
BYLAYER
 10
33.8131677829
 20
45.346439229
 11
24.0131677829
 21
45.346439229
  0
LINE
  5
277
100
AcDbEntity
  8
1
100
AcDbLine
 62
7
  6
BYLAYER
 10
4.1131677829
 20
45.346439229
 11
13.9131677829
 21
45.346439229
  0
LINE
  5
278
100
AcDbEntity
  8
1
100
AcDbLine
 62
7
  6
BYLAYER
 10
14.0631677829
 20
45.346439229
 11
23.8631677829
 21
45.346439229
  0
LINE
  5
279
100
AcDbEntity
  8
1
100
AcDbLine
 62
7
  6
BYLAYER
 10
26.0283538535
 20
45.2325517969
 11
32.3302097591
 21
45.1780292233
  0
LINE
  5
27A
100
AcDbEntity
  8
1
100
AcDbLine
 62
7
  6
BYLAYER
 10
33.8131677829
 20
49.4676553582
 11
24.0131677829
 21
49.4676553582
  0
LINE
  5
27B
100
AcDbEntity
  8
1
100
AcDbLine
 62
7
  6
BYLAYER
 10
4.1131677829
 20
49.4676553582
 11
13.9131677829
 21
49.4676553582
  0
LINE
  5
27C
100
AcDbEntity
  8
1
100
AcDbLine
 62
7
  6
BYLAYER
 10
14.0631677829
 20
49.4676553582
 11
23.8631677829
 21
49.4676553582
  0
ARC
  5
27D
100
AcDbEntity
  8
1
100
AcDbCircle
 62
7
  6
BYLAYER
 10
18.9631441926
 20
6.2976553582
 40
2.05
100
AcDbArc
 50
194.8269385547
 51
345.1939159404
  0
ENDSEC
  0
SECTION
  2
OBJECTS
  0
DICTIONARY
  5
C
100
AcDbDictionary
280
0
281
1
  3
ACAD_GROUP
350
D
  3
ACAD_MLINESTYLE
350
17
  3
ACAD_LAYOUT
350
1A
  3
ACAD_PLOTSETTINGS
350
19
  3
ACAD_PLOTSTYLENAME
350
E
  0
DICTIONARY
  5
D
102
{ACAD_REACTORS
330
C
102
}
100
AcDbDictionary
280
0
281
1
  0
ACDBDICTIONARYWDFLT
  5
E
102
{ACAD_REACTORS
330
C
102
}
100
AcDbDictionary
281
1
  3
Normal
350
F
100
AcDbDictionaryWithDefault
340
F
  0
DICTIONARY
  5
17
102
{ACAD_REACTORS
330
C
102
}
100
AcDbDictionary
280
0
281
1
  3
Standard
350
18
  0
DICTIONARY
  5
19
102
{ACAD_REACTORS
330
C
102
}
100
AcDbDictionary
281
1
  0
DICTIONARY
  5
1A
102
{ACAD_REACTORS
330
C
102
}
100
AcDbDictionary
281
1
  3
Model
350
27E
  3
Layout1
350
27F
  0
ACDBPLACEHOLDER
  5
F
102
{ACAD_REACTORS
330
E
102
}
  0
MLINESTYLE
  5
18
102
{ACAD_REACTORS
330
17
102
}
100
AcDbMlineStyle
  2
STANDARD
 70
0
  3

 62
256
 51
90.0
 52
90.0
 71
2
 49
0.5
 62
256
  6
BYLAYER
 49
-0.5
 62
256
  6
BYLAYER
  0
LAYOUT
  5
27E
102
{ACAD_REACTORS
330
1A
102
}
100
AcDbPlotSettings
  1

  2
none_device
  4

  6

 40
0.0
 41
0.0
 42
0.0
 43
0.0
 44
210.0
 45
297.0
 46
0.0
 47
0.0
 48
0.0
 49
0.0
140
0.0
141
0.0
142
1.0
143
1.0
 70
1024
 72
1
 73
0
 74
0
  7

 75
0
147
1.0
148
0.0
149
0.0
100
AcDbLayout
  1
Model
 70
0
 71
0
 10
0.0
 20
0.0
 11
210.0
 21
297.0
 12
0.0
 22
0.0
 32
0.0
 14
0.0
 24
0.0
 34
0.0
 15
0.0
 25
0.0
 35
0.0
146
0.0
 13
0.0
 23
0.0
 33
0.0
 16
1.0
 26
0.0
 36
0.0
 17
0.0
 27
1.0
 37
0.0
 76
0
330
211
345
0
346
0
  0
LAYOUT
  5
27F
102
{ACAD_REACTORS
330
1A
102
}
100
AcDbPlotSettings
  1

  2
none_device
  4

  6

 40
0.0
 41
0.0
 42
0.0
 43
0.0
 44
210.0
 45
297.0
 46
0.0
 47
0.0
 48
0.0
 49
0.0
140
0.0
141
0.0
142
1.0
143
1.0
 70
0
 72
1
 73
0
 74
0
  7

 75
0
147
1.0
148
0.0
149
0.0
100
AcDbLayout
  1
Layout1
 70
0
 71
1
 10
0.0
 20
0.0
 11
210.0
 21
297.0
 12
0.0
 22
0.0
 32
0.0
 14
0.0
 24
0.0
 34
0.0
 15
0.0
 25
0.0
 35
0.0
146
0.0
 13
0.0
 23
0.0
 33
0.0
 16
1.0
 26
0.0
 36
0.0
 17
0.0
 27
1.0
 37
0.0
 76
0
330
212
345
0
346
0
  0
ENDSEC
  0
EOF
