999
DXF file: C:\Users\sesa63760\Dev\_Creo\CAD\MCADPD0003842_3D-CAD\drw0001_5.dxf
999
Pro/ENGINEER 2019471 by Parametric Technology Corporation
  0
SECTION
  2
HEADER
  9
$ACADVER
  1
AC1024
  9
$DWGCODEPAGE
  3
ANSI_1252
  9
$EXTMAX
 10
470.6995884774
 20
665.7037037037
 30
0.0
  9
$EXTMIN
 10
0.0
 20
0.0
 30
0.0
  9
$LIMMIN
 10
0.0
 20
0.0
  9
$LIMMAX
 10
470.6995884774
 20
665.7037037037
  9
$VIEWCTR
 10
235.3497942387
 20
332.8518518519
  9
$VIEWSIZE
 40
665.7037037037
  9
$CLAYER
  8
0
  9
$LTSCALE
 40
43.3940192044
  9
$CELTYPE
  6
BYLAYER
  9
$DIMSCALE
 40
1.0
  9
$DIMASZ
 40
5.6035665295
  9
$DIMEXO
 40
1.0
  9
$DIMDLI
 40
29.9813223594
  9
$DIMEXE
 40
1.0
  9
$DIMCEN
 40
7.1008395062
  9
$DIMLFAC
 40
1.0
  9
$DIMBLK
  1
_FILLED
  9
$DIMALT
 70
0
  9
$DIMALTF
 40
0.0393700787
  9
$DIMTXT
 40
7.8449931413
  9
$DIMTOL
 70
1
  9
$DIMLIM
 70
0
  9
$DIMTFAC
 40
1.0
  9
$DIMTP
 40
0.01
  9
$DIMTM
 40
0.01
  9
$DIMGAP
 40
0.625
  9
$DIMDSEP
 70
46
  9
$AUNITS
 70
0
  9
$PDMODE
 70
3
  9
$PDSIZE
 40
0.3125
  9
$HANDSEED
  5
2D1
  9
$TILEMODE
 70
1
  9
$MEASUREMENT
 70
1
  9
$INSUNITS
 70
4
  0
ENDSEC
  0
SECTION
  2
CLASSES
  0
CLASS
  1
ACDBDICTIONARYWDFLT
  2
AcDbDictionaryWithDefault
  3
AutoCAD 2000
 90
0
 91
1
280
0
281
0
  0
CLASS
  1
ACDBPLACEHOLDER
  2
AcDbPlaceHolder
  3
AutoCAD 2000
 90
0
 91
1
280
0
281
0
  0
CLASS
  1
LAYOUT
  2
AcDbLayout
  3
AutoCAD 2000
 90
0
 91
0
280
0
281
0
  0
ENDSEC
  0
SECTION
  2
TABLES
  0
TABLE
  2
VPORT
  5
8
100
AcDbSymbolTable
 70
2
  0
VPORT
  5
1F4
100
AcDbSymbolTableRecord
100
AcDbViewportTableRecord
  2
*ACTIVE
 70
0
 10
0.0
 20
0.0
 11
1.0
 21
1.0
 12
235.3497942387
 22
332.8518518519
 13
0.0
 23
0.0
 14
1.0
 24
1.0
 15
0.0
 25
0.0
 16
0.0
 26
0.0
 36
1.0
 17
0.0
 27
0.0
 37
0.0
 40
665.7037037037
 41
0.7070707071
 42
50.0
 43
0.0
 44
0.0
 50
0.0
 51
0.0
 71
0
 72
100
 73
1
 74
1
 75
0
 76
0
 77
0
 78
0
  0
ENDTAB
  0
TABLE
  2
LTYPE
  5
5
100
AcDbSymbolTable
 70
6
  0
LTYPE
  5
14
100
AcDbSymbolTableRecord
100
AcDbLinetypeTableRecord
  2
BYBLOCK
 70
0
  3

 72
65
 73
0
 40
0.0
  0
LTYPE
  5
15
100
AcDbSymbolTableRecord
100
AcDbLinetypeTableRecord
  2
BYLAYER
 70
0
  3

 72
65
 73
0
 40
0.0
  0
LTYPE
  5
16
100
AcDbSymbolTableRecord
100
AcDbLinetypeTableRecord
  2
CONTINUOUS
 70
64
  3
Solid line
 72
65
 73
0
 40
0.0
  0
LTYPE
  5
1F5
100
AcDbSymbolTableRecord
100
AcDbLinetypeTableRecord
  2
CENTER
 70
64
  3
____ _ ____ _ ____ _ ____ _ ____ _ ____ _ ____
 72
65
 73
4
 40
0.6
 49
0.375
 74
0
 49
-0.075
 74
0
 49
0.075
 74
0
 49
-0.075
 74
0
  0
LTYPE
  5
1F6
100
AcDbSymbolTableRecord
100
AcDbLinetypeTableRecord
  2
HIDDEN
 70
64
  3
- - - - - - - - - - - - - - - - - - - -
 72
65
 73
2
 40
0.2
 49
0.1
 74
0
 49
-0.1
 74
0
  0
LTYPE
  5
1F7
100
AcDbSymbolTableRecord
100
AcDbLinetypeTableRecord
  2
PHANTOM
 70
64
  3
_____ _ _ _____ _ _ _____ _ _ _____
 72
65
 73
6
 40
0.8
 49
0.45
 74
0
 49
-0.05
 74
0
 49
0.1
 74
0
 49
-0.05
 74
0
 49
0.1
 74
0
 49
-0.05
 74
0
  0
LTYPE
  5
1F8
100
AcDbSymbolTableRecord
100
AcDbLinetypeTableRecord
  2
DOT
 70
64
  3
. . . . . . . . . . . . . . . . . . . .
 72
65
 73
2
 40
0.2
 49
0.1
 74
0
 49
-0.1
 74
0
  0
LTYPE
  5
1F9
100
AcDbSymbolTableRecord
100
AcDbLinetypeTableRecord
  2
DASHED
 70
64
  3
- - - - - - - - - - - - - - - - - - - -
 72
65
 73
2
 40
0.2
 49
0.1
 74
0
 49
-0.1
 74
0
  0
ENDTAB
  0
TABLE
  2
LAYER
  5
2
100
AcDbSymbolTable
 70
36
  0
LAYER
  5
10
100
AcDbSymbolTableRecord
100
AcDbLayerTableRecord
  2
0
 70
0
 62
7
  6
CONTINUOUS
370
-3
390
F
  0
LAYER
  5
1FA
100
AcDbSymbolTableRecord
100
AcDbLayerTableRecord
  2
DEFAULT_1
 70
0
 62
7
  6
CENTER
370
-3
390
F
  0
LAYER
  5
1FB
100
AcDbSymbolTableRecord
100
AcDbLayerTableRecord
  2
DEFAULT_2
 70
0
 62
7
  6
HIDDEN
370
-3
390
F
  0
LAYER
  5
1FC
100
AcDbSymbolTableRecord
100
AcDbLayerTableRecord
  2
DEFAULT_3
 70
0
 62
7
  6
PHANTOM
370
-3
390
F
  0
LAYER
  5
1FD
100
AcDbSymbolTableRecord
100
AcDbLayerTableRecord
  2
00_COMPONENTS
 70
0
 62
7
  6
CONTINUOUS
370
-3
390
F
  0
LAYER
  5
1FE
100
AcDbSymbolTableRecord
100
AcDbLayerTableRecord
  2
01_1_DEFAULT_DATUMS
 70
0
 62
7
  6
CONTINUOUS
370
-3
390
F
  0
LAYER
  5
1FF
100
AcDbSymbolTableRecord
100
AcDbLayerTableRecord
  2
01_PLANES
 70
0
 62
7
  6
CONTINUOUS
370
-3
390
F
  0
LAYER
  5
200
100
AcDbSymbolTableRecord
100
AcDbLayerTableRecord
  2
02_COORD_SYS
 70
0
 62
7
  6
CONTINUOUS
370
-3
390
F
  0
LAYER
  5
201
100
AcDbSymbolTableRecord
100
AcDbLayerTableRecord
  2
03_AXES
 70
0
 62
7
  6
CONTINUOUS
370
-3
390
F
  0
LAYER
  5
202
100
AcDbSymbolTableRecord
100
AcDbLayerTableRecord
  2
04_POINTS
 70
0
 62
7
  6
CONTINUOUS
370
-3
390
F
  0
LAYER
  5
203
100
AcDbSymbolTableRecord
100
AcDbLayerTableRecord
  2
05_CURVES
 70
0
 62
7
  6
CONTINUOUS
370
-3
390
F
  0
LAYER
  5
204
100
AcDbSymbolTableRecord
100
AcDbLayerTableRecord
  2
06_SURFS
 70
0
 62
7
  6
CONTINUOUS
370
-3
390
F
  0
LAYER
  5
205
100
AcDbSymbolTableRecord
100
AcDbLayerTableRecord
  2
07_COSMETICS
 70
0
 62
7
  6
CONTINUOUS
370
-3
390
F
  0
LAYER
  5
206
100
AcDbSymbolTableRecord
100
AcDbLayerTableRecord
  2
10_NOTES
 70
0
 62
7
  6
CONTINUOUS
370
-3
390
F
  0
LAYER
  5
207
100
AcDbSymbolTableRecord
100
AcDbLayerTableRecord
  2
11_NOTES_PUB
 70
0
 62
7
  6
CONTINUOUS
370
-3
390
F
  0
LAYER
  5
208
100
AcDbSymbolTableRecord
100
AcDbLayerTableRecord
  2
13_REF_GTOL
 70
0
 62
7
  6
CONTINUOUS
370
-3
390
F
  0
LAYER
  5
209
100
AcDbSymbolTableRecord
100
AcDbLayerTableRecord
  2
16_MISC
 70
0
 62
7
  6
CONTINUOUS
370
-3
390
F
  0
LAYER
  5
20A
100
AcDbSymbolTableRecord
100
AcDbLayerTableRecord
  2
17_NO_PRINT
 70
0
 62
7
  6
CONTINUOUS
370
-3
390
F
  0
LAYER
  5
20B
100
AcDbSymbolTableRecord
100
AcDbLayerTableRecord
  2
18_DATUM_CAMS_JOINTS
 70
0
 62
7
  6
CONTINUOUS
370
-3
390
F
  0
LAYER
  5
20C
100
AcDbSymbolTableRecord
100
AcDbLayerTableRecord
  2
19_DATUM_FUNCTIONAL
 70
0
 62
7
  6
CONTINUOUS
370
-3
390
F
  0
LAYER
  5
20D
100
AcDbSymbolTableRecord
100
AcDbLayerTableRecord
  2
20_DATUM_KINEMATIC_SCHEME
 70
0
 62
7
  6
CONTINUOUS
370
-3
390
F
  0
ENDTAB
  0
TABLE
  2
STYLE
  5
3
100
AcDbSymbolTable
 70
1
  0
STYLE
  5
11
100
AcDbSymbolTableRecord
100
AcDbTextStyleTableRecord
  2
STANDARD
 70
0
 40
0.0
 41
1.0
 50
0.0
 71
0
 42
0.2
  3
ARIAL.TTF
  4

  0
STYLE
  5
20E
100
AcDbSymbolTableRecord
100
AcDbTextStyleTableRecord
  2
TEXTSTYLE_1
 70
0
 40
0.0
 41
0.8
 50
0.0
 71
0
 42
0.2
  3
gdt
  4

  0
ENDTAB
  0
TABLE
  2
VIEW
  5
6
100
AcDbSymbolTable
 70
0
  0
ENDTAB
  0
TABLE
  2
UCS
  5
7
100
AcDbSymbolTable
 70
0
  0
ENDTAB
  0
TABLE
  2
APPID
  5
9
100
AcDbSymbolTable
 70
1
  0
APPID
  5
20F
100
AcDbSymbolTableRecord
100
AcDbRegAppTableRecord
  2
ACAD
 70
0
  0
ENDTAB
  0
TABLE
  2
BLOCK_RECORD
  5
1
100
AcDbSymbolTable
 70
0
  0
BLOCK_RECORD
  5
210
100
AcDbSymbolTableRecord
100
AcDbBlockTableRecord
  2
*Model_Space
  0
BLOCK_RECORD
  5
211
100
AcDbSymbolTableRecord
100
AcDbBlockTableRecord
  2
*Paper_Space
  0
BLOCK_RECORD
  5
212
100
AcDbSymbolTableRecord
100
AcDbBlockTableRecord
  2
_FILLED
  0
ENDTAB
  0
TABLE
  2
DIMSTYLE
  5
A
100
AcDbSymbolTable
 70
1
100
AcDbDimStyleTable
 71
0
  0
DIMSTYLE
105
213
100
AcDbSymbolTableRecord
100
AcDbDimStyleTableRecord
  2
STANDARD
 70
0
  3

  4

 40
1.0
 41
5.6035665295
 42
1.0
 43
0.38
 44
1.0
 45
0.0
 46
0.0
 47
0.01
 48
0.01
140
7.8449931413
141
0.09
142
0.0
143
25.4
144
1.0
145
0.0
146
1.0
147
0.625
 71
1
 72
0
 73
0
 74
0
 75
0
 76
0
 77
1
 78
8
 79
2
170
0
171
1
172
0
173
0
174
0
175
0
176
0
177
0
178
0
270
2
179
2
271
2
272
2
273
2
274
2
275
0
280
0
281
0
282
0
283
1
284
8
285
0
286
0
287
3
288
0
340
11
278
46
341
212
342
212
343
212
344
212
  0
ENDTAB
  0
ENDSEC
  0
SECTION
  2
BLOCKS
  0
BLOCK
  5
20
100
AcDbEntity
  8
0
100
AcDbBlockBegin
  2
*Model_Space
 70
0
 10
0.0
 20
0.0
 30
0.0
  3
*Model_Space
  1

  0
ENDBLK
  5
21
100
AcDbEntity
  8
0
100
AcDbBlockEnd
  0
BLOCK
  5
1C
100
AcDbEntity
  8
0
100
AcDbBlockBegin
  2
*Paper_Space
 70
0
 10
0.0
 20
0.0
 30
0.0
  3
*Paper_Space
  1

  0
ENDBLK
  5
1D
100
AcDbEntity
  8
0
100
AcDbBlockEnd
  0
BLOCK
  5
214
100
AcDbEntity
  8
0
100
AcDbBlockBegin
  2
_FILLED
 70
64
 10
0.0
 20
0.0
  3
_FILLED
  1

  0
SOLID
  5
215
100
AcDbEntity
  8
0
  6
BYBLOCK
 62
0
100
AcDbTrace
 10
0.0
 20
0.0
 11
-1.0
 21
0.25
 12
-1.0
 22
-0.25
 13
-1.0
 23
-0.25
  0
ENDBLK
  5
216
100
AcDbEntity
  8
0
  6
BYBLOCK
 62
0
100
AcDbBlockEnd
  0
ENDSEC
  0
SECTION
  2
ENTITIES
  0
LINE
  5
217
100
AcDbEntity
  8
0
100
AcDbLine
 62
7
  6
BYLAYER
 10
54.8683127572
 20
364.7662579923
 11
54.8683127572
 21
358.7670753411
  0
LINE
  5
218
100
AcDbEntity
  8
0
100
AcDbLine
 62
7
  6
BYLAYER
 10
55.8683127572
 20
366.7666666667
 11
55.8683127572
 21
356.7666666667
  0
LINE
  5
219
100
AcDbEntity
  8
0
100
AcDbLine
 62
7
  6
BYLAYER
 10
75.8683127572
 20
356.7666666667
 11
75.8683127572
 21
366.7666666667
  0
LINE
  5
21A
100
AcDbEntity
  8
0
100
AcDbLine
 62
7
  6
BYLAYER
 10
54.8683127572
 20
364.7666666667
 11
55.8683127572
 21
366.2666666667
  0
LINE
  5
21B
100
AcDbEntity
  8
0
100
AcDbLine
 62
7
  6
BYLAYER
 10
81.8683127572
 20
356.7666666667
 11
81.8683127572
 21
366.7666666667
  0
LINE
  5
21C
100
AcDbEntity
  8
0
100
AcDbLine
 62
7
  6
BYLAYER
 10
89.8683127572
 20
352.7666666667
 11
89.8683127572
 21
353.7666666667
  0
LINE
  5
21D
100
AcDbEntity
  8
0
100
AcDbLine
 62
7
  6
BYLAYER
 10
89.8683127572
 20
369.7666666667
 11
89.8683127572
 21
370.7666666667
  0
LINE
  5
21E
100
AcDbEntity
  8
0
100
AcDbLine
 62
7
  6
BYLAYER
 10
102.8683127572
 20
247.7666666667
 11
102.8683127572
 21
380.7666512806
  0
LINE
  5
21F
100
AcDbEntity
  8
0
100
AcDbLine
 62
7
  6
BYLAYER
 10
103.8683127572
 20
381.7666666667
 11
103.8683127572
 21
246.7666666667
  0
LINE
  5
220
100
AcDbEntity
  8
0
100
AcDbLine
 62
7
  6
BYLAYER
 10
54.8683127572
 20
358.7666666667
 11
55.8683127572
 21
357.2666666667
  0
LINE
  5
221
100
AcDbEntity
  8
0
100
AcDbLine
 62
7
  6
BYLAYER
 10
115.8683127572
 20
372.5044746773
 11
115.8683127572
 21
345.033466136
  0
LINE
  5
222
100
AcDbEntity
  8
0
100
AcDbLine
 62
7
  6
BYLAYER
 10
116.8683127572
 20
373.9220767723
 11
116.8683127572
 21
343.9060955672
  0
LINE
  5
223
100
AcDbEntity
  8
0
100
AcDbLine
 62
7
  6
BYLAYER
 10
119.3683127572
 20
307.7666666667
 11
119.3683127572
 21
327.7666666667
  0
LINE
  5
224
100
AcDbEntity
  8
0
100
AcDbLine
 62
7
  6
BYLAYER
 10
120.3683127572
 20
326.7666666667
 11
120.3683127572
 21
308.7666666667
  0
LINE
  5
225
100
AcDbEntity
  8
0
100
AcDbLine
 62
7
  6
BYLAYER
 10
125.3683127572
 20
246.7666666667
 11
125.3683127572
 21
307.7666666667
  0
LINE
  5
226
100
AcDbEntity
  8
0
100
AcDbLine
 62
7
  6
BYLAYER
 10
125.3683127572
 20
327.7666666667
 11
125.3683127572
 21
330.7666666667
  0
LINE
  5
227
100
AcDbEntity
  8
0
100
AcDbLine
 62
7
  6
BYLAYER
 10
126.3683127572
 20
329.7666666667
 11
126.3683127572
 21
247.7666666667
  0
LINE
  5
228
100
AcDbEntity
  8
0
100
AcDbLine
 62
7
  6
BYLAYER
 10
87.8683127572
 20
369.7666666667
 11
89.8683127572
 21
370.7666666667
  0
LINE
  5
229
100
AcDbEntity
  8
0
100
AcDbLine
 62
7
  6
BYLAYER
 10
148.8683127572
 20
329.7666666667
 11
148.8683127572
 21
381.7666388711
  0
LINE
  5
22A
100
AcDbEntity
  8
0
100
AcDbLine
 62
7
  6
BYLAYER
 10
154.8683127572
 20
374.7666666667
 11
154.8683127572
 21
348.7666666667
  0
LINE
  5
22B
100
AcDbEntity
  8
0
100
AcDbLine
 62
7
  6
BYLAYER
 10
158.3683127572
 20
348.7666666667
 11
158.3683127572
 21
374.7666666667
  0
LINE
  5
22C
100
AcDbEntity
  8
0
100
AcDbLine
 62
7
  6
BYLAYER
 10
125.3683127572
 20
246.7666666667
 11
103.8683127572
 21
246.7666666667
  0
LINE
  5
22D
100
AcDbEntity
  8
0
100
AcDbLine
 62
7
  6
BYLAYER
 10
102.8683127572
 20
247.7666666667
 11
126.3683127572
 21
247.7666666667
  0
LINE
  5
22E
100
AcDbEntity
  8
0
100
AcDbLine
 62
7
  6
BYLAYER
 10
120.3683127572
 20
326.7666666667
 11
119.3683127572
 21
327.7666666667
  0
LINE
  5
22F
100
AcDbEntity
  8
0
100
AcDbLine
 62
7
  6
BYLAYER
 10
126.3683127572
 20
326.7666666667
 11
125.3683127572
 21
327.7666666667
  0
LINE
  5
230
100
AcDbEntity
  8
0
100
AcDbLine
 62
7
  6
BYLAYER
 10
126.3683127572
 20
329.7666666667
 11
125.3683127572
 21
330.7666666667
  0
LINE
  5
231
100
AcDbEntity
  8
0
100
AcDbLine
 62
7
  6
BYLAYER
 10
120.3683127572
 20
308.7666666667
 11
119.3683127572
 21
307.7666666667
  0
LINE
  5
232
100
AcDbEntity
  8
0
100
AcDbLine
 62
7
  6
BYLAYER
 10
126.3683127572
 20
308.7666666667
 11
125.3683127572
 21
307.7666666667
  0
LINE
  5
233
100
AcDbEntity
  8
0
100
AcDbLine
 62
7
  6
BYLAYER
 10
89.8683127572
 20
352.7666666667
 11
87.8683127572
 21
353.7666666667
  0
LINE
  5
234
100
AcDbEntity
  8
0
100
AcDbLine
 62
7
  6
BYLAYER
 10
354.8683127572
 20
302.5666666667
 11
428.8683127572
 21
302.5666666667
  0
LINE
  5
235
100
AcDbEntity
  8
0
100
AcDbLine
 62
7
  6
BYLAYER
 10
426.3683127572
 20
303.5666666667
 11
428.8683127572
 21
303.5666666667
  0
LINE
  5
236
100
AcDbEntity
  8
0
100
AcDbLine
 62
7
  6
BYLAYER
 10
381.8683127572
 20
305.3166666667
 11
377.8683127572
 21
305.3166666667
  0
LINE
  5
237
100
AcDbEntity
  8
0
100
AcDbLine
 62
7
  6
BYLAYER
 10
428.8683127572
 20
306.7666666667
 11
426.3683127572
 21
306.7666666667
  0
LINE
  5
238
100
AcDbEntity
  8
0
100
AcDbLine
 62
7
  6
BYLAYER
 10
125.3683127572
 20
307.7666666667
 11
119.3683127572
 21
307.7666666667
  0
LINE
  5
239
100
AcDbEntity
  8
0
100
AcDbLine
 62
7
  6
BYLAYER
 10
120.3683127572
 20
308.7666666667
 11
126.3683127572
 21
308.7666666667
  0
LINE
  5
23A
100
AcDbEntity
  8
0
100
AcDbLine
 62
7
  6
BYLAYER
 10
377.8683127572
 20
309.3166666667
 11
381.8683127572
 21
309.3166666667
  0
LINE
  5
23B
100
AcDbEntity
  8
0
100
AcDbLine
 62
7
  6
BYLAYER
 10
428.8683127572
 20
312.2666666667
 11
426.3683127572
 21
312.2666666667
  0
LINE
  5
23C
100
AcDbEntity
  8
0
100
AcDbLine
 62
7
  6
BYLAYER
 10
284.8683127572
 20
320.5666666667
 11
339.8683127572
 21
320.5666666667
  0
LINE
  5
23D
100
AcDbEntity
  8
0
100
AcDbLine
 62
7
  6
BYLAYER
 10
126.3683127572
 20
326.7666666667
 11
120.3683127572
 21
326.7666666667
  0
LINE
  5
23E
100
AcDbEntity
  8
0
100
AcDbLine
 62
7
  6
BYLAYER
 10
304.1183127572
 20
327.5666666667
 11
297.1183127572
 21
327.5666666667
  0
LINE
  5
23F
100
AcDbEntity
  8
0
100
AcDbLine
 62
7
  6
BYLAYER
 10
119.3683127572
 20
327.7666666667
 11
125.3683127572
 21
327.7666666667
  0
LINE
  5
240
100
AcDbEntity
  8
0
100
AcDbLine
 62
7
  6
BYLAYER
 10
148.8683127572
 20
329.7666666667
 11
126.3683127572
 21
329.7666666667
  0
LINE
  5
241
100
AcDbEntity
  8
0
100
AcDbLine
 62
7
  6
BYLAYER
 10
125.3683127572
 20
330.7666666667
 11
148.8683127572
 21
330.7666666667
  0
LINE
  5
242
100
AcDbEntity
  8
0
100
AcDbLine
 62
7
  6
BYLAYER
 10
413.8683127572
 20
334.0666666667
 11
371.8683127572
 21
334.0666666667
  0
LINE
  5
243
100
AcDbEntity
  8
0
100
AcDbLine
 62
7
  6
BYLAYER
 10
293.3683127572
 20
371.5146256378
 11
293.6683127572
 21
371.8146256378
  0
LINE
  5
244
100
AcDbEntity
  8
0
100
AcDbLine
 62
7
  6
BYLAYER
 10
148.8683127572
 20
343.9060955672
 11
116.8683127572
 21
343.9060955672
  0
LINE
  5
245
100
AcDbEntity
  8
0
100
AcDbLine
 62
7
  6
BYLAYER
 10
158.3683127572
 20
348.7666666667
 11
154.8683127572
 21
348.7666666667
  0
LINE
  5
246
100
AcDbEntity
  8
0
100
AcDbLine
 62
7
  6
BYLAYER
 10
297.1183127572
 20
349.0166666667
 11
300.1182357399
 21
349.0166666667
  0
LINE
  5
247
100
AcDbEntity
  8
0
100
AcDbLine
 62
7
  6
BYLAYER
 10
260.2683127572
 20
354.1420454642
 11
260.2683127572
 21
368.9912878691
  0
LINE
  5
248
100
AcDbEntity
  8
0
100
AcDbLine
 62
7
  6
BYLAYER
 10
297.1183127572
 20
350.9666666667
 11
284.8683127572
 21
350.9666666667
  0
LINE
  5
249
100
AcDbEntity
  8
0
100
AcDbLine
 62
7
  6
BYLAYER
 10
281.2683127572
 20
351.0666666667
 11
284.8683127572
 21
351.0666666667
  0
LINE
  5
24A
100
AcDbEntity
  8
0
100
AcDbLine
 62
7
  6
BYLAYER
 10
154.8683127572
 20
351.2666666667
 11
148.8683127572
 21
351.2666666667
  0
LINE
  5
24B
100
AcDbEntity
  8
0
100
AcDbLine
 62
7
  6
BYLAYER
 10
293.6683127572
 20
351.8146256378
 11
296.1183127572
 21
351.8146256378
  0
LINE
  5
24C
100
AcDbEntity
  8
0
100
AcDbLine
 62
7
  6
BYLAYER
 10
300.1183127572
 20
351.8146256378
 11
302.5683127572
 21
351.8146256378
  0
LINE
  5
24D
100
AcDbEntity
  8
0
100
AcDbLine
 62
7
  6
BYLAYER
 10
290.8683127572
 20
353.7166666667
 11
293.3683127572
 21
353.7166666667
  0
LINE
  5
24E
100
AcDbEntity
  8
0
100
AcDbLine
 62
7
  6
BYLAYER
 10
102.8683127572
 20
353.7666666667
 11
81.8683127572
 21
353.7666666667
  0
LINE
  5
24F
100
AcDbEntity
  8
0
100
AcDbLine
 62
7
  6
BYLAYER
 10
260.2683127572
 20
354.1420454642
 11
281.2683127572
 21
354.1420454642
  0
LINE
  5
250
100
AcDbEntity
  8
0
100
AcDbLine
 62
7
  6
BYLAYER
 10
55.8683127572
 20
356.7666666667
 11
78.8683127572
 21
356.7666666667
  0
LINE
  5
251
100
AcDbEntity
  8
0
100
AcDbLine
 62
7
  6
BYLAYER
 10
81.8683127572
 20
356.7666666667
 11
102.8683127572
 21
356.7666666667
  0
LINE
  5
252
100
AcDbEntity
  8
0
100
AcDbLine
 62
7
  6
BYLAYER
 10
158.3683127572
 20
356.7666666667
 11
260.2683127572
 21
356.7666666667
  0
LINE
  5
253
100
AcDbEntity
  8
0
100
AcDbLine
 62
7
  6
BYLAYER
 10
302.8683127572
 20
357.0166666667
 11
304.1183127572
 21
357.0166666667
  0
LINE
  5
254
100
AcDbEntity
  8
0
100
AcDbLine
 62
7
  6
BYLAYER
 10
371.8683127572
 20
357.0166666667
 11
375.8683127572
 21
357.0166666667
  0
LINE
  5
255
100
AcDbEntity
  8
0
100
AcDbLine
 62
7
  6
BYLAYER
 10
342.8683127572
 20
357.0666666667
 11
312.8683127572
 21
357.0666666667
  0
LINE
  5
256
100
AcDbEntity
  8
0
100
AcDbLine
 62
7
  6
BYLAYER
 10
302.8683127572
 20
358.5166666667
 11
304.1183127572
 21
358.5166666667
  0
LINE
  5
257
100
AcDbEntity
  8
0
100
AcDbLine
 62
7
  6
BYLAYER
 10
309.7702524175
 20
358.5166666667
 11
345.9663746103
 21
358.5166666667
  0
LINE
  5
258
100
AcDbEntity
  8
0
100
AcDbLine
 62
7
  6
BYLAYER
 10
371.8683127572
 20
358.5166666667
 11
375.8683127572
 21
358.5166666667
  0
LINE
  5
259
100
AcDbEntity
  8
0
100
AcDbLine
 62
7
  6
BYLAYER
 10
158.3683127572
 20
358.7666666667
 11
260.2683127572
 21
358.7666666667
  0
LINE
  5
25A
100
AcDbEntity
  8
0
100
AcDbLine
 62
7
  6
BYLAYER
 10
56.3683127572
 20
360.1666666667
 11
62.2683127572
 21
360.1666666667
  0
LINE
  5
25B
100
AcDbEntity
  8
0
100
AcDbLine
 62
7
  6
BYLAYER
 10
274.2683127572
 20
368.9912878691
 11
274.2683127572
 21
372.0666666652
  0
LINE
  5
25C
100
AcDbEntity
  8
0
100
AcDbLine
 62
7
  6
BYLAYER
 10
278.0183127572
 20
371.3741892896
 11
278.0183127572
 21
368.9912878691
  0
LINE
  5
25D
100
AcDbEntity
  8
0
100
AcDbLine
 62
7
  6
BYLAYER
 10
281.2683127572
 20
371.3741892896
 11
281.2683127572
 21
351.0666666667
  0
LINE
  5
25E
100
AcDbEntity
  8
0
100
AcDbLine
 62
7
  6
BYLAYER
 10
284.8683127572
 20
320.5666666667
 11
284.8683127572
 21
395.5666666667
  0
LINE
  5
25F
100
AcDbEntity
  8
0
100
AcDbLine
 62
7
  6
BYLAYER
 10
302.8683127572
 20
352.1146256378
 11
302.5683127572
 21
351.8146256378
  0
LINE
  5
260
100
AcDbEntity
  8
0
100
AcDbLine
 62
7
  6
BYLAYER
 10
62.2683127572
 20
363.3666666667
 11
56.3683127572
 21
363.3666666667
  0
LINE
  5
261
100
AcDbEntity
  8
0
100
AcDbLine
 62
7
  6
BYLAYER
 10
158.3683127572
 20
364.7666666667
 11
260.2683127572
 21
364.7666666667
  0
LINE
  5
262
100
AcDbEntity
  8
0
100
AcDbLine
 62
7
  6
BYLAYER
 10
302.8683127572
 20
365.0166666667
 11
304.1183127572
 21
365.0166666667
  0
LINE
  5
263
100
AcDbEntity
  8
0
100
AcDbLine
 62
7
  6
BYLAYER
 10
310.1702634999
 20
365.0166666667
 11
345.5663856923
 21
365.0166666667
  0
LINE
  5
264
100
AcDbEntity
  8
0
100
AcDbLine
 62
7
  6
BYLAYER
 10
371.8683127572
 20
365.0166666667
 11
375.8683127572
 21
365.0166666667
  0
LINE
  5
265
100
AcDbEntity
  8
0
100
AcDbLine
 62
7
  6
BYLAYER
 10
312.8683127572
 20
366.0666666667
 11
342.8683127572
 21
366.0666666667
  0
LINE
  5
266
100
AcDbEntity
  8
0
100
AcDbLine
 62
7
  6
BYLAYER
 10
302.8683127572
 20
366.5166666667
 11
304.1183127572
 21
366.5166666667
  0
LINE
  5
267
100
AcDbEntity
  8
0
100
AcDbLine
 62
7
  6
BYLAYER
 10
371.8683127572
 20
366.5166666667
 11
375.8683127572
 21
366.5166666667
  0
LINE
  5
268
100
AcDbEntity
  8
0
100
AcDbLine
 62
7
  6
BYLAYER
 10
102.8683127572
 20
366.7666666667
 11
81.8683127572
 21
366.7666666667
  0
LINE
  5
269
100
AcDbEntity
  8
0
100
AcDbLine
 62
7
  6
BYLAYER
 10
78.8683127572
 20
366.7666666667
 11
55.8683127572
 21
366.7666666667
  0
LINE
  5
26A
100
AcDbEntity
  8
0
100
AcDbLine
 62
7
  6
BYLAYER
 10
158.3683127572
 20
366.7666666667
 11
260.2683127572
 21
366.7666666667
  0
LINE
  5
26B
100
AcDbEntity
  8
0
100
AcDbLine
 62
7
  6
BYLAYER
 10
115.8683127572
 20
367.4046391245
 11
102.8683127572
 21
367.4046391245
  0
LINE
  5
26C
100
AcDbEntity
  8
0
100
AcDbLine
 62
7
  6
BYLAYER
 10
103.8683127572
 20
368.2296391246
 11
115.8683127572
 21
368.2296391245
  0
LINE
  5
26D
100
AcDbEntity
  8
0
100
AcDbLine
 62
7
  6
BYLAYER
 10
260.2683127572
 20
368.9912878691
 11
281.2683127572
 21
368.9912878691
  0
LINE
  5
26E
100
AcDbEntity
  8
0
100
AcDbLine
 62
7
  6
BYLAYER
 10
81.8683127572
 20
369.7666666667
 11
102.8683127572
 21
369.7666666667
  0
LINE
  5
26F
100
AcDbEntity
  8
0
100
AcDbLine
 62
7
  6
BYLAYER
 10
281.2683127572
 20
371.3741892896
 11
278.0183127572
 21
371.3741892896
  0
LINE
  5
270
100
AcDbEntity
  8
0
100
AcDbLine
 62
7
  6
BYLAYER
 10
293.6683127572
 20
371.8146256378
 11
302.5683127572
 21
371.8146256378
  0
LINE
  5
271
100
AcDbEntity
  8
0
100
AcDbLine
 62
7
  6
BYLAYER
 10
275.5183127572
 20
372.0666666667
 11
274.2683127614
 21
372.0666666667
  0
LINE
  5
272
100
AcDbEntity
  8
0
100
AcDbLine
 62
7
  6
BYLAYER
 10
280.5183127572
 20
372.0666666667
 11
284.8683127572
 21
372.0666666667
  0
LINE
  5
273
100
AcDbEntity
  8
0
100
AcDbLine
 62
7
  6
BYLAYER
 10
154.8683127572
 20
372.2666666667
 11
148.8683127572
 21
372.2666666667
  0
LINE
  5
274
100
AcDbEntity
  8
0
100
AcDbLine
 62
7
  6
BYLAYER
 10
115.8683127572
 20
372.4893062671
 11
103.8683127572
 21
372.4893062671
  0
LINE
  5
275
100
AcDbEntity
  8
0
100
AcDbLine
 62
7
  6
BYLAYER
 10
355.8683127572
 20
372.5666666667
 11
353.8683127572
 21
372.5666666667
  0
LINE
  5
276
100
AcDbEntity
  8
0
100
AcDbLine
 62
7
  6
BYLAYER
 10
103.8683127572
 20
373.9220767723
 11
116.8683127572
 21
373.9220767723
  0
LINE
  5
277
100
AcDbEntity
  8
0
100
AcDbLine
 62
7
  6
BYLAYER
 10
287.3683127572
 20
374.5666666667
 11
290.8683127572
 21
374.5666666667
  0
LINE
  5
278
100
AcDbEntity
  8
0
100
AcDbLine
 62
7
  6
BYLAYER
 10
158.3683127572
 20
374.7666666667
 11
154.8683127572
 21
374.7666666667
  0
LINE
  5
279
100
AcDbEntity
  8
0
100
AcDbLine
 62
7
  6
BYLAYER
 10
287.3683127572
 20
395.5666666667
 11
287.3683127572
 21
320.5666666667
  0
LINE
  5
27A
100
AcDbEntity
  8
0
100
AcDbLine
 62
7
  6
BYLAYER
 10
288.3683127572
 20
388.5666666667
 11
288.3683127572
 21
378.5666666667
  0
LINE
  5
27B
100
AcDbEntity
  8
0
100
AcDbLine
 62
7
  6
BYLAYER
 10
290.8683127572
 20
388.5666666667
 11
290.8683127572
 21
350.9666666667
  0
LINE
  5
27C
100
AcDbEntity
  8
0
100
AcDbLine
 62
7
  6
BYLAYER
 10
293.3683127572
 20
350.9666666667
 11
293.3683127572
 21
388.5666666667
  0
LINE
  5
27D
100
AcDbEntity
  8
0
100
AcDbLine
 62
7
  6
BYLAYER
 10
293.6683127572
 20
371.8146256378
 11
293.6683127572
 21
351.8146256378
  0
LINE
  5
27E
100
AcDbEntity
  8
0
100
AcDbLine
 62
7
  6
BYLAYER
 10
296.1183127572
 20
350.9666666667
 11
296.1183127572
 21
351.8146256378
  0
LINE
  5
27F
100
AcDbEntity
  8
0
100
AcDbLine
 62
7
  6
BYLAYER
 10
297.1183127572
 20
327.5666666667
 11
297.1183127572
 21
350.9666666667
  0
LINE
  5
280
100
AcDbEntity
  8
0
100
AcDbLine
 62
7
  6
BYLAYER
 10
300.3683127572
 20
378.5666666667
 11
293.3683127572
 21
378.5666666667
  0
LINE
  5
281
100
AcDbEntity
  8
0
100
AcDbLine
 62
7
  6
BYLAYER
 10
287.3683127572
 20
378.5666666667
 11
290.8683127572
 21
378.5666666667
  0
LINE
  5
282
100
AcDbEntity
  8
0
100
AcDbLine
 62
7
  6
BYLAYER
 10
353.8683127572
 20
380.5666666667
 11
355.8683127572
 21
380.5666666667
  0
LINE
  5
283
100
AcDbEntity
  8
0
100
AcDbLine
 62
7
  6
BYLAYER
 10
103.8683127572
 20
381.7666666667
 11
148.8683127572
 21
381.7666666667
  0
LINE
  5
284
100
AcDbEntity
  8
0
100
AcDbLine
 62
7
  6
BYLAYER
 10
371.8683127572
 20
382.0666666667
 11
413.8683127572
 21
382.0666666667
  0
LINE
  5
285
100
AcDbEntity
  8
0
100
AcDbLine
 62
7
  6
BYLAYER
 10
290.8683127572
 20
385.7166666667
 11
293.3683127572
 21
385.7166666667
  0
LINE
  5
286
100
AcDbEntity
  8
0
100
AcDbLine
 62
7
  6
BYLAYER
 10
391.6683127572
 20
386.0666666667
 11
389.0683127572
 21
386.0666666667
  0
LINE
  5
287
100
AcDbEntity
  8
0
100
AcDbLine
 62
7
  6
BYLAYER
 10
284.8683127572
 20
388.5666666667
 11
304.1183127572
 21
388.5666666667
  0
LINE
  5
288
100
AcDbEntity
  8
0
100
AcDbLine
 62
7
  6
BYLAYER
 10
293.3683127572
 20
352.1146256378
 11
293.6683127572
 21
351.8146256378
  0
LINE
  5
289
100
AcDbEntity
  8
0
100
AcDbLine
 62
7
  6
BYLAYER
 10
300.1183127572
 20
349.0166666667
 11
300.1183127572
 21
351.8146256378
  0
LINE
  5
28A
100
AcDbEntity
  8
0
100
AcDbLine
 62
7
  6
BYLAYER
 10
302.5683127572
 20
351.8146256378
 11
302.5683127572
 21
371.8146256378
  0
LINE
  5
28B
100
AcDbEntity
  8
0
100
AcDbLine
 62
7
  6
BYLAYER
 10
302.8683127572
 20
352.1146256378
 11
302.8683127572
 21
371.5146256378
  0
LINE
  5
28C
100
AcDbEntity
  8
0
100
AcDbLine
 62
7
  6
BYLAYER
 10
304.1183127572
 20
388.5666666667
 11
304.1183127572
 21
327.5666666667
  0
LINE
  5
28D
100
AcDbEntity
  8
0
100
AcDbLine
 62
7
  6
BYLAYER
 10
389.0683127572
 20
391.4666666667
 11
391.6683127572
 21
391.4666666667
  0
LINE
  5
28E
100
AcDbEntity
  8
0
100
AcDbLine
 62
7
  6
BYLAYER
 10
339.8683127572
 20
395.5666666667
 11
284.8683127572
 21
395.5666666667
  0
LINE
  5
28F
100
AcDbEntity
  8
0
100
AcDbLine
 62
7
  6
BYLAYER
 10
302.8683127572
 20
371.5146256378
 11
302.5683127572
 21
371.8146256378
  0
LINE
  5
290
100
AcDbEntity
  8
0
100
AcDbLine
 62
7
  6
BYLAYER
 10
428.8683127572
 20
410.8666666667
 11
426.3683127572
 21
410.8666666667
  0
LINE
  5
291
100
AcDbEntity
  8
0
100
AcDbLine
 62
7
  6
BYLAYER
 10
381.8683127572
 20
413.8166666667
 11
377.8683127572
 21
413.8166666667
  0
LINE
  5
292
100
AcDbEntity
  8
0
100
AcDbLine
 62
7
  6
BYLAYER
 10
428.8683127572
 20
416.3666666667
 11
426.3683127572
 21
416.3666666667
  0
LINE
  5
293
100
AcDbEntity
  8
0
100
AcDbLine
 62
7
  6
BYLAYER
 10
377.8683127572
 20
417.8166666667
 11
381.8683127572
 21
417.8166666667
  0
LINE
  5
294
100
AcDbEntity
  8
0
100
AcDbLine
 62
7
  6
BYLAYER
 10
428.8683127572
 20
419.5666666667
 11
426.3683127572
 21
419.5666666667
  0
LINE
  5
295
100
AcDbEntity
  8
0
100
AcDbLine
 62
7
  6
BYLAYER
 10
428.8683127572
 20
420.5666666667
 11
354.8683127572
 21
420.5666666667
  0
LINE
  5
296
100
AcDbEntity
  8
0
100
AcDbLine
 62
7
  6
BYLAYER
 10
344.8683127572
 20
315.5666666667
 11
344.8683127572
 21
312.5666666667
  0
LINE
  5
297
100
AcDbEntity
  8
0
100
AcDbLine
 62
7
  6
BYLAYER
 10
344.8683127572
 20
400.5666666667
 11
344.8683127572
 21
410.5666666667
  0
LINE
  5
298
100
AcDbEntity
  8
0
100
AcDbLine
 62
7
  6
BYLAYER
 10
346.0683127572
 20
364.5147237963
 11
346.0683127572
 21
358.6186016037
  0
LINE
  5
299
100
AcDbEntity
  8
0
100
AcDbLine
 62
7
  6
BYLAYER
 10
371.8683127572
 20
334.0666666667
 11
371.8683127572
 21
382.0666666667
  0
LINE
  5
29A
100
AcDbEntity
  8
0
100
AcDbLine
 62
7
  6
BYLAYER
 10
375.8683127572
 20
357.0166666667
 11
375.8683127572
 21
366.5166666667
  0
LINE
  5
29B
100
AcDbEntity
  8
0
100
AcDbLine
 62
7
  6
BYLAYER
 10
413.8683127572
 20
382.0666666667
 11
413.8683127572
 21
334.0666666667
  0
LINE
  5
29C
100
AcDbEntity
  8
0
100
AcDbLine
 62
7
  6
BYLAYER
 10
425.3683127572
 20
302.5666666667
 11
425.3683127572
 21
420.5666666667
  0
LINE
  5
29D
100
AcDbEntity
  8
0
100
AcDbLine
 62
7
  6
BYLAYER
 10
426.3683127572
 20
420.5666666667
 11
426.3683127572
 21
302.5666666667
  0
LINE
  5
29E
100
AcDbEntity
  8
0
100
AcDbLine
 62
7
  6
BYLAYER
 10
428.8683127572
 20
302.5666666667
 11
428.8683127572
 21
420.5666666667
  0
ARC
  5
29F
100
AcDbEntity
  8
0
100
AcDbCircle
 62
7
  6
BYLAYER
 10
103.8683127572
 20
247.7666666667
 40
1.0
100
AcDbArc
 50
180.0
 51
270.0
  0
ARC
  5
2A0
100
AcDbEntity
  8
0
100
AcDbCircle
 62
7
  6
BYLAYER
 10
125.3683127572
 20
247.7666666667
 40
1.0
100
AcDbArc
 50
270.0
 51
360.0
  0
ARC
  5
2A1
100
AcDbEntity
  8
0
100
AcDbCircle
 62
7
  6
BYLAYER
 10
78.8683127572
 20
353.7666666667
 40
3.0
100
AcDbArc
 50
0.0
 51
90.0
  0
ARC
  5
2A2
100
AcDbEntity
  8
0
100
AcDbCircle
 62
7
  6
BYLAYER
 10
78.8683127572
 20
369.7666666667
 40
3.0
100
AcDbArc
 50
270.0
 51
360.0
  0
ARC
  5
2A3
100
AcDbEntity
  8
0
100
AcDbCircle
 62
7
  6
BYLAYER
 10
62.2683127572
 20
361.7666666667
 40
1.6
100
AcDbArc
 50
270.0
 51
90.0
  0
ARC
  5
2A4
100
AcDbEntity
  8
0
100
AcDbCircle
 62
7
  6
BYLAYER
 10
103.8683127572
 20
380.7666666667
 40
1.0
100
AcDbArc
 50
90.0
 51
180.0
  0
ARC
  5
2A5
100
AcDbEntity
  8
0
100
AcDbCircle
 62
7
  6
BYLAYER
 10
56.3683127572
 20
362.8666666667
 40
0.5
100
AcDbArc
 50
89.9999999999
 51
179.9999999999
  0
ARC
  5
2A6
100
AcDbEntity
  8
0
100
AcDbCircle
 62
7
  6
BYLAYER
 10
56.3683127572
 20
360.6666666667
 40
0.5
100
AcDbArc
 50
179.9999999999
 51
270.0
  0
ARC
  5
2A7
100
AcDbEntity
  8
0
100
AcDbCircle
 62
7
  6
BYLAYER
 10
354.8683127572
 20
312.5666666667
 40
10.0
100
AcDbArc
 50
180.0
 51
270.0
  0
CIRCLE
  5
2A8
100
AcDbEntity
  8
0
100
AcDbCircle
 62
7
  6
BYLAYER
 10
376.8683127572
 20
324.8666666667
 40
6.0
  0
ARC
  5
2A9
100
AcDbEntity
  8
0
100
AcDbCircle
 62
7
  6
BYLAYER
 10
339.8683127572
 20
315.5666666667
 40
5.0
100
AcDbArc
 50
0.0
 51
90.0
  0
CIRCLE
  5
2AA
100
AcDbEntity
  8
0
100
AcDbCircle
 62
7
  6
BYLAYER
 10
378.0183127572
 20
324.9166666667
 40
4.25
  0
ARC
  5
2AB
100
AcDbEntity
  8
0
100
AcDbCircle
 62
7
  6
BYLAYER
 10
380.0683127572
 20
307.5666666667
 40
2.25
100
AcDbArc
 50
131.0849273729
 51
48.8681046681
  0
ARC
  5
2AC
100
AcDbEntity
  8
0
100
AcDbCircle
 62
7
  6
BYLAYER
 10
377.8683127572
 20
307.3166666667
 40
2.0
100
AcDbArc
 50
90.0
 51
270.0
  0
ARC
  5
2AD
100
AcDbEntity
  8
0
100
AcDbCircle
 62
7
  6
BYLAYER
 10
381.8683127572
 20
307.3166666667
 40
2.0
100
AcDbArc
 50
270.0
 51
90.0
  0
ARC
  5
2AE
100
AcDbEntity
  8
0
100
AcDbCircle
 62
7
  6
BYLAYER
 10
354.8683127572
 20
410.5666666667
 40
10.0
100
AcDbArc
 50
90.0
 51
180.0
  0
CIRCLE
  5
2AF
100
AcDbEntity
  8
0
100
AcDbCircle
 62
7
  6
BYLAYER
 10
376.8683127572
 20
398.2666666667
 40
6.0
  0
ARC
  5
2B0
100
AcDbEntity
  8
0
100
AcDbCircle
 62
7
  6
BYLAYER
 10
376.8683127572
 20
377.0666666667
 40
5.0
100
AcDbArc
 50
90.0
 51
180.0
  0
ARC
  5
2B1
100
AcDbEntity
  8
0
100
AcDbCircle
 62
7
  6
BYLAYER
 10
376.8683127572
 20
339.0666666667
 40
5.0
100
AcDbArc
 50
180.0
 51
270.0
  0
ARC
  5
2B2
100
AcDbEntity
  8
0
100
AcDbCircle
 62
7
  6
BYLAYER
 10
408.8683127572
 20
339.0666666667
 40
5.0
100
AcDbArc
 50
270.0
 51
360.0
  0
ARC
  5
2B3
100
AcDbEntity
  8
0
100
AcDbCircle
 62
7
  6
BYLAYER
 10
408.8683127572
 20
377.0666666667
 40
5.0
100
AcDbArc
 50
0.0
 51
90.0
  0
ARC
  5
2B4
100
AcDbEntity
  8
0
100
AcDbCircle
 62
7
  6
BYLAYER
 10
339.8683127572
 20
400.5666666667
 40
5.0
100
AcDbArc
 50
270.0
 51
360.0
  0
ARC
  5
2B5
100
AcDbEntity
  8
0
100
AcDbCircle
 62
7
  6
BYLAYER
 10
342.8683127572
 20
361.5666666667
 40
4.5
100
AcDbArc
 50
270.0
 51
90.0
  0
ARC
  5
2B6
100
AcDbEntity
  8
0
100
AcDbCircle
 62
7
  6
BYLAYER
 10
312.8683127572
 20
361.5666666667
 40
4.5
100
AcDbArc
 50
90.0
 51
270.0
  0
ARC
  5
2B7
100
AcDbEntity
  8
0
100
AcDbCircle
 62
7
  6
BYLAYER
 10
356.8183127572
 20
377.0666666667
 40
4.25
100
AcDbArc
 50
127.2254384825
 51
270.0
  0
CIRCLE
  5
2B8
100
AcDbEntity
  8
0
100
AcDbCircle
 62
7
  6
BYLAYER
 10
378.0183127572
 20
398.2166666667
 40
4.25
  0
ARC
  5
2B9
100
AcDbEntity
  8
0
100
AcDbCircle
 62
7
  6
BYLAYER
 10
355.8683127572
 20
376.5666666667
 40
4.0
100
AcDbArc
 50
270.0
 51
90.0
  0
ARC
  5
2BA
100
AcDbEntity
  8
0
100
AcDbCircle
 62
7
  6
BYLAYER
 10
353.8683127572
 20
376.5666666667
 40
4.0
100
AcDbArc
 50
90.0
 51
270.0
  0
ARC
  5
2BB
100
AcDbEntity
  8
0
100
AcDbCircle
 62
7
  6
BYLAYER
 10
300.3683127572
 20
382.5666666667
 40
4.0
100
AcDbArc
 50
270.0
 51
345.9838503312
  0
ARC
  5
2BC
100
AcDbEntity
  8
0
100
AcDbCircle
 62
7
  6
BYLAYER
 10
391.8183127572
 20
388.5666666667
 40
2.75
100
AcDbArc
 50
45.9083667402
 51
239.8430873409
  0
ARC
  5
2BD
100
AcDbEntity
  8
0
100
AcDbCircle
 62
7
  6
BYLAYER
 10
391.6683127572
 20
388.7666666667
 40
2.7
100
AcDbArc
 50
270.0
 51
90.0
  0
ARC
  5
2BE
100
AcDbEntity
  8
0
100
AcDbCircle
 62
7
  6
BYLAYER
 10
389.0683127572
 20
388.7666666667
 40
2.7
100
AcDbArc
 50
90.0
 51
270.0
  0
ARC
  5
2BF
100
AcDbEntity
  8
0
100
AcDbCircle
 62
7
  6
BYLAYER
 10
380.0683127572
 20
415.5666666667
 40
2.25
100
AcDbArc
 50
311.0849273729
 51
228.8681046681
  0
ARC
  5
2C0
100
AcDbEntity
  8
0
100
AcDbCircle
 62
7
  6
BYLAYER
 10
381.8683127572
 20
415.8166666667
 40
2.0
100
AcDbArc
 50
270.0
 51
90.0
  0
ARC
  5
2C1
100
AcDbEntity
  8
0
100
AcDbCircle
 62
7
  6
BYLAYER
 10
377.8683127572
 20
415.8166666667
 40
2.0
100
AcDbArc
 50
90.0
 51
270.0
  0
SPLINE
  5
2C2
100
AcDbEntity
  8
0
100
AcDbSpline
 62
7
  6
BYLAYER
 70
0
 71
3
 72
27
 73
23
 74
0
 42
0.0000001
 43
0.0000001
 44
0.0000000001
 40
0.0
 40
0.0
 40
0.0
 40
0.0
 40
0.0003060759
 40
0.0012242377
 40
0.0027544766
 40
0.0048967838
 40
0.0076507707
 40
0.0110135612
 40
0.0195500498
 40
0.0304752669
 40
0.0437582919
 40
0.0593668906
 40
0.0772541815
 40
0.119642233
 40
0.1704692445
 40
0.229194956
 40
0.2952299078
 40
0.367931019
 40
0.446613158
 40
0.618911679
 40
0.8057393054
 40
1.0
 40
1.0
 40
1.0
 40
1.0
 10
296.1183226951
 20
351.8146119987
 30
0.0
 10
296.1183562461
 20
351.8148146573
 30
0.0
 10
296.1195706085
 20
351.8145808297
 30
0.0
 10
296.120988436
 20
351.8153252489
 30
0.0
 10
296.1242346802
 20
351.815712037
 30
0.0
 10
296.1283644037
 20
351.8166542936
 30
0.0
 10
296.1338381929
 20
351.8177043123
 30
0.0
 10
296.143464035
 20
351.8196461936
 30
0.0
 10
296.1585022419
 20
351.8226113578
 30
0.0
 10
296.180063873
 20
351.8268374651
 30
0.0
 10
296.2063037647
 20
351.8319002559
 30
0.0
 10
296.2371452165
 20
351.8377661248
 30
0.0
 10
296.2872073352
 20
351.8471193925
 30
0.0
 10
296.3605825829
 20
351.8603860218
 30
0.0
 10
296.4610780745
 20
351.8776857649
 30
0.0
 10
296.5774133109
 20
351.8964877228
 30
0.0
 10
296.7084858997
 20
351.9160626193
 30
0.0
 10
296.8530819789
 20
351.9356841327
 30
0.0
 10
297.0687580401
 20
351.9617007107
 30
0.0
 10
297.3613146498
 20
351.9896702341
 30
0.0
 10
297.732148289
 20
352.0115532526
 30
0.0
 10
297.9879383665
 20
352.0166666667
 30
0.0
 10
298.1183127572
 20
352.0166666667
 30
0.0
  0
SPLINE
  5
2C3
100
AcDbEntity
  8
0
100
AcDbSpline
 62
7
  6
BYLAYER
 70
0
 71
3
 72
27
 73
23
 74
0
 42
0.0000001
 43
0.0000001
 44
0.0000000001
 40
0.0
 40
0.0
 40
0.0
 40
0.0
 40
0.1942604886
 40
0.3810826886
 40
0.5533770419
 40
0.6320579872
 40
0.7047598177
 40
0.7707959985
 40
0.8295241513
 40
0.8803531811
 40
0.9227432337
 40
0.9406314274
 40
0.9562406672
 40
0.9695241105
 40
0.9804496114
 40
0.98898631
 40
0.9923491966
 40
0.9951032825
 40
0.9972456439
 40
0.998775877
 40
0.9996939922
 40
1.0
 40
1.0
 40
1.0
 40
1.0
 10
298.1183127572
 20
352.0166666667
 30
0.0
 10
298.2486870307
 20
352.0166666667
 30
0.0
 10
298.5044733907
 20
352.0115540865
 30
0.0
 10
298.8753004979
 20
351.9896713724
 30
0.0
 10
299.1678501549
 20
351.9617046733
 30
0.0
 10
299.3835231161
 20
351.9356880497
 30
0.0
 10
299.5281196549
 20
351.916065988
 30
0.0
 10
299.6591950361
 20
351.8964896373
 30
0.0
 10
299.7755338722
 20
351.8776860432
 30
0.0
 10
299.8760339512
 20
351.8603870462
 30
0.0
 10
299.9494127141
 20
351.8471219166
 30
0.0
 10
299.9994773745
 20
351.8377680994
 30
0.0
 10
300.0303198883
 20
351.8319034339
 30
0.0
 10
300.0565611915
 20
351.8268352668
 30
0.0
 10
300.0781214195
 20
351.8226206837
 30
0.0
 10
300.0931640406
 20
351.819625591
 30
0.0
 10
300.1027836302
 20
351.8177275578
 30
0.0
 10
300.1082710211
 20
351.8165839597
 30
0.0
 10
300.1123660119
 20
351.8158825472
 30
0.0
 10
300.115691045
 20
351.8149509347
 30
0.0
 10
300.1169707503
 20
351.8151624462
 30
0.0
 10
300.1183279718
 20
351.8144073579
 30
0.0
 10
300.1183028754
 20
351.8146111901
 30
0.0
  0
SPLINE
  5
2C4
100
AcDbEntity
  8
0
100
AcDbSpline
 62
7
  6
BYLAYER
 70
0
 71
3
 72
34
 73
30
 74
0
 42
0.0000001
 43
0.0000001
 44
0.0000000001
 40
0.0
 40
0.0
 40
0.0
 40
0.0
 40
0.0006185357
 40
0.0024691827
 40
0.0055445152
 40
0.0098371175
 40
0.0220249196
 40
0.0388645151
 40
0.0601563303
 40
0.0856496542
 40
0.1150703178
 40
0.1481173301
 40
0.2237824842
 40
0.3098173723
 40
0.4999813201
 40
0.5969489599
 40
0.6901918362
 40
0.7762193545
 40
0.8518813651
 40
0.88492794
 40
0.9143486229
 40
0.939842444
 40
0.9611341584
 40
0.9779732816
 40
0.9901610297
 40
0.9944540251
 40
0.9975299842
 40
0.9993812111
 40
1.0
 40
1.0
 40
1.0
 40
1.0
 10
275.5183127849
 20
372.0666666667
 30
0.0
 10
275.5193534402
 20
372.066662251
 30
0.0
 10
275.5233237243
 20
372.0651152174
 30
0.0
 10
275.5324665685
 20
372.0635162572
 30
0.0
 10
275.5475233257
 20
372.0596363339
 30
0.0
 10
275.5795794347
 20
372.0523162824
 30
0.0
 10
275.634180206
 20
372.039541279
 30
0.0
 10
275.7167971908
 20
372.0210807465
 30
0.0
 10
275.8214257442
 20
371.9984398856
 30
0.0
 10
275.9470196163
 20
371.9726448032
 30
0.0
 10
276.0923352943
 20
371.9446056134
 30
0.0
 10
276.3211264286
 20
371.9037552378
 30
0.0
 10
276.6450846902
 20
371.8541484313
 30
0.0
 10
277.2333438833
 20
371.7867384201
 30
0.0
 10
277.8615840455
 20
371.7570080033
 30
0.0
 10
278.5015537111
 20
371.7724216531
 30
0.0
 10
278.9653229195
 20
371.8053087774
 30
0.0
 10
279.3915617474
 20
371.8541536463
 30
0.0
 10
279.7155005551
 20
371.903755454
 30
0.0
 10
279.9442766462
 20
371.9446024052
 30
0.0
 10
280.0896169495
 20
371.9726465785
 30
0.0
 10
280.2151372885
 20
371.9984254088
 30
0.0
 10
280.3199768479
 20
372.0211139927
 30
0.0
 10
280.4020385504
 20
372.0394494889
 30
0.0
 10
280.457805469
 20
372.0524917451
 30
0.0
 10
280.4882812875
 20
372.0594504618
 30
0.0
 10
280.5059579715
 20
372.0639275399
 30
0.0
 10
280.510465122
 20
372.064468322
 30
0.0
 10
280.5192526915
 20
372.0671142665
 30
0.0
 10
280.5183127318
 20
372.0666666667
 30
0.0
  0
SPLINE
  5
2C5
100
AcDbEntity
  8
0
100
AcDbSpline
 62
7
  6
BYLAYER
 70
0
 71
3
 72
11
 73
7
 74
0
 42
0.0000001
 43
0.0000001
 44
0.0000000001
 40
0.0
 40
0.0
 40
0.0
 40
0.0
 40
0.3774850096
 40
0.699605271
 40
0.9202958023
 40
1.0
 40
1.0
 40
1.0
 40
1.0
 10
278.0183127572
 20
371.3741892896
 30
0.0
 10
277.5363299728
 20
371.3741892896
 30
0.0
 10
276.6417117308
 20
371.4410566015
 30
0.0
 10
275.4888398844
 20
371.6794993417
 30
0.0
 10
274.7267342937
 20
371.9072571239
 30
0.0
 10
274.3641447003
 20
372.0324392219
 30
0.0
 10
274.2683127614
 20
372.0666666667
 30
0.0
  0
SPLINE
  5
2C6
100
AcDbEntity
  8
0
100
AcDbSpline
 62
7
  6
BYLAYER
 70
0
 71
3
 72
9
 73
5
 74
0
 42
0.0000001
 43
0.0000001
 44
0.0000000001
 40
0.0
 40
0.0
 40
0.0
 40
0.0
 40
0.4945452273
 40
1.0
 40
1.0
 40
1.0
 40
1.0
 10
81.277380163
 20
367.9790592519
 30
0.0
 10
81.4393289414
 20
367.8202310272
 30
0.0
 10
81.7349064155
 20
367.4606087534
 30
0.0
 10
81.8683127572
 20
366.9985049026
 30
0.0
 10
81.8683127572
 20
366.7666666667
 30
0.0
  0
SPLINE
  5
2C7
100
AcDbEntity
  8
0
100
AcDbSpline
 62
7
  6
BYLAYER
 70
0
 71
3
 72
9
 73
5
 74
0
 42
0.0000001
 43
0.0000001
 44
0.0000000001
 40
0.0
 40
0.0
 40
0.0
 40
0.0
 40
0.5054524213
 40
1.0
 40
1.0
 40
1.0
 40
1.0
 10
81.8683127572
 20
356.7666666667
 30
0.0
 10
81.8683127572
 20
356.5348295235
 30
0.0
 10
81.7349065587
 20
356.0727259064
 30
0.0
 10
81.4393296896
 20
355.7131030677
 30
0.0
 10
81.2773801519
 20
355.5542740968
 30
0.0
  0
SPLINE
  5
2C8
100
AcDbEntity
  8
0
100
AcDbSpline
 62
7
  6
BYLAYER
 70
0
 71
3
 72
12
 73
8
 74
0
 42
0.0000001
 43
0.0000001
 44
0.0000000001
 40
0.0
 40
0.0
 40
0.0
 40
0.0
 40
0.1249214012
 40
0.2500069146
 40
0.4990420451
 40
0.7493203542
 40
1.0
 40
1.0
 40
1.0
 40
1.0
 10
57.3683122515
 20
366.7666666442
 30
0.0
 10
57.2327133501
 20
366.7666666442
 30
0.0
 10
56.9588683152
 20
366.7124645032
 30
0.0
 10
56.4906234292
 20
366.4224483177
 30
0.0
 10
56.0992070792
 20
365.8367561943
 30
0.0
 10
55.8971518132
 20
365.0411489001
 30
0.0
 10
55.8683127572
 20
364.4957621704
 30
0.0
 10
55.8683127572
 20
364.223655996
 30
0.0
  0
SPLINE
  5
2C9
100
AcDbEntity
  8
0
100
AcDbSpline
 62
7
  6
BYLAYER
 70
0
 71
3
 72
12
 73
8
 74
0
 42
0.0000001
 43
0.0000001
 44
0.0000000001
 40
0.0
 40
0.0
 40
0.0
 40
0.0
 40
0.1249216864
 40
0.250006994
 40
0.499042147
 40
0.7493203874
 40
1.0
 40
1.0
 40
1.0
 40
1.0
 10
57.3683127572
 20
356.7666666667
 30
0.0
 10
57.2327135263
 20
356.7666666667
 30
0.0
 10
56.958868339
 20
356.8208688269
 30
0.0
 10
56.4906233564
 20
357.1108851619
 30
0.0
 10
56.0992070488
 20
357.6965771224
 30
0.0
 10
55.8971518402
 20
358.4921844641
 30
0.0
 10
55.8683127572
 20
359.037571159
 30
0.0
 10
55.8683127572
 20
359.3096773373
 30
0.0
  0
SPLINE
  5
2CA
100
AcDbEntity
  8
0
100
AcDbSpline
 62
7
  6
BYLAYER
 70
0
 71
3
 72
11
 73
7
 74
0
 42
0.0000001
 43
0.0000001
 44
0.0000000001
 40
0.0
 40
0.0
 40
0.0
 40
0.0
 40
0.2275418988
 40
0.4688063117
 40
0.7282887804
 40
1.0
 40
1.0
 40
1.0
 40
1.0
 10
102.8683127572
 20
369.0546391245
 30
0.0
 10
102.8683127572
 20
368.9463728635
 30
0.0
 10
102.9245767451
 20
368.7204013826
 30
0.0
 10
103.1538536573
 20
368.4476499006
 30
0.0
 10
103.4842238647
 20
368.2701974825
 30
0.0
 10
103.7390303789
 20
368.2296391245
 30
0.0
 10
103.8683127572
 20
368.2296391245
 30
0.0
  0
SPLINE
  5
2CB
100
AcDbEntity
  8
0
100
AcDbSpline
 62
7
  6
BYLAYER
 70
0
 71
3
 72
11
 73
7
 74
0
 42
0.0000001
 43
0.0000001
 44
0.0000000001
 40
0.0
 40
0.0
 40
0.0
 40
0.0
 40
0.2504272586
 40
0.5006068294
 40
0.7505158901
 40
1.0
 40
1.0
 40
1.0
 40
1.0
 10
115.8683127572
 20
345.033466136
 30
0.0
 10
115.8683127572
 20
344.8947081966
 30
0.0
 10
115.9134770725
 20
344.6150467911
 30
0.0
 10
116.1183112193
 20
344.2430310105
 30
0.0
 10
116.4495280579
 20
343.9734743323
 30
0.0
 10
116.7300774022
 20
343.9060955672
 30
0.0
 10
116.8683127572
 20
343.9060955672
 30
0.0
  0
SPLINE
  5
2CC
100
AcDbEntity
  8
0
100
AcDbSpline
 62
7
  6
BYLAYER
 70
0
 71
3
 72
11
 73
7
 74
0
 42
0.0000001
 43
0.0000001
 44
0.0000000001
 40
0.0
 40
0.0
 40
0.0
 40
0.0
 40
0.2717112196
 40
0.5311936883
 40
0.7724581012
 40
1.0
 40
1.0
 40
1.0
 40
1.0
 10
103.8683127572
 20
372.4893062671
 30
0.0
 10
103.7390303789
 20
372.4893062671
 30
0.0
 10
103.4842238647
 20
372.5298646251
 30
0.0
 10
103.1538536574
 20
372.7073170432
 30
0.0
 10
102.9245767447
 20
372.9800685251
 30
0.0
 10
102.8683127577
 20
373.206040006
 30
0.0
 10
102.8683127572
 20
373.3143062671
 30
0.0
  0
SPLINE
  5
2CD
100
AcDbEntity
  8
0
100
AcDbSpline
 62
7
  6
BYLAYER
 70
0
 71
3
 72
11
 73
7
 74
0
 42
0.0000001
 43
0.0000001
 44
0.0000000001
 40
0.0
 40
0.0
 40
0.0
 40
0.0
 40
0.1922063811
 40
0.4223191867
 40
0.6972492001
 40
1.0
 40
1.0
 40
1.0
 40
1.0
 10
102.8683127572
 20
373.3143062607
 30
0.0
 10
102.8683127572
 20
373.3958896839
 30
0.0
 10
102.9346532954
 20
373.5762317811
 30
0.0
 10
103.1696794223
 20
373.7693237619
 30
0.0
 10
103.4933277099
 20
373.8938898571
 30
0.0
 10
103.7398079359
 20
373.9220767724
 30
0.0
 10
103.8683127572
 20
373.9220767724
 30
0.0
  0
SPLINE
  5
2CE
100
AcDbEntity
  8
0
100
AcDbSpline
 62
7
  6
BYLAYER
 70
0
 71
3
 72
12
 73
8
 74
0
 42
0.0000001
 43
0.0000001
 44
0.0000000001
 40
0.0
 40
0.0
 40
0.0
 40
0.0
 40
0.0932230283
 40
0.2090710883
 40
0.472894944
 40
0.7434417713
 40
1.0
 40
1.0
 40
1.0
 40
1.0
 10
115.8683127572
 20
372.5044803183
 30
0.0
 10
115.8683127572
 20
372.5594342393
 30
0.0
 10
115.8952401757
 20
372.6819901686
 30
0.0
 10
116.0059619073
 20
372.9381660222
 30
0.0
 10
116.2187423194
 20
373.2602090281
 30
0.0
 10
116.522788467
 20
373.614333935
 30
0.0
 10
116.7510634789
 20
373.8265488069
 30
0.0
 10
116.8683127572
 20
373.9220767723
 30
0.0
  0
ENDSEC
  0
SECTION
  2
OBJECTS
  0
DICTIONARY
  5
C
100
AcDbDictionary
280
0
281
1
  3
ACAD_GROUP
350
D
  3
ACAD_MLINESTYLE
350
17
  3
ACAD_LAYOUT
350
1A
  3
ACAD_PLOTSETTINGS
350
19
  3
ACAD_PLOTSTYLENAME
350
E
  0
DICTIONARY
  5
D
102
{ACAD_REACTORS
330
C
102
}
100
AcDbDictionary
280
0
281
1
  0
ACDBDICTIONARYWDFLT
  5
E
102
{ACAD_REACTORS
330
C
102
}
100
AcDbDictionary
281
1
  3
Normal
350
F
100
AcDbDictionaryWithDefault
340
F
  0
DICTIONARY
  5
17
102
{ACAD_REACTORS
330
C
102
}
100
AcDbDictionary
280
0
281
1
  3
Standard
350
18
  0
DICTIONARY
  5
19
102
{ACAD_REACTORS
330
C
102
}
100
AcDbDictionary
281
1
  0
DICTIONARY
  5
1A
102
{ACAD_REACTORS
330
C
102
}
100
AcDbDictionary
281
1
  3
Model
350
2CF
  3
Layout1
350
2D0
  0
ACDBPLACEHOLDER
  5
F
102
{ACAD_REACTORS
330
E
102
}
  0
MLINESTYLE
  5
18
102
{ACAD_REACTORS
330
17
102
}
100
AcDbMlineStyle
  2
STANDARD
 70
0
  3

 62
256
 51
90.0
 52
90.0
 71
2
 49
0.5
 62
256
  6
BYLAYER
 49
-0.5
 62
256
  6
BYLAYER
  0
LAYOUT
  5
2CF
102
{ACAD_REACTORS
330
1A
102
}
100
AcDbPlotSettings
  1

  2
none_device
  4

  6

 40
0.0
 41
0.0
 42
0.0
 43
0.0
 44
210.0
 45
297.0
 46
0.0
 47
0.0
 48
0.0
 49
0.0
140
0.0
141
0.0
142
1.0
143
1.0
 70
1024
 72
1
 73
0
 74
0
  7

 75
0
147
1.0
148
0.0
149
0.0
100
AcDbLayout
  1
Model
 70
0
 71
0
 10
0.0
 20
0.0
 11
210.0
 21
297.0
 12
0.0
 22
0.0
 32
0.0
 14
0.0
 24
0.0
 34
0.0
 15
0.0
 25
0.0
 35
0.0
146
0.0
 13
0.0
 23
0.0
 33
0.0
 16
1.0
 26
0.0
 36
0.0
 17
0.0
 27
1.0
 37
0.0
 76
0
330
210
345
0
346
0
  0
LAYOUT
  5
2D0
102
{ACAD_REACTORS
330
1A
102
}
100
AcDbPlotSettings
  1

  2
none_device
  4

  6

 40
0.0
 41
0.0
 42
0.0
 43
0.0
 44
210.0
 45
297.0
 46
0.0
 47
0.0
 48
0.0
 49
0.0
140
0.0
141
0.0
142
1.0
143
1.0
 70
0
 72
1
 73
0
 74
0
  7

 75
0
147
1.0
148
0.0
149
0.0
100
AcDbLayout
  1
Layout1
 70
0
 71
1
 10
0.0
 20
0.0
 11
210.0
 21
297.0
 12
0.0
 22
0.0
 32
0.0
 14
0.0
 24
0.0
 34
0.0
 15
0.0
 25
0.0
 35
0.0
146
0.0
 13
0.0
 23
0.0
 33
0.0
 16
1.0
 26
0.0
 36
0.0
 17
0.0
 27
1.0
 37
0.0
 76
0
330
211
345
0
346
0
  0
ENDSEC
  0
EOF
