999
DXF file: C:\Users\sesa63760\Dev\_Creo\CAD\MCADID0000885_3D-CAD\drw0001_6.dxf
999
Pro/ENGINEER 2019471 by Parametric Technology Corporation
  0
SECTION
  2
HEADER
  9
$ACADVER
  1
AC1024
  9
$DWGCODEPAGE
  3
ANSI_1252
  9
$EXTMAX
 10
707.8752514201
 20
1001.1378555799
 30
0.0
  9
$EXTMIN
 10
0.0
 20
0.0
 30
0.0
  9
$LIMMIN
 10
0.0
 20
0.0
  9
$LIMMAX
 10
707.8752514201
 20
1001.1378555799
  9
$VIEWCTR
 10
353.9376257101
 20
500.5689277899
  9
$VIEWSIZE
 40
1001.1378555799
  9
$CLAYER
  8
0
  9
$LTSCALE
 40
65.2593565119
  9
$CELTYPE
  6
BYLAYER
  9
$DIMSCALE
 40
1.0
  9
$DIMASZ
 40
8.4270863264
  9
$DIMEXO
 40
1.0
  9
$DIMDLI
 40
45.0882826809
  9
$DIMEXE
 40
1.0
  9
$DIMCEN
 40
10.6788037929
  9
$DIMLFAC
 40
1.0
  9
$DIMBLK
  1
_FILLED
  9
$DIMALT
 70
0
  9
$DIMALTF
 40
0.0393700787
  9
$DIMTXT
 40
11.797920857
  9
$DIMTOL
 70
1
  9
$DIMLIM
 70
0
  9
$DIMTFAC
 40
1.0
  9
$DIMTP
 40
0.01
  9
$DIMTM
 40
0.01
  9
$DIMGAP
 40
0.625
  9
$DIMDSEP
 70
46
  9
$AUNITS
 70
0
  9
$PDMODE
 70
3
  9
$PDSIZE
 40
0.3125
  9
$HANDSEED
  5
3BF
  9
$TILEMODE
 70
1
  9
$MEASUREMENT
 70
1
  9
$INSUNITS
 70
4
  0
ENDSEC
  0
SECTION
  2
CLASSES
  0
CLASS
  1
ACDBDICTIONARYWDFLT
  2
AcDbDictionaryWithDefault
  3
AutoCAD 2000
 90
0
 91
1
280
0
281
0
  0
CLASS
  1
ACDBPLACEHOLDER
  2
AcDbPlaceHolder
  3
AutoCAD 2000
 90
0
 91
1
280
0
281
0
  0
CLASS
  1
LAYOUT
  2
AcDbLayout
  3
AutoCAD 2000
 90
0
 91
0
280
0
281
0
  0
ENDSEC
  0
SECTION
  2
TABLES
  0
TABLE
  2
VPORT
  5
8
100
AcDbSymbolTable
 70
2
  0
VPORT
  5
1F4
100
AcDbSymbolTableRecord
100
AcDbViewportTableRecord
  2
*ACTIVE
 70
0
 10
0.0
 20
0.0
 11
1.0
 21
1.0
 12
353.9376257101
 22
500.5689277899
 13
0.0
 23
0.0
 14
1.0
 24
1.0
 15
0.0
 25
0.0
 16
0.0
 26
0.0
 36
1.0
 17
0.0
 27
0.0
 37
0.0
 40
1001.1378555799
 41
0.7070707071
 42
50.0
 43
0.0
 44
0.0
 50
0.0
 51
0.0
 71
0
 72
100
 73
1
 74
1
 75
0
 76
0
 77
0
 78
0
  0
ENDTAB
  0
TABLE
  2
LTYPE
  5
5
100
AcDbSymbolTable
 70
6
  0
LTYPE
  5
14
100
AcDbSymbolTableRecord
100
AcDbLinetypeTableRecord
  2
BYBLOCK
 70
0
  3

 72
65
 73
0
 40
0.0
  0
LTYPE
  5
15
100
AcDbSymbolTableRecord
100
AcDbLinetypeTableRecord
  2
BYLAYER
 70
0
  3

 72
65
 73
0
 40
0.0
  0
LTYPE
  5
16
100
AcDbSymbolTableRecord
100
AcDbLinetypeTableRecord
  2
CONTINUOUS
 70
64
  3
Solid line
 72
65
 73
0
 40
0.0
  0
LTYPE
  5
1F5
100
AcDbSymbolTableRecord
100
AcDbLinetypeTableRecord
  2
CENTER
 70
64
  3
____ _ ____ _ ____ _ ____ _ ____ _ ____ _ ____
 72
65
 73
4
 40
0.6
 49
0.375
 74
0
 49
-0.075
 74
0
 49
0.075
 74
0
 49
-0.075
 74
0
  0
LTYPE
  5
1F6
100
AcDbSymbolTableRecord
100
AcDbLinetypeTableRecord
  2
HIDDEN
 70
64
  3
- - - - - - - - - - - - - - - - - - - -
 72
65
 73
2
 40
0.2
 49
0.1
 74
0
 49
-0.1
 74
0
  0
LTYPE
  5
1F7
100
AcDbSymbolTableRecord
100
AcDbLinetypeTableRecord
  2
PHANTOM
 70
64
  3
_____ _ _ _____ _ _ _____ _ _ _____
 72
65
 73
6
 40
0.8
 49
0.45
 74
0
 49
-0.05
 74
0
 49
0.1
 74
0
 49
-0.05
 74
0
 49
0.1
 74
0
 49
-0.05
 74
0
  0
LTYPE
  5
1F8
100
AcDbSymbolTableRecord
100
AcDbLinetypeTableRecord
  2
DOT
 70
64
  3
. . . . . . . . . . . . . . . . . . . .
 72
65
 73
2
 40
0.2
 49
0.1
 74
0
 49
-0.1
 74
0
  0
LTYPE
  5
1F9
100
AcDbSymbolTableRecord
100
AcDbLinetypeTableRecord
  2
DASHED
 70
64
  3
- - - - - - - - - - - - - - - - - - - -
 72
65
 73
2
 40
0.2
 49
0.1
 74
0
 49
-0.1
 74
0
  0
ENDTAB
  0
TABLE
  2
LAYER
  5
2
100
AcDbSymbolTable
 70
36
  0
LAYER
  5
10
100
AcDbSymbolTableRecord
100
AcDbLayerTableRecord
  2
0
 70
0
 62
7
  6
CONTINUOUS
370
-3
390
F
  0
LAYER
  5
1FA
100
AcDbSymbolTableRecord
100
AcDbLayerTableRecord
  2
DEFAULT_1
 70
0
 62
7
  6
CENTER
370
-3
390
F
  0
LAYER
  5
1FB
100
AcDbSymbolTableRecord
100
AcDbLayerTableRecord
  2
DEFAULT_2
 70
0
 62
8
  6
HIDDEN
370
-3
390
F
  0
LAYER
  5
1FC
100
AcDbSymbolTableRecord
100
AcDbLayerTableRecord
  2
DEFAULT_3
 70
0
 62
7
  6
PHANTOM
370
-3
390
F
  0
LAYER
  5
1FD
100
AcDbSymbolTableRecord
100
AcDbLayerTableRecord
  2
00_COMPONENTS
 70
0
 62
7
  6
CONTINUOUS
370
-3
390
F
  0
LAYER
  5
1FE
100
AcDbSymbolTableRecord
100
AcDbLayerTableRecord
  2
01_1_DEFAULT_DATUMS
 70
0
 62
7
  6
CONTINUOUS
370
-3
390
F
  0
LAYER
  5
1FF
100
AcDbSymbolTableRecord
100
AcDbLayerTableRecord
  2
01_PLANES
 70
0
 62
7
  6
CONTINUOUS
370
-3
390
F
  0
LAYER
  5
200
100
AcDbSymbolTableRecord
100
AcDbLayerTableRecord
  2
02_COORD_SYS
 70
0
 62
7
  6
CONTINUOUS
370
-3
390
F
  0
LAYER
  5
201
100
AcDbSymbolTableRecord
100
AcDbLayerTableRecord
  2
03_AXES
 70
0
 62
7
  6
CONTINUOUS
370
-3
390
F
  0
LAYER
  5
202
100
AcDbSymbolTableRecord
100
AcDbLayerTableRecord
  2
04_POINTS
 70
0
 62
7
  6
CONTINUOUS
370
-3
390
F
  0
LAYER
  5
203
100
AcDbSymbolTableRecord
100
AcDbLayerTableRecord
  2
05_CURVES
 70
0
 62
7
  6
CONTINUOUS
370
-3
390
F
  0
LAYER
  5
204
100
AcDbSymbolTableRecord
100
AcDbLayerTableRecord
  2
06_SURFS
 70
0
 62
7
  6
CONTINUOUS
370
-3
390
F
  0
LAYER
  5
205
100
AcDbSymbolTableRecord
100
AcDbLayerTableRecord
  2
07_COSMETICS
 70
0
 62
7
  6
CONTINUOUS
370
-3
390
F
  0
LAYER
  5
206
100
AcDbSymbolTableRecord
100
AcDbLayerTableRecord
  2
10_NOTES
 70
0
 62
7
  6
CONTINUOUS
370
-3
390
F
  0
LAYER
  5
207
100
AcDbSymbolTableRecord
100
AcDbLayerTableRecord
  2
11_NOTES_PUB
 70
0
 62
7
  6
CONTINUOUS
370
-3
390
F
  0
LAYER
  5
208
100
AcDbSymbolTableRecord
100
AcDbLayerTableRecord
  2
13_REF_GTOL
 70
0
 62
7
  6
CONTINUOUS
370
-3
390
F
  0
LAYER
  5
209
100
AcDbSymbolTableRecord
100
AcDbLayerTableRecord
  2
16_MISC
 70
0
 62
7
  6
CONTINUOUS
370
-3
390
F
  0
LAYER
  5
20A
100
AcDbSymbolTableRecord
100
AcDbLayerTableRecord
  2
17_NO_PRINT
 70
0
 62
7
  6
CONTINUOUS
370
-3
390
F
  0
LAYER
  5
20B
100
AcDbSymbolTableRecord
100
AcDbLayerTableRecord
  2
18_DATUM_CAMS_JOINTS
 70
0
 62
7
  6
CONTINUOUS
370
-3
390
F
  0
LAYER
  5
20C
100
AcDbSymbolTableRecord
100
AcDbLayerTableRecord
  2
19_DATUM_FUNCTIONAL
 70
0
 62
7
  6
CONTINUOUS
370
-3
390
F
  0
LAYER
  5
20D
100
AcDbSymbolTableRecord
100
AcDbLayerTableRecord
  2
20_DATUM_KINEMATIC_SCHEME
 70
0
 62
7
  6
CONTINUOUS
370
-3
390
F
  0
ENDTAB
  0
TABLE
  2
STYLE
  5
3
100
AcDbSymbolTable
 70
1
  0
STYLE
  5
11
100
AcDbSymbolTableRecord
100
AcDbTextStyleTableRecord
  2
STANDARD
 70
0
 40
0.0
 41
0.8
 50
0.0
 71
0
 42
0.2
  3
txt
  4

  0
STYLE
  5
20E
100
AcDbSymbolTableRecord
100
AcDbTextStyleTableRecord
  2
TEXTSTYLE_1
 70
0
 40
0.0
 41
0.8
 50
0.0
 71
0
 42
0.2
  3
gdt
  4

  0
ENDTAB
  0
TABLE
  2
VIEW
  5
6
100
AcDbSymbolTable
 70
0
  0
ENDTAB
  0
TABLE
  2
UCS
  5
7
100
AcDbSymbolTable
 70
0
  0
ENDTAB
  0
TABLE
  2
APPID
  5
9
100
AcDbSymbolTable
 70
1
  0
APPID
  5
20F
100
AcDbSymbolTableRecord
100
AcDbRegAppTableRecord
  2
ACAD
 70
0
  0
ENDTAB
  0
TABLE
  2
BLOCK_RECORD
  5
1
100
AcDbSymbolTable
 70
0
  0
BLOCK_RECORD
  5
210
100
AcDbSymbolTableRecord
100
AcDbBlockTableRecord
  2
*Model_Space
  0
BLOCK_RECORD
  5
211
100
AcDbSymbolTableRecord
100
AcDbBlockTableRecord
  2
*Paper_Space
  0
BLOCK_RECORD
  5
212
100
AcDbSymbolTableRecord
100
AcDbBlockTableRecord
  2
_FILLED
  0
ENDTAB
  0
TABLE
  2
DIMSTYLE
  5
A
100
AcDbSymbolTable
 70
1
100
AcDbDimStyleTable
 71
0
  0
DIMSTYLE
105
213
100
AcDbSymbolTableRecord
100
AcDbDimStyleTableRecord
  2
STANDARD
 70
0
  3

  4

 40
1.0
 41
8.4270863264
 42
1.0
 43
0.38
 44
1.0
 45
0.0
 46
0.0
 47
0.01
 48
0.01
140
11.797920857
141
0.09
142
0.0
143
25.4
144
1.0
145
0.0
146
1.0
147
0.625
 71
1
 72
0
 73
0
 74
0
 75
0
 76
0
 77
1
 78
8
 79
2
170
0
171
1
172
0
173
0
174
0
175
0
176
0
177
0
178
0
270
2
179
2
271
2
272
2
273
2
274
2
275
0
280
0
281
0
282
0
283
1
284
8
285
0
286
0
287
3
288
0
340
11
278
46
341
212
342
212
343
212
344
212
  0
ENDTAB
  0
ENDSEC
  0
SECTION
  2
BLOCKS
  0
BLOCK
  5
20
100
AcDbEntity
  8
0
100
AcDbBlockBegin
  2
*Model_Space
 70
0
 10
0.0
 20
0.0
 30
0.0
  3
*Model_Space
  1

  0
ENDBLK
  5
21
100
AcDbEntity
  8
0
100
AcDbBlockEnd
  0
BLOCK
  5
1C
100
AcDbEntity
  8
0
100
AcDbBlockBegin
  2
*Paper_Space
 70
0
 10
0.0
 20
0.0
 30
0.0
  3
*Paper_Space
  1

  0
ENDBLK
  5
1D
100
AcDbEntity
  8
0
100
AcDbBlockEnd
  0
BLOCK
  5
214
100
AcDbEntity
  8
0
100
AcDbBlockBegin
  2
_FILLED
 70
64
 10
0.0
 20
0.0
  3
_FILLED
  1

  0
SOLID
  5
215
100
AcDbEntity
  8
0
  6
BYBLOCK
 62
0
100
AcDbTrace
 10
0.0
 20
0.0
 11
-1.0
 21
0.25
 12
-1.0
 22
-0.25
 13
-1.0
 23
-0.25
  0
ENDBLK
  5
216
100
AcDbEntity
  8
0
  6
BYBLOCK
 62
0
100
AcDbBlockEnd
  0
ENDSEC
  0
SECTION
  2
ENTITIES
  0
LINE
  5
217
100
AcDbEntity
  8
0
100
AcDbLine
 62
7
  6
CONTINUOUS
 10
80.0645403709
 20
351.2867600534
 11
80.0645403709
 21
376.2614411032
  0
LINE
  5
218
100
AcDbEntity
  8
0
100
AcDbLine
 62
7
  6
CONTINUOUS
 10
93.0645403709
 20
621.9167637987
 11
93.0645403709
 21
627.4567563081
  0
LINE
  5
219
100
AcDbEntity
  8
0
100
AcDbLine
 62
7
  6
CONTINUOUS
 10
94.0645403709
 20
621.5167600534
 11
94.0645403709
 21
627.8567600534
  0
LINE
  5
21A
100
AcDbEntity
  8
0
100
AcDbLine
 62
7
  6
CONTINUOUS
 10
96.4645403709
 20
599.1867600534
 11
96.4645403709
 21
642.3867599831
  0
LINE
  5
21B
100
AcDbEntity
  8
0
100
AcDbLine
 62
7
  6
CONTINUOUS
 10
97.9645403733
 20
642.3867599831
 11
97.9645403709
 21
599.1867600534
  0
LINE
  5
21C
100
AcDbEntity
  8
0
100
AcDbLine
 62
7
  6
CONTINUOUS
 10
101.7645403709
 20
454.2367644997
 11
101.7645403709
 21
462.7367556071
  0
LINE
  5
21D
100
AcDbEntity
  8
0
100
AcDbLine
 62
7
  6
CONTINUOUS
 10
101.7645403709
 20
478.2367644997
 11
101.7645403709
 21
486.7367556071
  0
LINE
  5
21E
100
AcDbEntity
  8
0
100
AcDbLine
 62
7
  6
CONTINUOUS
 10
101.7645403709
 20
606.4367644997
 11
101.7645403709
 21
614.9367556071
  0
LINE
  5
21F
100
AcDbEntity
  8
0
100
AcDbLine
 62
7
  6
CONTINUOUS
 10
102.8645403709
 20
566.0827952624
 11
102.8645403709
 21
586.8907248445
  0
LINE
  5
220
100
AcDbEntity
  8
0
100
AcDbLine
 62
7
  6
CONTINUOUS
 10
105.2645403709
 20
614.9367556071
 11
105.2645403709
 21
606.4367644997
  0
LINE
  5
221
100
AcDbEntity
  8
0
100
AcDbLine
 62
7
  6
CONTINUOUS
 10
105.2645403709
 20
486.7367556071
 11
105.2645403709
 21
478.2367644997
  0
LINE
  5
222
100
AcDbEntity
  8
0
100
AcDbLine
 62
7
  6
CONTINUOUS
 10
105.2645403709
 20
462.7367556071
 11
105.2645403709
 21
454.2367644997
  0
LINE
  5
223
100
AcDbEntity
  8
0
100
AcDbLine
 62
7
  6
CONTINUOUS
 10
105.5645403709
 20
594.2767600534
 11
105.5645403709
 21
597.0967600534
  0
LINE
  5
224
100
AcDbEntity
  8
0
100
AcDbLine
 62
7
  6
CONTINUOUS
 10
106.7742196374
 20
593.6867600534
 11
106.7742196374
 21
597.6867600534
  0
LINE
  5
225
100
AcDbEntity
  8
0
100
AcDbLine
 62
7
  6
CONTINUOUS
 10
106.8645403709
 20
565.4868509211
 11
106.8645403709
 21
587.4866691858
  0
LINE
  5
226
100
AcDbEntity
  8
0
100
AcDbLine
 62
7
  6
CONTINUOUS
 10
107.0645403709
 20
453.4867655671
 11
107.0645403709
 21
463.4867545397
  0
LINE
  5
227
100
AcDbEntity
  8
0
100
AcDbLine
 62
7
  6
CONTINUOUS
 10
107.0645403709
 20
477.4867655671
 11
107.0645403709
 21
487.4867545397
  0
LINE
  5
228
100
AcDbEntity
  8
0
100
AcDbLine
 62
7
  6
CONTINUOUS
 10
107.0645403709
 20
605.6867655671
 11
107.0645403709
 21
615.6867545397
  0
LINE
  5
229
100
AcDbEntity
  8
0
100
AcDbLine
 62
7
  6
CONTINUOUS
 10
108.0645403709
 20
448.4867600534
 11
108.0645403709
 21
634.6867600534
  0
LINE
  5
22A
100
AcDbEntity
  8
0
100
AcDbLine
 62
7
  6
CONTINUOUS
 10
110.4645403709
 20
447.9867600534
 11
110.4645403709
 21
634.6867600534
  0
LINE
  5
22B
100
AcDbEntity
  8
0
100
AcDbLine
 62
7
  6
CONTINUOUS
 10
111.0645403709
 20
634.6867600534
 11
111.0645403709
 21
456.4867600534
  0
LINE
  5
22C
100
AcDbEntity
  8
0
100
AcDbLine
 62
7
  6
CONTINUOUS
 10
112.0645403709
 20
634.6867600534
 11
112.0645403709
 21
447.9867600534
  0
LINE
  5
22D
100
AcDbEntity
  8
0
100
AcDbLine
 62
7
  6
CONTINUOUS
 10
113.5645403709
 20
386.2867600534
 11
113.5645403709
 21
447.4867600534
  0
LINE
  5
22E
100
AcDbEntity
  8
0
100
AcDbLine
 62
7
  6
CONTINUOUS
 10
113.8645403709
 20
447.4867600534
 11
113.8645403709
 21
634.6867600534
  0
LINE
  5
22F
100
AcDbEntity
  8
0
100
AcDbLine
 62
7
  6
CONTINUOUS
 10
121.3145403709
 20
644.1867600534
 11
121.3145403709
 21
645.5867600534
  0
LINE
  5
230
100
AcDbEntity
  8
0
100
AcDbLine
 62
7
  6
CONTINUOUS
 10
122.3145403709
 20
646.1867600534
 11
122.3145403709
 21
647.8819505818
  0
LINE
  5
231
100
AcDbEntity
  8
0
100
AcDbLine
 62
7
  6
CONTINUOUS
 10
122.9145403709
 20
645.5867600534
 11
122.9145403709
 21
646.1867600534
  0
LINE
  5
232
100
AcDbEntity
  8
0
100
AcDbLine
 62
7
  6
CONTINUOUS
 10
124.7145403709
 20
649.5554497405
 11
124.7145403709
 21
649.5404386711
  0
LINE
  5
233
100
AcDbEntity
  8
0
100
AcDbLine
 62
7
  6
CONTINUOUS
 10
126.4645403709
 20
648.7867600534
 11
126.4645403709
 21
649.8510955264
  0
LINE
  5
234
100
AcDbEntity
  8
0
100
AcDbLine
 62
7
  6
CONTINUOUS
 10
126.8145403709
 20
645.5867600534
 11
126.8145403709
 21
646.1867600534
  0
LINE
  5
235
100
AcDbEntity
  8
0
100
AcDbLine
 62
7
  6
CONTINUOUS
 10
127.3145403709
 20
646.1867600534
 11
127.3145403709
 21
645.5867600534
  0
LINE
  5
236
100
AcDbEntity
  8
0
100
AcDbLine
 62
7
  6
CONTINUOUS
 10
127.6645403709
 20
649.8510955264
 11
127.6645403709
 21
648.7867600534
  0
LINE
  5
237
100
AcDbEntity
  8
0
100
AcDbLine
 62
7
  6
CONTINUOUS
 10
128.0645403709
 20
467.9867600534
 11
128.0645403709
 21
495.9867600534
  0
LINE
  5
238
100
AcDbEntity
  8
0
100
AcDbLine
 62
7
  6
CONTINUOUS
 10
129.4145403709
 20
649.5404386711
 11
129.4145403709
 21
649.5554497405
  0
LINE
  5
239
100
AcDbEntity
  8
0
100
AcDbLine
 62
7
  6
CONTINUOUS
 10
131.2145403709
 20
646.1867600534
 11
131.2145403709
 21
645.5867600534
  0
LINE
  5
23A
100
AcDbEntity
  8
0
100
AcDbLine
 62
7
  6
CONTINUOUS
 10
131.8145403709
 20
646.1867600534
 11
131.8145403709
 21
647.8819505818
  0
LINE
  5
23B
100
AcDbEntity
  8
0
100
AcDbLine
 62
7
  6
CONTINUOUS
 10
132.8145403709
 20
644.1867600534
 11
132.8145403709
 21
645.5867600534
  0
LINE
  5
23C
100
AcDbEntity
  8
0
100
AcDbLine
 62
7
  6
CONTINUOUS
 10
93.0645403709
 20
627.4567600534
 11
94.0645403709
 21
627.8567600534
  0
LINE
  5
23D
100
AcDbEntity
  8
0
100
AcDbLine
 62
7
  6
CONTINUOUS
 10
105.5645403709
 20
597.0967600534
 11
106.7742196374
 21
597.6867600534
  0
LINE
  5
23E
100
AcDbEntity
  8
0
100
AcDbLine
 62
7
  6
CONTINUOUS
 10
198.0645403709
 20
495.9867600534
 11
198.0645403709
 21
467.9867600534
  0
LINE
  5
23F
100
AcDbEntity
  8
0
100
AcDbLine
 62
7
  6
CONTINUOUS
 10
80.0645403709
 20
351.2867600534
 11
640.0645403709
 21
351.2867600534
  0
LINE
  5
240
100
AcDbEntity
  8
0
100
AcDbLine
 62
7
  6
CONTINUOUS
 10
640.0645403709
 20
353.5867600534
 11
80.0645403709
 21
353.5867600534
  0
LINE
  5
241
100
AcDbEntity
  8
0
100
AcDbLine
 62
7
  6
CONTINUOUS
 10
85.0645403709
 20
381.2614411032
 11
80.0645403709
 21
376.2614411032
  0
LINE
  5
242
100
AcDbEntity
  8
0
100
AcDbLine
 62
7
  6
CONTINUOUS
 10
605.1645403709
 20
388.4867600534
 11
598.1645403709
 21
388.4867600534
  0
LINE
  5
243
100
AcDbEntity
  8
0
100
AcDbLine
 62
7
  6
CONTINUOUS
 10
289.8645403709
 20
644.3867600534
 11
289.8645403709
 21
644.1867600534
  0
LINE
  5
244
100
AcDbEntity
  8
0
100
AcDbLine
 62
7
  6
CONTINUOUS
 10
113.5645403709
 20
386.2867600534
 11
85.0645403709
 21
381.2614411032
  0
LINE
  5
245
100
AcDbEntity
  8
0
100
AcDbLine
 62
7
  6
CONTINUOUS
 10
635.0645403709
 20
380.3798061997
 11
601.5645403709
 21
386.2867600534
  0
LINE
  5
246
100
AcDbEntity
  8
0
100
AcDbLine
 62
7
  6
CONTINUOUS
 10
312.3645403709
 20
644.3867600534
 11
312.3645403709
 21
644.1867600534
  0
LINE
  5
247
100
AcDbEntity
  8
0
100
AcDbLine
 62
7
  6
CONTINUOUS
 10
312.8645403709
 20
644.1867600534
 11
312.8645403709
 21
644.3867600534
  0
LINE
  5
248
100
AcDbEntity
  8
0
100
AcDbLine
 62
7
  6
CONTINUOUS
 10
113.5645403709
 20
445.1867600534
 11
595.1645403709
 21
445.1867600534
  0
LINE
  5
249
100
AcDbEntity
  8
0
100
AcDbLine
 62
7
  6
CONTINUOUS
 10
595.1645403709
 20
447.4867600534
 11
113.5645403709
 21
447.4867600534
  0
LINE
  5
24A
100
AcDbEntity
  8
0
100
AcDbLine
 62
7
  6
CONTINUOUS
 10
110.4645403709
 20
447.9867600534
 11
112.0645403709
 21
447.9867600534
  0
LINE
  5
24B
100
AcDbEntity
  8
0
100
AcDbLine
 62
7
  6
CONTINUOUS
 10
108.0645403709
 20
448.4867600534
 11
110.4645403709
 21
448.4867600534
  0
LINE
  5
24C
100
AcDbEntity
  8
0
100
AcDbLine
 62
7
  6
CONTINUOUS
 10
108.0645403709
 20
453.4867600534
 11
107.0645403709
 21
453.4867600534
  0
LINE
  5
24D
100
AcDbEntity
  8
0
100
AcDbLine
 62
7
  6
CONTINUOUS
 10
105.2645403709
 20
454.2367600534
 11
101.7645403709
 21
454.2367600534
  0
LINE
  5
24E
100
AcDbEntity
  8
0
100
AcDbLine
 62
7
  6
CONTINUOUS
 10
105.2645403709
 20
454.344297018
 11
107.0645403709
 21
454.344297018
  0
LINE
  5
24F
100
AcDbEntity
  8
0
100
AcDbLine
 62
7
  6
CONTINUOUS
 10
605.1645403709
 20
454.4867600534
 11
606.3743125995
 21
454.4867600534
  0
LINE
  5
250
100
AcDbEntity
  8
0
100
AcDbLine
 62
7
  6
CONTINUOUS
 10
112.0645403709
 20
455.9867600534
 11
110.4645403709
 21
455.9867600534
  0
LINE
  5
251
100
AcDbEntity
  8
0
100
AcDbLine
 62
7
  6
CONTINUOUS
 10
111.0645403709
 20
456.4867600534
 11
108.0645403709
 21
456.4867600534
  0
LINE
  5
252
100
AcDbEntity
  8
0
100
AcDbLine
 62
7
  6
CONTINUOUS
 10
595.1645403709
 20
456.9867600534
 11
112.0645403709
 21
456.9867600534
  0
LINE
  5
253
100
AcDbEntity
  8
0
100
AcDbLine
 62
7
  6
CONTINUOUS
 10
608.0311183844
 20
457.3769524323
 11
607.9606049516
 21
457.3769524323
  0
LINE
  5
254
100
AcDbEntity
  8
0
100
AcDbLine
 62
7
  6
CONTINUOUS
 10
607.9510371437
 20
457.468255511
 11
608.1087751682
 21
457.468255511
  0
LINE
  5
255
100
AcDbEntity
  8
0
100
AcDbLine
 62
7
  6
CONTINUOUS
 10
607.1645403709
 20
457.8867600534
 11
608.0260667164
 21
457.8867600534
  0
LINE
  5
256
100
AcDbEntity
  8
0
100
AcDbLine
 62
7
  6
CONTINUOUS
 10
608.0260667164
 20
459.0867600534
 11
607.1645403709
 21
459.0867600534
  0
LINE
  5
257
100
AcDbEntity
  8
0
100
AcDbLine
 62
7
  6
CONTINUOUS
 10
608.1087744003
 20
459.5052645958
 11
607.9524123557
 21
459.5052645958
  0
LINE
  5
258
100
AcDbEntity
  8
0
100
AcDbLine
 62
7
  6
CONTINUOUS
 10
608.0311183844
 20
459.5965676746
 11
607.9634191683
 21
459.5965676746
  0
LINE
  5
259
100
AcDbEntity
  8
0
100
AcDbLine
 62
7
  6
CONTINUOUS
 10
332.3645403709
 20
644.3867600534
 11
332.3645403709
 21
644.1867600534
  0
LINE
  5
25A
100
AcDbEntity
  8
0
100
AcDbLine
 62
7
  6
CONTINUOUS
 10
332.8645403709
 20
644.1867600534
 11
332.8645403709
 21
644.3867600534
  0
LINE
  5
25B
100
AcDbEntity
  8
0
100
AcDbLine
 62
7
  6
CONTINUOUS
 10
605.1645403709
 20
462.4867600534
 11
606.3743125995
 21
462.4867600534
  0
LINE
  5
25C
100
AcDbEntity
  8
0
100
AcDbLine
 62
7
  6
CONTINUOUS
 10
107.0645403709
 20
462.6367600534
 11
105.2645403709
 21
462.6367600534
  0
LINE
  5
25D
100
AcDbEntity
  8
0
100
AcDbLine
 62
7
  6
CONTINUOUS
 10
105.2645403709
 20
462.7367600534
 11
101.7645403709
 21
462.7367600534
  0
LINE
  5
25E
100
AcDbEntity
  8
0
100
AcDbLine
 62
7
  6
CONTINUOUS
 10
108.0645403709
 20
463.4867600534
 11
107.0645403709
 21
463.4867600534
  0
LINE
  5
25F
100
AcDbEntity
  8
0
100
AcDbLine
 62
7
  6
CONTINUOUS
 10
197.5645403709
 20
467.4867600534
 11
128.5645403709
 21
467.4867600534
  0
LINE
  5
260
100
AcDbEntity
  8
0
100
AcDbLine
 62
7
  6
CONTINUOUS
 10
605.1645403709
 20
473.4867600534
 11
606.3743125995
 21
473.4867600534
  0
LINE
  5
261
100
AcDbEntity
  8
0
100
AcDbLine
 62
7
  6
CONTINUOUS
 10
608.0311183844
 20
476.3769524323
 11
607.9606049516
 21
476.3769524323
  0
LINE
  5
262
100
AcDbEntity
  8
0
100
AcDbLine
 62
7
  6
CONTINUOUS
 10
607.9510371437
 20
476.468255511
 11
608.1087751682
 21
476.468255511
  0
LINE
  5
263
100
AcDbEntity
  8
0
100
AcDbLine
 62
7
  6
CONTINUOUS
 10
607.1645403709
 20
476.8867600534
 11
608.0260667164
 21
476.8867600534
  0
LINE
  5
264
100
AcDbEntity
  8
0
100
AcDbLine
 62
7
  6
CONTINUOUS
 10
108.0645403709
 20
477.4867600534
 11
107.0645403709
 21
477.4867600534
  0
LINE
  5
265
100
AcDbEntity
  8
0
100
AcDbLine
 62
7
  6
CONTINUOUS
 10
608.0260667164
 20
478.0867600534
 11
607.1645403709
 21
478.0867600534
  0
LINE
  5
266
100
AcDbEntity
  8
0
100
AcDbLine
 62
7
  6
CONTINUOUS
 10
105.2645403709
 20
478.2367600534
 11
101.7645403709
 21
478.2367600534
  0
LINE
  5
267
100
AcDbEntity
  8
0
100
AcDbLine
 62
7
  6
CONTINUOUS
 10
105.2645403709
 20
478.344297018
 11
107.0645403709
 21
478.344297018
  0
LINE
  5
268
100
AcDbEntity
  8
0
100
AcDbLine
 62
7
  6
CONTINUOUS
 10
608.1087744003
 20
478.5052645958
 11
607.9524123557
 21
478.5052645958
  0
LINE
  5
269
100
AcDbEntity
  8
0
100
AcDbLine
 62
7
  6
CONTINUOUS
 10
608.0311183844
 20
478.5965676746
 11
607.9634191683
 21
478.5965676746
  0
LINE
  5
26A
100
AcDbEntity
  8
0
100
AcDbLine
 62
7
  6
CONTINUOUS
 10
605.1645403709
 20
481.4867600534
 11
606.3743125995
 21
481.4867600534
  0
LINE
  5
26B
100
AcDbEntity
  8
0
100
AcDbLine
 62
7
  6
CONTINUOUS
 10
106.7742196374
 20
593.6867600534
 11
105.5645403709
 21
594.2767600534
  0
LINE
  5
26C
100
AcDbEntity
  8
0
100
AcDbLine
 62
7
  6
CONTINUOUS
 10
342.8645403709
 20
644.3867600534
 11
342.8645403709
 21
644.1867600534
  0
LINE
  5
26D
100
AcDbEntity
  8
0
100
AcDbLine
 62
7
  6
CONTINUOUS
 10
349.8145403709
 20
644.1867600534
 11
349.8145403709
 21
645.5867600534
  0
LINE
  5
26E
100
AcDbEntity
  8
0
100
AcDbLine
 62
7
  6
CONTINUOUS
 10
350.8145403709
 20
646.1867600534
 11
350.8145403709
 21
647.8819505818
  0
LINE
  5
26F
100
AcDbEntity
  8
0
100
AcDbLine
 62
7
  6
CONTINUOUS
 10
351.4145403709
 20
645.5867600534
 11
351.4145403709
 21
646.1867600534
  0
LINE
  5
270
100
AcDbEntity
  8
0
100
AcDbLine
 62
7
  6
CONTINUOUS
 10
353.2145403709
 20
649.5554497405
 11
353.2145403709
 21
649.5404386711
  0
LINE
  5
271
100
AcDbEntity
  8
0
100
AcDbLine
 62
7
  6
CONTINUOUS
 10
354.9645403709
 20
648.7867600534
 11
354.9645403709
 21
649.8510955264
  0
LINE
  5
272
100
AcDbEntity
  8
0
100
AcDbLine
 62
7
  6
CONTINUOUS
 10
355.3145403709
 20
645.5867600534
 11
355.3145403709
 21
646.1867600534
  0
LINE
  5
273
100
AcDbEntity
  8
0
100
AcDbLine
 62
7
  6
CONTINUOUS
 10
355.8145403709
 20
646.1867600534
 11
355.8145403709
 21
645.5867600534
  0
LINE
  5
274
100
AcDbEntity
  8
0
100
AcDbLine
 62
7
  6
CONTINUOUS
 10
356.1645403709
 20
649.8510955264
 11
356.1645403709
 21
648.7867600534
  0
LINE
  5
275
100
AcDbEntity
  8
0
100
AcDbLine
 62
7
  6
CONTINUOUS
 10
357.9145403709
 20
649.5404386711
 11
357.9145403709
 21
649.5554497405
  0
LINE
  5
276
100
AcDbEntity
  8
0
100
AcDbLine
 62
7
  6
CONTINUOUS
 10
359.7145403709
 20
646.1867600534
 11
359.7145403709
 21
645.5867600534
  0
LINE
  5
277
100
AcDbEntity
  8
0
100
AcDbLine
 62
7
  6
CONTINUOUS
 10
360.3145403709
 20
646.1867600534
 11
360.3145403709
 21
647.8819505818
  0
LINE
  5
278
100
AcDbEntity
  8
0
100
AcDbLine
 62
7
  6
CONTINUOUS
 10
361.3145403709
 20
644.1867600534
 11
361.3145403709
 21
645.5867600534
  0
LINE
  5
279
100
AcDbEntity
  8
0
100
AcDbLine
 62
7
  6
CONTINUOUS
 10
107.0645403709
 20
486.6367600534
 11
105.2645403709
 21
486.6367600534
  0
LINE
  5
27A
100
AcDbEntity
  8
0
100
AcDbLine
 62
7
  6
CONTINUOUS
 10
105.2645403709
 20
486.7367600534
 11
101.7645403709
 21
486.7367600534
  0
LINE
  5
27B
100
AcDbEntity
  8
0
100
AcDbLine
 62
7
  6
CONTINUOUS
 10
108.0645403709
 20
487.4867600534
 11
107.0645403709
 21
487.4867600534
  0
LINE
  5
27C
100
AcDbEntity
  8
0
100
AcDbLine
 62
7
  6
CONTINUOUS
 10
128.5645403709
 20
496.4867600534
 11
197.5645403709
 21
496.4867600534
  0
LINE
  5
27D
100
AcDbEntity
  8
0
100
AcDbLine
 62
7
  6
CONTINUOUS
 10
93.0645403709
 20
621.9167600534
 11
94.0645403709
 21
621.5167600534
  0
LINE
  5
27E
100
AcDbEntity
  8
0
100
AcDbLine
 62
7
  6
CONTINUOUS
 10
627.5645403709
 20
621.8167600534
 11
626.3645403709
 21
621.5167600534
  0
LINE
  5
27F
100
AcDbEntity
  8
0
100
AcDbLine
 62
7
  6
CONTINUOUS
 10
106.8645403709
 20
565.4867600534
 11
108.0645403709
 21
565.4867600534
  0
LINE
  5
280
100
AcDbEntity
  8
0
100
AcDbLine
 62
7
  6
CONTINUOUS
 10
102.8645403709
 20
566.0827952624
 11
106.8645403709
 21
566.0827952624
  0
LINE
  5
281
100
AcDbEntity
  8
0
100
AcDbLine
 62
7
  6
CONTINUOUS
 10
428.1645403709
 20
644.3867600534
 11
428.1645403709
 21
644.1867600534
  0
LINE
  5
282
100
AcDbEntity
  8
0
100
AcDbLine
 62
7
  6
CONTINUOUS
 10
446.1645403709
 20
644.3867600534
 11
446.1645403709
 21
644.1867600534
  0
LINE
  5
283
100
AcDbEntity
  8
0
100
AcDbLine
 62
7
  6
CONTINUOUS
 10
598.1645403709
 20
633.1867600534
 11
595.1645403709
 21
630.1867600534
  0
LINE
  5
284
100
AcDbEntity
  8
0
100
AcDbLine
 62
7
  6
CONTINUOUS
 10
623.6138594507
 20
623.2105019389
 11
622.6645403709
 21
622.3428119769
  0
LINE
  5
285
100
AcDbEntity
  8
0
100
AcDbLine
 62
7
  6
CONTINUOUS
 10
102.8645403709
 20
570.4362421726
 11
106.8645403709
 21
570.4362421726
  0
LINE
  5
286
100
AcDbEntity
  8
0
100
AcDbLine
 62
7
  6
CONTINUOUS
 10
102.8645403709
 20
572.1333131432
 11
106.8645403709
 21
572.1333131432
  0
LINE
  5
287
100
AcDbEntity
  8
0
100
AcDbLine
 62
7
  6
CONTINUOUS
 10
102.8645403709
 20
580.8402069636
 11
106.8645403709
 21
580.8402069636
  0
LINE
  5
288
100
AcDbEntity
  8
0
100
AcDbLine
 62
7
  6
CONTINUOUS
 10
102.8645403709
 20
582.5372779343
 11
106.8645403709
 21
582.5372779343
  0
LINE
  5
289
100
AcDbEntity
  8
0
100
AcDbLine
 62
7
  6
CONTINUOUS
 10
102.8645403709
 20
586.8907248445
 11
106.8645403709
 21
586.8907248445
  0
LINE
  5
28A
100
AcDbEntity
  8
0
100
AcDbLine
 62
7
  6
CONTINUOUS
 10
106.8645403709
 20
587.4867600534
 11
108.0645403709
 21
587.4867600534
  0
LINE
  5
28B
100
AcDbEntity
  8
0
100
AcDbLine
 62
7
  6
CONTINUOUS
 10
619.1645403709
 20
626.2867600534
 11
619.5645403709
 21
626.6867600534
  0
LINE
  5
28C
100
AcDbEntity
  8
0
100
AcDbLine
 62
7
  6
CONTINUOUS
 10
607.990290459
 20
614.0367600534
 11
608.0311183844
 21
614.0769524323
  0
LINE
  5
28D
100
AcDbEntity
  8
0
100
AcDbLine
 62
7
  6
CONTINUOUS
 10
108.0645403709
 20
593.6867600534
 11
106.7742196374
 21
593.6867600534
  0
LINE
  5
28E
100
AcDbEntity
  8
0
100
AcDbLine
 62
7
  6
CONTINUOUS
 10
106.7742196374
 20
597.6867600534
 11
108.0645403709
 21
597.6867600534
  0
LINE
  5
28F
100
AcDbEntity
  8
0
100
AcDbLine
 62
7
  6
CONTINUOUS
 10
97.9645403709
 20
599.1867600534
 11
96.4645403709
 21
599.1867600534
  0
LINE
  5
290
100
AcDbEntity
  8
0
100
AcDbLine
 62
7
  6
CONTINUOUS
 10
624.6645403709
 20
599.1867600534
 11
626.1645403709
 21
599.1867600534
  0
LINE
  5
291
100
AcDbEntity
  8
0
100
AcDbLine
 62
7
  6
CONTINUOUS
 10
108.0645403709
 20
605.6867600534
 11
107.0645403709
 21
605.6867600534
  0
LINE
  5
292
100
AcDbEntity
  8
0
100
AcDbLine
 62
7
  6
CONTINUOUS
 10
105.2645403709
 20
606.4367600534
 11
101.7645403709
 21
606.4367600534
  0
LINE
  5
293
100
AcDbEntity
  8
0
100
AcDbLine
 62
7
  6
CONTINUOUS
 10
105.2645403709
 20
606.544297018
 11
107.0645403709
 21
606.544297018
  0
LINE
  5
294
100
AcDbEntity
  8
0
100
AcDbLine
 62
7
  6
CONTINUOUS
 10
595.1645403709
 20
391.4867600534
 11
598.1645403709
 21
388.4867600534
  0
LINE
  5
295
100
AcDbEntity
  8
0
100
AcDbLine
 62
7
  6
CONTINUOUS
 10
631.371346571
 20
621.4615494158
 11
630.8645403709
 21
621.4499605734
  0
LINE
  5
296
100
AcDbEntity
  8
0
100
AcDbLine
 62
7
  6
CONTINUOUS
 10
630.8645403709
 20
621.4253384502
 11
629.1645403709
 21
621.3867600534
  0
LINE
  5
297
100
AcDbEntity
  8
0
100
AcDbLine
 62
7
  6
CONTINUOUS
 10
605.1645403709
 20
611.1867600534
 11
606.3743125995
 21
611.1867600534
  0
LINE
  5
298
100
AcDbEntity
  8
0
100
AcDbLine
 62
7
  6
CONTINUOUS
 10
608.0311183844
 20
614.0769524323
 11
607.9606049516
 21
614.0769524323
  0
LINE
  5
299
100
AcDbEntity
  8
0
100
AcDbLine
 62
7
  6
CONTINUOUS
 10
607.9510371437
 20
614.168255511
 11
608.1087751682
 21
614.168255511
  0
LINE
  5
29A
100
AcDbEntity
  8
0
100
AcDbLine
 62
7
  6
CONTINUOUS
 10
607.1645403709
 20
614.5867600534
 11
608.0260667164
 21
614.5867600534
  0
LINE
  5
29B
100
AcDbEntity
  8
0
100
AcDbLine
 62
7
  6
CONTINUOUS
 10
107.0645403709
 20
614.8367600534
 11
105.2645403709
 21
614.8367600534
  0
LINE
  5
29C
100
AcDbEntity
  8
0
100
AcDbLine
 62
7
  6
CONTINUOUS
 10
105.2645403709
 20
614.9367600534
 11
101.7645403709
 21
614.9367600534
  0
LINE
  5
29D
100
AcDbEntity
  8
0
100
AcDbLine
 62
7
  6
CONTINUOUS
 10
108.0645403709
 20
615.6867600534
 11
107.0645403709
 21
615.6867600534
  0
LINE
  5
29E
100
AcDbEntity
  8
0
100
AcDbLine
 62
7
  6
CONTINUOUS
 10
608.0260667164
 20
615.7867600534
 11
607.1645403709
 21
615.7867600534
  0
LINE
  5
29F
100
AcDbEntity
  8
0
100
AcDbLine
 62
7
  6
CONTINUOUS
 10
608.1087744003
 20
616.2052645958
 11
607.9524123557
 21
616.2052645958
  0
LINE
  5
2A0
100
AcDbEntity
  8
0
100
AcDbLine
 62
7
  6
CONTINUOUS
 10
608.0311183844
 20
616.2965676746
 11
607.9634191683
 21
616.2965676746
  0
LINE
  5
2A1
100
AcDbEntity
  8
0
100
AcDbLine
 62
7
  6
CONTINUOUS
 10
605.1645403709
 20
619.1867600534
 11
606.3743125995
 21
619.1867600534
  0
LINE
  5
2A2
100
AcDbEntity
  8
0
100
AcDbLine
 62
7
  6
CONTINUOUS
 10
621.1645403709
 20
619.6867600534
 11
622.6645403709
 21
619.6867600534
  0
LINE
  5
2A3
100
AcDbEntity
  8
0
100
AcDbLine
 62
7
  6
CONTINUOUS
 10
621.1645403709
 20
620.0367600534
 11
620.3645403709
 21
620.0367600534
  0
LINE
  5
2A4
100
AcDbEntity
  8
0
100
AcDbLine
 62
7
  6
CONTINUOUS
 10
628.3645403709
 20
621.1867600534
 11
627.5645403709
 21
621.1867600534
  0
LINE
  5
2A5
100
AcDbEntity
  8
0
100
AcDbLine
 62
7
  6
CONTINUOUS
 10
626.3645403709
 20
621.5167600534
 11
626.1645403709
 21
621.5167600534
  0
LINE
  5
2A6
100
AcDbEntity
  8
0
100
AcDbLine
 62
7
  6
CONTINUOUS
 10
624.6645403709
 20
621.5167600534
 11
623.8761157134
 21
621.5167600534
  0
LINE
  5
2A7
100
AcDbEntity
  8
0
100
AcDbLine
 62
7
  6
CONTINUOUS
 10
94.0645403709
 20
621.5167600534
 11
96.4645403709
 21
621.5167600534
  0
LINE
  5
2A8
100
AcDbEntity
  8
0
100
AcDbLine
 62
7
  6
CONTINUOUS
 10
97.9645403709
 20
621.5167600534
 11
108.0645403709
 21
621.5167600534
  0
LINE
  5
2A9
100
AcDbEntity
  8
0
100
AcDbLine
 62
7
  6
CONTINUOUS
 10
629.1645403709
 20
621.5867600534
 11
628.3645403709
 21
621.5867600534
  0
LINE
  5
2AA
100
AcDbEntity
  8
0
100
AcDbLine
 62
7
  6
CONTINUOUS
 10
619.5645403709
 20
622.6867600534
 11
620.3645403709
 21
622.6867600534
  0
LINE
  5
2AB
100
AcDbEntity
  8
0
100
AcDbLine
 62
7
  6
CONTINUOUS
 10
621.1645403709
 20
622.6867600534
 11
622.6645403709
 21
622.6867600534
  0
LINE
  5
2AC
100
AcDbEntity
  8
0
100
AcDbLine
 62
7
  6
CONTINUOUS
 10
629.1645403709
 20
624.4367600534
 11
628.3645403709
 21
624.4367600534
  0
LINE
  5
2AD
100
AcDbEntity
  8
0
100
AcDbLine
 62
7
  6
CONTINUOUS
 10
628.3645403709
 20
624.9367600534
 11
629.1645403709
 21
624.9367600534
  0
LINE
  5
2AE
100
AcDbEntity
  8
0
100
AcDbLine
 62
7
  6
CONTINUOUS
 10
97.9645403709
 20
626.5867600534
 11
96.4645403709
 21
626.5867600534
  0
LINE
  5
2AF
100
AcDbEntity
  8
0
100
AcDbLine
 62
7
  6
CONTINUOUS
 10
619.5645403709
 20
626.6867600534
 11
620.3645403709
 21
626.6867600534
  0
LINE
  5
2B0
100
AcDbEntity
  8
0
100
AcDbLine
 62
7
  6
CONTINUOUS
 10
629.1645403709
 20
627.7867600534
 11
628.3645403709
 21
627.7867600534
  0
LINE
  5
2B1
100
AcDbEntity
  8
0
100
AcDbLine
 62
7
  6
CONTINUOUS
 10
626.3645403709
 20
627.8567600534
 11
626.1645403709
 21
627.8567600534
  0
LINE
  5
2B2
100
AcDbEntity
  8
0
100
AcDbLine
 62
7
  6
CONTINUOUS
 10
624.6645403709
 20
627.8567600534
 11
623.8761157134
 21
627.8567600534
  0
LINE
  5
2B3
100
AcDbEntity
  8
0
100
AcDbLine
 62
7
  6
CONTINUOUS
 10
94.0645403709
 20
627.8567600534
 11
96.4645403709
 21
627.8567600534
  0
LINE
  5
2B4
100
AcDbEntity
  8
0
100
AcDbLine
 62
7
  6
CONTINUOUS
 10
97.9645403709
 20
627.8567600534
 11
108.0645403709
 21
627.8567600534
  0
LINE
  5
2B5
100
AcDbEntity
  8
0
100
AcDbLine
 62
7
  6
CONTINUOUS
 10
628.3645403709
 20
628.1867600534
 11
627.5645403709
 21
628.1867600534
  0
LINE
  5
2B6
100
AcDbEntity
  8
0
100
AcDbLine
 62
7
  6
CONTINUOUS
 10
624.6645403709
 20
628.1867600534
 11
623.8761157134
 21
628.1867600534
  0
LINE
  5
2B7
100
AcDbEntity
  8
0
100
AcDbLine
 62
7
  6
CONTINUOUS
 10
620.3645403709
 20
628.1867600534
 11
605.1645403709
 21
628.1867600534
  0
LINE
  5
2B8
100
AcDbEntity
  8
0
100
AcDbLine
 62
7
  6
CONTINUOUS
 10
108.0645403709
 20
628.1867600534
 11
97.9645403709
 21
628.1867600534
  0
LINE
  5
2B9
100
AcDbEntity
  8
0
100
AcDbLine
 62
7
  6
CONTINUOUS
 10
621.1645403709
 20
629.3367600534
 11
620.3645403709
 21
629.3367600534
  0
LINE
  5
2BA
100
AcDbEntity
  8
0
100
AcDbLine
 62
7
  6
CONTINUOUS
 10
640.0645403709
 20
375.3798061997
 11
635.0645403709
 21
380.3798061997
  0
LINE
  5
2BB
100
AcDbEntity
  8
0
100
AcDbLine
 62
7
  6
CONTINUOUS
 10
112.0645403709
 20
632.1867600534
 11
597.1645403709
 21
632.1867600534
  0
LINE
  5
2BC
100
AcDbEntity
  8
0
100
AcDbLine
 62
7
  6
CONTINUOUS
 10
110.4645403709
 20
632.440793361
 11
112.0645403709
 21
632.440793361
  0
LINE
  5
2BD
100
AcDbEntity
  8
0
100
AcDbLine
 62
7
  6
CONTINUOUS
 10
598.1645403709
 20
633.1867600534
 11
605.1645403709
 21
633.1867600534
  0
LINE
  5
2BE
100
AcDbEntity
  8
0
100
AcDbLine
 62
7
  6
CONTINUOUS
 10
108.0645403709
 20
633.6867600534
 11
111.0645403709
 21
633.6867600534
  0
LINE
  5
2BF
100
AcDbEntity
  8
0
100
AcDbLine
 62
7
  6
CONTINUOUS
 10
96.4645403709
 20
634.6867600534
 11
626.1645403709
 21
634.6867600534
  0
LINE
  5
2C0
100
AcDbEntity
  8
0
100
AcDbLine
 62
7
  6
CONTINUOUS
 10
96.4645403709
 20
642.3867599831
 11
624.6645401608
 21
642.3867539048
  0
LINE
  5
2C1
100
AcDbEntity
  8
0
100
AcDbLine
 62
7
  6
CONTINUOUS
 10
626.1645403709
 20
642.3867539048
 11
624.6645403709
 21
642.3867590287
  0
LINE
  5
2C2
100
AcDbEntity
  8
0
100
AcDbLine
 62
7
  6
CONTINUOUS
 10
624.3645403709
 20
644.1867600534
 11
98.2645403709
 21
644.1867600534
  0
LINE
  5
2C3
100
AcDbEntity
  8
0
100
AcDbLine
 62
7
  6
CONTINUOUS
 10
606.1645403709
 20
644.3867600534
 11
596.1645403709
 21
644.3867600534
  0
LINE
  5
2C4
100
AcDbEntity
  8
0
100
AcDbLine
 62
7
  6
CONTINUOUS
 10
446.1645403709
 20
644.3867600534
 11
428.1645403709
 21
644.3867600534
  0
LINE
  5
2C5
100
AcDbEntity
  8
0
100
AcDbLine
 62
7
  6
CONTINUOUS
 10
289.8645403709
 20
644.3867600534
 11
342.8645403709
 21
644.3867600534
  0
LINE
  5
2C6
100
AcDbEntity
  8
0
100
AcDbLine
 62
7
  6
CONTINUOUS
 10
597.1645403709
 20
644.4867600534
 11
605.1645403709
 21
644.4867600534
  0
LINE
  5
2C7
100
AcDbEntity
  8
0
100
AcDbLine
 62
7
  6
CONTINUOUS
 10
121.3145879383
 20
645.5867600534
 11
132.8144928035
 21
645.5867600534
  0
LINE
  5
2C8
100
AcDbEntity
  8
0
100
AcDbLine
 62
7
  6
CONTINUOUS
 10
349.8145879383
 20
645.5867600534
 11
361.3144928035
 21
645.5867600534
  0
LINE
  5
2C9
100
AcDbEntity
  8
0
100
AcDbLine
 62
7
  6
CONTINUOUS
 10
578.3145879383
 20
645.5867600534
 11
589.8144928035
 21
645.5867600534
  0
LINE
  5
2CA
100
AcDbEntity
  8
0
100
AcDbLine
 62
7
  6
CONTINUOUS
 10
126.8145403709
 20
645.9867600534
 11
127.3145403709
 21
645.9867600534
  0
LINE
  5
2CB
100
AcDbEntity
  8
0
100
AcDbLine
 62
7
  6
CONTINUOUS
 10
355.3145403709
 20
645.9867600534
 11
355.8145403709
 21
645.9867600534
  0
LINE
  5
2CC
100
AcDbEntity
  8
0
100
AcDbLine
 62
7
  6
CONTINUOUS
 10
583.8145403709
 20
645.9867600534
 11
584.3145403709
 21
645.9867600534
  0
LINE
  5
2CD
100
AcDbEntity
  8
0
100
AcDbLine
 62
7
  6
CONTINUOUS
 10
588.8145352309
 20
646.1867600534
 11
579.3145455109
 21
646.1867600534
  0
LINE
  5
2CE
100
AcDbEntity
  8
0
100
AcDbLine
 62
7
  6
CONTINUOUS
 10
360.3145352309
 20
646.1867600534
 11
350.8145455109
 21
646.1867600534
  0
LINE
  5
2CF
100
AcDbEntity
  8
0
100
AcDbLine
 62
7
  6
CONTINUOUS
 10
131.8145352309
 20
646.1867600534
 11
122.3145455109
 21
646.1867600534
  0
LINE
  5
2D0
100
AcDbEntity
  8
0
100
AcDbLine
 62
7
  6
CONTINUOUS
 10
122.3145403709
 20
647.8819506077
 11
131.8145403709
 21
647.8819506077
  0
LINE
  5
2D1
100
AcDbEntity
  8
0
100
AcDbLine
 62
7
  6
CONTINUOUS
 10
350.8145403709
 20
647.8819506077
 11
360.3145403709
 21
647.8819506077
  0
LINE
  5
2D2
100
AcDbEntity
  8
0
100
AcDbLine
 62
7
  6
CONTINUOUS
 10
579.3145403709
 20
647.8819506077
 11
588.8145403709
 21
647.8819506077
  0
LINE
  5
2D3
100
AcDbEntity
  8
0
100
AcDbLine
 62
7
  6
CONTINUOUS
 10
127.0171392007
 20
648.747976033
 11
131.3145402887
 21
648.747976033
  0
LINE
  5
2D4
100
AcDbEntity
  8
0
100
AcDbLine
 62
7
  6
CONTINUOUS
 10
355.5171392007
 20
648.747976033
 11
359.8145402887
 21
648.747976033
  0
LINE
  5
2D5
100
AcDbEntity
  8
0
100
AcDbLine
 62
7
  6
CONTINUOUS
 10
584.0171392007
 20
648.747976033
 11
588.3145402887
 21
648.747976033
  0
LINE
  5
2D6
100
AcDbEntity
  8
0
100
AcDbLine
 62
7
  6
CONTINUOUS
 10
126.4645403709
 20
648.7867600534
 11
127.6645403709
 21
648.7867600534
  0
LINE
  5
2D7
100
AcDbEntity
  8
0
100
AcDbLine
 62
7
  6
CONTINUOUS
 10
354.9645403709
 20
648.7867600534
 11
356.1645403709
 21
648.7867600534
  0
LINE
  5
2D8
100
AcDbEntity
  8
0
100
AcDbLine
 62
7
  6
CONTINUOUS
 10
583.4645403709
 20
648.7867600534
 11
584.6645403709
 21
648.7867600534
  0
LINE
  5
2D9
100
AcDbEntity
  8
0
100
AcDbLine
 62
7
  6
CONTINUOUS
 10
630.8645403709
 20
627.9481816566
 11
629.1645403709
 21
627.9867600534
  0
LINE
  5
2DA
100
AcDbEntity
  8
0
100
AcDbLine
 62
7
  6
CONTINUOUS
 10
630.8645403709
 20
627.9235595334
 11
631.371346571
 21
627.911970691
  0
LINE
  5
2DB
100
AcDbEntity
  8
0
100
AcDbLine
 62
7
  6
CONTINUOUS
 10
607.990290459
 20
476.3367600534
 11
608.0311183844
 21
476.3769524323
  0
LINE
  5
2DC
100
AcDbEntity
  8
0
100
AcDbLine
 62
7
  6
CONTINUOUS
 10
627.5645403709
 20
627.5567600534
 11
626.3645403709
 21
627.8567600534
  0
LINE
  5
2DD
100
AcDbEntity
  8
0
100
AcDbLine
 62
7
  6
CONTINUOUS
 10
607.9896075965
 20
613.3342321596
 11
607.9491999869
 21
613.1867600534
  0
LINE
  5
2DE
100
AcDbEntity
  8
0
100
AcDbLine
 62
7
  6
CONTINUOUS
 10
607.990290459
 20
457.3367600534
 11
608.0311183844
 21
457.3769524323
  0
LINE
  5
2DF
100
AcDbEntity
  8
0
100
AcDbLine
 62
7
  6
CONTINUOUS
 10
578.3145403709
 20
644.1867600534
 11
578.3145403709
 21
645.5867600534
  0
LINE
  5
2E0
100
AcDbEntity
  8
0
100
AcDbLine
 62
7
  6
CONTINUOUS
 10
579.3145403709
 20
646.1867600534
 11
579.3145403709
 21
647.8819505818
  0
LINE
  5
2E1
100
AcDbEntity
  8
0
100
AcDbLine
 62
7
  6
CONTINUOUS
 10
579.9145403709
 20
645.5867600534
 11
579.9145403709
 21
646.1867600534
  0
LINE
  5
2E2
100
AcDbEntity
  8
0
100
AcDbLine
 62
7
  6
CONTINUOUS
 10
581.7145403709
 20
649.5554497405
 11
581.7145403709
 21
649.5404386711
  0
LINE
  5
2E3
100
AcDbEntity
  8
0
100
AcDbLine
 62
7
  6
CONTINUOUS
 10
583.4645403709
 20
648.7867600534
 11
583.4645403709
 21
649.8510955264
  0
LINE
  5
2E4
100
AcDbEntity
  8
0
100
AcDbLine
 62
7
  6
CONTINUOUS
 10
583.8145403709
 20
645.5867600534
 11
583.8145403709
 21
646.1867600534
  0
LINE
  5
2E5
100
AcDbEntity
  8
0
100
AcDbLine
 62
7
  6
CONTINUOUS
 10
584.3145403709
 20
646.1867600534
 11
584.3145403709
 21
645.5867600534
  0
LINE
  5
2E6
100
AcDbEntity
  8
0
100
AcDbLine
 62
7
  6
CONTINUOUS
 10
584.6645403709
 20
649.8510955264
 11
584.6645403709
 21
648.7867600534
  0
LINE
  5
2E7
100
AcDbEntity
  8
0
100
AcDbLine
 62
7
  6
CONTINUOUS
 10
586.4145403709
 20
649.5404386711
 11
586.4145403709
 21
649.5554497405
  0
LINE
  5
2E8
100
AcDbEntity
  8
0
100
AcDbLine
 62
7
  6
CONTINUOUS
 10
588.2145403709
 20
646.1867600534
 11
588.2145403709
 21
645.5867600534
  0
LINE
  5
2E9
100
AcDbEntity
  8
0
100
AcDbLine
 62
7
  6
CONTINUOUS
 10
588.8145403709
 20
646.1867600534
 11
588.8145403709
 21
647.8819505818
  0
LINE
  5
2EA
100
AcDbEntity
  8
0
100
AcDbLine
 62
7
  6
CONTINUOUS
 10
589.8145403709
 20
644.1867600534
 11
589.8145403709
 21
645.5867600534
  0
LINE
  5
2EB
100
AcDbEntity
  8
0
100
AcDbLine
 62
7
  6
CONTINUOUS
 10
595.1645403709
 20
391.4867600534
 11
595.1645403709
 21
630.1867600534
  0
LINE
  5
2EC
100
AcDbEntity
  8
0
100
AcDbLine
 62
7
  6
CONTINUOUS
 10
607.9491999869
 20
460.4867600534
 11
607.9896027457
 21
460.3393062125
  0
LINE
  5
2ED
100
AcDbEntity
  8
0
100
AcDbLine
 62
7
  6
CONTINUOUS
 10
607.9491999869
 20
479.4867600534
 11
607.9896027457
 21
479.3393062124
  0
LINE
  5
2EE
100
AcDbEntity
  8
0
100
AcDbLine
 62
7
  6
CONTINUOUS
 10
596.1645403709
 20
644.3867600534
 11
596.1645403709
 21
644.1867600534
  0
LINE
  5
2EF
100
AcDbEntity
  8
0
100
AcDbLine
 62
7
  6
CONTINUOUS
 10
597.1645403709
 20
644.4867600534
 11
597.1645403709
 21
644.3867600534
  0
LINE
  5
2F0
100
AcDbEntity
  8
0
100
AcDbLine
 62
7
  6
CONTINUOUS
 10
600.2645403709
 20
634.6867600534
 11
600.2645403709
 21
633.1867600534
  0
LINE
  5
2F1
100
AcDbEntity
  8
0
100
AcDbLine
 62
7
  6
CONTINUOUS
 10
601.5645403709
 20
386.2867600534
 11
601.5645403709
 21
388.4867600534
  0
LINE
  5
2F2
100
AcDbEntity
  8
0
100
AcDbLine
 62
7
  6
CONTINUOUS
 10
602.0645403709
 20
633.1867600534
 11
602.0645403709
 21
634.6867600534
  0
LINE
  5
2F3
100
AcDbEntity
  8
0
100
AcDbLine
 62
7
  6
CONTINUOUS
 10
603.3645403709
 20
633.1867600534
 11
603.3645403709
 21
388.4867600534
  0
LINE
  5
2F4
100
AcDbEntity
  8
0
100
AcDbLine
 62
7
  6
CONTINUOUS
 10
603.6645403709
 20
634.6867600534
 11
603.6645403709
 21
633.1867600534
  0
LINE
  5
2F5
100
AcDbEntity
  8
0
100
AcDbLine
 62
7
  6
CONTINUOUS
 10
603.6645403709
 20
385.9164733939
 11
603.6645403709
 21
388.4867600534
  0
LINE
  5
2F6
100
AcDbEntity
  8
0
100
AcDbLine
 62
7
  6
CONTINUOUS
 10
605.1645403709
 20
644.4867600534
 11
605.1645403709
 21
644.3867600534
  0
LINE
  5
2F7
100
AcDbEntity
  8
0
100
AcDbLine
 62
7
  6
CONTINUOUS
 10
605.1645403709
 20
385.6519829229
 11
605.1645403709
 21
634.6867600534
  0
LINE
  5
2F8
100
AcDbEntity
  8
0
100
AcDbLine
 62
7
  6
CONTINUOUS
 10
606.1645403709
 20
644.3867600534
 11
606.1645403709
 21
644.1867600534
  0
LINE
  5
2F9
100
AcDbEntity
  8
0
100
AcDbLine
 62
7
  6
CONTINUOUS
 10
606.3743125995
 20
619.1867600534
 11
606.3743125995
 21
611.1867600534
  0
LINE
  5
2FA
100
AcDbEntity
  8
0
100
AcDbLine
 62
7
  6
CONTINUOUS
 10
606.3743125995
 20
481.4867600534
 11
606.3743125995
 21
473.4867600534
  0
LINE
  5
2FB
100
AcDbEntity
  8
0
100
AcDbLine
 62
7
  6
CONTINUOUS
 10
606.3743125995
 20
462.4867600534
 11
606.3743125995
 21
454.4867600534
  0
LINE
  5
2FC
100
AcDbEntity
  8
0
100
AcDbLine
 62
7
  6
CONTINUOUS
 10
607.1645403709
 20
615.7867600534
 11
607.1645403709
 21
614.5867600534
  0
LINE
  5
2FD
100
AcDbEntity
  8
0
100
AcDbLine
 62
7
  6
CONTINUOUS
 10
607.1645403709
 20
478.0867600534
 11
607.1645403709
 21
476.8867600534
  0
LINE
  5
2FE
100
AcDbEntity
  8
0
100
AcDbLine
 62
7
  6
CONTINUOUS
 10
607.1645403709
 20
459.0867600534
 11
607.1645403709
 21
457.8867600534
  0
LINE
  5
2FF
100
AcDbEntity
  8
0
100
AcDbLine
 62
7
  6
CONTINUOUS
 10
607.2124530047
 20
618.7322145989
 11
607.2124530047
 21
615.7867600534
  0
LINE
  5
300
100
AcDbEntity
  8
0
100
AcDbLine
 62
7
  6
CONTINUOUS
 10
607.2124530047
 20
481.0322145989
 11
607.2124530047
 21
478.0867600534
  0
LINE
  5
301
100
AcDbEntity
  8
0
100
AcDbLine
 62
7
  6
CONTINUOUS
 10
607.2124530047
 20
462.0322145989
 11
607.2124530047
 21
459.0867600534
  0
LINE
  5
302
100
AcDbEntity
  8
0
100
AcDbLine
 62
7
  6
CONTINUOUS
 10
607.2124530047
 20
454.941305508
 11
607.2124530047
 21
457.8867600534
  0
LINE
  5
303
100
AcDbEntity
  8
0
100
AcDbLine
 62
7
  6
CONTINUOUS
 10
607.2124530047
 20
473.941305508
 11
607.2124530047
 21
476.8867600534
  0
LINE
  5
304
100
AcDbEntity
  8
0
100
AcDbLine
 62
7
  6
CONTINUOUS
 10
607.2124530047
 20
611.641305508
 11
607.2124530047
 21
614.5867600534
  0
LINE
  5
305
100
AcDbEntity
  8
0
100
AcDbLine
 62
7
  6
CONTINUOUS
 10
607.9895641665
 20
475.6340710866
 11
607.9491999869
 21
475.4867600534
  0
LINE
  5
306
100
AcDbEntity
  8
0
100
AcDbLine
 62
7
  6
CONTINUOUS
 10
607.9895641665
 20
456.6340710866
 11
607.9491999869
 21
456.4867600534
  0
LINE
  5
307
100
AcDbEntity
  8
0
100
AcDbLine
 62
7
  6
CONTINUOUS
 10
619.1645403709
 20
623.08680175
 11
619.1645403709
 21
626.2867183568
  0
LINE
  5
308
100
AcDbEntity
  8
0
100
AcDbLine
 62
7
  6
CONTINUOUS
 10
619.5645403709
 20
622.6867600534
 11
619.5645403709
 21
626.6867600534
  0
LINE
  5
309
100
AcDbEntity
  8
0
100
AcDbLine
 62
7
  6
CONTINUOUS
 10
620.3645403709
 20
620.0367999359
 11
620.3645403709
 21
629.336720171
  0
LINE
  5
30A
100
AcDbEntity
  8
0
100
AcDbLine
 62
7
  6
CONTINUOUS
 10
621.1645403709
 20
619.6867600534
 11
621.1645403709
 21
634.6867600534
  0
LINE
  5
30B
100
AcDbEntity
  8
0
100
AcDbLine
 62
7
  6
CONTINUOUS
 10
622.6645403709
 20
619.6867600534
 11
622.6645403709
 21
634.6867600534
  0
LINE
  5
30C
100
AcDbEntity
  8
0
100
AcDbLine
 62
7
  6
CONTINUOUS
 10
623.6138594507
 20
626.163018168
 11
623.6138594507
 21
623.2105019389
  0
LINE
  5
30D
100
AcDbEntity
  8
0
100
AcDbLine
 62
7
  6
CONTINUOUS
 10
623.8761157134
 20
627.975184711
 11
623.8761157134
 21
625.8464951761
  0
LINE
  5
30E
100
AcDbEntity
  8
0
100
AcDbLine
 62
7
  6
CONTINUOUS
 10
623.8761157134
 20
623.5270249307
 11
623.8761157134
 21
621.3983353959
  0
LINE
  5
30F
100
AcDbEntity
  8
0
100
AcDbLine
 62
7
  6
CONTINUOUS
 10
624.6645403709
 20
599.1867600534
 11
624.6645403709
 21
642.3867539048
  0
LINE
  5
310
100
AcDbEntity
  8
0
100
AcDbLine
 62
7
  6
CONTINUOUS
 10
626.1645403709
 20
599.1867600534
 11
626.1645403709
 21
642.3867539048
  0
LINE
  5
311
100
AcDbEntity
  8
0
100
AcDbLine
 62
7
  6
CONTINUOUS
 10
626.3645403709
 20
627.8567600534
 11
626.3645403709
 21
621.5167600534
  0
LINE
  5
312
100
AcDbEntity
  8
0
100
AcDbLine
 62
7
  6
CONTINUOUS
 10
627.5645403709
 20
621.1868063023
 11
627.5645403709
 21
628.1867138045
  0
LINE
  5
313
100
AcDbEntity
  8
0
100
AcDbLine
 62
7
  6
CONTINUOUS
 10
628.3645403709
 20
628.1867138045
 11
628.3645403709
 21
621.1868063023
  0
LINE
  5
314
100
AcDbEntity
  8
0
100
AcDbLine
 62
7
  6
CONTINUOUS
 10
629.1645403709
 20
621.3867636888
 11
629.1645403709
 21
627.986756418
  0
LINE
  5
315
100
AcDbEntity
  8
0
100
AcDbLine
 62
7
  6
CONTINUOUS
 10
630.8645403709
 20
627.9481780237
 11
630.8645403709
 21
627.9235595334
  0
LINE
  5
316
100
AcDbEntity
  8
0
100
AcDbLine
 62
7
  6
CONTINUOUS
 10
630.8645403709
 20
621.4499605734
 11
630.8645403709
 21
621.4253420831
  0
LINE
  5
317
100
AcDbEntity
  8
0
100
AcDbLine
 62
7
  6
CONTINUOUS
 10
631.371346571
 20
627.911970691
 11
631.371346571
 21
621.4615494158
  0
LINE
  5
318
100
AcDbEntity
  8
0
100
AcDbLine
 62
7
  6
CONTINUOUS
 10
631.6645403709
 20
627.6095133607
 11
631.6645403709
 21
621.7640067462
  0
LINE
  5
319
100
AcDbEntity
  8
0
100
AcDbLine
 62
7
  6
CONTINUOUS
 10
623.6138594507
 20
626.163018168
 11
622.6645403709
 21
627.0307081299
  0
LINE
  5
31A
100
AcDbEntity
  8
0
100
AcDbLine
 62
7
  6
CONTINUOUS
 10
619.1645403709
 20
623.0867600534
 11
619.5645403709
 21
622.6867600534
  0
LINE
  5
31B
100
AcDbEntity
  8
0
100
AcDbLine
 62
7
  6
CONTINUOUS
 10
607.9491999869
 20
617.1867600534
 11
607.9896075965
 21
617.0392879472
  0
LINE
  5
31C
100
AcDbEntity
  8
0
100
AcDbLine
 62
7
  6
CONTINUOUS
 10
640.0645403709
 20
351.2867600534
 11
640.0645403709
 21
375.3798061997
  0
CIRCLE
  5
31D
100
AcDbEntity
  8
0
100
AcDbCircle
 62
7
  6
CONTINUOUS
 10
95.0645403709
 20
367.2867600534
 40
8.0
  0
ARC
  5
31E
100
AcDbEntity
  8
0
100
AcDbCircle
 62
7
  6
CONTINUOUS
 10
113.8645403709
 20
449.2867600534
 40
1.8
100
AcDbArc
 50
180.0
 51
260.6146135264
  0
ARC
  5
31F
100
AcDbEntity
  8
0
100
AcDbCircle
 62
7
  6
CONTINUOUS
 10
197.5645403709
 20
467.9867600534
 40
0.5
100
AcDbArc
 50
270.0
 51
360.0
  0
ARC
  5
320
100
AcDbEntity
  8
0
100
AcDbCircle
 62
7
  6
CONTINUOUS
 10
197.5645403709
 20
495.9867600534
 40
0.5
100
AcDbArc
 50
0.0
 51
90.0
  0
ARC
  5
321
100
AcDbEntity
  8
0
100
AcDbCircle
 62
7
  6
CONTINUOUS
 10
128.5645403709
 20
495.9867600534
 40
0.5
100
AcDbArc
 50
90.0
 51
180.0
  0
ARC
  5
322
100
AcDbEntity
  8
0
100
AcDbCircle
 62
7
  6
CONTINUOUS
 10
128.5645403709
 20
467.9867600534
 40
0.5
100
AcDbArc
 50
180.0
 51
270.0
  0
ARC
  5
323
100
AcDbEntity
  8
0
100
AcDbCircle
 62
7
  6
CONTINUOUS
 10
114.5866188657
 20
642.1859571528
 40
16.6232914124
100
AcDbArc
 50
178.1417542782
 51
179.3078831334
  0
ARC
  5
324
100
AcDbEntity
  8
0
100
AcDbCircle
 62
7
  6
CONTINUOUS
 10
355.5645403709
 20
641.3867600534
 40
8.5
100
AcDbArc
 50
60.0000006397
 51
73.9503291958
  0
ARC
  5
325
100
AcDbEntity
  8
0
100
AcDbCircle
 62
7
  6
CONTINUOUS
 10
355.5645403709
 20
641.3867600534
 40
8.5
100
AcDbArc
 50
106.0496708043
 51
119.9992713229
  0
ARC
  5
326
100
AcDbEntity
  8
0
100
AcDbCircle
 62
7
  6
CONTINUOUS
 10
127.0645403709
 20
641.3867600534
 40
8.5
100
AcDbArc
 50
60.0000006397
 51
73.9503291958
  0
ARC
  5
327
100
AcDbEntity
  8
0
100
AcDbCircle
 62
7
  6
CONTINUOUS
 10
127.0645403709
 20
641.3867600534
 40
8.5
100
AcDbArc
 50
106.0496708043
 51
119.9992713229
  0
ARC
  5
328
100
AcDbEntity
  8
0
100
AcDbCircle
 62
7
  6
CONTINUOUS
 10
355.5645403709
 20
641.3867600534
 40
8.4855745239
100
AcDbArc
 50
73.9223060076
 51
85.945333087
  0
ARC
  5
329
100
AcDbEntity
  8
0
100
AcDbCircle
 62
7
  6
CONTINUOUS
 10
355.5645403709
 20
641.3867600534
 40
8.4855745239
100
AcDbArc
 50
94.054666913
 51
106.0776939924
  0
ARC
  5
32A
100
AcDbEntity
  8
0
100
AcDbCircle
 62
7
  6
CONTINUOUS
 10
127.0645403709
 20
641.3867600534
 40
8.4855745239
100
AcDbArc
 50
73.9223060076
 51
85.945333087
  0
ARC
  5
32B
100
AcDbEntity
  8
0
100
AcDbCircle
 62
7
  6
CONTINUOUS
 10
127.0645403709
 20
641.3867600534
 40
8.4855745239
100
AcDbArc
 50
94.054666913
 51
106.0776939924
  0
ARC
  5
32C
100
AcDbEntity
  8
0
100
AcDbCircle
 62
7
  6
CONTINUOUS
 10
98.2645403709
 20
642.3867600534
 40
1.8
100
AcDbArc
 50
90.0
 51
180.0
  0
ARC
  5
32D
100
AcDbEntity
  8
0
100
AcDbCircle
 62
7
  6
CONTINUOUS
 10
359.3145403709
 20
647.8819505818
 40
1.0
100
AcDbArc
 50
0.0
 51
60.0
  0
ARC
  5
32E
100
AcDbEntity
  8
0
100
AcDbCircle
 62
7
  6
CONTINUOUS
 10
351.8145403709
 20
647.8819505818
 40
1.0
100
AcDbArc
 50
120.0002570038
 51
180.0
  0
ARC
  5
32F
100
AcDbEntity
  8
0
100
AcDbCircle
 62
7
  6
CONTINUOUS
 10
130.8145403709
 20
647.8819505818
 40
1.0
100
AcDbArc
 50
0.0
 51
60.0
  0
ARC
  5
330
100
AcDbEntity
  8
0
100
AcDbCircle
 62
7
  6
CONTINUOUS
 10
123.3145403709
 20
647.8819505818
 40
1.0
100
AcDbArc
 50
120.0002570038
 51
180.0
  0
ARC
  5
331
100
AcDbEntity
  8
0
100
AcDbCircle
 62
7
  6
CONTINUOUS
 10
601.7645403709
 20
458.4867600534
 40
6.5
100
AcDbArc
 50
17.9202131394
 51
33.0557311509
  0
ARC
  5
332
100
AcDbEntity
  8
0
100
AcDbCircle
 62
7
  6
CONTINUOUS
 10
601.7645403709
 20
458.4867600534
 40
6.5
100
AcDbArc
 50
326.9442688491
 51
342.0797868606
  0
ARC
  5
333
100
AcDbEntity
  8
0
100
AcDbCircle
 62
7
  6
CONTINUOUS
 10
603.6800550101
 20
457.9677549424
 40
4.5084921443
100
AcDbArc
 50
344.8142611854
 51
346.5839125102
  0
ARC
  5
334
100
AcDbEntity
  8
0
100
AcDbCircle
 62
7
  6
CONTINUOUS
 10
603.7020652486
 20
459.0113451497
 40
4.4857888101
100
AcDbArc
 50
13.4120080827
 51
15.1905977871
  0
ARC
  5
335
100
AcDbEntity
  8
0
100
AcDbCircle
 62
7
  6
CONTINUOUS
 10
603.9638274919
 20
457.89984687
 40
4.2167074996
100
AcDbArc
 50
346.5868166285
 51
347.2384895688
  0
ARC
  5
336
100
AcDbEntity
  8
0
100
AcDbCircle
 62
7
  6
CONTINUOUS
 10
603.9687279587
 20
459.0752123688
 40
4.2115846097
100
AcDbArc
 50
12.7558481223
 51
13.4083009261
  0
ARC
  5
337
100
AcDbEntity
  8
0
100
AcDbCircle
 62
7
  6
CONTINUOUS
 10
604.3169225246
 20
459.1532275701
 40
3.8547581189
100
AcDbArc
 50
11.6960381803
 51
12.7675984495
  0
ARC
  5
338
100
AcDbEntity
  8
0
100
AcDbCircle
 62
7
  6
CONTINUOUS
 10
604.3556011675
 20
457.8119901197
 40
3.8152045532
100
AcDbArc
 50
347.2256689399
 51
348.3085174432
  0
ARC
  5
339
100
AcDbEntity
  8
0
100
AcDbCircle
 62
7
  6
CONTINUOUS
 10
604.7385410362
 20
457.7332420484
 40
3.4242519482
100
AcDbArc
 50
348.3003969895
 51
349.2614992307
  0
ARC
  5
33A
100
AcDbEntity
  8
0
100
AcDbCircle
 62
7
  6
CONTINUOUS
 10
604.7458681653
 20
459.2414653101
 40
3.4168312755
100
AcDbArc
 50
10.7418237542
 51
11.7052615846
  0
ARC
  5
33B
100
AcDbEntity
  8
0
100
AcDbCircle
 62
7
  6
CONTINUOUS
 10
605.0476318737
 20
457.6746027216
 40
3.1096478859
100
AcDbArc
 50
349.2618769521
 51
349.866944082
  0
ARC
  5
33C
100
AcDbEntity
  8
0
100
AcDbCircle
 62
7
  6
CONTINUOUS
 10
605.1039851977
 20
459.3092681569
 40
3.0523521742
100
AcDbArc
 50
9.9507060942
 51
10.7443106979
  0
ARC
  5
33D
100
AcDbEntity
  8
0
100
AcDbCircle
 62
7
  6
CONTINUOUS
 10
601.7645403709
 20
477.4867600534
 40
6.5
100
AcDbArc
 50
17.9202131394
 51
33.0557311509
  0
ARC
  5
33E
100
AcDbEntity
  8
0
100
AcDbCircle
 62
7
  6
CONTINUOUS
 10
601.7645403709
 20
477.4867600534
 40
6.5
100
AcDbArc
 50
326.9442688491
 51
342.0797868606
  0
ARC
  5
33F
100
AcDbEntity
  8
0
100
AcDbCircle
 62
7
  6
CONTINUOUS
 10
603.6800550105
 20
476.9677549423
 40
4.5084921439
100
AcDbArc
 50
344.8142611853
 51
346.5839125103
  0
ARC
  5
340
100
AcDbEntity
  8
0
100
AcDbCircle
 62
7
  6
CONTINUOUS
 10
603.70206525
 20
478.01134515
 40
4.4857888086
100
AcDbArc
 50
13.4120080825
 51
15.1905977874
  0
ARC
  5
341
100
AcDbEntity
  8
0
100
AcDbCircle
 62
7
  6
CONTINUOUS
 10
603.963827483
 20
476.8998468721
 40
4.2167075087
100
AcDbArc
 50
346.5868166291
 51
347.2384895678
  0
ARC
  5
342
100
AcDbEntity
  8
0
100
AcDbCircle
 62
7
  6
CONTINUOUS
 10
603.9687279619
 20
478.0752123696
 40
4.2115846064
100
AcDbArc
 50
12.7558481216
 51
13.4083009263
  0
ARC
  5
343
100
AcDbEntity
  8
0
100
AcDbCircle
 62
7
  6
CONTINUOUS
 10
604.3169225203
 20
478.1532275691
 40
3.8547581232
100
AcDbArc
 50
11.696038181
 51
12.7675984486
  0
ARC
  5
344
100
AcDbEntity
  8
0
100
AcDbCircle
 62
7
  6
CONTINUOUS
 10
604.3556011659
 20
476.81199012
 40
3.8152045549
100
AcDbArc
 50
347.2256689401
 51
348.3085174431
  0
ARC
  5
345
100
AcDbEntity
  8
0
100
AcDbCircle
 62
7
  6
CONTINUOUS
 10
604.7385410359
 20
476.7332420485
 40
3.4242519485
100
AcDbArc
 50
348.3003969895
 51
349.2614992306
  0
ARC
  5
346
100
AcDbEntity
  8
0
100
AcDbCircle
 62
7
  6
CONTINUOUS
 10
604.7458681657
 20
478.2414653102
 40
3.416831275
100
AcDbArc
 50
10.741823754
 51
11.7052615847
  0
ARC
  5
347
100
AcDbEntity
  8
0
100
AcDbCircle
 62
7
  6
CONTINUOUS
 10
605.0476318828
 20
476.6746027199
 40
3.1096478766
100
AcDbArc
 50
349.2618769511
 51
349.8669440829
  0
ARC
  5
348
100
AcDbEntity
  8
0
100
AcDbCircle
 62
7
  6
CONTINUOUS
 10
605.1039852007
 20
478.3092681574
 40
3.0523521712
100
AcDbArc
 50
9.9507060941
 51
10.7443106985
  0
ARC
  5
349
100
AcDbEntity
  8
0
100
AcDbCircle
 62
7
  6
CONTINUOUS
 10
605.2349096716
 20
457.6409164333
 40
2.9193646986
100
AcDbArc
 50
349.8711084078
 51
350.0565182991
  0
ARC
  5
34A
100
AcDbEntity
  8
0
100
AcDbCircle
 62
7
  6
CONTINUOUS
 10
606.9199998919
 20
457.409796694
 40
1.2179649873
100
AcDbArc
 50
354.7715676963
 51
355.406872942
  0
ARC
  5
34B
100
AcDbEntity
  8
0
100
AcDbCircle
 62
7
  6
CONTINUOUS
 10
606.9210994273
 20
459.563757027
 40
1.2168675926
100
AcDbArc
 50
4.5956214317
 51
5.2311947384
  0
ARC
  5
34C
100
AcDbEntity
  8
0
100
AcDbCircle
 62
7
  6
CONTINUOUS
 10
606.3743125995
 20
455.4867600534
 40
1.0
100
AcDbArc
 50
270.0
 51
326.9442688491
  0
ARC
  5
34D
100
AcDbEntity
  8
0
100
AcDbCircle
 62
7
  6
CONTINUOUS
 10
606.3743125995
 20
461.4867600534
 40
1.0
100
AcDbArc
 50
33.0557311509
 51
90.0
  0
ARC
  5
34E
100
AcDbEntity
  8
0
100
AcDbCircle
 62
7
  6
CONTINUOUS
 10
608.7032512541
 20
457.4864939603
 40
0.7540514002
100
AcDbArc
 50
179.9797812028
 51
181.6319934219
  0
ARC
  5
34F
100
AcDbEntity
  8
0
100
AcDbCircle
 62
7
  6
CONTINUOUS
 10
607.9260550357
 20
459.5786631015
 40
0.2102138252
100
AcDbArc
 50
351.1247655975
 51
353.6900592561
  0
ARC
  5
350
100
AcDbEntity
  8
0
100
AcDbCircle
 62
7
  6
CONTINUOUS
 10
607.9264126868
 20
457.3949031486
 40
0.2098530745
100
AcDbArc
 50
6.3081330526
 51
8.8775117404
  0
ARC
  5
351
100
AcDbEntity
  8
0
100
AcDbCircle
 62
7
  6
CONTINUOUS
 10
605.2349095759
 20
476.6409164503
 40
2.9193647957
100
AcDbArc
 50
349.8711084095
 51
350.0565182946
  0
ARC
  5
352
100
AcDbEntity
  8
0
100
AcDbCircle
 62
7
  6
CONTINUOUS
 10
606.9199998879
 20
476.4097966943
 40
1.2179649914
100
AcDbArc
 50
354.7715676973
 51
355.4068729409
  0
ARC
  5
353
100
AcDbEntity
  8
0
100
AcDbCircle
 62
7
  6
CONTINUOUS
 10
606.9210994276
 20
478.563757027
 40
1.2168675923
100
AcDbArc
 50
4.595621432
 51
5.2311947388
  0
ARC
  5
354
100
AcDbEntity
  8
0
100
AcDbCircle
 62
7
  6
CONTINUOUS
 10
606.3743125995
 20
474.4867600534
 40
1.0
100
AcDbArc
 50
270.0
 51
326.9442688491
  0
ARC
  5
355
100
AcDbEntity
  8
0
100
AcDbCircle
 62
7
  6
CONTINUOUS
 10
606.3743125995
 20
480.4867600534
 40
1.0
100
AcDbArc
 50
33.0557311509
 51
90.0
  0
ARC
  5
356
100
AcDbEntity
  8
0
100
AcDbCircle
 62
7
  6
CONTINUOUS
 10
608.7032512541
 20
476.4864939603
 40
0.7540514002
100
AcDbArc
 50
179.9797812028
 51
181.6319934219
  0
ARC
  5
357
100
AcDbEntity
  8
0
100
AcDbCircle
 62
7
  6
CONTINUOUS
 10
607.9260550359
 20
478.5786631014
 40
0.210213825
100
AcDbArc
 50
351.1247655957
 51
353.6900592572
  0
ARC
  5
358
100
AcDbEntity
  8
0
100
AcDbCircle
 62
7
  6
CONTINUOUS
 10
607.9264126865
 20
476.3949031486
 40
0.2098530748
100
AcDbArc
 50
6.3081330556
 51
8.87751174
  0
CIRCLE
  5
359
100
AcDbEntity
  8
0
100
AcDbCircle
 62
7
  6
CONTINUOUS
 10
625.0645403709
 20
367.2867600534
 40
8.0
  0
ARC
  5
35A
100
AcDbEntity
  8
0
100
AcDbCircle
 62
7
  6
CONTINUOUS
 10
601.7645403709
 20
615.1867600534
 40
6.5
100
AcDbArc
 50
17.9202131394
 51
33.0557311509
  0
ARC
  5
35B
100
AcDbEntity
  8
0
100
AcDbCircle
 62
7
  6
CONTINUOUS
 10
601.7645403709
 20
615.1867600534
 40
6.5
100
AcDbArc
 50
326.9442688491
 51
342.0797868606
  0
ARC
  5
35C
100
AcDbEntity
  8
0
100
AcDbCircle
 62
7
  6
CONTINUOUS
 10
584.0645403709
 20
641.3867600534
 40
8.5
100
AcDbArc
 50
60.0000006397
 51
73.9503291958
  0
ARC
  5
35D
100
AcDbEntity
  8
0
100
AcDbCircle
 62
7
  6
CONTINUOUS
 10
584.0645403709
 20
641.3867600534
 40
8.5
100
AcDbArc
 50
106.0496708043
 51
119.9992713229
  0
ARC
  5
35E
100
AcDbEntity
  8
0
100
AcDbCircle
 62
7
  6
CONTINUOUS
 10
584.0645403709
 20
641.3867600534
 40
8.4855745239
100
AcDbArc
 50
73.9223060076
 51
85.945333087
  0
ARC
  5
35F
100
AcDbEntity
  8
0
100
AcDbCircle
 62
7
  6
CONTINUOUS
 10
584.0645403709
 20
641.3867600534
 40
8.4855745239
100
AcDbArc
 50
94.054666913
 51
106.0776939924
  0
ARC
  5
360
100
AcDbEntity
  8
0
100
AcDbCircle
 62
7
  6
CONTINUOUS
 10
587.8145403709
 20
647.8819505818
 40
1.0
100
AcDbArc
 50
0.0
 51
60.0
  0
ARC
  5
361
100
AcDbEntity
  8
0
100
AcDbCircle
 62
7
  6
CONTINUOUS
 10
580.3145403709
 20
647.8819505818
 40
1.0
100
AcDbArc
 50
120.0002570038
 51
180.0
  0
ARC
  5
362
100
AcDbEntity
  8
0
100
AcDbCircle
 62
7
  6
CONTINUOUS
 10
603.6800550103
 20
614.6677549423
 40
4.5084921441
100
AcDbArc
 50
344.8142611853
 51
346.5839125102
  0
ARC
  5
363
100
AcDbEntity
  8
0
100
AcDbCircle
 62
7
  6
CONTINUOUS
 10
603.7020652494
 20
615.7113451499
 40
4.4857888093
100
AcDbArc
 50
13.4120080825
 51
15.1905977872
  0
ARC
  5
364
100
AcDbEntity
  8
0
100
AcDbCircle
 62
7
  6
CONTINUOUS
 10
603.9638274899
 20
614.5998468705
 40
4.2167075017
100
AcDbArc
 50
346.5868166284
 51
347.2384895683
  0
ARC
  5
365
100
AcDbEntity
  8
0
100
AcDbCircle
 62
7
  6
CONTINUOUS
 10
603.9687279612
 20
615.7752123694
 40
4.211584607
100
AcDbArc
 50
12.755848122
 51
13.4083009263
  0
ARC
  5
366
100
AcDbEntity
  8
0
100
AcDbCircle
 62
7
  6
CONTINUOUS
 10
604.3169225208
 20
615.8532275692
 40
3.8547581227
100
AcDbArc
 50
11.696038181
 51
12.767598449
  0
ARC
  5
367
100
AcDbEntity
  8
0
100
AcDbCircle
 62
7
  6
CONTINUOUS
 10
604.3556011675
 20
614.5119901196
 40
3.8152045532
100
AcDbArc
 50
347.2256689399
 51
348.3085174434
  0
ARC
  5
368
100
AcDbEntity
  8
0
100
AcDbCircle
 62
7
  6
CONTINUOUS
 10
604.7385410371
 20
614.4332420482
 40
3.4242519473
100
AcDbArc
 50
348.3003969897
 51
349.2614992311
  0
ARC
  5
369
100
AcDbEntity
  8
0
100
AcDbCircle
 62
7
  6
CONTINUOUS
 10
604.7458681628
 20
615.9414653096
 40
3.416831278
100
AcDbArc
 50
10.7418237542
 51
11.7052615839
  0
ARC
  5
36A
100
AcDbEntity
  8
0
100
AcDbCircle
 62
7
  6
CONTINUOUS
 10
605.0476318767
 20
614.3746027211
 40
3.1096478828
100
AcDbArc
 50
349.2618769515
 51
349.8669440821
  0
ARC
  5
36B
100
AcDbEntity
  8
0
100
AcDbCircle
 62
7
  6
CONTINUOUS
 10
605.1039851983
 20
616.009268157
 40
3.0523521736
100
AcDbArc
 50
9.9507060944
 51
10.7443106982
  0
ARC
  5
36C
100
AcDbEntity
  8
0
100
AcDbCircle
 62
7
  6
CONTINUOUS
 10
605.2349096171
 20
614.340916443
 40
2.9193647539
100
AcDbArc
 50
349.8711084088
 51
350.0565182966
  0
ARC
  5
36D
100
AcDbEntity
  8
0
100
AcDbCircle
 62
7
  6
CONTINUOUS
 10
622.2645403709
 20
624.6867600534
 40
2.0
100
AcDbArc
 50
312.4277171028
 51
47.5722828972
  0
ARC
  5
36E
100
AcDbEntity
  8
0
100
AcDbCircle
 62
7
  6
CONTINUOUS
 10
606.9199999016
 20
614.1097966931
 40
1.2179649775
100
AcDbArc
 50
354.7715676937
 51
355.4068729443
  0
ARC
  5
36F
100
AcDbEntity
  8
0
100
AcDbCircle
 62
7
  6
CONTINUOUS
 10
606.9210994315
 20
616.2637570273
 40
1.2168675884
100
AcDbArc
 50
4.5956214309
 51
5.2311947398
  0
ARC
  5
370
100
AcDbEntity
  8
0
100
AcDbCircle
 62
7
  6
CONTINUOUS
 10
606.3743125995
 20
612.1867600534
 40
1.0
100
AcDbArc
 50
270.0
 51
326.9442688491
  0
ARC
  5
371
100
AcDbEntity
  8
0
100
AcDbCircle
 62
7
  6
CONTINUOUS
 10
606.3743125995
 20
618.1867600534
 40
1.0
100
AcDbArc
 50
33.0557311509
 51
90.0
  0
ARC
  5
372
100
AcDbEntity
  8
0
100
AcDbCircle
 62
7
  6
CONTINUOUS
 10
608.7032512541
 20
614.1864939603
 40
0.7540514002
100
AcDbArc
 50
179.9797812028
 51
181.6319934219
  0
ARC
  5
373
100
AcDbEntity
  8
0
100
AcDbCircle
 62
7
  6
CONTINUOUS
 10
623.2645403709
 20
627.975184711
 40
0.6115753425
100
AcDbArc
 50
0.0
 51
171.1582518336
  0
ARC
  5
374
100
AcDbEntity
  8
0
100
AcDbCircle
 62
7
  6
CONTINUOUS
 10
623.2645403709
 20
621.3983353959
 40
0.6115753425
100
AcDbArc
 50
188.8417481664
 51
360.0
  0
ARC
  5
375
100
AcDbEntity
  8
0
100
AcDbCircle
 62
7
  6
CONTINUOUS
 10
607.9260550361
 20
616.2786631014
 40
0.2102138248
100
AcDbArc
 50
351.1247655943
 51
353.6900592583
  0
ARC
  5
376
100
AcDbEntity
  8
0
100
AcDbCircle
 62
7
  6
CONTINUOUS
 10
607.9264126865
 20
614.0949031486
 40
0.2098530748
100
AcDbArc
 50
6.3081330535
 51
8.8775117379
  0
ARC
  5
377
100
AcDbEntity
  8
0
100
AcDbCircle
 62
7
  6
CONTINUOUS
 10
608.3915650872
 20
642.2006133597
 40
16.274039566
100
AcDbArc
 50
0.655367359
 51
1.8480204826
  0
ARC
  5
378
100
AcDbEntity
  8
0
100
AcDbCircle
 62
7
  6
CONTINUOUS
 10
624.3645403709
 20
642.3867600534
 40
1.8
100
AcDbArc
 50
0.0
 51
90.0
  0
SPLINE
  5
379
100
AcDbEntity
  8
0
100
AcDbSpline
 62
7
  6
CONTINUOUS
 70
0
 71
3
 72
8
 73
4
 74
0
 42
0.0000001
 43
0.0000001
 44
0.0000000001
 40
0.0
 40
0.0
 40
0.0
 40
0.0
 40
1.0
 40
1.0
 40
1.0
 40
1.0
 10
631.371346571
 20
621.4615494158
 30
0.0
 10
631.4223296939
 20
621.4627152488
 30
0.0
 10
631.4745758786
 20
621.4778977381
 30
0.0
 10
631.5182748558
 20
621.504185328
 30
0.0
  0
SPLINE
  5
37A
100
AcDbEntity
  8
0
100
AcDbSpline
 62
7
  6
CONTINUOUS
 70
0
 71
3
 72
8
 73
4
 74
0
 42
0.0000001
 43
0.0000001
 44
0.0000000001
 40
0.0
 40
0.0
 40
0.0
 40
0.0
 40
1.0
 40
1.0
 40
1.0
 40
1.0
 10
631.5182748558
 20
621.504185328
 30
0.0
 10
631.562054548
 20
621.5305214728
 30
0.0
 10
631.5999804791
 20
621.569593816
 30
0.0
 10
631.6251361536
 20
621.6140622995
 30
0.0
  0
SPLINE
  5
37B
100
AcDbEntity
  8
0
100
AcDbSpline
 62
7
  6
CONTINUOUS
 70
0
 71
3
 72
8
 73
4
 74
0
 42
0.0000001
 43
0.0000001
 44
0.0000000001
 40
0.0
 40
0.0
 40
0.0
 40
0.0
 40
1.0
 40
1.0
 40
1.0
 40
1.0
 10
631.6251361536
 20
621.6140622995
 30
0.0
 10
631.6505812846
 20
621.6590424645
 30
0.0
 10
631.6645403709
 20
621.7123282213
 30
0.0
 10
631.6645403709
 20
621.7640067462
 30
0.0
  0
SPLINE
  5
37C
100
AcDbEntity
  8
0
100
AcDbSpline
 62
7
  6
CONTINUOUS
 70
0
 71
3
 72
8
 73
4
 74
0
 42
0.0000001
 43
0.0000001
 44
0.0000000001
 40
0.0
 40
0.0
 40
0.0
 40
0.0
 40
1.0
 40
1.0
 40
1.0
 40
1.0
 10
631.371346571
 20
627.911970691
 30
0.0
 10
631.4223292187
 20
627.9108048689
 30
0.0
 10
631.4745697769
 20
627.8956113173
 30
0.0
 10
631.5182719957
 20
627.8693300391
 30
0.0
  0
SPLINE
  5
37D
100
AcDbEntity
  8
0
100
AcDbSpline
 62
7
  6
CONTINUOUS
 70
0
 71
3
 72
9
 73
5
 74
0
 42
0.0000001
 43
0.0000001
 44
0.0000000001
 40
0.0
 40
0.0
 40
0.0
 40
0.0
 40
0.2510232529
 40
1.0
 40
1.0
 40
1.0
 40
1.0
 10
631.5182719957
 20
627.8693300391
 30
0.0
 10
631.5293313058
 20
627.8626792829
 30
0.0
 10
631.571666902
 20
627.833400874
 30
0.0
 10
631.6061772735
 20
627.7929716629
 30
0.0
 10
631.6251310585
 20
627.7594549002
 30
0.0
  0
SPLINE
  5
37E
100
AcDbEntity
  8
0
100
AcDbSpline
 62
7
  6
CONTINUOUS
 70
0
 71
3
 72
8
 73
4
 74
0
 42
0.0000001
 43
0.0000001
 44
0.0000000001
 40
0.0
 40
0.0
 40
0.0
 40
0.0
 40
1.0
 40
1.0
 40
1.0
 40
1.0
 10
631.6251310585
 20
627.7594549002
 30
0.0
 10
631.6505692937
 20
627.7144714157
 30
0.0
 10
631.6645403709
 20
627.6611913801
 30
0.0
 10
631.6645403709
 20
627.6095133607
 30
0.0
  0
LINE
  5
37F
100
AcDbEntity
  8
0
100
AcDbLine
 62
7
  6
CONTINUOUS
 10
607.9896027457
 20
460.3393062125
 11
608.0311183844
 21
460.1867600534
  0
SPLINE
  5
380
100
AcDbEntity
  8
0
100
AcDbSpline
 62
7
  6
CONTINUOUS
 70
0
 71
3
 72
10
 73
6
 74
0
 42
0.0000001
 43
0.0000001
 44
0.0000000001
 40
0.0
 40
0.0
 40
0.0
 40
0.0
 40
0.3140541003
 40
0.611517424
 40
1.0
 40
1.0
 40
1.0
 40
1.0
 10
607.9902958797
 20
459.6367600534
 30
0.0
 10
607.9759802103
 20
459.6367600534
 30
0.0
 10
607.9597647949
 20
459.6026454679
 30
0.0
 10
607.9528134599
 20
459.561229375
 30
0.0
 10
607.9501728522
 20
459.5290307512
 30
0.0
 10
607.9495919279
 20
459.5113319062
 30
0.0
  0
SPLINE
  5
381
100
AcDbEntity
  8
0
100
AcDbSpline
 62
7
  6
CONTINUOUS
 70
0
 71
3
 72
11
 73
7
 74
0
 42
0.0000001
 43
0.0000001
 44
0.0000000001
 40
0.0
 40
0.0
 40
0.0
 40
0.0
 40
0.2559539941
 40
0.5359659294
 40
0.7959238963
 40
1.0
 40
1.0
 40
1.0
 40
1.0
 10
607.9495919279
 20
459.5113319062
 30
0.0
 10
607.9483764538
 20
459.4743004232
 30
0.0
 10
607.9516711607
 20
459.3965793647
 30
0.0
 10
607.9670925903
 20
459.2822439954
 30
0.0
 10
607.9911149655
 20
459.1771803192
 30
0.0
 10
608.0130633426
 20
459.1132859467
 30
0.0
 10
608.0260667164
 20
459.0867600534
 30
0.0
  0
SPLINE
  5
382
100
AcDbEntity
  8
0
100
AcDbSpline
 62
7
  6
CONTINUOUS
 70
0
 71
3
 72
11
 73
7
 74
0
 42
0.0000001
 43
0.0000001
 44
0.0000000001
 40
0.0
 40
0.0
 40
0.0
 40
0.0
 40
0.2014238408
 40
0.4570280339
 40
0.7359743677
 40
1.0
 40
1.0
 40
1.0
 40
1.0
 10
608.0260667164
 20
457.8867600534
 30
0.0
 10
608.0139572997
 20
457.8620577646
 30
0.0
 10
607.9931670486
 20
457.8028528619
 30
0.0
 10
607.9698399146
 20
457.7050113547
 30
0.0
 10
607.9538244273
 20
457.5969841756
 30
0.0
 10
607.9491999009
 20
457.522821036
 30
0.0
 10
607.9491999009
 20
457.4867600534
 30
0.0
  0
SPLINE
  5
383
100
AcDbEntity
  8
0
100
AcDbSpline
 62
7
  6
CONTINUOUS
 70
0
 71
3
 72
10
 73
6
 74
0
 42
0.0000001
 43
0.0000001
 44
0.0000000001
 40
0.0
 40
0.0
 40
0.0
 40
0.0
 40
0.3890225872
 40
0.6868295751
 40
1.0
 40
1.0
 40
1.0
 40
1.0
 10
607.9495057213
 20
457.4650187218
 30
0.0
 10
607.9500274017
 20
457.446933728
 30
0.0
 10
607.9525715747
 20
457.4140076096
 30
0.0
 10
607.9594795113
 20
457.371796555
 30
0.0
 10
607.9757323565
 20
457.3367648141
 30
0.0
 10
607.9902971682
 20
457.3367597507
 30
0.0
  0
SPLINE
  5
384
100
AcDbEntity
  8
0
100
AcDbSpline
 62
7
  6
CONTINUOUS
 70
0
 71
3
 72
9
 73
5
 74
0
 42
0.0000001
 43
0.0000001
 44
0.0000000001
 40
0.0
 40
0.0
 40
0.0
 40
0.0
 40
0.2735830278
 40
1.0
 40
1.0
 40
1.0
 40
1.0
 10
608.1104213251
 20
457.1368103198
 30
0.0
 10
608.1129970117
 20
457.1515031301
 30
0.0
 10
608.1219838939
 20
457.2052781128
 30
0.0
 10
608.1292920034
 20
457.2593646946
 30
0.0
 10
608.1328972932
 20
457.298807486
 30
0.0
  0
SPLINE
  5
385
100
AcDbEntity
  8
0
100
AcDbSpline
 62
7
  6
CONTINUOUS
 70
0
 71
3
 72
9
 73
5
 74
0
 42
0.0000001
 43
0.0000001
 44
0.0000000001
 40
0.0
 40
0.0
 40
0.0
 40
0.0
 40
0.5636966434
 40
1.0
 40
1.0
 40
1.0
 40
1.0
 10
608.1340533744
 20
457.3122628438
 30
0.0
 10
608.1356434563
 20
457.3320805268
 30
0.0
 10
608.1375958393
 20
457.3673066857
 30
0.0
 10
608.1367019277
 20
457.4026675248
 30
0.0
 10
608.1349951783
 20
457.4179608394
 30
0.0
  0
SPLINE
  5
386
100
AcDbEntity
  8
0
100
AcDbSpline
 62
7
  6
CONTINUOUS
 70
0
 71
3
 72
9
 73
5
 74
0
 42
0.0000001
 43
0.0000001
 44
0.0000000001
 40
0.0
 40
0.0
 40
0.0
 40
0.0
 40
0.2745370927
 40
1.0
 40
1.0
 40
1.0
 40
1.0
 10
608.1337518291
 20
457.4272882219
 30
0.0
 10
608.1334811044
 20
457.4290096378
 30
0.0
 10
608.1324040698
 20
457.4352636753
 30
0.0
 10
608.1309493139
 20
457.4414641294
 30
0.0
 10
608.1295489931
 20
457.4458507868
 30
0.0
  0
SPLINE
  5
387
100
AcDbEntity
  8
0
100
AcDbSpline
 62
7
  6
CONTINUOUS
 70
0
 71
3
 72
9
 73
5
 74
0
 42
0.0000001
 43
0.0000001
 44
0.0000000001
 40
0.0
 40
0.0
 40
0.0
 40
0.0
 40
0.2736458321
 40
1.0
 40
1.0
 40
1.0
 40
1.0
 10
608.1295489931
 20
457.4458507868
 30
0.0
 10
608.1292158896
 20
457.4468942695
 30
0.0
 10
608.1279240999
 20
457.4506815627
 30
0.0
 10
608.1263137036
 20
457.45437321
 30
0.0
 10
608.124878387
 20
457.4569017078
 30
0.0
  0
SPLINE
  5
388
100
AcDbEntity
  8
0
100
AcDbSpline
 62
7
  6
CONTINUOUS
 70
0
 71
3
 72
9
 73
5
 74
0
 42
0.0000001
 43
0.0000001
 44
0.0000000001
 40
0.0
 40
0.0
 40
0.0
 40
0.0
 40
0.5465843139
 40
1.0
 40
1.0
 40
1.0
 40
1.0
 10
608.124878387
 20
457.4569017078
 30
0.0
 10
608.1230365413
 20
457.4601463599
 30
0.0
 10
608.1188312569
 20
457.4658955238
 30
0.0
 10
608.1118699057
 20
457.4682559387
 30
0.0
 10
608.1087748995
 20
457.4682551848
 30
0.0
  0
LINE
  5
389
100
AcDbEntity
  8
0
100
AcDbLine
 62
7
  6
CONTINUOUS
 10
608.0311183844
 20
456.7867600534
 11
607.9895641665
 21
456.6340710866
  0
SPLINE
  5
38A
100
AcDbEntity
  8
0
100
AcDbSpline
 62
7
  6
CONTINUOUS
 70
0
 71
3
 72
9
 73
5
 74
0
 42
0.0000001
 43
0.0000001
 44
0.0000000001
 40
0.0
 40
0.0
 40
0.0
 40
0.0
 40
0.4534043577
 40
1.0
 40
1.0
 40
1.0
 40
1.0
 10
608.1087744003
 20
459.5052645958
 30
0.0
 10
608.1118699042
 20
459.5052645958
 30
0.0
 10
608.1188337531
 20
459.5076218437
 30
0.0
 10
608.1230373686
 20
459.5133753997
 30
0.0
 10
608.1248788751
 20
459.5166211301
 30
0.0
  0
SPLINE
  5
38B
100
AcDbEntity
  8
0
100
AcDbSpline
 62
7
  6
CONTINUOUS
 70
0
 71
3
 72
9
 73
5
 74
0
 42
0.0000001
 43
0.0000001
 44
0.0000000001
 40
0.0
 40
0.0
 40
0.0
 40
0.0
 40
0.2272965169
 40
1.0
 40
1.0
 40
1.0
 40
1.0
 10
608.1248788751
 20
459.5166211301
 30
0.0
 10
608.1253278023
 20
459.5174123826
 30
0.0
 10
608.1271845435
 20
459.5209607694
 30
0.0
 10
608.1286085427
 20
459.5247230675
 30
0.0
 10
608.1295493544
 20
459.5276691708
 30
0.0
  0
SPLINE
  5
38C
100
AcDbEntity
  8
0
100
AcDbSpline
 62
7
  6
CONTINUOUS
 70
0
 71
3
 72
9
 73
5
 74
0
 42
0.0000001
 43
0.0000001
 44
0.0000000001
 40
0.0
 40
0.0
 40
0.0
 40
0.0
 40
0.2258648086
 40
1.0
 40
1.0
 40
1.0
 40
1.0
 10
608.1295493544
 20
459.5276691708
 30
0.0
 10
608.1299854792
 20
459.5290348731
 30
0.0
 10
608.1317609306
 20
459.5351311263
 30
0.0
 10
608.1329887164
 20
459.541376515
 30
0.0
 10
608.1337518963
 20
459.5462306115
 30
0.0
  0
SPLINE
  5
38D
100
AcDbEntity
  8
0
100
AcDbSpline
 62
7
  6
CONTINUOUS
 70
0
 71
3
 72
9
 73
5
 74
0
 42
0.0000001
 43
0.0000001
 44
0.0000000001
 40
0.0
 40
0.0
 40
0.0
 40
0.0
 40
0.4363155745
 40
1.0
 40
1.0
 40
1.0
 40
1.0
 10
608.1349953649
 20
459.5555591809
 30
0.0
 10
608.136702562
 20
459.5708526634
 30
0.0
 10
608.1375939761
 20
459.6062130671
 30
0.0
 10
608.1356456862
 20
459.6414388966
 30
0.0
 10
608.1340547959
 20
459.6612558047
 30
0.0
  0
SPLINE
  5
38E
100
AcDbEntity
  8
0
100
AcDbSpline
 62
7
  6
CONTINUOUS
 70
0
 71
3
 72
9
 73
5
 74
0
 42
0.0000001
 43
0.0000001
 44
0.0000000001
 40
0.0
 40
0.0
 40
0.0
 40
0.0
 40
0.2247535828
 40
1.0
 40
1.0
 40
1.0
 40
1.0
 10
608.132898652
 20
459.6747046582
 30
0.0
 10
608.1317824557
 20
459.6869096242
 30
0.0
 10
608.1260371976
 20
459.7411419883
 30
0.0
 10
608.1177196092
 20
459.7950776529
 30
0.0
 10
608.1104201824
 20
459.8367171859
 30
0.0
  0
SPLINE
  5
38F
100
AcDbEntity
  8
0
100
AcDbSpline
 62
7
  6
CONTINUOUS
 70
0
 71
3
 72
10
 73
6
 74
0
 42
0.0000001
 43
0.0000001
 44
0.0000000001
 40
0.0
 40
0.0
 40
0.0
 40
0.0
 40
0.1351666651
 40
0.3420319074
 40
1.0
 40
1.0
 40
1.0
 40
1.0
 10
608.1087748995
 20
457.4682551848
 30
0.0
 10
608.103245745
 20
457.4682538379
 30
0.0
 10
608.0898833256
 20
457.4614091075
 30
0.0
 10
608.0620512308
 20
457.4316390715
 30
0.0
 10
608.0439538857
 20
457.4006096882
 30
0.0
 10
608.0311183844
 20
457.3769524323
 30
0.0
  0
SPLINE
  5
390
100
AcDbEntity
  8
0
100
AcDbSpline
 62
7
  6
CONTINUOUS
 70
0
 71
3
 72
10
 73
6
 74
0
 42
0.0000001
 43
0.0000001
 44
0.0000000001
 40
0.0
 40
0.0
 40
0.0
 40
0.0
 40
0.1352261486
 40
0.3421683636
 40
1.0
 40
1.0
 40
1.0
 40
1.0
 10
608.108774399
 20
459.5052645958
 30
0.0
 10
608.1032428505
 20
459.5052645958
 30
0.0
 10
608.0898776412
 20
459.512120735
 30
0.0
 10
608.0620435593
 20
459.5418830683
 30
0.0
 10
608.0439511325
 20
459.5729154932
 30
0.0
 10
608.0311183844
 20
459.5965676746
 30
0.0
  0
SPLINE
  5
391
100
AcDbEntity
  8
0
100
AcDbSpline
 62
7
  6
CONTINUOUS
 70
0
 71
3
 72
9
 73
5
 74
0
 42
0.0000001
 43
0.0000001
 44
0.0000000001
 40
0.0
 40
0.0
 40
0.0
 40
0.0
 40
0.6216261511
 40
1.0
 40
1.0
 40
1.0
 40
1.0
 10
608.0311183844
 20
459.5965676746
 30
0.0
 10
608.0253015264
 20
459.6072887907
 30
0.0
 10
608.0155637578
 20
459.6239088713
 30
0.0
 10
607.9977202875
 20
459.6367600534
 30
0.0
 10
607.9902958862
 20
459.6367600534
 30
0.0
  0
LINE
  5
392
100
AcDbEntity
  8
0
100
AcDbLine
 62
7
  6
CONTINUOUS
 10
607.9896027457
 20
617.0393062124
 11
608.0311183844
 21
616.8867600534
  0
SPLINE
  5
393
100
AcDbEntity
  8
0
100
AcDbSpline
 62
7
  6
CONTINUOUS
 70
0
 71
3
 72
10
 73
6
 74
0
 42
0.0000001
 43
0.0000001
 44
0.0000000001
 40
0.0
 40
0.0
 40
0.0
 40
0.0
 40
0.3140541003
 40
0.611517424
 40
1.0
 40
1.0
 40
1.0
 40
1.0
 10
607.9902958797
 20
616.3367600534
 30
0.0
 10
607.9759802103
 20
616.3367600534
 30
0.0
 10
607.9597647949
 20
616.3026454679
 30
0.0
 10
607.9528134599
 20
616.261229375
 30
0.0
 10
607.9501728522
 20
616.2290307512
 30
0.0
 10
607.9495919279
 20
616.2113319062
 30
0.0
  0
SPLINE
  5
394
100
AcDbEntity
  8
0
100
AcDbSpline
 62
7
  6
CONTINUOUS
 70
0
 71
3
 72
11
 73
7
 74
0
 42
0.0000001
 43
0.0000001
 44
0.0000000001
 40
0.0
 40
0.0
 40
0.0
 40
0.0
 40
0.2559539941
 40
0.5359659294
 40
0.7959238963
 40
1.0
 40
1.0
 40
1.0
 40
1.0
 10
607.9495919279
 20
616.2113319062
 30
0.0
 10
607.9483764538
 20
616.1743004232
 30
0.0
 10
607.9516711607
 20
616.0965793647
 30
0.0
 10
607.9670925903
 20
615.9822439954
 30
0.0
 10
607.9911149655
 20
615.8771803192
 30
0.0
 10
608.0130633426
 20
615.8132859467
 30
0.0
 10
608.0260667164
 20
615.7867600534
 30
0.0
  0
SPLINE
  5
395
100
AcDbEntity
  8
0
100
AcDbSpline
 62
7
  6
CONTINUOUS
 70
0
 71
3
 72
11
 73
7
 74
0
 42
0.0000001
 43
0.0000001
 44
0.0000000001
 40
0.0
 40
0.0
 40
0.0
 40
0.0
 40
0.2014238408
 40
0.4570280339
 40
0.7359743677
 40
1.0
 40
1.0
 40
1.0
 40
1.0
 10
608.0260667164
 20
614.5867600534
 30
0.0
 10
608.0139572997
 20
614.5620577646
 30
0.0
 10
607.9931670486
 20
614.5028528619
 30
0.0
 10
607.9698399146
 20
614.4050113547
 30
0.0
 10
607.9538244273
 20
614.2969841756
 30
0.0
 10
607.9491999009
 20
614.222821036
 30
0.0
 10
607.9491999009
 20
614.1867600534
 30
0.0
  0
SPLINE
  5
396
100
AcDbEntity
  8
0
100
AcDbSpline
 62
7
  6
CONTINUOUS
 70
0
 71
3
 72
10
 73
6
 74
0
 42
0.0000001
 43
0.0000001
 44
0.0000000001
 40
0.0
 40
0.0
 40
0.0
 40
0.0
 40
0.3890225872
 40
0.6868295751
 40
1.0
 40
1.0
 40
1.0
 40
1.0
 10
607.9495057213
 20
614.1650187218
 30
0.0
 10
607.9500274017
 20
614.146933728
 30
0.0
 10
607.9525715747
 20
614.1140076096
 30
0.0
 10
607.9594795113
 20
614.071796555
 30
0.0
 10
607.9757323565
 20
614.0367648141
 30
0.0
 10
607.9902971682
 20
614.0367597507
 30
0.0
  0
SPLINE
  5
397
100
AcDbEntity
  8
0
100
AcDbSpline
 62
7
  6
CONTINUOUS
 70
0
 71
3
 72
9
 73
5
 74
0
 42
0.0000001
 43
0.0000001
 44
0.0000000001
 40
0.0
 40
0.0
 40
0.0
 40
0.0
 40
0.2735830278
 40
1.0
 40
1.0
 40
1.0
 40
1.0
 10
608.1104213251
 20
613.8368103198
 30
0.0
 10
608.1129970117
 20
613.8515031301
 30
0.0
 10
608.1219838939
 20
613.9052781128
 30
0.0
 10
608.1292920034
 20
613.9593646947
 30
0.0
 10
608.1328972932
 20
613.998807486
 30
0.0
  0
SPLINE
  5
398
100
AcDbEntity
  8
0
100
AcDbSpline
 62
7
  6
CONTINUOUS
 70
0
 71
3
 72
9
 73
5
 74
0
 42
0.0000001
 43
0.0000001
 44
0.0000000001
 40
0.0
 40
0.0
 40
0.0
 40
0.0
 40
0.5636966434
 40
1.0
 40
1.0
 40
1.0
 40
1.0
 10
608.1340533744
 20
614.0122628438
 30
0.0
 10
608.1356434563
 20
614.0320805268
 30
0.0
 10
608.1375958393
 20
614.0673066857
 30
0.0
 10
608.1367019277
 20
614.1026675248
 30
0.0
 10
608.1349951783
 20
614.1179608394
 30
0.0
  0
SPLINE
  5
399
100
AcDbEntity
  8
0
100
AcDbSpline
 62
7
  6
CONTINUOUS
 70
0
 71
3
 72
9
 73
5
 74
0
 42
0.0000001
 43
0.0000001
 44
0.0000000001
 40
0.0
 40
0.0
 40
0.0
 40
0.0
 40
0.2745370927
 40
1.0
 40
1.0
 40
1.0
 40
1.0
 10
608.1337518291
 20
614.1272882219
 30
0.0
 10
608.1334811044
 20
614.1290096378
 30
0.0
 10
608.1324040698
 20
614.1352636753
 30
0.0
 10
608.1309493139
 20
614.1414641294
 30
0.0
 10
608.1295489931
 20
614.1458507867
 30
0.0
  0
SPLINE
  5
39A
100
AcDbEntity
  8
0
100
AcDbSpline
 62
7
  6
CONTINUOUS
 70
0
 71
3
 72
9
 73
5
 74
0
 42
0.0000001
 43
0.0000001
 44
0.0000000001
 40
0.0
 40
0.0
 40
0.0
 40
0.0
 40
0.2736458321
 40
1.0
 40
1.0
 40
1.0
 40
1.0
 10
608.1295489931
 20
614.1458507867
 30
0.0
 10
608.1292158896
 20
614.1468942695
 30
0.0
 10
608.1279240999
 20
614.1506815627
 30
0.0
 10
608.1263137036
 20
614.15437321
 30
0.0
 10
608.124878387
 20
614.1569017078
 30
0.0
  0
SPLINE
  5
39B
100
AcDbEntity
  8
0
100
AcDbSpline
 62
7
  6
CONTINUOUS
 70
0
 71
3
 72
9
 73
5
 74
0
 42
0.0000001
 43
0.0000001
 44
0.0000000001
 40
0.0
 40
0.0
 40
0.0
 40
0.0
 40
0.5465843139
 40
1.0
 40
1.0
 40
1.0
 40
1.0
 10
608.124878387
 20
614.1569017078
 30
0.0
 10
608.1230365413
 20
614.1601463599
 30
0.0
 10
608.1188312569
 20
614.1658955238
 30
0.0
 10
608.1118699057
 20
614.1682559387
 30
0.0
 10
608.1087748995
 20
614.1682551848
 30
0.0
  0
LINE
  5
39C
100
AcDbEntity
  8
0
100
AcDbLine
 62
7
  6
CONTINUOUS
 10
608.0311183844
 20
613.4867600534
 11
607.9895641665
 21
613.3340710866
  0
SPLINE
  5
39D
100
AcDbEntity
  8
0
100
AcDbSpline
 62
7
  6
CONTINUOUS
 70
0
 71
3
 72
9
 73
5
 74
0
 42
0.0000001
 43
0.0000001
 44
0.0000000001
 40
0.0
 40
0.0
 40
0.0
 40
0.0
 40
0.4534043577
 40
1.0
 40
1.0
 40
1.0
 40
1.0
 10
608.1087744003
 20
616.2052645958
 30
0.0
 10
608.1118699042
 20
616.2052645958
 30
0.0
 10
608.1188337531
 20
616.2076218437
 30
0.0
 10
608.1230373686
 20
616.2133753997
 30
0.0
 10
608.1248788751
 20
616.2166211301
 30
0.0
  0
SPLINE
  5
39E
100
AcDbEntity
  8
0
100
AcDbSpline
 62
7
  6
CONTINUOUS
 70
0
 71
3
 72
9
 73
5
 74
0
 42
0.0000001
 43
0.0000001
 44
0.0000000001
 40
0.0
 40
0.0
 40
0.0
 40
0.0
 40
0.2272965169
 40
1.0
 40
1.0
 40
1.0
 40
1.0
 10
608.1248788751
 20
616.2166211301
 30
0.0
 10
608.1253278023
 20
616.2174123826
 30
0.0
 10
608.1271845435
 20
616.2209607694
 30
0.0
 10
608.1286085427
 20
616.2247230675
 30
0.0
 10
608.1295493544
 20
616.2276691708
 30
0.0
  0
SPLINE
  5
39F
100
AcDbEntity
  8
0
100
AcDbSpline
 62
7
  6
CONTINUOUS
 70
0
 71
3
 72
9
 73
5
 74
0
 42
0.0000001
 43
0.0000001
 44
0.0000000001
 40
0.0
 40
0.0
 40
0.0
 40
0.0
 40
0.2258648086
 40
1.0
 40
1.0
 40
1.0
 40
1.0
 10
608.1295493544
 20
616.2276691708
 30
0.0
 10
608.1299854792
 20
616.2290348731
 30
0.0
 10
608.1317609306
 20
616.2351311263
 30
0.0
 10
608.1329887164
 20
616.241376515
 30
0.0
 10
608.1337518963
 20
616.2462306115
 30
0.0
  0
SPLINE
  5
3A0
100
AcDbEntity
  8
0
100
AcDbSpline
 62
7
  6
CONTINUOUS
 70
0
 71
3
 72
9
 73
5
 74
0
 42
0.0000001
 43
0.0000001
 44
0.0000000001
 40
0.0
 40
0.0
 40
0.0
 40
0.0
 40
0.4363155745
 40
1.0
 40
1.0
 40
1.0
 40
1.0
 10
608.1349953649
 20
616.2555591809
 30
0.0
 10
608.136702562
 20
616.2708526634
 30
0.0
 10
608.1375939761
 20
616.3062130671
 30
0.0
 10
608.1356456862
 20
616.3414388966
 30
0.0
 10
608.1340547959
 20
616.3612558047
 30
0.0
  0
SPLINE
  5
3A1
100
AcDbEntity
  8
0
100
AcDbSpline
 62
7
  6
CONTINUOUS
 70
0
 71
3
 72
9
 73
5
 74
0
 42
0.0000001
 43
0.0000001
 44
0.0000000001
 40
0.0
 40
0.0
 40
0.0
 40
0.0
 40
0.2247535828
 40
1.0
 40
1.0
 40
1.0
 40
1.0
 10
608.132898652
 20
616.3747046582
 30
0.0
 10
608.1317824557
 20
616.3869096242
 30
0.0
 10
608.1260371976
 20
616.4411419883
 30
0.0
 10
608.1177196092
 20
616.4950776529
 30
0.0
 10
608.1104201824
 20
616.5367171859
 30
0.0
  0
SPLINE
  5
3A2
100
AcDbEntity
  8
0
100
AcDbSpline
 62
7
  6
CONTINUOUS
 70
0
 71
3
 72
10
 73
6
 74
0
 42
0.0000001
 43
0.0000001
 44
0.0000000001
 40
0.0
 40
0.0
 40
0.0
 40
0.0
 40
0.1351666651
 40
0.3420319074
 40
1.0
 40
1.0
 40
1.0
 40
1.0
 10
608.1087748995
 20
614.1682551848
 30
0.0
 10
608.103245745
 20
614.1682538379
 30
0.0
 10
608.0898833256
 20
614.1614091075
 30
0.0
 10
608.0620512308
 20
614.1316390715
 30
0.0
 10
608.0439538857
 20
614.1006096882
 30
0.0
 10
608.0311183844
 20
614.0769524323
 30
0.0
  0
SPLINE
  5
3A3
100
AcDbEntity
  8
0
100
AcDbSpline
 62
7
  6
CONTINUOUS
 70
0
 71
3
 72
10
 73
6
 74
0
 42
0.0000001
 43
0.0000001
 44
0.0000000001
 40
0.0
 40
0.0
 40
0.0
 40
0.0
 40
0.1352261486
 40
0.3421683636
 40
1.0
 40
1.0
 40
1.0
 40
1.0
 10
608.108774399
 20
616.2052645958
 30
0.0
 10
608.1032428505
 20
616.2052645958
 30
0.0
 10
608.0898776412
 20
616.212120735
 30
0.0
 10
608.0620435593
 20
616.2418830683
 30
0.0
 10
608.0439511325
 20
616.2729154932
 30
0.0
 10
608.0311183844
 20
616.2965676746
 30
0.0
  0
SPLINE
  5
3A4
100
AcDbEntity
  8
0
100
AcDbSpline
 62
7
  6
CONTINUOUS
 70
0
 71
3
 72
9
 73
5
 74
0
 42
0.0000001
 43
0.0000001
 44
0.0000000001
 40
0.0
 40
0.0
 40
0.0
 40
0.0
 40
0.6216261511
 40
1.0
 40
1.0
 40
1.0
 40
1.0
 10
608.0311183844
 20
616.2965676746
 30
0.0
 10
608.0253015264
 20
616.3072887907
 30
0.0
 10
608.0155637578
 20
616.3239088713
 30
0.0
 10
607.9977202875
 20
616.3367600534
 30
0.0
 10
607.9902958862
 20
616.3367600534
 30
0.0
  0
LINE
  5
3A5
100
AcDbEntity
  8
0
100
AcDbLine
 62
7
  6
CONTINUOUS
 10
607.9896027457
 20
479.3393062124
 11
608.0311183844
 21
479.1867600534
  0
SPLINE
  5
3A6
100
AcDbEntity
  8
0
100
AcDbSpline
 62
7
  6
CONTINUOUS
 70
0
 71
3
 72
10
 73
6
 74
0
 42
0.0000001
 43
0.0000001
 44
0.0000000001
 40
0.0
 40
0.0
 40
0.0
 40
0.0
 40
0.3140541003
 40
0.611517424
 40
1.0
 40
1.0
 40
1.0
 40
1.0
 10
607.9902958797
 20
478.6367600534
 30
0.0
 10
607.9759802103
 20
478.6367600534
 30
0.0
 10
607.9597647949
 20
478.6026454679
 30
0.0
 10
607.9528134599
 20
478.561229375
 30
0.0
 10
607.9501728522
 20
478.5290307512
 30
0.0
 10
607.9495919279
 20
478.5113319062
 30
0.0
  0
SPLINE
  5
3A7
100
AcDbEntity
  8
0
100
AcDbSpline
 62
7
  6
CONTINUOUS
 70
0
 71
3
 72
11
 73
7
 74
0
 42
0.0000001
 43
0.0000001
 44
0.0000000001
 40
0.0
 40
0.0
 40
0.0
 40
0.0
 40
0.2559539941
 40
0.5359659294
 40
0.7959238963
 40
1.0
 40
1.0
 40
1.0
 40
1.0
 10
607.9495919279
 20
478.5113319062
 30
0.0
 10
607.9483764538
 20
478.4743004232
 30
0.0
 10
607.9516711607
 20
478.3965793647
 30
0.0
 10
607.9670925903
 20
478.2822439954
 30
0.0
 10
607.9911149655
 20
478.1771803192
 30
0.0
 10
608.0130633426
 20
478.1132859467
 30
0.0
 10
608.0260667164
 20
478.0867600534
 30
0.0
  0
SPLINE
  5
3A8
100
AcDbEntity
  8
0
100
AcDbSpline
 62
7
  6
CONTINUOUS
 70
0
 71
3
 72
11
 73
7
 74
0
 42
0.0000001
 43
0.0000001
 44
0.0000000001
 40
0.0
 40
0.0
 40
0.0
 40
0.0
 40
0.2014238408
 40
0.4570280339
 40
0.7359743677
 40
1.0
 40
1.0
 40
1.0
 40
1.0
 10
608.0260667164
 20
476.8867600534
 30
0.0
 10
608.0139572997
 20
476.8620577646
 30
0.0
 10
607.9931670486
 20
476.8028528619
 30
0.0
 10
607.9698399146
 20
476.7050113547
 30
0.0
 10
607.9538244273
 20
476.5969841756
 30
0.0
 10
607.9491999009
 20
476.522821036
 30
0.0
 10
607.9491999009
 20
476.4867600534
 30
0.0
  0
SPLINE
  5
3A9
100
AcDbEntity
  8
0
100
AcDbSpline
 62
7
  6
CONTINUOUS
 70
0
 71
3
 72
10
 73
6
 74
0
 42
0.0000001
 43
0.0000001
 44
0.0000000001
 40
0.0
 40
0.0
 40
0.0
 40
0.0
 40
0.3890225872
 40
0.6868295751
 40
1.0
 40
1.0
 40
1.0
 40
1.0
 10
607.9495057213
 20
476.4650187218
 30
0.0
 10
607.9500274017
 20
476.446933728
 30
0.0
 10
607.9525715747
 20
476.4140076096
 30
0.0
 10
607.9594795113
 20
476.371796555
 30
0.0
 10
607.9757323565
 20
476.3367648141
 30
0.0
 10
607.9902971682
 20
476.3367597507
 30
0.0
  0
SPLINE
  5
3AA
100
AcDbEntity
  8
0
100
AcDbSpline
 62
7
  6
CONTINUOUS
 70
0
 71
3
 72
9
 73
5
 74
0
 42
0.0000001
 43
0.0000001
 44
0.0000000001
 40
0.0
 40
0.0
 40
0.0
 40
0.0
 40
0.2735830278
 40
1.0
 40
1.0
 40
1.0
 40
1.0
 10
608.1104213251
 20
476.1368103198
 30
0.0
 10
608.1129970117
 20
476.1515031301
 30
0.0
 10
608.1219838939
 20
476.2052781128
 30
0.0
 10
608.1292920034
 20
476.2593646946
 30
0.0
 10
608.1328972932
 20
476.298807486
 30
0.0
  0
SPLINE
  5
3AB
100
AcDbEntity
  8
0
100
AcDbSpline
 62
7
  6
CONTINUOUS
 70
0
 71
3
 72
9
 73
5
 74
0
 42
0.0000001
 43
0.0000001
 44
0.0000000001
 40
0.0
 40
0.0
 40
0.0
 40
0.0
 40
0.5636966434
 40
1.0
 40
1.0
 40
1.0
 40
1.0
 10
608.1340533744
 20
476.3122628438
 30
0.0
 10
608.1356434563
 20
476.3320805268
 30
0.0
 10
608.1375958393
 20
476.3673066857
 30
0.0
 10
608.1367019277
 20
476.4026675248
 30
0.0
 10
608.1349951783
 20
476.4179608394
 30
0.0
  0
SPLINE
  5
3AC
100
AcDbEntity
  8
0
100
AcDbSpline
 62
7
  6
CONTINUOUS
 70
0
 71
3
 72
9
 73
5
 74
0
 42
0.0000001
 43
0.0000001
 44
0.0000000001
 40
0.0
 40
0.0
 40
0.0
 40
0.0
 40
0.2745370927
 40
1.0
 40
1.0
 40
1.0
 40
1.0
 10
608.1337518291
 20
476.4272882219
 30
0.0
 10
608.1334811044
 20
476.4290096378
 30
0.0
 10
608.1324040698
 20
476.4352636753
 30
0.0
 10
608.1309493139
 20
476.4414641294
 30
0.0
 10
608.1295489931
 20
476.4458507868
 30
0.0
  0
SPLINE
  5
3AD
100
AcDbEntity
  8
0
100
AcDbSpline
 62
7
  6
CONTINUOUS
 70
0
 71
3
 72
9
 73
5
 74
0
 42
0.0000001
 43
0.0000001
 44
0.0000000001
 40
0.0
 40
0.0
 40
0.0
 40
0.0
 40
0.2736458321
 40
1.0
 40
1.0
 40
1.0
 40
1.0
 10
608.1295489931
 20
476.4458507868
 30
0.0
 10
608.1292158896
 20
476.4468942695
 30
0.0
 10
608.1279240999
 20
476.4506815627
 30
0.0
 10
608.1263137036
 20
476.45437321
 30
0.0
 10
608.124878387
 20
476.4569017078
 30
0.0
  0
SPLINE
  5
3AE
100
AcDbEntity
  8
0
100
AcDbSpline
 62
7
  6
CONTINUOUS
 70
0
 71
3
 72
9
 73
5
 74
0
 42
0.0000001
 43
0.0000001
 44
0.0000000001
 40
0.0
 40
0.0
 40
0.0
 40
0.0
 40
0.5465843139
 40
1.0
 40
1.0
 40
1.0
 40
1.0
 10
608.124878387
 20
476.4569017078
 30
0.0
 10
608.1230365413
 20
476.4601463599
 30
0.0
 10
608.1188312569
 20
476.4658955238
 30
0.0
 10
608.1118699057
 20
476.4682559387
 30
0.0
 10
608.1087748995
 20
476.4682551848
 30
0.0
  0
LINE
  5
3AF
100
AcDbEntity
  8
0
100
AcDbLine
 62
7
  6
CONTINUOUS
 10
608.0311183844
 20
475.7867600534
 11
607.9895641665
 21
475.6340710866
  0
SPLINE
  5
3B0
100
AcDbEntity
  8
0
100
AcDbSpline
 62
7
  6
CONTINUOUS
 70
0
 71
3
 72
9
 73
5
 74
0
 42
0.0000001
 43
0.0000001
 44
0.0000000001
 40
0.0
 40
0.0
 40
0.0
 40
0.0
 40
0.4534043577
 40
1.0
 40
1.0
 40
1.0
 40
1.0
 10
608.1087744003
 20
478.5052645958
 30
0.0
 10
608.1118699042
 20
478.5052645958
 30
0.0
 10
608.1188337531
 20
478.5076218437
 30
0.0
 10
608.1230373686
 20
478.5133753997
 30
0.0
 10
608.1248788751
 20
478.5166211301
 30
0.0
  0
SPLINE
  5
3B1
100
AcDbEntity
  8
0
100
AcDbSpline
 62
7
  6
CONTINUOUS
 70
0
 71
3
 72
9
 73
5
 74
0
 42
0.0000001
 43
0.0000001
 44
0.0000000001
 40
0.0
 40
0.0
 40
0.0
 40
0.0
 40
0.2272965169
 40
1.0
 40
1.0
 40
1.0
 40
1.0
 10
608.1248788751
 20
478.5166211301
 30
0.0
 10
608.1253278023
 20
478.5174123826
 30
0.0
 10
608.1271845435
 20
478.5209607694
 30
0.0
 10
608.1286085427
 20
478.5247230675
 30
0.0
 10
608.1295493544
 20
478.5276691708
 30
0.0
  0
SPLINE
  5
3B2
100
AcDbEntity
  8
0
100
AcDbSpline
 62
7
  6
CONTINUOUS
 70
0
 71
3
 72
9
 73
5
 74
0
 42
0.0000001
 43
0.0000001
 44
0.0000000001
 40
0.0
 40
0.0
 40
0.0
 40
0.0
 40
0.2258648086
 40
1.0
 40
1.0
 40
1.0
 40
1.0
 10
608.1295493544
 20
478.5276691708
 30
0.0
 10
608.1299854792
 20
478.5290348731
 30
0.0
 10
608.1317609306
 20
478.5351311263
 30
0.0
 10
608.1329887164
 20
478.541376515
 30
0.0
 10
608.1337518963
 20
478.5462306115
 30
0.0
  0
SPLINE
  5
3B3
100
AcDbEntity
  8
0
100
AcDbSpline
 62
7
  6
CONTINUOUS
 70
0
 71
3
 72
9
 73
5
 74
0
 42
0.0000001
 43
0.0000001
 44
0.0000000001
 40
0.0
 40
0.0
 40
0.0
 40
0.0
 40
0.4363155745
 40
1.0
 40
1.0
 40
1.0
 40
1.0
 10
608.1349953649
 20
478.5555591809
 30
0.0
 10
608.136702562
 20
478.5708526634
 30
0.0
 10
608.1375939761
 20
478.6062130671
 30
0.0
 10
608.1356456862
 20
478.6414388966
 30
0.0
 10
608.1340547959
 20
478.6612558047
 30
0.0
  0
SPLINE
  5
3B4
100
AcDbEntity
  8
0
100
AcDbSpline
 62
7
  6
CONTINUOUS
 70
0
 71
3
 72
9
 73
5
 74
0
 42
0.0000001
 43
0.0000001
 44
0.0000000001
 40
0.0
 40
0.0
 40
0.0
 40
0.0
 40
0.2247535828
 40
1.0
 40
1.0
 40
1.0
 40
1.0
 10
608.132898652
 20
478.6747046582
 30
0.0
 10
608.1317824557
 20
478.6869096242
 30
0.0
 10
608.1260371976
 20
478.7411419883
 30
0.0
 10
608.1177196092
 20
478.7950776529
 30
0.0
 10
608.1104201824
 20
478.8367171859
 30
0.0
  0
SPLINE
  5
3B5
100
AcDbEntity
  8
0
100
AcDbSpline
 62
7
  6
CONTINUOUS
 70
0
 71
3
 72
10
 73
6
 74
0
 42
0.0000001
 43
0.0000001
 44
0.0000000001
 40
0.0
 40
0.0
 40
0.0
 40
0.0
 40
0.1351666651
 40
0.3420319074
 40
1.0
 40
1.0
 40
1.0
 40
1.0
 10
608.1087748995
 20
476.4682551848
 30
0.0
 10
608.103245745
 20
476.4682538379
 30
0.0
 10
608.0898833256
 20
476.4614091075
 30
0.0
 10
608.0620512308
 20
476.4316390715
 30
0.0
 10
608.0439538857
 20
476.4006096882
 30
0.0
 10
608.0311183844
 20
476.3769524323
 30
0.0
  0
SPLINE
  5
3B6
100
AcDbEntity
  8
0
100
AcDbSpline
 62
7
  6
CONTINUOUS
 70
0
 71
3
 72
10
 73
6
 74
0
 42
0.0000001
 43
0.0000001
 44
0.0000000001
 40
0.0
 40
0.0
 40
0.0
 40
0.0
 40
0.1352261486
 40
0.3421683636
 40
1.0
 40
1.0
 40
1.0
 40
1.0
 10
608.108774399
 20
478.5052645958
 30
0.0
 10
608.1032428505
 20
478.5052645958
 30
0.0
 10
608.0898776412
 20
478.512120735
 30
0.0
 10
608.0620435593
 20
478.5418830683
 30
0.0
 10
608.0439511325
 20
478.5729154932
 30
0.0
 10
608.0311183844
 20
478.5965676746
 30
0.0
  0
SPLINE
  5
3B7
100
AcDbEntity
  8
0
100
AcDbSpline
 62
7
  6
CONTINUOUS
 70
0
 71
3
 72
9
 73
5
 74
0
 42
0.0000001
 43
0.0000001
 44
0.0000000001
 40
0.0
 40
0.0
 40
0.0
 40
0.0
 40
0.6216261511
 40
1.0
 40
1.0
 40
1.0
 40
1.0
 10
608.0311183844
 20
478.5965676746
 30
0.0
 10
608.0253015264
 20
478.6072887907
 30
0.0
 10
608.0155637578
 20
478.6239088713
 30
0.0
 10
607.9977202875
 20
478.6367600534
 30
0.0
 10
607.9902958862
 20
478.6367600534
 30
0.0
  0
SPLINE
  5
3B8
100
AcDbEntity
  8
0
100
AcDbSpline
 62
7
  6
CONTINUOUS
 70
0
 71
3
 72
37
 73
33
 74
0
 42
0.0000001
 43
0.0000001
 44
0.0000000001
 40
0.0
 40
0.0
 40
0.0
 40
0.0
 40
0.0012061597
 40
0.0048245215
 40
0.0108439415
 40
0.0192485713
 40
0.0300210359
 40
0.0431334562
 40
0.0762459191
 40
0.118266687
 40
0.168792594
 40
0.2273422554
 40
0.2933562335
 40
0.3662017386
 40
0.4451830433
 40
0.5295511781
 40
0.6184940442
 40
0.7111799873
 40
0.7586576721
 40
0.7826166946
 40
0.806761993
 40
0.8309759263
 40
0.8552614834
 40
0.8797024643
 40
0.8919154997
 40
0.9041429177
 40
0.9165789337
 40
0.9288116693
 40
0.9518851467
 40
0.9640981994
 40
0.9765422481
 40
1.0
 40
1.0
 40
1.0
 40
1.0
 10
579.8145425926
 20
648.7479738469
 30
0.0
 10
579.8128883467
 20
648.7483244173
 30
0.0
 10
579.8277980295
 20
648.7474707652
 30
0.0
 10
579.8351368637
 20
648.7482945288
 30
0.0
 10
579.864905703
 20
648.7478254193
 30
0.0
 10
579.8982591488
 20
648.7480318948
 30
0.0
 10
579.9442878955
 20
648.7479526866
 30
0.0
 10
580.0238361271
 20
648.7479916429
 30
0.0
 10
580.1477860308
 20
648.7479701722
 30
0.0
 10
580.323854561
 20
648.7479810125
 30
0.0
 10
580.5357206353
 20
648.7479724747
 30
0.0
 10
580.7811768827
 20
648.7479738222
 30
0.0
 10
581.0579399184
 20
648.747979176
 30
0.0
 10
581.3633422608
 20
648.7479823178
 30
0.0
 10
581.6944778856
 20
648.7479721675
 30
0.0
 10
582.0481808912
 20
648.7479859281
 30
0.0
 10
582.4210972338
 20
648.7480022543
 30
0.0
 10
582.7422951062
 20
648.7478190026
 30
0.0
 10
582.9723875016
 20
648.7483032505
 30
0.0
 10
583.1063902711
 20
648.7478354773
 30
0.0
 10
583.2077745787
 20
648.7488006111
 30
0.0
 10
583.3096211059
 20
648.7486002498
 30
0.0
 10
583.4118763772
 20
648.7476528451
 30
0.0
 10
583.4973161856
 20
648.7482220588
 30
0.0
 10
583.5658362789
 20
648.7479585975
 30
0.0
 10
583.6175616177
 20
648.7471713935
 30
0.0
 10
583.6691862277
 20
648.7489683284
 30
0.0
 10
583.7364791279
 20
648.7509224548
 30
0.0
 10
583.8010300942
 20
648.7302258034
 30
0.0
 10
583.8681843349
 20
648.728112293
 30
0.0
 10
583.935446736
 20
648.7297061141
 30
0.0
 10
583.9862426873
 20
648.7367090384
 30
0.0
 10
584.0171392007
 20
648.747976033
 30
0.0
  0
SPLINE
  5
3B9
100
AcDbEntity
  8
0
100
AcDbSpline
 62
7
  6
CONTINUOUS
 70
0
 71
3
 72
37
 73
33
 74
0
 42
0.0000001
 43
0.0000001
 44
0.0000000001
 40
0.0
 40
0.0
 40
0.0
 40
0.0
 40
0.0012061597
 40
0.0048245215
 40
0.0108439415
 40
0.0192485713
 40
0.0300210359
 40
0.0431334562
 40
0.0762459191
 40
0.118266687
 40
0.168792594
 40
0.2273422554
 40
0.2933562335
 40
0.3662017386
 40
0.4451830433
 40
0.5295511781
 40
0.6184940442
 40
0.7111799873
 40
0.7586576721
 40
0.7826166946
 40
0.806761993
 40
0.8309759263
 40
0.8552614834
 40
0.8797024643
 40
0.8919154997
 40
0.9041429177
 40
0.9165789337
 40
0.9288116693
 40
0.9518851467
 40
0.9640981994
 40
0.9765422481
 40
1.0
 40
1.0
 40
1.0
 40
1.0
 10
351.3145425926
 20
648.7479738469
 30
0.0
 10
351.3128883467
 20
648.7483244172
 30
0.0
 10
351.3277980295
 20
648.7474707653
 30
0.0
 10
351.3351368636
 20
648.7482945287
 30
0.0
 10
351.364905703
 20
648.7478254193
 30
0.0
 10
351.3982591488
 20
648.7480318948
 30
0.0
 10
351.4442878955
 20
648.7479526866
 30
0.0
 10
351.5238361271
 20
648.7479916429
 30
0.0
 10
351.6477860308
 20
648.7479701722
 30
0.0
 10
351.823854561
 20
648.7479810125
 30
0.0
 10
352.0357206353
 20
648.7479724747
 30
0.0
 10
352.2811768827
 20
648.7479738222
 30
0.0
 10
352.5579399184
 20
648.747979176
 30
0.0
 10
352.8633422608
 20
648.7479823178
 30
0.0
 10
353.1944778856
 20
648.7479721675
 30
0.0
 10
353.5481808912
 20
648.7479859281
 30
0.0
 10
353.9210972338
 20
648.7480022543
 30
0.0
 10
354.2422951062
 20
648.7478190026
 30
0.0
 10
354.4723875016
 20
648.7483032505
 30
0.0
 10
354.6063902711
 20
648.7478354773
 30
0.0
 10
354.7077745787
 20
648.7488006111
 30
0.0
 10
354.8096211059
 20
648.7486002498
 30
0.0
 10
354.9118763772
 20
648.7476528451
 30
0.0
 10
354.9973161856
 20
648.7482220588
 30
0.0
 10
355.0658362789
 20
648.7479585975
 30
0.0
 10
355.1175616177
 20
648.7471713935
 30
0.0
 10
355.1691862277
 20
648.7489683284
 30
0.0
 10
355.2364791279
 20
648.7509224548
 30
0.0
 10
355.3010300942
 20
648.7302258034
 30
0.0
 10
355.3681843349
 20
648.728112293
 30
0.0
 10
355.435446736
 20
648.7297061141
 30
0.0
 10
355.4862426873
 20
648.7367090384
 30
0.0
 10
355.5171392007
 20
648.747976033
 30
0.0
  0
SPLINE
  5
3BA
100
AcDbEntity
  8
0
100
AcDbSpline
 62
7
  6
CONTINUOUS
 70
0
 71
3
 72
37
 73
33
 74
0
 42
0.0000001
 43
0.0000001
 44
0.0000000001
 40
0.0
 40
0.0
 40
0.0
 40
0.0
 40
0.0012061597
 40
0.0048245215
 40
0.0108439415
 40
0.0192485713
 40
0.0300210359
 40
0.0431334562
 40
0.0762459191
 40
0.118266687
 40
0.168792594
 40
0.2273422554
 40
0.2933562335
 40
0.3662017386
 40
0.4451830433
 40
0.5295511781
 40
0.6184940442
 40
0.7111799873
 40
0.7586576721
 40
0.7826166946
 40
0.806761993
 40
0.8309759263
 40
0.8552614834
 40
0.8797024643
 40
0.8919154997
 40
0.9041429177
 40
0.9165789337
 40
0.9288116693
 40
0.9518851467
 40
0.9640981994
 40
0.9765422481
 40
1.0
 40
1.0
 40
1.0
 40
1.0
 10
122.8145425926
 20
648.7479738469
 30
0.0
 10
122.8128883467
 20
648.7483244174
 30
0.0
 10
122.8277980295
 20
648.7474707651
 30
0.0
 10
122.8351368637
 20
648.7482945289
 30
0.0
 10
122.864905703
 20
648.7478254193
 30
0.0
 10
122.8982591488
 20
648.7480318948
 30
0.0
 10
122.9442878955
 20
648.7479526866
 30
0.0
 10
123.0238361271
 20
648.7479916429
 30
0.0
 10
123.1477860308
 20
648.7479701722
 30
0.0
 10
123.323854561
 20
648.7479810125
 30
0.0
 10
123.5357206353
 20
648.7479724747
 30
0.0
 10
123.7811768827
 20
648.7479738222
 30
0.0
 10
124.0579399184
 20
648.747979176
 30
0.0
 10
124.3633422608
 20
648.7479823178
 30
0.0
 10
124.6944778856
 20
648.7479721675
 30
0.0
 10
125.0481808912
 20
648.7479859281
 30
0.0
 10
125.4210972338
 20
648.7480022543
 30
0.0
 10
125.7422951062
 20
648.7478190026
 30
0.0
 10
125.9723875016
 20
648.7483032505
 30
0.0
 10
126.1063902711
 20
648.7478354773
 30
0.0
 10
126.2077745787
 20
648.7488006111
 30
0.0
 10
126.3096211059
 20
648.7486002498
 30
0.0
 10
126.4118763772
 20
648.7476528451
 30
0.0
 10
126.4973161856
 20
648.7482220588
 30
0.0
 10
126.5658362789
 20
648.7479585975
 30
0.0
 10
126.6175616177
 20
648.7471713935
 30
0.0
 10
126.6691862277
 20
648.7489683284
 30
0.0
 10
126.7364791279
 20
648.7509224548
 30
0.0
 10
126.8010300942
 20
648.7302258034
 30
0.0
 10
126.8681843349
 20
648.728112293
 30
0.0
 10
126.935446736
 20
648.7297061141
 30
0.0
 10
126.9862426873
 20
648.7367090384
 30
0.0
 10
127.0171392007
 20
648.747976033
 30
0.0
  0
SPLINE
  5
3BB
100
AcDbEntity
  8
0
100
AcDbSpline
 62
7
  6
CONTINUOUS
 70
0
 71
3
 72
11
 73
7
 74
0
 42
0.0000001
 43
0.0000001
 44
0.0000000001
 40
0.0
 40
0.0
 40
0.0
 40
0.0
 40
0.3834804875
 40
0.6953903564
 40
0.9037686503
 40
1.0
 40
1.0
 40
1.0
 40
1.0
 10
97.9720694365
 20
642.7249976424
 30
0.0
 10
97.978499215
 20
642.9193845942
 30
0.0
 10
97.9952102599
 20
643.2681367713
 30
0.0
 10
98.0616765291
 20
643.7358221463
 30
0.0
 10
98.1213754749
 20
644.015114365
 30
0.0
 10
98.2157338481
 20
644.1867600534
 30
0.0
 10
98.2645403709
 20
644.1867600534
 30
0.0
  0
SPLINE
  5
3BC
100
AcDbEntity
  8
0
100
AcDbSpline
 62
7
  6
CONTINUOUS
 70
0
 71
3
 72
11
 73
7
 74
0
 42
0.0000001
 43
0.0000001
 44
0.0000000001
 40
0.0
 40
0.0
 40
0.0
 40
0.0
 40
0.3835849484
 40
0.6954344929
 40
0.9037406872
 40
1.0
 40
1.0
 40
1.0
 40
1.0
 10
624.6571402564
 20
642.7254259096
 30
0.0
 10
624.650745941
 20
642.91981515
 30
0.0
 10
624.6339587041
 20
643.2685173594
 30
0.0
 10
624.5670997957
 20
643.7359514258
 30
0.0
 10
624.5077822953
 20
644.0152701586
 30
0.0
 10
624.4133480613
 20
644.1867600534
 30
0.0
 10
624.3645403709
 20
644.1867600534
 30
0.0
  0
ENDSEC
  0
SECTION
  2
OBJECTS
  0
DICTIONARY
  5
C
100
AcDbDictionary
280
0
281
1
  3
ACAD_GROUP
350
D
  3
ACAD_MLINESTYLE
350
17
  3
ACAD_LAYOUT
350
1A
  3
ACAD_PLOTSETTINGS
350
19
  3
ACAD_PLOTSTYLENAME
350
E
  0
DICTIONARY
  5
D
102
{ACAD_REACTORS
330
C
102
}
100
AcDbDictionary
280
0
281
1
  0
ACDBDICTIONARYWDFLT
  5
E
102
{ACAD_REACTORS
330
C
102
}
100
AcDbDictionary
281
1
  3
Normal
350
F
100
AcDbDictionaryWithDefault
340
F
  0
DICTIONARY
  5
17
102
{ACAD_REACTORS
330
C
102
}
100
AcDbDictionary
280
0
281
1
  3
Standard
350
18
  0
DICTIONARY
  5
19
102
{ACAD_REACTORS
330
C
102
}
100
AcDbDictionary
281
1
  0
DICTIONARY
  5
1A
102
{ACAD_REACTORS
330
C
102
}
100
AcDbDictionary
281
1
  3
Model
350
3BD
  3
Layout1
350
3BE
  0
ACDBPLACEHOLDER
  5
F
102
{ACAD_REACTORS
330
E
102
}
  0
MLINESTYLE
  5
18
102
{ACAD_REACTORS
330
17
102
}
100
AcDbMlineStyle
  2
STANDARD
 70
0
  3

 62
256
 51
90.0
 52
90.0
 71
2
 49
0.5
 62
256
  6
BYLAYER
 49
-0.5
 62
256
  6
BYLAYER
  0
LAYOUT
  5
3BD
102
{ACAD_REACTORS
330
1A
102
}
100
AcDbPlotSettings
  1

  2
none_device
  4

  6

 40
0.0
 41
0.0
 42
0.0
 43
0.0
 44
210.0
 45
297.0
 46
0.0
 47
0.0
 48
0.0
 49
0.0
140
0.0
141
0.0
142
1.0
143
1.0
 70
1024
 72
1
 73
0
 74
0
  7

 75
0
147
1.0
148
0.0
149
0.0
100
AcDbLayout
  1
Model
 70
0
 71
0
 10
0.0
 20
0.0
 11
210.0
 21
297.0
 12
0.0
 22
0.0
 32
0.0
 14
0.0
 24
0.0
 34
0.0
 15
0.0
 25
0.0
 35
0.0
146
0.0
 13
0.0
 23
0.0
 33
0.0
 16
1.0
 26
0.0
 36
0.0
 17
0.0
 27
1.0
 37
0.0
 76
0
330
210
345
0
346
0
  0
LAYOUT
  5
3BE
102
{ACAD_REACTORS
330
1A
102
}
100
AcDbPlotSettings
  1

  2
none_device
  4

  6

 40
0.0
 41
0.0
 42
0.0
 43
0.0
 44
210.0
 45
297.0
 46
0.0
 47
0.0
 48
0.0
 49
0.0
140
0.0
141
0.0
142
1.0
143
1.0
 70
0
 72
1
 73
0
 74
0
  7

 75
0
147
1.0
148
0.0
149
0.0
100
AcDbLayout
  1
Layout1
 70
0
 71
1
 10
0.0
 20
0.0
 11
210.0
 21
297.0
 12
0.0
 22
0.0
 32
0.0
 14
0.0
 24
0.0
 34
0.0
 15
0.0
 25
0.0
 35
0.0
146
0.0
 13
0.0
 23
0.0
 33
0.0
 16
1.0
 26
0.0
 36
0.0
 17
0.0
 27
1.0
 37
0.0
 76
0
330
211
345
0
346
0
  0
ENDSEC
  0
EOF
