999
DXF file: C:\Users\sesa63760\Dev\_Creo\CAD\MCADID0002164_3D-CAD\drw0001_7.dxf
999
Pro/ENGINEER 2019471 by Parametric Technology Corporation
  0
SECTION
  2
HEADER
  9
$ACADVER
  1
AC1024
  9
$DWGCODEPAGE
  3
ANSI_1252
  9
$EXTMAX
 10
61.7203907148
 20
87.2902668681
 30
0.0
  9
$EXTMIN
 10
0.0
 20
0.0
 30
0.0
  9
$LIMMIN
 10
0.0
 20
0.0
  9
$LIMMAX
 10
61.7203907148
 20
87.2902668681
  9
$VIEWCTR
 10
30.8601953574
 20
43.6451334341
  9
$VIEWSIZE
 40
87.2902668681
  9
$CLAYER
  8
0
  9
$LTSCALE
 40
5.6900322107
  9
$CELTYPE
  6
BYLAYER
  9
$DIMSCALE
 40
1.0
  9
$DIMASZ
 40
0.7347665561
  9
$DIMEXO
 40
1.0
  9
$DIMDLI
 40
3.9312949819
  9
$DIMEXE
 40
1.0
  9
$DIMCEN
 40
0.9310961799
  9
$DIMLFAC
 40
1.0
  9
$DIMBLK
  1
_FILLED
  9
$DIMALT
 70
0
  9
$DIMALTF
 40
0.0393700787
  9
$DIMTXT
 40
1.0286731786
  9
$DIMTOL
 70
1
  9
$DIMLIM
 70
0
  9
$DIMTFAC
 40
1.0
  9
$DIMTP
 40
0.01
  9
$DIMTM
 40
0.01
  9
$DIMGAP
 40
0.625
  9
$DIMDSEP
 70
46
  9
$AUNITS
 70
0
  9
$PDMODE
 70
3
  9
$PDSIZE
 40
0.3125
  9
$HANDSEED
  5
34B
  9
$TILEMODE
 70
1
  9
$MEASUREMENT
 70
1
  9
$INSUNITS
 70
4
  0
ENDSEC
  0
SECTION
  2
CLASSES
  0
CLASS
  1
ACDBDICTIONARYWDFLT
  2
AcDbDictionaryWithDefault
  3
AutoCAD 2000
 90
0
 91
1
280
0
281
0
  0
CLASS
  1
ACDBPLACEHOLDER
  2
AcDbPlaceHolder
  3
AutoCAD 2000
 90
0
 91
1
280
0
281
0
  0
CLASS
  1
LAYOUT
  2
AcDbLayout
  3
AutoCAD 2000
 90
0
 91
0
280
0
281
0
  0
ENDSEC
  0
SECTION
  2
TABLES
  0
TABLE
  2
VPORT
  5
8
100
AcDbSymbolTable
 70
2
  0
VPORT
  5
1F4
100
AcDbSymbolTableRecord
100
AcDbViewportTableRecord
  2
*ACTIVE
 70
0
 10
0.0
 20
0.0
 11
1.0
 21
1.0
 12
30.8601953574
 22
43.6451334341
 13
0.0
 23
0.0
 14
1.0
 24
1.0
 15
0.0
 25
0.0
 16
0.0
 26
0.0
 36
1.0
 17
0.0
 27
0.0
 37
0.0
 40
87.2902668681
 41
0.7070707071
 42
50.0
 43
0.0
 44
0.0
 50
0.0
 51
0.0
 71
0
 72
100
 73
1
 74
1
 75
0
 76
0
 77
0
 78
0
  0
ENDTAB
  0
TABLE
  2
LTYPE
  5
5
100
AcDbSymbolTable
 70
6
  0
LTYPE
  5
14
100
AcDbSymbolTableRecord
100
AcDbLinetypeTableRecord
  2
BYBLOCK
 70
0
  3

 72
65
 73
0
 40
0.0
  0
LTYPE
  5
15
100
AcDbSymbolTableRecord
100
AcDbLinetypeTableRecord
  2
BYLAYER
 70
0
  3

 72
65
 73
0
 40
0.0
  0
LTYPE
  5
16
100
AcDbSymbolTableRecord
100
AcDbLinetypeTableRecord
  2
CONTINUOUS
 70
64
  3
Solid line
 72
65
 73
0
 40
0.0
  0
LTYPE
  5
1F5
100
AcDbSymbolTableRecord
100
AcDbLinetypeTableRecord
  2
CENTER
 70
64
  3
____ _ ____ _ ____ _ ____ _ ____ _ ____ _ ____
 72
65
 73
4
 40
0.6
 49
0.375
 74
0
 49
-0.075
 74
0
 49
0.075
 74
0
 49
-0.075
 74
0
  0
LTYPE
  5
1F6
100
AcDbSymbolTableRecord
100
AcDbLinetypeTableRecord
  2
HIDDEN
 70
64
  3
- - - - - - - - - - - - - - - - - - - -
 72
65
 73
2
 40
0.2
 49
0.1
 74
0
 49
-0.1
 74
0
  0
LTYPE
  5
1F7
100
AcDbSymbolTableRecord
100
AcDbLinetypeTableRecord
  2
PHANTOM
 70
64
  3
_____ _ _ _____ _ _ _____ _ _ _____
 72
65
 73
6
 40
0.8
 49
0.45
 74
0
 49
-0.05
 74
0
 49
0.1
 74
0
 49
-0.05
 74
0
 49
0.1
 74
0
 49
-0.05
 74
0
  0
LTYPE
  5
1F8
100
AcDbSymbolTableRecord
100
AcDbLinetypeTableRecord
  2
DOT
 70
64
  3
. . . . . . . . . . . . . . . . . . . .
 72
65
 73
2
 40
0.2
 49
0.1
 74
0
 49
-0.1
 74
0
  0
LTYPE
  5
1F9
100
AcDbSymbolTableRecord
100
AcDbLinetypeTableRecord
  2
DASHED
 70
64
  3
- - - - - - - - - - - - - - - - - - - -
 72
65
 73
2
 40
0.2
 49
0.1
 74
0
 49
-0.1
 74
0
  0
ENDTAB
  0
TABLE
  2
LAYER
  5
2
100
AcDbSymbolTable
 70
36
  0
LAYER
  5
10
100
AcDbSymbolTableRecord
100
AcDbLayerTableRecord
  2
0
 70
0
 62
7
  6
CONTINUOUS
370
-3
390
F
  0
LAYER
  5
1FA
100
AcDbSymbolTableRecord
100
AcDbLayerTableRecord
  2
DEFAULT_1
 70
0
 62
7
  6
CENTER
370
-3
390
F
  0
LAYER
  5
1FB
100
AcDbSymbolTableRecord
100
AcDbLayerTableRecord
  2
DEFAULT_2
 70
0
 62
8
  6
HIDDEN
370
-3
390
F
  0
LAYER
  5
1FC
100
AcDbSymbolTableRecord
100
AcDbLayerTableRecord
  2
DEFAULT_3
 70
0
 62
7
  6
PHANTOM
370
-3
390
F
  0
LAYER
  5
1FD
100
AcDbSymbolTableRecord
100
AcDbLayerTableRecord
  2
00_COMPONENTS
 70
0
 62
7
  6
CONTINUOUS
370
-3
390
F
  0
LAYER
  5
1FE
100
AcDbSymbolTableRecord
100
AcDbLayerTableRecord
  2
01_1_DEFAULT_DATUMS
 70
0
 62
7
  6
CONTINUOUS
370
-3
390
F
  0
LAYER
  5
1FF
100
AcDbSymbolTableRecord
100
AcDbLayerTableRecord
  2
01_PLANES
 70
0
 62
7
  6
CONTINUOUS
370
-3
390
F
  0
LAYER
  5
200
100
AcDbSymbolTableRecord
100
AcDbLayerTableRecord
  2
02_COORD_SYS
 70
0
 62
7
  6
CONTINUOUS
370
-3
390
F
  0
LAYER
  5
201
100
AcDbSymbolTableRecord
100
AcDbLayerTableRecord
  2
03_AXES
 70
0
 62
7
  6
CONTINUOUS
370
-3
390
F
  0
LAYER
  5
202
100
AcDbSymbolTableRecord
100
AcDbLayerTableRecord
  2
04_POINTS
 70
0
 62
7
  6
CONTINUOUS
370
-3
390
F
  0
LAYER
  5
203
100
AcDbSymbolTableRecord
100
AcDbLayerTableRecord
  2
05_CURVES
 70
0
 62
7
  6
CONTINUOUS
370
-3
390
F
  0
LAYER
  5
204
100
AcDbSymbolTableRecord
100
AcDbLayerTableRecord
  2
06_SURFS
 70
0
 62
7
  6
CONTINUOUS
370
-3
390
F
  0
LAYER
  5
205
100
AcDbSymbolTableRecord
100
AcDbLayerTableRecord
  2
07_COSMETICS
 70
0
 62
7
  6
CONTINUOUS
370
-3
390
F
  0
LAYER
  5
206
100
AcDbSymbolTableRecord
100
AcDbLayerTableRecord
  2
10_NOTES
 70
0
 62
7
  6
CONTINUOUS
370
-3
390
F
  0
LAYER
  5
207
100
AcDbSymbolTableRecord
100
AcDbLayerTableRecord
  2
11_NOTES_PUB
 70
0
 62
7
  6
CONTINUOUS
370
-3
390
F
  0
LAYER
  5
208
100
AcDbSymbolTableRecord
100
AcDbLayerTableRecord
  2
13_REF_GTOL
 70
0
 62
7
  6
CONTINUOUS
370
-3
390
F
  0
LAYER
  5
209
100
AcDbSymbolTableRecord
100
AcDbLayerTableRecord
  2
16_MISC
 70
0
 62
7
  6
CONTINUOUS
370
-3
390
F
  0
LAYER
  5
20A
100
AcDbSymbolTableRecord
100
AcDbLayerTableRecord
  2
17_NO_PRINT
 70
0
 62
7
  6
CONTINUOUS
370
-3
390
F
  0
LAYER
  5
20B
100
AcDbSymbolTableRecord
100
AcDbLayerTableRecord
  2
18_DATUM_CAMS_JOINTS
 70
0
 62
7
  6
CONTINUOUS
370
-3
390
F
  0
LAYER
  5
20C
100
AcDbSymbolTableRecord
100
AcDbLayerTableRecord
  2
19_DATUM_FUNCTIONAL
 70
0
 62
7
  6
CONTINUOUS
370
-3
390
F
  0
LAYER
  5
20D
100
AcDbSymbolTableRecord
100
AcDbLayerTableRecord
  2
20_DATUM_KINEMATIC_SCHEME
 70
0
 62
7
  6
CONTINUOUS
370
-3
390
F
  0
ENDTAB
  0
TABLE
  2
STYLE
  5
3
100
AcDbSymbolTable
 70
1
  0
STYLE
  5
11
100
AcDbSymbolTableRecord
100
AcDbTextStyleTableRecord
  2
STANDARD
 70
0
 40
0.0
 41
0.8
 50
0.0
 71
0
 42
0.2
  3
txt
  4

  0
STYLE
  5
20E
100
AcDbSymbolTableRecord
100
AcDbTextStyleTableRecord
  2
TEXTSTYLE_1
 70
0
 40
0.0
 41
0.8
 50
0.0
 71
0
 42
0.2
  3
gdt
  4

  0
ENDTAB
  0
TABLE
  2
VIEW
  5
6
100
AcDbSymbolTable
 70
0
  0
ENDTAB
  0
TABLE
  2
UCS
  5
7
100
AcDbSymbolTable
 70
0
  0
ENDTAB
  0
TABLE
  2
APPID
  5
9
100
AcDbSymbolTable
 70
1
  0
APPID
  5
20F
100
AcDbSymbolTableRecord
100
AcDbRegAppTableRecord
  2
ACAD
 70
0
  0
ENDTAB
  0
TABLE
  2
BLOCK_RECORD
  5
1
100
AcDbSymbolTable
 70
0
  0
BLOCK_RECORD
  5
210
100
AcDbSymbolTableRecord
100
AcDbBlockTableRecord
  2
*Model_Space
  0
BLOCK_RECORD
  5
211
100
AcDbSymbolTableRecord
100
AcDbBlockTableRecord
  2
*Paper_Space
  0
BLOCK_RECORD
  5
212
100
AcDbSymbolTableRecord
100
AcDbBlockTableRecord
  2
_FILLED
  0
ENDTAB
  0
TABLE
  2
DIMSTYLE
  5
A
100
AcDbSymbolTable
 70
1
100
AcDbDimStyleTable
 71
0
  0
DIMSTYLE
105
213
100
AcDbSymbolTableRecord
100
AcDbDimStyleTableRecord
  2
STANDARD
 70
0
  3

  4

 40
1.0
 41
0.7347665561
 42
1.0
 43
0.38
 44
1.0
 45
0.0
 46
0.0
 47
0.01
 48
0.01
140
1.0286731786
141
0.09
142
0.0
143
25.4
144
1.0
145
0.0
146
1.0
147
0.625
 71
1
 72
0
 73
0
 74
0
 75
0
 76
0
 77
1
 78
8
 79
2
170
0
171
1
172
0
173
0
174
0
175
0
176
0
177
0
178
0
270
2
179
2
271
2
272
2
273
2
274
2
275
0
280
0
281
0
282
0
283
1
284
8
285
0
286
0
287
3
288
0
340
11
278
46
341
212
342
212
343
212
344
212
  0
ENDTAB
  0
ENDSEC
  0
SECTION
  2
BLOCKS
  0
BLOCK
  5
20
100
AcDbEntity
  8
0
100
AcDbBlockBegin
  2
*Model_Space
 70
0
 10
0.0
 20
0.0
 30
0.0
  3
*Model_Space
  1

  0
ENDBLK
  5
21
100
AcDbEntity
  8
0
100
AcDbBlockEnd
  0
BLOCK
  5
1C
100
AcDbEntity
  8
0
100
AcDbBlockBegin
  2
*Paper_Space
 70
0
 10
0.0
 20
0.0
 30
0.0
  3
*Paper_Space
  1

  0
ENDBLK
  5
1D
100
AcDbEntity
  8
0
100
AcDbBlockEnd
  0
BLOCK
  5
214
100
AcDbEntity
  8
0
100
AcDbBlockBegin
  2
_FILLED
 70
64
 10
0.0
 20
0.0
  3
_FILLED
  1

  0
SOLID
  5
215
100
AcDbEntity
  8
0
  6
BYBLOCK
 62
0
100
AcDbTrace
 10
0.0
 20
0.0
 11
-1.0
 21
0.25
 12
-1.0
 22
-0.25
 13
-1.0
 23
-0.25
  0
ENDBLK
  5
216
100
AcDbEntity
  8
0
  6
BYBLOCK
 62
0
100
AcDbBlockEnd
  0
ENDSEC
  0
SECTION
  2
ENTITIES
  0
LINE
  5
217
100
AcDbEntity
  8
0
100
AcDbLine
 62
7
  6
CONTINUOUS
 10
36.7169254229
 20
6.4639671304
 11
25.2171501557
 21
6.4639671304
  0
LINE
  5
218
100
AcDbEntity
  8
0
100
AcDbLine
 62
7
  6
CONTINUOUS
 10
37.1170377893
 20
6.8639671304
 11
24.8170377893
 21
6.8639671304
  0
LINE
  5
219
100
AcDbEntity
  8
0
100
AcDbLine
 62
7
  6
CONTINUOUS
 10
37.4643468584
 20
7.2139671304
 11
24.4697287203
 21
7.2139671304
  0
LINE
  5
21A
100
AcDbEntity
  8
0
100
AcDbLine
 62
7
  6
CONTINUOUS
 10
26.6331153581
 20
71.043969965
 11
26.0331153581
 21
70.443969965
  0
LINE
  5
21B
100
AcDbEntity
  8
0
100
AcDbLine
 62
7
  6
CONTINUOUS
 10
42.9670377893
 20
22.6139671306
 11
40.1670377893
 21
22.2139671305
  0
LINE
  5
21C
100
AcDbEntity
  8
0
100
AcDbLine
 62
7
  6
CONTINUOUS
 10
40.1669728467
 20
22.2139671305
 11
21.7671027319
 21
22.2139671305
  0
LINE
  5
21D
100
AcDbEntity
  8
0
100
AcDbLine
 62
7
  6
CONTINUOUS
 10
42.9670377893
 20
22.6139671306
 11
18.9670377893
 21
22.6139671306
  0
LINE
  5
21E
100
AcDbEntity
  8
0
100
AcDbLine
 62
7
  6
CONTINUOUS
 10
18.9670377893
 20
22.6139671306
 11
21.7670377893
 21
22.2139671305
  0
LINE
  5
21F
100
AcDbEntity
  8
0
100
AcDbLine
 62
7
  6
CONTINUOUS
 10
45.2170313286
 20
23.1139671304
 11
16.71704425
 21
23.1139671304
  0
LINE
  5
220
100
AcDbEntity
  8
0
100
AcDbLine
 62
7
  6
CONTINUOUS
 10
16.7170377893
 20
26.6139671304
 11
16.9335273089
 21
26.6139671304
  0
LINE
  5
221
100
AcDbEntity
  8
0
100
AcDbLine
 62
7
  6
CONTINUOUS
 10
17.2025947647
 20
26.6139671304
 11
18.052151824
 21
26.6139671304
  0
LINE
  5
222
100
AcDbEntity
  8
0
100
AcDbLine
 62
7
  6
CONTINUOUS
 10
18.6261757854
 20
26.6139671304
 11
20.0509044749
 21
26.6139671304
  0
LINE
  5
223
100
AcDbEntity
  8
0
100
AcDbLine
 62
7
  6
CONTINUOUS
 10
20.8907661574
 20
26.6139671304
 11
22.7935735713
 21
26.6139671304
  0
LINE
  5
224
100
AcDbEntity
  8
0
100
AcDbLine
 62
7
  6
CONTINUOUS
 10
23.8420377893
 20
26.6139671304
 11
26.0932507469
 21
26.6139671304
  0
LINE
  5
225
100
AcDbEntity
  8
0
100
AcDbLine
 62
7
  6
CONTINUOUS
 10
27.2788663966
 20
26.6139671304
 11
29.7250684552
 21
26.6139671304
  0
LINE
  5
226
100
AcDbEntity
  8
0
100
AcDbLine
 62
7
  6
CONTINUOUS
 10
30.9670377893
 20
26.6139671304
 11
33.4415243211
 21
26.6139671304
  0
LINE
  5
227
100
AcDbEntity
  8
0
100
AcDbLine
 62
7
  6
CONTINUOUS
 10
34.655209182
 20
26.6139671304
 11
36.9893480191
 21
26.6139671304
  0
LINE
  5
228
100
AcDbEntity
  8
0
100
AcDbLine
 62
7
  6
CONTINUOUS
 10
38.0920377893
 20
26.6139671304
 11
40.1267612273
 21
26.6139671304
  0
LINE
  5
229
100
AcDbEntity
  8
0
100
AcDbLine
 62
7
  6
CONTINUOUS
 10
41.0433094212
 20
26.6139671304
 11
42.6399544204
 21
26.6139671304
  0
LINE
  5
22A
100
AcDbEntity
  8
0
100
AcDbLine
 62
7
  6
CONTINUOUS
 10
43.3078997932
 20
26.6139671304
 11
44.3576576355
 21
26.6139671304
  0
LINE
  5
22B
100
AcDbEntity
  8
0
100
AcDbLine
 62
7
  6
CONTINUOUS
 10
44.7314808139
 20
26.6139671304
 11
45.1628122371
 21
26.6139671304
  0
LINE
  5
22C
100
AcDbEntity
  8
0
100
AcDbLine
 62
7
  6
CONTINUOUS
 10
16.0670377893
 20
45.9139671304
 11
16.0670377893
 21
56.813969965
  0
LINE
  5
22D
100
AcDbEntity
  8
0
100
AcDbLine
 62
7
  6
CONTINUOUS
 10
16.2170377893
 20
41.0139671304
 11
16.2170377893
 21
35.0139671304
  0
LINE
  5
22E
100
AcDbEntity
  8
0
100
AcDbLine
 62
7
  6
CONTINUOUS
 10
16.2587468428
 20
41.0139671304
 11
16.2587468428
 21
36.5139671304
  0
LINE
  5
22F
100
AcDbEntity
  8
0
100
AcDbLine
 62
7
  6
CONTINUOUS
 10
16.7170377893
 20
23.1139671304
 11
16.7170377893
 21
30.1139671304
  0
LINE
  5
230
100
AcDbEntity
  8
0
100
AcDbLine
 62
7
  6
CONTINUOUS
 10
16.9335273089
 20
30.1139671304
 11
16.9335273089
 21
26.6139671304
  0
LINE
  5
231
100
AcDbEntity
  8
0
100
AcDbLine
 62
7
  6
CONTINUOUS
 10
17.0670377893
 20
45.9139671304
 11
17.0670377893
 21
54.0139671304
  0
LINE
  5
232
100
AcDbEntity
  8
0
100
AcDbLine
 62
7
  6
CONTINUOUS
 10
17.0670377893
 20
54.213969965
 11
17.0670377893
 21
56.813969965
  0
LINE
  5
233
100
AcDbEntity
  8
0
100
AcDbLine
 62
7
  6
CONTINUOUS
 10
17.2025947647
 20
26.6139671304
 11
17.2025947647
 21
30.1139671304
  0
LINE
  5
234
100
AcDbEntity
  8
0
100
AcDbLine
 62
7
  6
CONTINUOUS
 10
17.4440762213
 20
30.1139671304
 11
17.4440762213
 21
26.6139671304
  0
LINE
  5
235
100
AcDbEntity
  8
0
100
AcDbLine
 62
7
  6
CONTINUOUS
 10
17.51441351
 20
30.5139671304
 11
17.51441351
 21
30.1139671304
  0
LINE
  5
236
100
AcDbEntity
  8
0
100
AcDbLine
 62
7
  6
CONTINUOUS
 10
17.5670377893
 20
52.5139671304
 11
17.5670377893
 21
47.5139671304
  0
LINE
  5
237
100
AcDbEntity
  8
0
100
AcDbLine
 62
7
  6
CONTINUOUS
 10
17.754020785
 20
36.5139671304
 11
17.754020785
 21
41.0139671304
  0
LINE
  5
238
100
AcDbEntity
  8
0
100
AcDbLine
 62
7
  6
CONTINUOUS
 10
17.7670377893
 20
54.0139671304
 11
17.7670377893
 21
54.213969965
  0
LINE
  5
239
100
AcDbEntity
  8
0
100
AcDbLine
 62
7
  6
CONTINUOUS
 10
26.0331153581
 20
70.443969965
 11
25.8932230607
 21
70.143969965
  0
LINE
  5
23A
100
AcDbEntity
  8
0
100
AcDbLine
 62
7
  6
CONTINUOUS
 10
16.7170377893
 20
30.1139671304
 11
45.2170377893
 21
30.1139671304
  0
LINE
  5
23B
100
AcDbEntity
  8
0
100
AcDbLine
 62
7
  6
CONTINUOUS
 10
17.51441351
 20
30.5139671304
 11
44.4196620686
 21
30.5139671304
  0
LINE
  5
23C
100
AcDbEntity
  8
0
100
AcDbLine
 62
7
  6
CONTINUOUS
 10
18.052151824
 20
30.1139671304
 11
18.052151824
 21
26.6139671304
  0
LINE
  5
23D
100
AcDbEntity
  8
0
100
AcDbLine
 62
7
  6
CONTINUOUS
 10
18.3170377893
 20
35.0139671304
 11
18.3170377893
 21
34.5139671304
  0
LINE
  5
23E
100
AcDbEntity
  8
0
100
AcDbLine
 62
7
  6
CONTINUOUS
 10
18.3670377893
 20
31.7639671304
 11
18.3670377893
 21
30.5139671304
  0
LINE
  5
23F
100
AcDbEntity
  8
0
100
AcDbLine
 62
7
  6
CONTINUOUS
 10
18.6261757854
 20
26.6139671304
 11
18.6261757854
 21
30.1139671304
  0
LINE
  5
240
100
AcDbEntity
  8
0
100
AcDbLine
 62
7
  6
CONTINUOUS
 10
18.6443880585
 20
54.213969965
 11
18.6443880585
 21
56.813969965
  0
LINE
  5
241
100
AcDbEntity
  8
0
100
AcDbLine
 62
7
  6
CONTINUOUS
 10
18.6454639832
 20
41.0139671304
 11
18.6454639832
 21
36.5139671304
  0
LINE
  5
242
100
AcDbEntity
  8
0
100
AcDbLine
 62
7
  6
CONTINUOUS
 10
18.8426821363
 20
30.1139671304
 11
18.8426821363
 21
26.6139671304
  0
LINE
  5
243
100
AcDbEntity
  8
0
100
AcDbLine
 62
7
  6
CONTINUOUS
 10
18.9670377893
 20
22.6139671306
 11
18.9670377893
 21
23.1139671304
  0
LINE
  5
244
100
AcDbEntity
  8
0
100
AcDbLine
 62
7
  6
CONTINUOUS
 10
20.0058562837
 20
43.9139671304
 11
20.0058562837
 21
41.0139671304
  0
LINE
  5
245
100
AcDbEntity
  8
0
100
AcDbLine
 62
7
  6
CONTINUOUS
 10
20.0509044749
 20
30.1139671304
 11
20.0509044749
 21
26.6139671304
  0
LINE
  5
246
100
AcDbEntity
  8
0
100
AcDbLine
 62
7
  6
CONTINUOUS
 10
20.0920377893
 20
31.7639671304
 11
20.0920377893
 21
34.5139671304
  0
LINE
  5
247
100
AcDbEntity
  8
0
100
AcDbLine
 62
7
  6
CONTINUOUS
 10
18.3670377893
 20
31.7639671304
 11
43.5670377893
 21
31.7639671304
  0
LINE
  5
248
100
AcDbEntity
  8
0
100
AcDbLine
 62
7
  6
CONTINUOUS
 10
24.4696624106
 20
7.2139671304
 11
23.3701065773
 21
22.2139671304
  0
LINE
  5
249
100
AcDbEntity
  8
0
100
AcDbLine
 62
7
  6
CONTINUOUS
 10
20.7170377893
 20
59.813969965
 11
20.7170377893
 21
54.713969965
  0
LINE
  5
24A
100
AcDbEntity
  8
0
100
AcDbLine
 62
7
  6
CONTINUOUS
 10
20.7745094462
 20
44.3139671304
 11
20.7745094462
 21
45.8139671304
  0
LINE
  5
24B
100
AcDbEntity
  8
0
100
AcDbLine
 62
7
  6
CONTINUOUS
 10
20.8907661574
 20
26.6139671304
 11
20.8907661574
 21
30.1139671304
  0
LINE
  5
24C
100
AcDbEntity
  8
0
100
AcDbLine
 62
7
  6
CONTINUOUS
 10
20.9453535631
 20
45.8139671304
 11
20.9453535631
 21
44.3139671304
  0
LINE
  5
24D
100
AcDbEntity
  8
0
100
AcDbLine
 62
7
  6
CONTINUOUS
 10
21.0675428527
 20
30.1139671304
 11
21.0675428527
 21
26.6139671304
  0
LINE
  5
24E
100
AcDbEntity
  8
0
100
AcDbLine
 62
7
  6
CONTINUOUS
 10
21.9913736421
 20
41.0139671304
 11
21.9913736421
 21
36.5139671304
  0
LINE
  5
24F
100
AcDbEntity
  8
0
100
AcDbLine
 62
7
  6
CONTINUOUS
 10
22.0819459372
 20
44.3139671304
 11
22.0819459372
 21
45.8139671304
  0
LINE
  5
250
100
AcDbEntity
  8
0
100
AcDbLine
 62
7
  6
CONTINUOUS
 10
22.5920377893
 20
45.9139671304
 11
22.5920377893
 21
45.8139671304
  0
LINE
  5
251
100
AcDbEntity
  8
0
100
AcDbLine
 62
7
  6
CONTINUOUS
 10
22.5920377893
 20
44.3139671304
 11
22.5920377893
 21
42.2139671304
  0
LINE
  5
252
100
AcDbEntity
  8
0
100
AcDbLine
 62
7
  6
CONTINUOUS
 10
22.6450720392
 20
41.0139671304
 11
22.6450720392
 21
36.5139671304
  0
LINE
  5
253
100
AcDbEntity
  8
0
100
AcDbLine
 62
7
  6
CONTINUOUS
 10
22.7670377893
 20
71.0439694653
 11
22.7670377893
 21
72.6439694653
  0
LINE
  5
254
100
AcDbEntity
  8
0
100
AcDbLine
 62
7
  6
CONTINUOUS
 10
22.7935735713
 20
30.1139671304
 11
22.7935735713
 21
26.6139671304
  0
LINE
  5
255
100
AcDbEntity
  8
0
100
AcDbLine
 62
7
  6
CONTINUOUS
 10
26.7354631676
 20
62.3363242515
 11
26.9170377893
 21
63.013969965
  0
LINE
  5
256
100
AcDbEntity
  8
0
100
AcDbLine
 62
7
  6
CONTINUOUS
 10
43.6169463817
 20
34.5139671304
 11
18.3171291969
 21
34.5139671304
  0
LINE
  5
257
100
AcDbEntity
  8
0
100
AcDbLine
 62
7
  6
CONTINUOUS
 10
45.7169292805
 20
35.0139671304
 11
16.2171462981
 21
35.0139671304
  0
LINE
  5
258
100
AcDbEntity
  8
0
100
AcDbLine
 62
7
  6
CONTINUOUS
 10
24.424114235
 20
67.6376002391
 11
24.4170377893
 21
72.6038908132
  0
LINE
  5
259
100
AcDbEntity
  8
0
100
AcDbLine
 62
7
  6
CONTINUOUS
 10
24.4226014898
 20
67.6452742651
 11
24.4170377893
 21
72.6004268657
  0
LINE
  5
25A
100
AcDbEntity
  8
0
100
AcDbLine
 62
7
  6
CONTINUOUS
 10
24.4170377893
 20
76.1070897004
 11
24.424114235
 21
67.6376002391
  0
LINE
  5
25B
100
AcDbEntity
  8
0
100
AcDbLine
 62
7
  6
CONTINUOUS
 10
24.1170377893
 20
72.6004268657
 11
24.1201099904
 21
67.6446103713
  0
LINE
  5
25C
100
AcDbEntity
  8
0
100
AcDbLine
 62
7
  6
CONTINUOUS
 10
24.4170377893
 20
76.1105536479
 11
24.4225458047
 21
67.6487265633
  0
LINE
  5
25D
100
AcDbEntity
  8
0
100
AcDbLine
 62
7
  6
CONTINUOUS
 10
24.1201099298
 20
67.6480717822
 11
24.1170377893
 21
76.1105536479
  0
LINE
  5
25E
100
AcDbEntity
  8
0
100
AcDbLine
 62
7
  6
CONTINUOUS
 10
23.8420377893
 20
26.6139671304
 11
23.8420377893
 21
30.1139671304
  0
LINE
  5
25F
100
AcDbEntity
  8
0
100
AcDbLine
 62
7
  6
CONTINUOUS
 10
23.8670377893
 20
49.8139671304
 11
23.8670377893
 21
47.5139671304
  0
LINE
  5
260
100
AcDbEntity
  8
0
100
AcDbLine
 62
7
  6
CONTINUOUS
 10
23.9670377893
 20
30.1139671304
 11
23.9670377893
 21
26.6139671304
  0
LINE
  5
261
100
AcDbEntity
  8
0
100
AcDbLine
 62
7
  6
CONTINUOUS
 10
24.1170377893
 20
63.913969965
 11
24.1170377893
 21
68.993969965
  0
LINE
  5
262
100
AcDbEntity
  8
0
100
AcDbLine
 62
7
  6
CONTINUOUS
 10
24.1170377893
 20
68.993969965
 11
24.1170377893
 21
76.1105536479
  0
LINE
  5
263
100
AcDbEntity
  8
0
100
AcDbLine
 62
7
  6
CONTINUOUS
 10
24.2670377893
 20
54.0139671304
 11
24.2670377893
 21
54.713969965
  0
LINE
  5
264
100
AcDbEntity
  8
0
100
AcDbLine
 62
7
  6
CONTINUOUS
 10
24.3377490864
 20
49.8139671304
 11
24.3377490864
 21
47.5139671304
  0
LINE
  5
265
100
AcDbEntity
  8
0
100
AcDbLine
 62
7
  6
CONTINUOUS
 10
24.4170377893
 20
67.6376002391
 11
24.4170377893
 21
76.1105536479
  0
LINE
  5
266
100
AcDbEntity
  8
0
100
AcDbLine
 62
7
  6
CONTINUOUS
 10
24.4670377893
 20
47.5139671304
 11
24.4670377893
 21
52.5139671304
  0
LINE
  5
267
100
AcDbEntity
  8
0
100
AcDbLine
 62
7
  6
CONTINUOUS
 10
24.5728444352
 20
41.0139671304
 11
24.5728444352
 21
36.5139671304
  0
LINE
  5
268
100
AcDbEntity
  8
0
100
AcDbLine
 62
7
  6
CONTINUOUS
 10
24.7170377893
 20
59.813969965
 11
24.7170377893
 21
63.913969965
  0
LINE
  5
269
100
AcDbEntity
  8
0
100
AcDbLine
 62
7
  6
CONTINUOUS
 10
24.7170378035
 20
67.1305060175
 11
24.7170378035
 21
67.4339699633
  0
LINE
  5
26A
100
AcDbEntity
  8
0
100
AcDbLine
 62
7
  6
CONTINUOUS
 10
24.8170377893
 20
6.8639671304
 11
24.8170377893
 21
7.2139671304
  0
LINE
  5
26B
100
AcDbEntity
  8
0
100
AcDbLine
 62
7
  6
CONTINUOUS
 10
24.8927194985
 20
44.2139671304
 11
24.8927194985
 21
42.2139671304
  0
LINE
  5
26C
100
AcDbEntity
  8
0
100
AcDbLine
 62
7
  6
CONTINUOUS
 10
25.1670377893
 20
76.6439694653
 11
25.1670377893
 21
72.6439694653
  0
LINE
  5
26D
100
AcDbEntity
  8
0
100
AcDbLine
 62
7
  6
CONTINUOUS
 10
25.2920377893
 20
70.143969965
 11
25.2920377893
 21
68.993969965
  0
LINE
  5
26E
100
AcDbEntity
  8
0
100
AcDbLine
 62
7
  6
CONTINUOUS
 10
25.3365617787
 20
68.993969965
 11
25.3365617787
 21
63.913969965
  0
LINE
  5
26F
100
AcDbEntity
  8
0
100
AcDbLine
 62
7
  6
CONTINUOUS
 10
25.5670377893
 20
72.6439694653
 11
25.5670377893
 21
81.2536694653
  0
LINE
  5
270
100
AcDbEntity
  8
0
100
AcDbLine
 62
7
  6
CONTINUOUS
 10
16.2588693207
 20
36.5139671304
 11
22.6450720327
 21
36.5139671304
  0
LINE
  5
271
100
AcDbEntity
  8
0
100
AcDbLine
 62
7
  6
CONTINUOUS
 10
24.572844434
 20
36.5139671304
 11
37.3526439182
 21
36.5139671304
  0
LINE
  5
272
100
AcDbEntity
  8
0
100
AcDbLine
 62
7
  6
CONTINUOUS
 10
39.2811353752
 20
36.5139671304
 11
45.6746096651
 21
36.5139671304
  0
LINE
  5
273
100
AcDbEntity
  8
0
100
AcDbLine
 62
7
  6
CONTINUOUS
 10
25.9670377893
 20
54.513969965
 11
25.9670377893
 21
54.0139671304
  0
LINE
  5
274
100
AcDbEntity
  8
0
100
AcDbLine
 62
7
  6
CONTINUOUS
 10
25.9670377893
 20
52.5139671304
 11
25.9670377893
 21
47.5139671304
  0
LINE
  5
275
100
AcDbEntity
  8
0
100
AcDbLine
 62
7
  6
CONTINUOUS
 10
25.9830634716
 20
47.5139671304
 11
25.9830634716
 21
45.9139671304
  0
LINE
  5
276
100
AcDbEntity
  8
0
100
AcDbLine
 62
7
  6
CONTINUOUS
 10
26.04744184
 20
59.813969965
 11
26.04744184
 21
62.113969965
  0
LINE
  5
277
100
AcDbEntity
  8
0
100
AcDbLine
 62
7
  6
CONTINUOUS
 10
26.0932507469
 20
30.1139671304
 11
26.0932507469
 21
26.6139671304
  0
LINE
  5
278
100
AcDbEntity
  8
0
100
AcDbLine
 62
7
  6
CONTINUOUS
 10
26.2170386308
 20
73.9439700548
 11
26.2170386308
 21
77.1439694653
  0
LINE
  5
279
100
AcDbEntity
  8
0
100
AcDbLine
 62
7
  6
CONTINUOUS
 10
26.362692016
 20
41.0139671304
 11
26.362692016
 21
42.2139671304
  0
LINE
  5
27A
100
AcDbEntity
  8
0
100
AcDbLine
 62
7
  6
CONTINUOUS
 10
26.3850294211
 20
49.8139671304
 11
26.3850294211
 21
47.5139671304
  0
LINE
  5
27B
100
AcDbEntity
  8
0
100
AcDbLine
 62
7
  6
CONTINUOUS
 10
26.5170377893
 20
74.1439694653
 11
26.5170377893
 21
75.6439694653
  0
LINE
  5
27C
100
AcDbEntity
  8
0
100
AcDbLine
 62
7
  6
CONTINUOUS
 10
26.5218971951
 20
36.5139671304
 11
26.5218971951
 21
41.0139671304
  0
LINE
  5
27D
100
AcDbEntity
  8
0
100
AcDbLine
 62
7
  6
CONTINUOUS
 10
26.5975138
 20
63.913969965
 11
26.5975138
 21
68.993969965
  0
LINE
  5
27E
100
AcDbEntity
  8
0
100
AcDbLine
 62
7
  6
CONTINUOUS
 10
26.9678681331
 20
41.0139671304
 11
26.9678681331
 21
36.5139671304
  0
LINE
  5
27F
100
AcDbEntity
  8
0
100
AcDbLine
 62
7
  6
CONTINUOUS
 10
26.9732926798
 20
44.2139671304
 11
26.9732926798
 21
42.2139671304
  0
LINE
  5
280
100
AcDbEntity
  8
0
100
AcDbLine
 62
7
  6
CONTINUOUS
 10
26.9870880409
 20
30.1139671304
 11
26.9870880409
 21
30.5139671304
  0
LINE
  5
281
100
AcDbEntity
  8
0
100
AcDbLine
 62
7
  6
CONTINUOUS
 10
27.2788663966
 20
26.6139671304
 11
27.2788663966
 21
30.1139671304
  0
LINE
  5
282
100
AcDbEntity
  8
0
100
AcDbLine
 62
7
  6
CONTINUOUS
 10
27.3435711579
 20
30.1139671304
 11
27.3435711579
 21
26.6139671304
  0
LINE
  5
283
100
AcDbEntity
  8
0
100
AcDbLine
 62
7
  6
CONTINUOUS
 10
27.4670377893
 20
54.513969965
 11
27.4670377893
 21
54.0139671304
  0
LINE
  5
284
100
AcDbEntity
  8
0
100
AcDbLine
 62
7
  6
CONTINUOUS
 10
27.6147926753
 20
44.3139671304
 11
27.6147926753
 21
45.8139671304
  0
LINE
  5
285
100
AcDbEntity
  8
0
100
AcDbLine
 62
7
  6
CONTINUOUS
 10
27.9670377893
 20
59.813969965
 11
27.9670377893
 21
63.013969965
  0
LINE
  5
286
100
AcDbEntity
  8
0
100
AcDbLine
 62
7
  6
CONTINUOUS
 10
28.0670377893
 20
47.5139671304
 11
28.0670377893
 21
49.8139671304
  0
LINE
  5
287
100
AcDbEntity
  8
0
100
AcDbLine
 62
7
  6
CONTINUOUS
 10
28.1170377893
 20
74.1439694653
 11
28.1170377893
 21
75.6439694653
  0
LINE
  5
288
100
AcDbEntity
  8
0
100
AcDbLine
 62
7
  6
CONTINUOUS
 10
28.3570377893
 20
44.3139671304
 11
28.3570377893
 21
45.8139671304
  0
LINE
  5
289
100
AcDbEntity
  8
0
100
AcDbLine
 62
7
  6
CONTINUOUS
 10
28.4170369478
 20
77.1439694653
 11
28.4170369478
 21
73.9439700548
  0
LINE
  5
28A
100
AcDbEntity
  8
0
100
AcDbLine
 62
7
  6
CONTINUOUS
 10
16.2170401306
 20
41.0139671304
 11
45.717035448
 21
41.0139671304
  0
LINE
  5
28B
100
AcDbEntity
  8
0
100
AcDbLine
 62
7
  6
CONTINUOUS
 10
24.1231827088
 20
67.6448547286
 11
24.124277716
 21
67.6375786511
  0
LINE
  5
28C
100
AcDbEntity
  8
0
100
AcDbLine
 62
7
  6
CONTINUOUS
 10
24.124277716
 20
67.6410425986
 11
24.1231825946
 21
67.6483194679
  0
LINE
  5
28D
100
AcDbEntity
  8
0
100
AcDbLine
 62
7
  6
CONTINUOUS
 10
29.1235610883
 20
45.9139671304
 11
29.1235610883
 21
44.9139671304
  0
LINE
  5
28E
100
AcDbEntity
  8
0
100
AcDbLine
 62
7
  6
CONTINUOUS
 10
29.3170377893
 20
49.8139671304
 11
29.3170377893
 21
47.5139671304
  0
LINE
  5
28F
100
AcDbEntity
  8
0
100
AcDbLine
 62
7
  6
CONTINUOUS
 10
29.7170386308
 20
73.9439700548
 11
29.7170386308
 21
77.1439694653
  0
LINE
  5
290
100
AcDbEntity
  8
0
100
AcDbLine
 62
7
  6
CONTINUOUS
 10
29.7250684552
 20
30.1139671304
 11
29.7250684552
 21
26.6139671304
  0
LINE
  5
291
100
AcDbEntity
  8
0
100
AcDbLine
 62
7
  6
CONTINUOUS
 10
30.0170377893
 20
74.1439694653
 11
30.0170377893
 21
75.6439694653
  0
LINE
  5
292
100
AcDbEntity
  8
0
100
AcDbLine
 62
7
  6
CONTINUOUS
 10
30.9670377893
 20
26.6139671304
 11
30.9670377893
 21
30.1139671304
  0
LINE
  5
293
100
AcDbEntity
  8
0
100
AcDbLine
 62
7
  6
CONTINUOUS
 10
33.1670377893
 20
47.5139671304
 11
33.8670377893
 21
48.470184913
  0
LINE
  5
294
100
AcDbEntity
  8
0
100
AcDbLine
 62
7
  6
CONTINUOUS
 10
39.3420377893
 20
42.2139671304
 11
22.5920377893
 21
42.2139671304
  0
LINE
  5
295
100
AcDbEntity
  8
0
100
AcDbLine
 62
7
  6
CONTINUOUS
 10
20.0058562837
 20
43.9139671304
 11
22.5920377893
 21
43.9139671304
  0
LINE
  5
296
100
AcDbEntity
  8
0
100
AcDbLine
 62
7
  6
CONTINUOUS
 10
39.3420377893
 20
43.9139671304
 11
41.928219295
 21
43.9139671304
  0
LINE
  5
297
100
AcDbEntity
  8
0
100
AcDbLine
 62
7
  6
CONTINUOUS
 10
22.5920377893
 20
44.2139671304
 11
28.2117687207
 21
44.2139671304
  0
LINE
  5
298
100
AcDbEntity
  8
0
100
AcDbLine
 62
7
  6
CONTINUOUS
 10
33.7223068579
 20
44.2139671304
 11
39.3420377893
 21
44.2139671304
  0
LINE
  5
299
100
AcDbEntity
  8
0
100
AcDbLine
 62
7
  6
CONTINUOUS
 10
25.198612411
 20
62.3363242515
 11
25.0170377893
 21
63.013969965
  0
LINE
  5
29A
100
AcDbEntity
  8
0
100
AcDbLine
 62
7
  6
CONTINUOUS
 10
31.6170377893
 20
74.1439694653
 11
31.6170377893
 21
75.6439694653
  0
LINE
  5
29B
100
AcDbEntity
  8
0
100
AcDbLine
 62
7
  6
CONTINUOUS
 10
31.9170369478
 20
77.1439694653
 11
31.9170369478
 21
73.9439700548
  0
LINE
  5
29C
100
AcDbEntity
  8
0
100
AcDbLine
 62
7
  6
CONTINUOUS
 10
32.6170377893
 20
47.5139671304
 11
32.6170377893
 21
49.8139671304
  0
LINE
  5
29D
100
AcDbEntity
  8
0
100
AcDbLine
 62
7
  6
CONTINUOUS
 10
32.8105144903
 20
44.9139671304
 11
32.8105144903
 21
45.9139671304
  0
LINE
  5
29E
100
AcDbEntity
  8
0
100
AcDbLine
 62
7
  6
CONTINUOUS
 10
33.2170386308
 20
73.9439700548
 11
33.2170386308
 21
77.1439694653
  0
LINE
  5
29F
100
AcDbEntity
  8
0
100
AcDbLine
 62
7
  6
CONTINUOUS
 10
33.3981122767
 20
26.6139671304
 11
33.3981122767
 21
30.1139671304
  0
LINE
  5
2A0
100
AcDbEntity
  8
0
100
AcDbLine
 62
7
  6
CONTINUOUS
 10
33.4415243211
 20
30.1139671304
 11
33.4415243211
 21
26.6139671304
  0
LINE
  5
2A1
100
AcDbEntity
  8
0
100
AcDbLine
 62
7
  6
CONTINUOUS
 10
33.5170377893
 20
74.1439694653
 11
33.5170377893
 21
75.6439694653
  0
LINE
  5
2A2
100
AcDbEntity
  8
0
100
AcDbLine
 62
7
  6
CONTINUOUS
 10
33.5770377893
 20
44.3139671304
 11
33.5770377893
 21
45.8139671304
  0
LINE
  5
2A3
100
AcDbEntity
  8
0
100
AcDbLine
 62
7
  6
CONTINUOUS
 10
33.8670377893
 20
49.8139671304
 11
33.8670377893
 21
47.5139671304
  0
LINE
  5
2A4
100
AcDbEntity
  8
0
100
AcDbLine
 62
7
  6
CONTINUOUS
 10
33.9670377893
 20
59.813969965
 11
33.9670377893
 21
63.013969965
  0
LINE
  5
2A5
100
AcDbEntity
  8
0
100
AcDbLine
 62
7
  6
CONTINUOUS
 10
36.7354631676
 20
62.3363242515
 11
36.9170377893
 21
63.013969965
  0
LINE
  5
2A6
100
AcDbEntity
  8
0
100
AcDbLine
 62
7
  6
CONTINUOUS
 10
41.1595324888
 20
44.3139671304
 11
33.5770377893
 21
44.3139671304
  0
LINE
  5
2A7
100
AcDbEntity
  8
0
100
AcDbLine
 62
7
  6
CONTINUOUS
 10
28.3570377893
 20
44.3139671304
 11
20.77455828
 21
44.3139671304
  0
LINE
  5
2A8
100
AcDbEntity
  8
0
100
AcDbLine
 62
7
  6
CONTINUOUS
 10
33.5770377893
 20
44.9139671304
 11
32.8105144903
 21
44.9139671304
  0
LINE
  5
2A9
100
AcDbEntity
  8
0
100
AcDbLine
 62
7
  6
CONTINUOUS
 10
29.1235610883
 20
44.9139671304
 11
28.3570377893
 21
44.9139671304
  0
LINE
  5
2AA
100
AcDbEntity
  8
0
100
AcDbLine
 62
7
  6
CONTINUOUS
 10
20.77455828
 20
45.8139671304
 11
28.3570377893
 21
45.8139671304
  0
LINE
  5
2AB
100
AcDbEntity
  8
0
100
AcDbLine
 62
7
  6
CONTINUOUS
 10
33.5770377893
 20
45.8139671304
 11
41.1595172986
 21
45.8139671304
  0
LINE
  5
2AC
100
AcDbEntity
  8
0
100
AcDbLine
 62
7
  6
CONTINUOUS
 10
45.8670377893
 20
45.9139671304
 11
32.8105144903
 21
45.9139671304
  0
LINE
  5
2AD
100
AcDbEntity
  8
0
100
AcDbLine
 62
7
  6
CONTINUOUS
 10
16.0670377893
 20
45.9139671304
 11
29.1235610883
 21
45.9139671304
  0
LINE
  5
2AE
100
AcDbEntity
  8
0
100
AcDbLine
 62
7
  6
CONTINUOUS
 10
28.7670377893
 20
47.5139671304
 11
28.0670377893
 21
48.470184913
  0
LINE
  5
2AF
100
AcDbEntity
  8
0
100
AcDbLine
 62
7
  6
CONTINUOUS
 10
24.4310763557
 20
67.6398083964
 11
24.4288685602
 21
67.6470884212
  0
LINE
  5
2B0
100
AcDbEntity
  8
0
100
AcDbLine
 62
7
  6
CONTINUOUS
 10
24.4288673919
 20
67.6505564047
 11
24.4310763557
 21
67.6432723438
  0
LINE
  5
2B1
100
AcDbEntity
  8
0
100
AcDbLine
 62
7
  6
CONTINUOUS
 10
34.3192829033
 20
44.3139671304
 11
34.3192829033
 21
45.8139671304
  0
LINE
  5
2B2
100
AcDbEntity
  8
0
100
AcDbLine
 62
7
  6
CONTINUOUS
 10
34.4670377893
 20
54.0139671304
 11
34.4670377893
 21
54.513969965
  0
LINE
  5
2B3
100
AcDbEntity
  8
0
100
AcDbLine
 62
7
  6
CONTINUOUS
 10
34.655209182
 20
26.6139671304
 11
34.655209182
 21
30.1139671304
  0
LINE
  5
2B4
100
AcDbEntity
  8
0
100
AcDbLine
 62
7
  6
CONTINUOUS
 10
34.9469875377
 20
30.5139671304
 11
34.9469875377
 21
30.1139671304
  0
LINE
  5
2B5
100
AcDbEntity
  8
0
100
AcDbLine
 62
7
  6
CONTINUOUS
 10
34.9585077145
 20
36.5139671304
 11
34.9585077145
 21
41.0139671304
  0
LINE
  5
2B6
100
AcDbEntity
  8
0
100
AcDbLine
 62
7
  6
CONTINUOUS
 10
34.9607828989
 20
42.2139671304
 11
34.9607828989
 21
44.2139671304
  0
LINE
  5
2B7
100
AcDbEntity
  8
0
100
AcDbLine
 62
7
  6
CONTINUOUS
 10
35.1170377893
 20
74.1439694653
 11
35.1170377893
 21
75.6439694653
  0
LINE
  5
2B8
100
AcDbEntity
  8
0
100
AcDbLine
 62
7
  6
CONTINUOUS
 10
35.4039799746
 20
41.0139671304
 11
35.4039799746
 21
36.5139671304
  0
LINE
  5
2B9
100
AcDbEntity
  8
0
100
AcDbLine
 62
7
  6
CONTINUOUS
 10
35.4170369478
 20
77.1439694653
 11
35.4170369478
 21
73.9439700548
  0
LINE
  5
2BA
100
AcDbEntity
  8
0
100
AcDbLine
 62
7
  6
CONTINUOUS
 10
35.5490461575
 20
49.8139671304
 11
35.5490461575
 21
47.5139671304
  0
LINE
  5
2BB
100
AcDbEntity
  8
0
100
AcDbLine
 62
7
  6
CONTINUOUS
 10
35.5713835626
 20
42.2139671304
 11
35.5713835626
 21
41.0139671304
  0
LINE
  5
2BC
100
AcDbEntity
  8
0
100
AcDbLine
 62
7
  6
CONTINUOUS
 10
35.8866337386
 20
59.813969965
 11
35.8866337386
 21
62.113969965
  0
LINE
  5
2BD
100
AcDbEntity
  8
0
100
AcDbLine
 62
7
  6
CONTINUOUS
 10
35.9510121071
 20
45.9139671304
 11
35.9510121071
 21
47.5139671304
  0
LINE
  5
2BE
100
AcDbEntity
  8
0
100
AcDbLine
 62
7
  6
CONTINUOUS
 10
35.9670377893
 20
47.5139671304
 11
35.9670377893
 21
52.5139671304
  0
LINE
  5
2BF
100
AcDbEntity
  8
0
100
AcDbLine
 62
7
  6
CONTINUOUS
 10
35.9670377893
 20
54.0139671304
 11
35.9670377893
 21
54.513969965
  0
LINE
  5
2C0
100
AcDbEntity
  8
0
100
AcDbLine
 62
7
  6
CONTINUOUS
 10
36.0670377893
 20
81.2536694653
 11
36.0670377893
 21
72.6439694653
  0
LINE
  5
2C1
100
AcDbEntity
  8
0
100
AcDbLine
 62
7
  6
CONTINUOUS
 10
36.6420377893
 20
70.143969965
 11
36.6420377893
 21
68.993969965
  0
LINE
  5
2C2
100
AcDbEntity
  8
0
100
AcDbLine
 62
7
  6
CONTINUOUS
 10
17.0670377893
 20
47.5139671304
 11
44.8670377893
 21
47.5139671304
  0
LINE
  5
2C3
100
AcDbEntity
  8
0
100
AcDbLine
 62
7
  6
CONTINUOUS
 10
36.8836934537
 20
26.6139671304
 11
36.8836934537
 21
30.1139671304
  0
LINE
  5
2C4
100
AcDbEntity
  8
0
100
AcDbLine
 62
7
  6
CONTINUOUS
 10
36.9893480191
 20
30.1139671304
 11
36.9893480191
 21
26.6139671304
  0
LINE
  5
2C5
100
AcDbEntity
  8
0
100
AcDbLine
 62
7
  6
CONTINUOUS
 10
37.0427194985
 20
44.2139671304
 11
37.0427194985
 21
42.2139671304
  0
LINE
  5
2C6
100
AcDbEntity
  8
0
100
AcDbLine
 62
7
  6
CONTINUOUS
 10
37.1170377893
 20
6.8639671304
 11
37.1170377893
 21
7.2139671304
  0
LINE
  5
2C7
100
AcDbEntity
  8
0
100
AcDbLine
 62
7
  6
CONTINUOUS
 10
37.2170377893
 20
59.813969965
 11
37.2170377893
 21
68.993969965
  0
LINE
  5
2C8
100
AcDbEntity
  8
0
100
AcDbLine
 62
7
  6
CONTINUOUS
 10
37.3526439163
 20
41.0139671304
 11
37.3526439163
 21
36.5139671304
  0
LINE
  5
2C9
100
AcDbEntity
  8
0
100
AcDbLine
 62
7
  6
CONTINUOUS
 10
37.4670377893
 20
52.5139671304
 11
37.4670377893
 21
47.5139671304
  0
LINE
  5
2CA
100
AcDbEntity
  8
0
100
AcDbLine
 62
7
  6
CONTINUOUS
 10
37.5270377893
 20
64.213969965
 11
37.5270377893
 21
71.0439694653
  0
LINE
  5
2CB
100
AcDbEntity
  8
0
100
AcDbLine
 62
7
  6
CONTINUOUS
 10
37.5270377893
 20
72.6439694653
 11
37.5270377893
 21
75.1772222306
  0
LINE
  5
2CC
100
AcDbEntity
  8
0
100
AcDbLine
 62
7
  6
CONTINUOUS
 10
37.5963264922
 20
49.8139671304
 11
37.5963264922
 21
47.5139671304
  0
LINE
  5
2CD
100
AcDbEntity
  8
0
100
AcDbLine
 62
7
  6
CONTINUOUS
 10
37.6670377893
 20
54.0139671304
 11
37.6670377893
 21
54.713969965
  0
LINE
  5
2CE
100
AcDbEntity
  8
0
100
AcDbLine
 62
7
  6
CONTINUOUS
 10
37.8270377893
 20
75.1772222306
 11
37.8270377893
 21
72.6439694653
  0
LINE
  5
2CF
100
AcDbEntity
  8
0
100
AcDbLine
 62
7
  6
CONTINUOUS
 10
37.8270377893
 20
64.2139699651
 11
37.8270377893
 21
71.0439694653
  0
LINE
  5
2D0
100
AcDbEntity
  8
0
100
AcDbLine
 62
7
  6
CONTINUOUS
 10
38.0670377893
 20
47.5139671304
 11
38.0670377893
 21
49.8139671304
  0
LINE
  5
2D1
100
AcDbEntity
  8
0
100
AcDbLine
 62
7
  6
CONTINUOUS
 10
38.0920377893
 20
26.6139671304
 11
38.0920377893
 21
30.1139671304
  0
LINE
  5
2D2
100
AcDbEntity
  8
0
100
AcDbLine
 62
7
  6
CONTINUOUS
 10
39.1670377893
 20
71.0439694653
 11
39.1670377893
 21
72.6439694653
  0
LINE
  5
2D3
100
AcDbEntity
  8
0
100
AcDbLine
 62
7
  6
CONTINUOUS
 10
39.2811353809
 20
41.0139671304
 11
39.2811353809
 21
36.5139671304
  0
LINE
  5
2D4
100
AcDbEntity
  8
0
100
AcDbLine
 62
7
  6
CONTINUOUS
 10
39.3420377893
 20
45.9139671304
 11
39.3420377893
 21
45.8139671304
  0
LINE
  5
2D5
100
AcDbEntity
  8
0
100
AcDbLine
 62
7
  6
CONTINUOUS
 10
39.3420377893
 20
42.2139671304
 11
39.3420377893
 21
44.3139671304
  0
LINE
  5
2D6
100
AcDbEntity
  8
0
100
AcDbLine
 62
7
  6
CONTINUOUS
 10
44.3670377893
 20
49.8139671304
 11
37.4670377893
 21
49.8139671304
  0
LINE
  5
2D7
100
AcDbEntity
  8
0
100
AcDbLine
 62
7
  6
CONTINUOUS
 10
35.9670377893
 20
49.8139671304
 11
25.9670377893
 21
49.8139671304
  0
LINE
  5
2D8
100
AcDbEntity
  8
0
100
AcDbLine
 62
7
  6
CONTINUOUS
 10
24.4670377893
 20
49.8139671304
 11
17.5670377893
 21
49.8139671304
  0
LINE
  5
2D9
100
AcDbEntity
  8
0
100
AcDbLine
 62
7
  6
CONTINUOUS
 10
17.0670377893
 20
50.9139671304
 11
16.0670377893
 21
50.9139671304
  0
LINE
  5
2DA
100
AcDbEntity
  8
0
100
AcDbLine
 62
7
  6
CONTINUOUS
 10
44.8670377893
 20
50.9139671304
 11
45.8670377893
 21
50.9139671304
  0
LINE
  5
2DB
100
AcDbEntity
  8
0
100
AcDbLine
 62
7
  6
CONTINUOUS
 10
39.8521296415
 20
45.8139671304
 11
39.8521296415
 21
44.3139671304
  0
LINE
  5
2DC
100
AcDbEntity
  8
0
100
AcDbLine
 62
7
  6
CONTINUOUS
 10
39.9356339319
 20
41.0139671304
 11
39.9356339319
 21
36.5139671304
  0
LINE
  5
2DD
100
AcDbEntity
  8
0
100
AcDbLine
 62
7
  6
CONTINUOUS
 10
39.9660643249
 20
26.6139671304
 11
39.9660643249
 21
30.1139671304
  0
LINE
  5
2DE
100
AcDbEntity
  8
0
100
AcDbLine
 62
7
  6
CONTINUOUS
 10
40.1267612273
 20
30.1139671304
 11
40.1267612273
 21
26.6139671304
  0
LINE
  5
2DF
100
AcDbEntity
  8
0
100
AcDbLine
 62
7
  6
CONTINUOUS
 10
40.9887220156
 20
44.3139671304
 11
40.9887220156
 21
45.8139671304
  0
LINE
  5
2E0
100
AcDbEntity
  8
0
100
AcDbLine
 62
7
  6
CONTINUOUS
 10
41.0433094212
 20
26.6139671304
 11
41.0433094212
 21
30.1139671304
  0
LINE
  5
2E1
100
AcDbEntity
  8
0
100
AcDbLine
 62
7
  6
CONTINUOUS
 10
41.1595172986
 20
45.8139671304
 11
41.1595172986
 21
44.3139671304
  0
LINE
  5
2E2
100
AcDbEntity
  8
0
100
AcDbLine
 62
7
  6
CONTINUOUS
 10
41.2170377893
 20
59.813969965
 11
41.2170377893
 21
54.713969965
  0
LINE
  5
2E3
100
AcDbEntity
  8
0
100
AcDbLine
 62
7
  6
CONTINUOUS
 10
41.8420377893
 20
31.7639671304
 11
41.8420377893
 21
34.5139671304
  0
LINE
  5
2E4
100
AcDbEntity
  8
0
100
AcDbLine
 62
7
  6
CONTINUOUS
 10
41.928219295
 20
41.0139671304
 11
41.928219295
 21
43.9139671304
  0
LINE
  5
2E5
100
AcDbEntity
  8
0
100
AcDbLine
 62
7
  6
CONTINUOUS
 10
37.464413168
 20
7.2139671304
 11
38.5639690013
 21
22.2139671304
  0
LINE
  5
2E6
100
AcDbEntity
  8
0
100
AcDbLine
 62
7
  6
CONTINUOUS
 10
17.5670377893
 20
52.5139671304
 11
24.4670377893
 21
52.5139671304
  0
LINE
  5
2E7
100
AcDbEntity
  8
0
100
AcDbLine
 62
7
  6
CONTINUOUS
 10
25.9670377893
 20
52.5139671304
 11
35.9670377893
 21
52.5139671304
  0
LINE
  5
2E8
100
AcDbEntity
  8
0
100
AcDbLine
 62
7
  6
CONTINUOUS
 10
37.4670377893
 20
52.5139671304
 11
44.3670377893
 21
52.5139671304
  0
LINE
  5
2E9
100
AcDbEntity
  8
0
100
AcDbLine
 62
7
  6
CONTINUOUS
 10
16.0670377893
 20
54.0139671304
 11
45.8670377893
 21
54.0139671304
  0
LINE
  5
2EA
100
AcDbEntity
  8
0
100
AcDbLine
 62
7
  6
CONTINUOUS
 10
45.8670377893
 20
54.213969965
 11
37.6670377893
 21
54.213969965
  0
LINE
  5
2EB
100
AcDbEntity
  8
0
100
AcDbLine
 62
7
  6
CONTINUOUS
 10
24.2670377893
 20
54.213969965
 11
16.0670377893
 21
54.213969965
  0
LINE
  5
2EC
100
AcDbEntity
  8
0
100
AcDbLine
 62
7
  6
CONTINUOUS
 10
37.6670377893
 20
54.513969965
 11
34.4670377893
 21
54.513969965
  0
LINE
  5
2ED
100
AcDbEntity
  8
0
100
AcDbLine
 62
7
  6
CONTINUOUS
 10
27.4670377893
 20
54.513969965
 11
24.2670377893
 21
54.513969965
  0
LINE
  5
2EE
100
AcDbEntity
  8
0
100
AcDbLine
 62
7
  6
CONTINUOUS
 10
41.2170377893
 20
54.713969965
 11
37.6670377893
 21
54.713969965
  0
LINE
  5
2EF
100
AcDbEntity
  8
0
100
AcDbLine
 62
7
  6
CONTINUOUS
 10
24.2670377893
 20
54.713969965
 11
20.7170377893
 21
54.713969965
  0
LINE
  5
2F0
100
AcDbEntity
  8
0
100
AcDbLine
 62
7
  6
CONTINUOUS
 10
35.198612411
 20
62.3363242515
 11
35.0170377893
 21
63.013969965
  0
LINE
  5
2F1
100
AcDbEntity
  8
0
100
AcDbLine
 62
7
  6
CONTINUOUS
 10
42.4351664094
 20
26.6139671304
 11
42.4351664094
 21
30.1139671304
  0
LINE
  5
2F2
100
AcDbEntity
  8
0
100
AcDbLine
 62
7
  6
CONTINUOUS
 10
42.6399544204
 20
30.1139671304
 11
42.6399544204
 21
26.6139671304
  0
LINE
  5
2F3
100
AcDbEntity
  8
0
100
AcDbLine
 62
7
  6
CONTINUOUS
 10
42.9670377893
 20
22.6139671306
 11
42.9670377893
 21
23.1139671304
  0
LINE
  5
2F4
100
AcDbEntity
  8
0
100
AcDbLine
 62
7
  6
CONTINUOUS
 10
43.2869967322
 20
36.5139671304
 11
43.2869967322
 21
41.0139671304
  0
LINE
  5
2F5
100
AcDbEntity
  8
0
100
AcDbLine
 62
7
  6
CONTINUOUS
 10
43.2896875201
 20
54.213969965
 11
43.2896875201
 21
56.813969965
  0
LINE
  5
2F6
100
AcDbEntity
  8
0
100
AcDbLine
 62
7
  6
CONTINUOUS
 10
43.3078997932
 20
26.6139671304
 11
43.3078997932
 21
30.1139671304
  0
LINE
  5
2F7
100
AcDbEntity
  8
0
100
AcDbLine
 62
7
  6
CONTINUOUS
 10
43.5670377893
 20
30.5139671304
 11
43.5670377893
 21
31.7639671304
  0
LINE
  5
2F8
100
AcDbEntity
  8
0
100
AcDbLine
 62
7
  6
CONTINUOUS
 10
43.6170377893
 20
35.0139671304
 11
43.6170377893
 21
34.5139671304
  0
LINE
  5
2F9
100
AcDbEntity
  8
0
100
AcDbLine
 62
7
  6
CONTINUOUS
 10
44.1227344803
 20
26.6139671304
 11
44.1227344803
 21
30.1139671304
  0
LINE
  5
2FA
100
AcDbEntity
  8
0
100
AcDbLine
 62
7
  6
CONTINUOUS
 10
44.1670377893
 20
54.0139671304
 11
44.1670377893
 21
54.213969965
  0
LINE
  5
2FB
100
AcDbEntity
  8
0
100
AcDbLine
 62
7
  6
CONTINUOUS
 10
44.1784399303
 20
41.0139671304
 11
44.1784399303
 21
36.5139671304
  0
LINE
  5
2FC
100
AcDbEntity
  8
0
100
AcDbLine
 62
7
  6
CONTINUOUS
 10
44.3576576355
 20
30.1139671304
 11
44.3576576355
 21
26.6139671304
  0
LINE
  5
2FD
100
AcDbEntity
  8
0
100
AcDbLine
 62
7
  6
CONTINUOUS
 10
44.3670377893
 20
47.5139671304
 11
44.3670377893
 21
52.5139671304
  0
LINE
  5
2FE
100
AcDbEntity
  8
0
100
AcDbLine
 62
7
  6
CONTINUOUS
 10
44.4196620686
 20
30.1139671304
 11
44.4196620686
 21
30.5139671304
  0
LINE
  5
2FF
100
AcDbEntity
  8
0
100
AcDbLine
 62
7
  6
CONTINUOUS
 10
44.7314808139
 20
26.6139671304
 11
44.7314808139
 21
30.1139671304
  0
LINE
  5
300
100
AcDbEntity
  8
0
100
AcDbLine
 62
7
  6
CONTINUOUS
 10
16.0670377893
 20
56.813969965
 11
20.7170377893
 21
56.813969965
  0
LINE
  5
301
100
AcDbEntity
  8
0
100
AcDbLine
 62
7
  6
CONTINUOUS
 10
41.2170377893
 20
56.813969965
 11
45.8670377893
 21
56.813969965
  0
LINE
  5
302
100
AcDbEntity
  8
0
100
AcDbLine
 62
7
  6
CONTINUOUS
 10
44.8670377893
 20
54.0139671304
 11
44.8670377893
 21
45.9139671304
  0
LINE
  5
303
100
AcDbEntity
  8
0
100
AcDbLine
 62
7
  6
CONTINUOUS
 10
44.8670377893
 20
54.213969965
 11
44.8670377893
 21
56.813969965
  0
LINE
  5
304
100
AcDbEntity
  8
0
100
AcDbLine
 62
7
  6
CONTINUOUS
 10
44.9137635626
 20
26.6139671304
 11
44.9137635626
 21
30.1139671304
  0
LINE
  5
305
100
AcDbEntity
  8
0
100
AcDbLine
 62
7
  6
CONTINUOUS
 10
45.1628122371
 20
30.1139671304
 11
45.1628122371
 21
26.6139671304
  0
LINE
  5
306
100
AcDbEntity
  8
0
100
AcDbLine
 62
7
  6
CONTINUOUS
 10
45.2170377893
 20
23.1139671304
 11
45.2170377893
 21
30.1139671304
  0
LINE
  5
307
100
AcDbEntity
  8
0
100
AcDbLine
 62
7
  6
CONTINUOUS
 10
45.6746096648
 20
41.0139671304
 11
45.6746096648
 21
36.5139671304
  0
LINE
  5
308
100
AcDbEntity
  8
0
100
AcDbLine
 62
7
  6
CONTINUOUS
 10
45.7170377893
 20
41.0139671304
 11
45.7170377893
 21
35.0139671304
  0
LINE
  5
309
100
AcDbEntity
  8
0
100
AcDbLine
 62
7
  6
CONTINUOUS
 10
45.8670377893
 20
45.9139671304
 11
45.8670377893
 21
56.813969965
  0
LINE
  5
30A
100
AcDbEntity
  8
0
100
AcDbLine
 62
7
  6
CONTINUOUS
 10
20.717045558
 20
59.813969965
 11
41.2170316269
 21
59.813969965
  0
LINE
  5
30B
100
AcDbEntity
  8
0
100
AcDbLine
 62
7
  6
CONTINUOUS
 10
35.9009602205
 20
70.443969965
 11
36.040852518
 21
70.143969965
  0
LINE
  5
30C
100
AcDbEntity
  8
0
100
AcDbLine
 62
7
  6
CONTINUOUS
 10
36.4456805151
 20
62.113969965
 11
35.4883950635
 21
62.113969965
  0
LINE
  5
30D
100
AcDbEntity
  8
0
100
AcDbLine
 62
7
  6
CONTINUOUS
 10
26.4371294579
 20
62.113969965
 11
25.4883943649
 21
62.113969965
  0
LINE
  5
30E
100
AcDbEntity
  8
0
100
AcDbLine
 62
7
  6
CONTINUOUS
 10
36.7354631676
 20
62.3363242515
 11
35.198612411
 21
62.3363242515
  0
LINE
  5
30F
100
AcDbEntity
  8
0
100
AcDbLine
 62
7
  6
CONTINUOUS
 10
26.7354631676
 20
62.3363242515
 11
25.198612411
 21
62.3363242515
  0
LINE
  5
310
100
AcDbEntity
  8
0
100
AcDbLine
 62
7
  6
CONTINUOUS
 10
24.7170377893
 20
63.013969965
 11
27.9670377893
 21
63.013969965
  0
LINE
  5
311
100
AcDbEntity
  8
0
100
AcDbLine
 62
7
  6
CONTINUOUS
 10
33.9670377893
 20
63.013969965
 11
37.2170377893
 21
63.013969965
  0
LINE
  5
312
100
AcDbEntity
  8
0
100
AcDbLine
 62
7
  6
CONTINUOUS
 10
37.2170377893
 20
63.913969965
 11
24.1170377893
 21
63.913969965
  0
LINE
  5
313
100
AcDbEntity
  8
0
100
AcDbLine
 62
7
  6
CONTINUOUS
 10
24.4320474455
 20
67.6368016743
 11
24.424114235
 21
67.6368016743
  0
LINE
  5
314
100
AcDbEntity
  8
0
100
AcDbLine
 62
7
  6
CONTINUOUS
 10
24.424114235
 20
67.6368016743
 11
24.1242777153
 21
67.6368016743
  0
LINE
  5
315
100
AcDbEntity
  8
0
100
AcDbLine
 62
7
  6
CONTINUOUS
 10
24.4320474455
 20
67.6402656218
 11
24.424114235
 21
67.6402656218
  0
LINE
  5
316
100
AcDbEntity
  8
0
100
AcDbLine
 62
7
  6
CONTINUOUS
 10
24.424114235
 20
67.6402656218
 11
24.1244000449
 21
67.6402656218
  0
LINE
  5
317
100
AcDbEntity
  8
0
100
AcDbLine
 62
7
  6
CONTINUOUS
 10
35.3009602205
 20
71.043969965
 11
35.9009602205
 21
70.443969965
  0
LINE
  5
318
100
AcDbEntity
  8
0
100
AcDbLine
 62
7
  6
CONTINUOUS
 10
24.1170377893
 20
68.993969965
 11
37.2170377893
 21
68.993969965
  0
LINE
  5
319
100
AcDbEntity
  8
0
100
AcDbLine
 62
7
  6
CONTINUOUS
 10
25.292078458
 20
70.143969965
 11
36.6419971206
 21
70.143969965
  0
LINE
  5
31A
100
AcDbEntity
  8
0
100
AcDbLine
 62
7
  6
CONTINUOUS
 10
26.0331153581
 20
70.443969965
 11
35.9009602205
 21
70.443969965
  0
LINE
  5
31B
100
AcDbEntity
  8
0
100
AcDbLine
 62
7
  6
CONTINUOUS
 10
37.8270377893
 20
70.6772222306
 11
37.5270377893
 21
70.6772222306
  0
LINE
  5
31C
100
AcDbEntity
  8
0
100
AcDbLine
 62
7
  6
CONTINUOUS
 10
37.8270377893
 20
70.9772222306
 11
37.5270377893
 21
70.9772222306
  0
LINE
  5
31D
100
AcDbEntity
  8
0
100
AcDbLine
 62
7
  6
CONTINUOUS
 10
22.7670377893
 20
71.0439694653
 11
39.1670377893
 21
71.0439694653
  0
LINE
  5
31E
100
AcDbEntity
  8
0
100
AcDbLine
 62
7
  6
CONTINUOUS
 10
24.1170377893
 20
72.6004268657
 11
24.4170377893
 21
72.6004268657
  0
LINE
  5
31F
100
AcDbEntity
  8
0
100
AcDbLine
 62
7
  6
CONTINUOUS
 10
24.1170377893
 20
72.6038908132
 11
24.4170377893
 21
72.6038908132
  0
LINE
  5
320
100
AcDbEntity
  8
0
100
AcDbLine
 62
7
  6
CONTINUOUS
 10
22.7670377893
 20
72.6439694653
 11
25.5670377893
 21
72.6439694653
  0
LINE
  5
321
100
AcDbEntity
  8
0
100
AcDbLine
 62
7
  6
CONTINUOUS
 10
36.0670377893
 20
72.6439694653
 11
39.1670377893
 21
72.6439694653
  0
LINE
  5
322
100
AcDbEntity
  8
0
100
AcDbLine
 62
7
  6
CONTINUOUS
 10
35.4170369478
 20
73.9439700548
 11
33.2170386308
 21
73.9439700548
  0
LINE
  5
323
100
AcDbEntity
  8
0
100
AcDbLine
 62
7
  6
CONTINUOUS
 10
31.9170369478
 20
73.9439700548
 11
29.7170386308
 21
73.9439700548
  0
LINE
  5
324
100
AcDbEntity
  8
0
100
AcDbLine
 62
7
  6
CONTINUOUS
 10
28.4170369478
 20
73.9439700548
 11
26.2170386308
 21
73.9439700548
  0
LINE
  5
325
100
AcDbEntity
  8
0
100
AcDbLine
 62
7
  6
CONTINUOUS
 10
35.1170377893
 20
74.1439694653
 11
33.5170377893
 21
74.1439694653
  0
LINE
  5
326
100
AcDbEntity
  8
0
100
AcDbLine
 62
7
  6
CONTINUOUS
 10
31.6170377893
 20
74.1439694653
 11
30.0170377893
 21
74.1439694653
  0
LINE
  5
327
100
AcDbEntity
  8
0
100
AcDbLine
 62
7
  6
CONTINUOUS
 10
28.1170377893
 20
74.1439694653
 11
26.5170377893
 21
74.1439694653
  0
LINE
  5
328
100
AcDbEntity
  8
0
100
AcDbLine
 62
7
  6
CONTINUOUS
 10
37.8270377893
 20
75.1772222306
 11
37.5270377893
 21
75.1772222306
  0
LINE
  5
329
100
AcDbEntity
  8
0
100
AcDbLine
 62
7
  6
CONTINUOUS
 10
26.2170386308
 20
75.6439694653
 11
28.4170369478
 21
75.6439694653
  0
LINE
  5
32A
100
AcDbEntity
  8
0
100
AcDbLine
 62
7
  6
CONTINUOUS
 10
29.7170386308
 20
75.6439694653
 11
31.9170369478
 21
75.6439694653
  0
LINE
  5
32B
100
AcDbEntity
  8
0
100
AcDbLine
 62
7
  6
CONTINUOUS
 10
33.2170386308
 20
75.6439694653
 11
35.4170369478
 21
75.6439694653
  0
LINE
  5
32C
100
AcDbEntity
  8
0
100
AcDbLine
 62
7
  6
CONTINUOUS
 10
24.1170377893
 20
76.1070897004
 11
24.4170377893
 21
76.1070897004
  0
LINE
  5
32D
100
AcDbEntity
  8
0
100
AcDbLine
 62
7
  6
CONTINUOUS
 10
24.1170377893
 20
76.1105536479
 11
24.4170377893
 21
76.1105536479
  0
LINE
  5
32E
100
AcDbEntity
  8
0
100
AcDbLine
 62
7
  6
CONTINUOUS
 10
25.1670377893
 20
76.6439694653
 11
25.5670377893
 21
76.6439694653
  0
LINE
  5
32F
100
AcDbEntity
  8
0
100
AcDbLine
 62
7
  6
CONTINUOUS
 10
36.0670377893
 20
77.1439694653
 11
25.5670377893
 21
77.1439694653
  0
LINE
  5
330
100
AcDbEntity
  8
0
100
AcDbLine
 62
7
  6
CONTINUOUS
 10
36.0670377893
 20
77.6439694654
 11
25.5670377893
 21
77.6439694654
  0
LINE
  5
331
100
AcDbEntity
  8
0
100
AcDbLine
 62
7
  6
CONTINUOUS
 10
36.0670377893
 20
81.2536694653
 11
25.5670377893
 21
81.2536694653
  0
ARC
  5
332
100
AcDbEntity
  8
0
100
AcDbCircle
 62
7
  6
CONTINUOUS
 10
37.2270377893
 20
64.213969965
 40
0.6
100
AcDbArc
 50
269.0450261262
 51
360.0
  0
ARC
  5
333
100
AcDbEntity
  8
0
100
AcDbCircle
 62
7
  6
CONTINUOUS
 10
24.7170377893
 20
67.733969965
 40
0.6
100
AcDbArc
 50
188.1886748847
 51
270.0000013545
  0
ARC
  5
334
100
AcDbEntity
  8
0
100
AcDbCircle
 62
7
  6
CONTINUOUS
 10
24.7170377893
 20
67.7305060175
 40
0.6
100
AcDbArc
 50
188.1884371735
 51
270.0000013545
  0
ARC
  5
335
100
AcDbEntity
  8
0
100
AcDbCircle
 62
7
  6
CONTINUOUS
 10
20.2170377893
 20
54.713969965
 40
0.5
100
AcDbArc
 50
270.0
 51
360.0
  0
ARC
  5
336
100
AcDbEntity
  8
0
100
AcDbCircle
 62
7
  6
CONTINUOUS
 10
41.7170377893
 20
54.713969965
 40
0.5
100
AcDbArc
 50
180.0
 51
270.0
  0
ARC
  5
337
100
AcDbEntity
  8
0
100
AcDbCircle
 62
7
  6
CONTINUOUS
 10
25.2170377893
 20
6.8639671304
 40
0.4
100
AcDbArc
 50
180.0
 51
270.0
  0
ARC
  5
338
100
AcDbEntity
  8
0
100
AcDbCircle
 62
7
  6
CONTINUOUS
 10
36.7170377893
 20
6.8639671304
 40
0.4
100
AcDbArc
 50
270.0
 51
360.0
  0
ARC
  5
339
100
AcDbEntity
  8
0
100
AcDbCircle
 62
7
  6
CONTINUOUS
 10
25.4883901589
 20
62.413969965
 40
0.3
100
AcDbArc
 50
195.0000000001
 51
270.0
  0
ARC
  5
33A
100
AcDbEntity
  8
0
100
AcDbCircle
 62
7
  6
CONTINUOUS
 10
26.4456854197
 20
62.413969965
 40
0.3
100
AcDbArc
 50
270.0
 51
344.9999999999
  0
ARC
  5
33B
100
AcDbEntity
  8
0
100
AcDbCircle
 62
7
  6
CONTINUOUS
 10
35.4883901589
 20
62.413969965
 40
0.3
100
AcDbArc
 50
195.0000000001
 51
270.0
  0
ARC
  5
33C
100
AcDbEntity
  8
0
100
AcDbCircle
 62
7
  6
CONTINUOUS
 10
36.4456854197
 20
62.413969965
 40
0.3
100
AcDbArc
 50
270.0
 51
344.9999999999
  0
ARC
  5
33D
100
AcDbEntity
  8
0
100
AcDbCircle
 62
7
  6
CONTINUOUS
 10
37.2270377893
 20
64.213969965
 40
0.3
100
AcDbArc
 50
268.0897868283
 51
360.0
  0
ARC
  5
33E
100
AcDbEntity
  8
0
100
AcDbCircle
 62
7
  6
CONTINUOUS
 10
24.7170377893
 20
67.733969965
 40
0.3
100
AcDbArc
 50
196.1435707901
 51
270.000002709
  0
ARC
  5
33F
100
AcDbEntity
  8
0
100
AcDbCircle
 62
7
  6
CONTINUOUS
 10
24.7170377893
 20
67.7305060175
 40
0.3
100
AcDbArc
 50
196.1443732569
 51
270.000002709
  0
CIRCLE
  5
340
100
AcDbEntity
  8
0
100
AcDbCircle
 62
7
  6
CONTINUOUS
 10
41.1431412019
 20
49.0126524248
 40
0.2999966156
  0
SPLINE
  5
341
100
AcDbEntity
  8
0
100
AcDbSpline
 62
7
  6
CONTINUOUS
 70
0
 71
3
 72
15
 73
11
 74
0
 42
0.0000001
 43
0.0000001
 44
0.0000000001
 40
0.0
 40
0.0
 40
0.0
 40
0.0
 40
0.2426623136
 40
0.3660886673
 40
0.4907283561
 40
0.616538107
 40
0.7434346882
 40
0.8712406944
 40
0.9355736644
 40
1.0
 40
1.0
 40
1.0
 40
1.0
 10
33.7223068579
 20
44.2139671304
 30
0.0
 10
33.6202299149
 20
44.2139671304
 30
0.0
 10
33.4652025623
 20
44.2370490539
 30
0.0
 10
33.2712924659
 20
44.3091195262
 30
0.0
 10
33.1328614355
 20
44.3851482414
 30
0.0
 10
33.0074175954
 20
44.4837423909
 30
0.0
 10
32.9022189401
 20
44.6059444511
 30
0.0
 10
32.8409663962
 20
44.7274547897
 30
0.0
 10
32.814984327
 20
44.8325962238
 30
0.0
 10
32.8105144903
 20
44.886865916
 30
0.0
 10
32.8105144903
 20
44.9139671304
 30
0.0
  0
SPLINE
  5
342
100
AcDbEntity
  8
0
100
AcDbSpline
 62
7
  6
CONTINUOUS
 70
0
 71
3
 72
15
 73
11
 74
0
 42
0.0000001
 43
0.0000001
 44
0.0000000001
 40
0.0
 40
0.0
 40
0.0
 40
0.0
 40
0.0644260153
 40
0.1287585052
 40
0.2565641613
 40
0.3834606388
 40
0.509270872
 40
0.6339110516
 40
0.7573375587
 40
1.0
 40
1.0
 40
1.0
 40
1.0
 10
29.1235610883
 20
44.9139671304
 30
0.0
 10
29.1235610883
 20
44.8868660505
 30
0.0
 10
29.1190913181
 20
44.8325966944
 30
0.0
 10
29.0931094869
 20
44.7274557057
 30
0.0
 10
29.0318574012
 20
44.6059455947
 30
0.0
 10
28.9266590232
 20
44.4837432635
 30
0.0
 10
28.8012149666
 20
44.3851487772
 30
0.0
 10
28.6627835844
 20
44.3091197086
 30
0.0
 10
28.4688731877
 20
44.237049094
 30
0.0
 10
28.3138457182
 20
44.2139671304
 30
0.0
 10
28.2117687207
 20
44.2139671304
 30
0.0
  0
SPLINE
  5
343
100
AcDbEntity
  8
0
100
AcDbSpline
 62
7
  6
CONTINUOUS
 70
0
 71
3
 72
13
 73
9
 74
0
 42
0.0000001
 43
0.0000001
 44
0.0000000001
 40
0.0
 40
0.0
 40
0.0
 40
0.0
 40
0.1525368644
 40
0.2934811017
 40
0.4537047087
 40
0.6291452917
 40
0.8118323244
 40
1.0
 40
1.0
 40
1.0
 40
1.0
 10
24.4225458047
 20
67.6487265633
 30
0.0
 10
24.4302046441
 20
67.6305988642
 30
0.0
 10
24.4468333879
 20
67.5963729292
 30
0.0
 10
24.480765371
 20
67.5485567584
 30
0.0
 10
24.5217072715
 20
67.5021251796
 30
0.0
 10
24.5783859537
 20
67.4652383476
 30
0.0
 10
24.6446566071
 20
67.4396675441
 30
0.0
 10
24.6927629509
 20
67.4342101611
 30
0.0
 10
24.7170378035
 20
67.433969965
 30
0.0
  0
LINE
  5
344
100
AcDbEntity
  8
0
100
AcDbLine
 62
7
  6
CONTINUOUS
 10
24.1170377893
 20
67.6404690081
 11
24.424114235
 21
67.6410641866
  0
LINE
  5
345
100
AcDbEntity
  8
0
100
AcDbLine
 62
7
  6
CONTINUOUS
 10
24.1170377893
 20
67.6370050606
 11
24.424114235
 21
67.6376002391
  0
SPLINE
  5
346
100
AcDbEntity
  8
0
100
AcDbSpline
 62
7
  6
CONTINUOUS
 70
0
 71
3
 72
14
 73
10
 74
0
 42
0.0000001
 43
0.0000001
 44
0.0000000001
 40
0.0
 40
0.0
 40
0.0
 40
0.0
 40
0.1750947141
 40
0.3414200848
 40
0.4960708028
 40
0.6400781716
 40
0.7638895127
 40
0.8755865451
 40
1.0
 40
1.0
 40
1.0
 40
1.0
 10
24.7170378035
 20
67.4305060175
 30
0.0
 10
24.6944429146
 20
67.4308168394
 30
0.0
 10
24.6502510311
 20
67.4354566548
 30
0.0
 10
24.5891711243
 20
67.456581618
 30
0.0
 10
24.5378539152
 20
67.4881348617
 30
0.0
 10
24.49591918
 20
67.5238461312
 30
0.0
 10
24.4683372775
 20
67.5645837679
 30
0.0
 10
24.4416782715
 20
67.6026634498
 30
0.0
 10
24.4288278
 20
67.6304743328
 30
0.0
 10
24.4226014898
 20
67.6452742651
 30
0.0
  0
ELLIPSE
  5
347
100
AcDbEntity
  8
0
100
AcDbEllipse
 62
7
  6
CONTINUOUS
 10
30.9670377893
 20
13.4862762126
 30
0.0
 11
-0.0
 21
44.235998193
 31
0.0
 40
0.1763269807
 41
0.4123790424
 42
0.4901529096
  0
ELLIPSE
  5
348
100
AcDbEntity
  8
0
100
AcDbEllipse
 62
7
  6
CONTINUOUS
 10
30.9670377893
 20
13.4862762126
 30
0.0
 11
-0.0
 21
44.235998193
 31
0.0
 40
0.1763269807
 41
-0.4901529096
 42
-0.4123790424
  0
ENDSEC
  0
SECTION
  2
OBJECTS
  0
DICTIONARY
  5
C
100
AcDbDictionary
280
0
281
1
  3
ACAD_GROUP
350
D
  3
ACAD_MLINESTYLE
350
17
  3
ACAD_LAYOUT
350
1A
  3
ACAD_PLOTSETTINGS
350
19
  3
ACAD_PLOTSTYLENAME
350
E
  0
DICTIONARY
  5
D
102
{ACAD_REACTORS
330
C
102
}
100
AcDbDictionary
280
0
281
1
  0
ACDBDICTIONARYWDFLT
  5
E
102
{ACAD_REACTORS
330
C
102
}
100
AcDbDictionary
281
1
  3
Normal
350
F
100
AcDbDictionaryWithDefault
340
F
  0
DICTIONARY
  5
17
102
{ACAD_REACTORS
330
C
102
}
100
AcDbDictionary
280
0
281
1
  3
Standard
350
18
  0
DICTIONARY
  5
19
102
{ACAD_REACTORS
330
C
102
}
100
AcDbDictionary
281
1
  0
DICTIONARY
  5
1A
102
{ACAD_REACTORS
330
C
102
}
100
AcDbDictionary
281
1
  3
Model
350
349
  3
Layout1
350
34A
  0
ACDBPLACEHOLDER
  5
F
102
{ACAD_REACTORS
330
E
102
}
  0
MLINESTYLE
  5
18
102
{ACAD_REACTORS
330
17
102
}
100
AcDbMlineStyle
  2
STANDARD
 70
0
  3

 62
256
 51
90.0
 52
90.0
 71
2
 49
0.5
 62
256
  6
BYLAYER
 49
-0.5
 62
256
  6
BYLAYER
  0
LAYOUT
  5
349
102
{ACAD_REACTORS
330
1A
102
}
100
AcDbPlotSettings
  1

  2
none_device
  4

  6

 40
0.0
 41
0.0
 42
0.0
 43
0.0
 44
210.0
 45
297.0
 46
0.0
 47
0.0
 48
0.0
 49
0.0
140
0.0
141
0.0
142
1.0
143
1.0
 70
1024
 72
1
 73
0
 74
0
  7

 75
0
147
1.0
148
0.0
149
0.0
100
AcDbLayout
  1
Model
 70
0
 71
0
 10
0.0
 20
0.0
 11
210.0
 21
297.0
 12
0.0
 22
0.0
 32
0.0
 14
0.0
 24
0.0
 34
0.0
 15
0.0
 25
0.0
 35
0.0
146
0.0
 13
0.0
 23
0.0
 33
0.0
 16
1.0
 26
0.0
 36
0.0
 17
0.0
 27
1.0
 37
0.0
 76
0
330
210
345
0
346
0
  0
LAYOUT
  5
34A
102
{ACAD_REACTORS
330
1A
102
}
100
AcDbPlotSettings
  1

  2
none_device
  4

  6

 40
0.0
 41
0.0
 42
0.0
 43
0.0
 44
210.0
 45
297.0
 46
0.0
 47
0.0
 48
0.0
 49
0.0
140
0.0
141
0.0
142
1.0
143
1.0
 70
0
 72
1
 73
0
 74
0
  7

 75
0
147
1.0
148
0.0
149
0.0
100
AcDbLayout
  1
Layout1
 70
0
 71
1
 10
0.0
 20
0.0
 11
210.0
 21
297.0
 12
0.0
 22
0.0
 32
0.0
 14
0.0
 24
0.0
 34
0.0
 15
0.0
 25
0.0
 35
0.0
146
0.0
 13
0.0
 23
0.0
 33
0.0
 16
1.0
 26
0.0
 36
0.0
 17
0.0
 27
1.0
 37
0.0
 76
0
330
211
345
0
346
0
  0
ENDSEC
  0
EOF
