999
DXF file: C:\Users\sesa63760\Dev\_Creo\CAD\MCADID0000757_3D-CAD\drw0001_1.dxf
999
Pro/ENGINEER 2019471 by Parametric Technology Corporation
  0
SECTION
  2
HEADER
  9
$ACADVER
  1
AC1024
  9
$DWGCODEPAGE
  3
ANSI_1252
  9
$EXTMAX
 10
94.8706607241
 20
134.1742201669
 30
0.0
  9
$EXTMIN
 10
0.0
 20
0.0
 30
0.0
  9
$LIMMIN
 10
0.0
 20
0.0
  9
$LIMMAX
 10
94.8706607241
 20
134.1742201669
  9
$VIEWCTR
 10
47.435330362
 20
67.0871100834
  9
$VIEWSIZE
 40
134.1742201669
  9
$CLAYER
  8
0
  9
$LTSCALE
 40
8.7461713887
  9
$CELTYPE
  6
BYLAYER
  9
$DIMSCALE
 40
1.0
  9
$DIMASZ
 40
1.1294126277
  9
$DIMEXO
 40
1.0
  9
$DIMDLI
 40
6.0428093231
  9
$DIMEXE
 40
1.0
  9
$DIMCEN
 40
1.4311916818
  9
$DIMLFAC
 40
1.0
  9
$DIMBLK
  1
_FILLED
  9
$DIMALT
 70
0
  9
$DIMALTF
 40
0.0393700787
  9
$DIMTXT
 40
1.5811776787
  9
$DIMTOL
 70
1
  9
$DIMLIM
 70
0
  9
$DIMTFAC
 40
1.0
  9
$DIMTP
 40
0.01
  9
$DIMTM
 40
0.01
  9
$DIMGAP
 40
0.625
  9
$DIMDSEP
 70
46
  9
$AUNITS
 70
0
  9
$PDMODE
 70
3
  9
$PDSIZE
 40
0.3125
  9
$HANDSEED
  5
3F1
  9
$TILEMODE
 70
1
  9
$MEASUREMENT
 70
1
  9
$INSUNITS
 70
4
  0
ENDSEC
  0
SECTION
  2
CLASSES
  0
CLASS
  1
ACDBDICTIONARYWDFLT
  2
AcDbDictionaryWithDefault
  3
AutoCAD 2000
 90
0
 91
1
280
0
281
0
  0
CLASS
  1
ACDBPLACEHOLDER
  2
AcDbPlaceHolder
  3
AutoCAD 2000
 90
0
 91
1
280
0
281
0
  0
CLASS
  1
LAYOUT
  2
AcDbLayout
  3
AutoCAD 2000
 90
0
 91
0
280
0
281
0
  0
ENDSEC
  0
SECTION
  2
TABLES
  0
TABLE
  2
VPORT
  5
8
100
AcDbSymbolTable
 70
2
  0
VPORT
  5
1F4
100
AcDbSymbolTableRecord
100
AcDbViewportTableRecord
  2
*ACTIVE
 70
0
 10
0.0
 20
0.0
 11
1.0
 21
1.0
 12
47.435330362
 22
67.0871100834
 13
0.0
 23
0.0
 14
1.0
 24
1.0
 15
0.0
 25
0.0
 16
0.0
 26
0.0
 36
1.0
 17
0.0
 27
0.0
 37
0.0
 40
134.1742201669
 41
0.7070707071
 42
50.0
 43
0.0
 44
0.0
 50
0.0
 51
0.0
 71
0
 72
100
 73
1
 74
1
 75
0
 76
0
 77
0
 78
0
  0
ENDTAB
  0
TABLE
  2
LTYPE
  5
5
100
AcDbSymbolTable
 70
6
  0
LTYPE
  5
14
100
AcDbSymbolTableRecord
100
AcDbLinetypeTableRecord
  2
BYBLOCK
 70
0
  3

 72
65
 73
0
 40
0.0
  0
LTYPE
  5
15
100
AcDbSymbolTableRecord
100
AcDbLinetypeTableRecord
  2
BYLAYER
 70
0
  3

 72
65
 73
0
 40
0.0
  0
LTYPE
  5
16
100
AcDbSymbolTableRecord
100
AcDbLinetypeTableRecord
  2
CONTINUOUS
 70
64
  3
Solid line
 72
65
 73
0
 40
0.0
  0
LTYPE
  5
1F5
100
AcDbSymbolTableRecord
100
AcDbLinetypeTableRecord
  2
CENTER
 70
64
  3
____ _ ____ _ ____ _ ____ _ ____ _ ____ _ ____
 72
65
 73
4
 40
0.6
 49
0.375
 74
0
 49
-0.075
 74
0
 49
0.075
 74
0
 49
-0.075
 74
0
  0
LTYPE
  5
1F6
100
AcDbSymbolTableRecord
100
AcDbLinetypeTableRecord
  2
HIDDEN
 70
64
  3
- - - - - - - - - - - - - - - - - - - -
 72
65
 73
2
 40
0.2
 49
0.1
 74
0
 49
-0.1
 74
0
  0
LTYPE
  5
1F7
100
AcDbSymbolTableRecord
100
AcDbLinetypeTableRecord
  2
PHANTOM
 70
64
  3
_____ _ _ _____ _ _ _____ _ _ _____
 72
65
 73
6
 40
0.8
 49
0.45
 74
0
 49
-0.05
 74
0
 49
0.1
 74
0
 49
-0.05
 74
0
 49
0.1
 74
0
 49
-0.05
 74
0
  0
LTYPE
  5
1F8
100
AcDbSymbolTableRecord
100
AcDbLinetypeTableRecord
  2
DOT
 70
64
  3
. . . . . . . . . . . . . . . . . . . .
 72
65
 73
2
 40
0.2
 49
0.1
 74
0
 49
-0.1
 74
0
  0
LTYPE
  5
1F9
100
AcDbSymbolTableRecord
100
AcDbLinetypeTableRecord
  2
DASHED
 70
64
  3
- - - - - - - - - - - - - - - - - - - -
 72
65
 73
2
 40
0.2
 49
0.1
 74
0
 49
-0.1
 74
0
  0
ENDTAB
  0
TABLE
  2
LAYER
  5
2
100
AcDbSymbolTable
 70
36
  0
LAYER
  5
10
100
AcDbSymbolTableRecord
100
AcDbLayerTableRecord
  2
0
 70
0
 62
7
  6
CONTINUOUS
370
-3
390
F
  0
LAYER
  5
1FA
100
AcDbSymbolTableRecord
100
AcDbLayerTableRecord
  2
DEFAULT_1
 70
0
 62
7
  6
CENTER
370
-3
390
F
  0
LAYER
  5
1FB
100
AcDbSymbolTableRecord
100
AcDbLayerTableRecord
  2
DEFAULT_2
 70
0
 62
8
  6
HIDDEN
370
-3
390
F
  0
LAYER
  5
1FC
100
AcDbSymbolTableRecord
100
AcDbLayerTableRecord
  2
DEFAULT_3
 70
0
 62
7
  6
PHANTOM
370
-3
390
F
  0
LAYER
  5
1FD
100
AcDbSymbolTableRecord
100
AcDbLayerTableRecord
  2
00_COMPONENTS
 70
0
 62
7
  6
CONTINUOUS
370
-3
390
F
  0
LAYER
  5
1FE
100
AcDbSymbolTableRecord
100
AcDbLayerTableRecord
  2
01_1_DEFAULT_DATUMS
 70
0
 62
7
  6
CONTINUOUS
370
-3
390
F
  0
LAYER
  5
1FF
100
AcDbSymbolTableRecord
100
AcDbLayerTableRecord
  2
01_PLANES
 70
0
 62
7
  6
CONTINUOUS
370
-3
390
F
  0
LAYER
  5
200
100
AcDbSymbolTableRecord
100
AcDbLayerTableRecord
  2
02_COORD_SYS
 70
0
 62
7
  6
CONTINUOUS
370
-3
390
F
  0
LAYER
  5
201
100
AcDbSymbolTableRecord
100
AcDbLayerTableRecord
  2
03_AXES
 70
0
 62
7
  6
CONTINUOUS
370
-3
390
F
  0
LAYER
  5
202
100
AcDbSymbolTableRecord
100
AcDbLayerTableRecord
  2
04_POINTS
 70
0
 62
7
  6
CONTINUOUS
370
-3
390
F
  0
LAYER
  5
203
100
AcDbSymbolTableRecord
100
AcDbLayerTableRecord
  2
05_CURVES
 70
0
 62
7
  6
CONTINUOUS
370
-3
390
F
  0
LAYER
  5
204
100
AcDbSymbolTableRecord
100
AcDbLayerTableRecord
  2
06_SURFS
 70
0
 62
7
  6
CONTINUOUS
370
-3
390
F
  0
LAYER
  5
205
100
AcDbSymbolTableRecord
100
AcDbLayerTableRecord
  2
07_COSMETICS
 70
0
 62
7
  6
CONTINUOUS
370
-3
390
F
  0
LAYER
  5
206
100
AcDbSymbolTableRecord
100
AcDbLayerTableRecord
  2
10_NOTES
 70
0
 62
7
  6
CONTINUOUS
370
-3
390
F
  0
LAYER
  5
207
100
AcDbSymbolTableRecord
100
AcDbLayerTableRecord
  2
11_NOTES_PUB
 70
0
 62
7
  6
CONTINUOUS
370
-3
390
F
  0
LAYER
  5
208
100
AcDbSymbolTableRecord
100
AcDbLayerTableRecord
  2
13_REF_GTOL
 70
0
 62
7
  6
CONTINUOUS
370
-3
390
F
  0
LAYER
  5
209
100
AcDbSymbolTableRecord
100
AcDbLayerTableRecord
  2
16_MISC
 70
0
 62
7
  6
CONTINUOUS
370
-3
390
F
  0
LAYER
  5
20A
100
AcDbSymbolTableRecord
100
AcDbLayerTableRecord
  2
17_NO_PRINT
 70
0
 62
7
  6
CONTINUOUS
370
-3
390
F
  0
LAYER
  5
20B
100
AcDbSymbolTableRecord
100
AcDbLayerTableRecord
  2
18_DATUM_CAMS_JOINTS
 70
0
 62
7
  6
CONTINUOUS
370
-3
390
F
  0
LAYER
  5
20C
100
AcDbSymbolTableRecord
100
AcDbLayerTableRecord
  2
19_DATUM_FUNCTIONAL
 70
0
 62
7
  6
CONTINUOUS
370
-3
390
F
  0
LAYER
  5
20D
100
AcDbSymbolTableRecord
100
AcDbLayerTableRecord
  2
20_DATUM_KINEMATIC_SCHEME
 70
0
 62
7
  6
CONTINUOUS
370
-3
390
F
  0
ENDTAB
  0
TABLE
  2
STYLE
  5
3
100
AcDbSymbolTable
 70
1
  0
STYLE
  5
11
100
AcDbSymbolTableRecord
100
AcDbTextStyleTableRecord
  2
STANDARD
 70
0
 40
0.0
 41
0.8
 50
0.0
 71
0
 42
0.2
  3
txt
  4

  0
STYLE
  5
20E
100
AcDbSymbolTableRecord
100
AcDbTextStyleTableRecord
  2
TEXTSTYLE_1
 70
0
 40
0.0
 41
0.8
 50
0.0
 71
0
 42
0.2
  3
gdt
  4

  0
ENDTAB
  0
TABLE
  2
VIEW
  5
6
100
AcDbSymbolTable
 70
0
  0
ENDTAB
  0
TABLE
  2
UCS
  5
7
100
AcDbSymbolTable
 70
0
  0
ENDTAB
  0
TABLE
  2
APPID
  5
9
100
AcDbSymbolTable
 70
1
  0
APPID
  5
20F
100
AcDbSymbolTableRecord
100
AcDbRegAppTableRecord
  2
ACAD
 70
0
  0
ENDTAB
  0
TABLE
  2
BLOCK_RECORD
  5
1
100
AcDbSymbolTable
 70
0
  0
BLOCK_RECORD
  5
210
100
AcDbSymbolTableRecord
100
AcDbBlockTableRecord
  2
*Model_Space
  0
BLOCK_RECORD
  5
211
100
AcDbSymbolTableRecord
100
AcDbBlockTableRecord
  2
*Paper_Space
  0
BLOCK_RECORD
  5
212
100
AcDbSymbolTableRecord
100
AcDbBlockTableRecord
  2
_FILLED
  0
ENDTAB
  0
TABLE
  2
DIMSTYLE
  5
A
100
AcDbSymbolTable
 70
1
100
AcDbDimStyleTable
 71
0
  0
DIMSTYLE
105
213
100
AcDbSymbolTableRecord
100
AcDbDimStyleTableRecord
  2
STANDARD
 70
0
  3

  4

 40
1.0
 41
1.1294126277
 42
1.0
 43
0.38
 44
1.0
 45
0.0
 46
0.0
 47
0.01
 48
0.01
140
1.5811776787
141
0.09
142
0.0
143
25.4
144
1.0
145
0.0
146
1.0
147
0.625
 71
1
 72
0
 73
0
 74
0
 75
0
 76
0
 77
1
 78
8
 79
2
170
0
171
1
172
0
173
0
174
0
175
0
176
0
177
0
178
0
270
2
179
2
271
2
272
2
273
2
274
2
275
0
280
0
281
0
282
0
283
1
284
8
285
0
286
0
287
3
288
0
340
11
278
46
341
212
342
212
343
212
344
212
  0
ENDTAB
  0
ENDSEC
  0
SECTION
  2
BLOCKS
  0
BLOCK
  5
20
100
AcDbEntity
  8
0
100
AcDbBlockBegin
  2
*Model_Space
 70
0
 10
0.0
 20
0.0
 30
0.0
  3
*Model_Space
  1

  0
ENDBLK
  5
21
100
AcDbEntity
  8
0
100
AcDbBlockEnd
  0
BLOCK
  5
1C
100
AcDbEntity
  8
0
100
AcDbBlockBegin
  2
*Paper_Space
 70
0
 10
0.0
 20
0.0
 30
0.0
  3
*Paper_Space
  1

  0
ENDBLK
  5
1D
100
AcDbEntity
  8
0
100
AcDbBlockEnd
  0
BLOCK
  5
214
100
AcDbEntity
  8
0
100
AcDbBlockBegin
  2
_FILLED
 70
64
 10
0.0
 20
0.0
  3
_FILLED
  1

  0
SOLID
  5
215
100
AcDbEntity
  8
0
  6
BYBLOCK
 62
0
100
AcDbTrace
 10
0.0
 20
0.0
 11
-1.0
 21
0.25
 12
-1.0
 22
-0.25
 13
-1.0
 23
-0.25
  0
ENDBLK
  5
216
100
AcDbEntity
  8
0
  6
BYBLOCK
 62
0
100
AcDbBlockEnd
  0
ENDSEC
  0
SECTION
  2
ENTITIES
  0
LINE
  5
217
100
AcDbEntity
  8
0
100
AcDbLine
 62
7
  6
CONTINUOUS
 10
18.7565816301
 20
13.442604373
 11
15.2917439769
 21
15.4429840702
  0
LINE
  5
218
100
AcDbEntity
  8
0
100
AcDbLine
 62
7
  6
CONTINUOUS
 10
18.7565816301
 20
13.7692053399
 11
15.2917439769
 21
15.769585037
  0
LINE
  5
219
100
AcDbEntity
  8
0
100
AcDbLine
 62
7
  6
CONTINUOUS
 10
31.6794579158
 20
10.3830141672
 11
21.5782745244
 21
16.2148031847
  0
LINE
  5
21A
100
AcDbEntity
  8
0
100
AcDbLine
 62
7
  6
CONTINUOUS
 10
31.5551905234
 20
10.6576858559
 11
21.7540174063
 21
16.3162677792
  0
LINE
  5
21B
100
AcDbEntity
  8
0
100
AcDbLine
 62
7
  6
CONTINUOUS
 10
20.5243412232
 20
17.8925249097
 11
17.0595035699
 21
19.8929046068
  0
LINE
  5
21C
100
AcDbEntity
  8
0
100
AcDbLine
 62
7
  6
CONTINUOUS
 10
31.6794650374
 20
10.3830265134
 11
31.9720484275
 21
10.4085306065
  0
LINE
  5
21D
100
AcDbEntity
  8
0
100
AcDbLine
 62
7
  6
CONTINUOUS
 10
25.0507651292
 20
20.5061051267
 11
26.3598774686
 21
19.7516773625
  0
LINE
  5
21E
100
AcDbEntity
  8
0
100
AcDbLine
 62
7
  6
CONTINUOUS
 10
20.276848109
 20
18.688597101
 11
18.4383628239
 21
19.7500230626
  0
LINE
  5
21F
100
AcDbEntity
  8
0
100
AcDbLine
 62
7
  6
CONTINUOUS
 10
25.0507651289
 20
17.0435546157
 11
24.0814785783
 21
17.6031598067
  0
LINE
  5
220
100
AcDbEntity
  8
0
100
AcDbLine
 62
7
  6
CONTINUOUS
 10
25.0517244771
 20
17.043791986
 11
26.3598774686
 21
16.2885465901
  0
LINE
  5
221
100
AcDbEntity
  8
0
100
AcDbLine
 62
7
  6
CONTINUOUS
 10
29.6938001024
 20
14.3885273677
 11
26.3899203743
 21
16.2959800657
  0
LINE
  5
222
100
AcDbEntity
  8
0
100
AcDbLine
 62
7
  6
CONTINUOUS
 10
20.276848109
 20
20.4032521761
 11
18.4383628239
 21
21.4646781377
  0
LINE
  5
223
100
AcDbEntity
  8
0
100
AcDbLine
 62
7
  6
CONTINUOUS
 10
21.5496350166
 20
21.1380916537
 11
19.7111497314
 21
22.1995176153
  0
LINE
  5
224
100
AcDbEntity
  8
0
100
AcDbLine
 62
7
  6
CONTINUOUS
 10
29.0307626051
 20
16.949400098
 11
29.6938001024
 21
16.5666038805
  0
LINE
  5
225
100
AcDbEntity
  8
0
100
AcDbLine
 62
7
  6
CONTINUOUS
 10
25.0498057813
 20
20.505287495
 11
21.5849681281
 21
22.5056671922
  0
LINE
  5
226
100
AcDbEntity
  8
0
100
AcDbLine
 62
7
  6
CONTINUOUS
 10
21.5868868238
 20
22.5073024556
 11
20.2787338323
 21
23.2625478514
  0
LINE
  5
227
100
AcDbEntity
  8
0
100
AcDbLine
 62
7
  6
CONTINUOUS
 10
23.9891500255
 20
17.6067144957
 11
25.0517244771
 21
17.5658049222
  0
LINE
  5
228
100
AcDbEntity
  8
0
100
AcDbLine
 62
7
  6
CONTINUOUS
 10
29.327794889
 20
22.2811699626
 11
23.2466512528
 21
25.7920404515
  0
LINE
  5
229
100
AcDbEntity
  8
0
100
AcDbLine
 62
7
  6
CONTINUOUS
 10
26.3598774686
 20
16.2885465901
 11
29.6938001024
 21
17.1134545719
  0
LINE
  5
22A
100
AcDbEntity
  8
0
100
AcDbLine
 62
7
  6
CONTINUOUS
 10
27.5706272224
 20
25.2797491112
 11
27.2170723598
 21
25.4838694885
  0
LINE
  5
22B
100
AcDbEntity
  8
0
100
AcDbLine
 62
7
  6
CONTINUOUS
 10
25.7745685198
 20
26.3166806281
 11
25.4210136572
 21
26.5208010053
  0
LINE
  5
22C
100
AcDbEntity
  8
0
100
AcDbLine
 62
7
  6
CONTINUOUS
 10
25.4210136572
 20
26.9290522139
 11
25.7745685198
 21
26.7249318366
  0
LINE
  5
22D
100
AcDbEntity
  8
0
100
AcDbLine
 62
7
  6
CONTINUOUS
 10
27.2170723598
 20
25.892120697
 11
27.5706272224
 21
25.6880003198
  0
LINE
  5
22E
100
AcDbEntity
  8
0
100
AcDbLine
 62
7
  6
CONTINUOUS
 10
27.5706272224
 20
27.35366525
 11
27.2170723598
 21
27.5577856272
  0
LINE
  5
22F
100
AcDbEntity
  8
0
100
AcDbLine
 62
7
  6
CONTINUOUS
 10
25.7745685198
 20
28.3905967668
 11
25.4210136572
 21
28.5947171441
  0
LINE
  5
230
100
AcDbEntity
  8
0
100
AcDbLine
 62
7
  6
CONTINUOUS
 10
25.4210136572
 20
29.0029683527
 11
25.7745685198
 21
28.7988479754
  0
LINE
  5
231
100
AcDbEntity
  8
0
100
AcDbLine
 62
7
  6
CONTINUOUS
 10
27.2170723598
 20
27.9660368358
 11
27.5706272224
 21
27.7619164585
  0
LINE
  5
232
100
AcDbEntity
  8
0
100
AcDbLine
 62
7
  6
CONTINUOUS
 10
43.5319306599
 20
19.9671803484
 11
44.9461501102
 21
19.1506988394
  0
LINE
  5
233
100
AcDbEntity
  8
0
100
AcDbLine
 62
7
  6
CONTINUOUS
 10
27.5706272224
 20
29.4275813887
 11
27.2170723598
 21
29.631701766
  0
LINE
  5
234
100
AcDbEntity
  8
0
100
AcDbLine
 62
7
  6
CONTINUOUS
 10
25.7745685198
 20
30.4645129056
 11
25.4210136572
 21
30.6686332829
  0
LINE
  5
235
100
AcDbEntity
  8
0
100
AcDbLine
 62
7
  6
CONTINUOUS
 10
25.4210136572
 20
31.0768844914
 11
25.7745685198
 21
30.8727641142
  0
LINE
  5
236
100
AcDbEntity
  8
0
100
AcDbLine
 62
7
  6
CONTINUOUS
 10
27.2170723598
 20
30.0399529746
 11
27.5706272224
 21
29.8358325973
  0
LINE
  5
237
100
AcDbEntity
  8
0
100
AcDbLine
 62
7
  6
CONTINUOUS
 10
27.5706272224
 20
31.5014975291
 11
27.2170723598
 21
31.7056179063
  0
LINE
  5
238
100
AcDbEntity
  8
0
100
AcDbLine
 62
7
  6
CONTINUOUS
 10
25.7745685198
 20
32.5384290459
 11
25.4210136572
 21
32.7425494232
  0
LINE
  5
239
100
AcDbEntity
  8
0
100
AcDbLine
 62
7
  6
CONTINUOUS
 10
25.4210136572
 20
33.1508006318
 11
25.7745685198
 21
32.9466802545
  0
LINE
  5
23A
100
AcDbEntity
  8
0
100
AcDbLine
 62
7
  6
CONTINUOUS
 10
27.2170723598
 20
32.1138691149
 11
27.5706272224
 21
31.9097487376
  0
LINE
  5
23B
100
AcDbEntity
  8
0
100
AcDbLine
 62
7
  6
CONTINUOUS
 10
34.0418497192
 20
29.2431740323
 11
35.4560691695
 21
28.4266925233
  0
LINE
  5
23C
100
AcDbEntity
  8
0
100
AcDbLine
 62
7
  6
CONTINUOUS
 10
27.5706272224
 20
33.5754136678
 11
27.2170723598
 21
33.7795340451
  0
LINE
  5
23D
100
AcDbEntity
  8
0
100
AcDbLine
 62
7
  6
CONTINUOUS
 10
25.7745685198
 20
34.6123451847
 11
25.4210136572
 21
34.816465562
  0
LINE
  5
23E
100
AcDbEntity
  8
0
100
AcDbLine
 62
7
  6
CONTINUOUS
 10
25.4210136572
 20
35.2247167705
 11
25.7745685198
 21
35.0205963933
  0
LINE
  5
23F
100
AcDbEntity
  8
0
100
AcDbLine
 62
7
  6
CONTINUOUS
 10
27.2170723598
 20
34.1877852537
 11
27.5706272224
 21
33.9836648764
  0
LINE
  5
240
100
AcDbEntity
  8
0
100
AcDbLine
 62
7
  6
CONTINUOUS
 10
19.526917265
 20
90.8675558276
 11
24.7668900585
 21
93.9984522721
  0
LINE
  5
241
100
AcDbEntity
  8
0
100
AcDbLine
 62
7
  6
CONTINUOUS
 10
44.3828539778
 20
107.8140068513
 11
51.1833924185
 21
111.740276114
  0
LINE
  5
242
100
AcDbEntity
  8
0
100
AcDbLine
 62
7
  6
CONTINUOUS
 10
53.2862091888
 20
110.5048657721
 11
46.5226955584
 21
106.599972666
  0
LINE
  5
243
100
AcDbEntity
  8
0
100
AcDbLine
 62
7
  6
CONTINUOUS
 10
24.7668900585
 20
93.9984522721
 11
43.3856783139
 21
104.7479505174
  0
LINE
  5
244
100
AcDbEntity
  8
0
100
AcDbLine
 62
7
  6
CONTINUOUS
 10
53.7361900467
 20
110.7237855817
 11
68.6073279658
 21
119.3095898121
  0
LINE
  5
245
100
AcDbEntity
  8
0
100
AcDbLine
 62
7
  6
CONTINUOUS
 10
72.607080266
 20
124.1195158656
 11
70.4598505399
 21
122.9097469536
  0
LINE
  5
246
100
AcDbEntity
  8
0
100
AcDbLine
 62
7
  6
CONTINUOUS
 10
70.6843771324
 20
122.9140784159
 11
72.8316068585
 21
124.1238473279
  0
LINE
  5
247
100
AcDbEntity
  8
0
100
AcDbLine
 62
7
  6
CONTINUOUS
 10
74.5035019739
 20
123.4989816512
 11
72.3562722478
 21
122.2892127391
  0
LINE
  5
248
100
AcDbEntity
  8
0
100
AcDbLine
 62
7
  6
CONTINUOUS
 10
27.5706272224
 20
35.6493298081
 11
27.2170723598
 21
35.8534501853
  0
LINE
  5
249
100
AcDbEntity
  8
0
100
AcDbLine
 62
7
  6
CONTINUOUS
 10
25.7745685198
 20
36.686261325
 11
25.4210136572
 21
36.8903817022
  0
LINE
  5
24A
100
AcDbEntity
  8
0
100
AcDbLine
 62
7
  6
CONTINUOUS
 10
25.4210136572
 20
37.2986329108
 11
25.7745685198
 21
37.0945125335
  0
LINE
  5
24B
100
AcDbEntity
  8
0
100
AcDbLine
 62
7
  6
CONTINUOUS
 10
27.2170723598
 20
36.2617013939
 11
27.5706272224
 21
36.0575810166
  0
LINE
  5
24C
100
AcDbEntity
  8
0
100
AcDbLine
 62
7
  6
CONTINUOUS
 10
37.5655613638
 20
31.4810855839
 11
38.9797808141
 21
30.6646040749
  0
LINE
  5
24D
100
AcDbEntity
  8
0
100
AcDbLine
 62
7
  6
CONTINUOUS
 10
20.276848109
 20
41.6486450701
 11
18.4383628239
 21
42.7100710317
  0
LINE
  5
24E
100
AcDbEntity
  8
0
100
AcDbLine
 62
7
  6
CONTINUOUS
 10
27.5706272224
 20
37.7232459469
 11
27.2170723598
 21
37.9273663242
  0
LINE
  5
24F
100
AcDbEntity
  8
0
100
AcDbLine
 62
7
  6
CONTINUOUS
 10
25.7745685198
 20
38.7601774638
 11
25.4210136572
 21
38.9642978411
  0
LINE
  5
250
100
AcDbEntity
  8
0
100
AcDbLine
 62
7
  6
CONTINUOUS
 10
25.4210136572
 20
39.3725490496
 11
25.7745685198
 21
39.1684286724
  0
LINE
  5
251
100
AcDbEntity
  8
0
100
AcDbLine
 62
7
  6
CONTINUOUS
 10
27.2170723598
 20
38.3356175328
 11
27.5706272224
 21
38.1314971555
  0
LINE
  5
252
100
AcDbEntity
  8
0
100
AcDbLine
 62
7
  6
CONTINUOUS
 10
20.5243412232
 20
42.5672279553
 11
17.0595035699
 21
44.5676076525
  0
LINE
  5
253
100
AcDbEntity
  8
0
100
AcDbLine
 62
7
  6
CONTINUOUS
 10
17.0595035699
 20
44.5676076525
 11
15.2917439769
 21
46.6497064528
  0
LINE
  5
254
100
AcDbEntity
  8
0
100
AcDbLine
 62
7
  6
CONTINUOUS
 10
18.7565816301
 20
44.6493267557
 11
20.5243412231
 21
42.5672279553
  0
LINE
  5
255
100
AcDbEntity
  8
0
100
AcDbLine
 62
7
  6
CONTINUOUS
 10
21.549635016
 20
42.7100855139
 11
21.3728590567
 21
43.016275684
  0
LINE
  5
256
100
AcDbEntity
  8
0
100
AcDbLine
 62
7
  6
CONTINUOUS
 10
31.5551905234
 20
10.6576858559
 11
31.6794650374
 21
10.3830265134
  0
LINE
  5
257
100
AcDbEntity
  8
0
100
AcDbLine
 62
7
  6
CONTINUOUS
 10
15.2917439769
 20
46.9763074201
 11
15.2917439769
 21
46.6497064526
  0
LINE
  5
258
100
AcDbEntity
  8
0
100
AcDbLine
 62
7
  6
CONTINUOUS
 10
15.2917439769
 20
15.769585037
 11
15.2917439769
 21
15.4429840702
  0
LINE
  5
259
100
AcDbEntity
  8
0
100
AcDbLine
 62
7
  6
CONTINUOUS
 10
17.5218290922
 20
86.0531482475
 11
17.5218290922
 21
60.8304777967
  0
LINE
  5
25A
100
AcDbEntity
  8
0
100
AcDbLine
 62
7
  6
CONTINUOUS
 10
73.060891823
 20
121.8824096409
 11
75.1562851201
 21
123.1221056521
  0
LINE
  5
25B
100
AcDbEntity
  8
0
100
AcDbLine
 62
7
  6
CONTINUOUS
 10
76.8281802356
 20
121.8164768125
 11
74.7327869384
 21
120.5767808013
  0
LINE
  5
25C
100
AcDbEntity
  8
0
100
AcDbLine
 62
7
  6
CONTINUOUS
 10
77.1479035399
 20
121.3329502196
 11
75.0525102427
 21
120.0932542084
  0
LINE
  5
25D
100
AcDbEntity
  8
0
100
AcDbLine
 62
7
  6
CONTINUOUS
 10
53.2862091888
 20
108.8309857288
 11
53.7361900467
 21
109.0907807474
  0
LINE
  5
25E
100
AcDbEntity
  8
0
100
AcDbLine
 62
7
  6
CONTINUOUS
 10
20.3731498041
 20
88.5447743633
 11
18.0395045255
 21
87.1974516759
  0
LINE
  5
25F
100
AcDbEntity
  8
0
100
AcDbLine
 62
7
  6
CONTINUOUS
 10
56.4805204151
 20
109.0830871852
 11
46.2275147756
 21
103.1635469541
  0
LINE
  5
260
100
AcDbEntity
  8
0
100
AcDbLine
 62
7
  6
CONTINUOUS
 10
19.2893341643
 20
87.0736404071
 11
21.6229794429
 21
88.4209630945
  0
LINE
  5
261
100
AcDbEntity
  8
0
100
AcDbLine
 62
7
  6
CONTINUOUS
 10
37.3024550465
 20
97.2795639093
 11
41.2162112375
 21
99.5391586117
  0
LINE
  5
262
100
AcDbEntity
  8
0
100
AcDbLine
 62
7
  6
CONTINUOUS
 10
62.7581931862
 20
111.9763534486
 11
66.6719493772
 21
114.2359481511
  0
LINE
  5
263
100
AcDbEntity
  8
0
100
AcDbLine
 62
7
  6
CONTINUOUS
 10
67.4883396966
 20
113.7646156434
 11
63.5745835056
 21
111.5050209409
  0
LINE
  5
264
100
AcDbEntity
  8
0
100
AcDbLine
 62
7
  6
CONTINUOUS
 10
42.0326015569
 20
99.067826104
 11
38.1188453659
 21
96.8082314016
  0
LINE
  5
265
100
AcDbEntity
  8
0
100
AcDbLine
 62
7
  6
CONTINUOUS
 10
18.7565816303
 20
44.6493267556
 11
15.2917439771
 21
46.6497064527
  0
LINE
  5
266
100
AcDbEntity
  8
0
100
AcDbLine
 62
7
  6
CONTINUOUS
 10
27.5706272224
 20
39.7971620872
 11
27.2170723598
 21
40.0012824644
  0
LINE
  5
267
100
AcDbEntity
  8
0
100
AcDbLine
 62
7
  6
CONTINUOUS
 10
25.7745685198
 20
40.8340936041
 11
25.4210136572
 21
41.0382139813
  0
LINE
  5
268
100
AcDbEntity
  8
0
100
AcDbLine
 62
7
  6
CONTINUOUS
 10
18.7565816301
 20
44.9759277229
 11
15.2917439769
 21
46.9763074201
  0
LINE
  5
269
100
AcDbEntity
  8
0
100
AcDbLine
 62
7
  6
CONTINUOUS
 10
25.4210136572
 20
41.4464651899
 11
25.7745685198
 21
41.2423448126
  0
LINE
  5
26A
100
AcDbEntity
  8
0
100
AcDbLine
 62
7
  6
CONTINUOUS
 10
27.2170723598
 20
40.409533673
 11
27.5706272224
 21
40.2054132957
  0
LINE
  5
26B
100
AcDbEntity
  8
0
100
AcDbLine
 62
7
  6
CONTINUOUS
 10
21.2314450605
 20
45.2616788772
 11
17.7666074073
 21
47.2620585743
  0
LINE
  5
26C
100
AcDbEntity
  8
0
100
AcDbLine
 62
7
  6
CONTINUOUS
 10
27.5706272224
 20
41.871078226
 11
27.2170723598
 21
42.0751986032
  0
LINE
  5
26D
100
AcDbEntity
  8
0
100
AcDbLine
 62
7
  6
CONTINUOUS
 10
25.7745685198
 20
42.9080097428
 11
25.4210136572
 21
43.1121301201
  0
LINE
  5
26E
100
AcDbEntity
  8
0
100
AcDbLine
 62
7
  6
CONTINUOUS
 10
25.4210136572
 20
43.5203813287
 11
25.7745685198
 21
43.3162609514
  0
LINE
  5
26F
100
AcDbEntity
  8
0
100
AcDbLine
 62
7
  6
CONTINUOUS
 10
27.2170723598
 20
42.4834498118
 11
27.5706272224
 21
42.2793294345
  0
LINE
  5
270
100
AcDbEntity
  8
0
100
AcDbLine
 62
7
  6
CONTINUOUS
 10
25.0517244771
 20
45.1805707819
 11
26.3598774686
 21
44.425325386
  0
LINE
  5
271
100
AcDbEntity
  8
0
100
AcDbLine
 62
7
  6
CONTINUOUS
 10
27.5706272224
 20
43.9449943663
 11
27.2170723598
 21
44.1491147435
  0
LINE
  5
272
100
AcDbEntity
  8
0
100
AcDbLine
 62
7
  6
CONTINUOUS
 10
27.2170723598
 20
44.5573659521
 11
27.5706272224
 21
44.3532455748
  0
LINE
  5
273
100
AcDbEntity
  8
0
100
AcDbLine
 62
7
  6
CONTINUOUS
 10
18.4383628239
 20
21.4646781377
 11
18.4383628239
 21
19.7500230621
  0
LINE
  5
274
100
AcDbEntity
  8
0
100
AcDbLine
 62
7
  6
CONTINUOUS
 10
18.4383628239
 20
42.7100710317
 11
18.4383628239
 21
43.7715409005
  0
LINE
  5
275
100
AcDbEntity
  8
0
100
AcDbLine
 62
7
  6
CONTINUOUS
 10
18.7565816301
 20
44.9759277226
 11
18.7565816301
 21
44.6493267557
  0
LINE
  5
276
100
AcDbEntity
  8
0
100
AcDbLine
 62
7
  6
CONTINUOUS
 10
18.7565816301
 20
13.7692053399
 11
18.7565816301
 21
13.442604373
  0
LINE
  5
277
100
AcDbEntity
  8
0
100
AcDbLine
 62
7
  6
CONTINUOUS
 10
19.1100593608
 20
87.8155331088
 11
19.1100593608
 21
90.1370574051
  0
LINE
  5
278
100
AcDbEntity
  8
0
100
AcDbLine
 62
7
  6
CONTINUOUS
 10
20.1707151166
 20
21.9341934189
 11
20.1707151166
 21
41.7099195957
  0
LINE
  5
279
100
AcDbEntity
  8
0
100
AcDbLine
 62
7
  6
CONTINUOUS
 10
20.1707151166
 20
48.6500625222
 11
20.1707151166
 21
57.2591619025
  0
LINE
  5
27A
100
AcDbEntity
  8
0
100
AcDbLine
 62
7
  6
CONTINUOUS
 10
20.276848109
 20
20.4032521764
 11
20.276848109
 21
18.6885971005
  0
LINE
  5
27B
100
AcDbEntity
  8
0
100
AcDbLine
 62
7
  6
CONTINUOUS
 10
20.276848109
 20
41.6486450701
 11
20.276848109
 21
42.7101149389
  0
LINE
  5
27C
100
AcDbEntity
  8
0
100
AcDbLine
 62
7
  6
CONTINUOUS
 10
20.2787338323
 20
21.8718301952
 11
20.2787338323
 21
23.2625478514
  0
LINE
  5
27D
100
AcDbEntity
  8
0
100
AcDbLine
 62
7
  6
CONTINUOUS
 10
20.2787338323
 20
48.7124267846
 11
20.2787338323
 21
51.3993266466
  0
LINE
  5
27E
100
AcDbEntity
  8
0
100
AcDbLine
 62
7
  6
CONTINUOUS
 10
21.3728590567
 20
20.3011784389
 11
21.3728590567
 21
19.3213755395
  0
LINE
  5
27F
100
AcDbEntity
  8
0
100
AcDbLine
 62
7
  6
CONTINUOUS
 10
21.3728590567
 20
43.016275684
 11
21.3728590567
 21
43.0571170307
  0
LINE
  5
280
100
AcDbEntity
  8
0
100
AcDbLine
 62
7
  6
CONTINUOUS
 10
21.549635016
 20
42.710085514
 11
21.549635016
 21
42.3834845471
  0
LINE
  5
281
100
AcDbEntity
  8
0
100
AcDbLine
 62
7
  6
CONTINUOUS
 10
21.549635016
 20
21.1380916534
 11
21.549635016
 21
20.8114906862
  0
LINE
  5
282
100
AcDbEntity
  8
0
100
AcDbLine
 62
7
  6
CONTINUOUS
 10
21.5849681276
 20
50.642340485
 11
21.5849681276
 21
50.1197789383
  0
LINE
  5
283
100
AcDbEntity
  8
0
100
AcDbLine
 62
7
  6
CONTINUOUS
 10
78.3527523539
 20
117.194154098
 11
76.2573590568
 21
115.9544580868
  0
LINE
  5
284
100
AcDbEntity
  8
0
100
AcDbLine
 62
7
  6
CONTINUOUS
 10
40.0510559353
 20
95.4885739687
 11
44.318364045
 21
97.9522907481
  0
LINE
  5
285
100
AcDbEntity
  8
0
100
AcDbLine
 62
7
  6
CONTINUOUS
 10
65.506794075
 20
110.1853635081
 11
69.7741021847
 21
112.6490802875
  0
LINE
  5
286
100
AcDbEntity
  8
0
100
AcDbLine
 62
7
  6
CONTINUOUS
 10
41.4776304646
 20
94.6791974065
 11
44.318364045
 21
96.3192859139
  0
LINE
  5
287
100
AcDbEntity
  8
0
100
AcDbLine
 62
7
  6
CONTINUOUS
 10
66.9333686043
 20
109.3759869459
 11
69.7741021847
 21
111.0160754532
  0
LINE
  5
288
100
AcDbEntity
  8
0
100
AcDbLine
 62
7
  6
CONTINUOUS
 10
71.2130069283
 20
111.8183470401
 11
66.9456988186
 21
109.3546302607
  0
LINE
  5
289
100
AcDbEntity
  8
0
100
AcDbLine
 62
7
  6
CONTINUOUS
 10
45.7572687886
 20
97.1215575008
 11
41.4899606789
 21
94.6578407213
  0
LINE
  5
28A
100
AcDbEntity
  8
0
100
AcDbLine
 62
7
  6
CONTINUOUS
 10
25.0507651292
 20
48.6428311709
 11
26.3598774686
 21
47.8884561577
  0
LINE
  5
28B
100
AcDbEntity
  8
0
100
AcDbLine
 62
7
  6
CONTINUOUS
 10
23.9891500258
 20
46.8538310774
 11
20.5243123726
 21
48.8542107746
  0
LINE
  5
28C
100
AcDbEntity
  8
0
100
AcDbLine
 62
7
  6
CONTINUOUS
 10
25.0498057809
 20
48.119399241
 11
21.5849681277
 21
50.1197789381
  0
LINE
  5
28D
100
AcDbEntity
  8
0
100
AcDbLine
 62
7
  6
CONTINUOUS
 10
25.0498057808
 20
48.6419607879
 11
21.5849681276
 21
50.642340485
  0
LINE
  5
28E
100
AcDbEntity
  8
0
100
AcDbLine
 62
7
  6
CONTINUOUS
 10
21.5868868238
 20
50.6440812507
 11
20.2787338323
 21
51.3993266466
  0
LINE
  5
28F
100
AcDbEntity
  8
0
100
AcDbLine
 62
7
  6
CONTINUOUS
 10
23.2466512529
 20
25.7920404516
 11
23.2466512529
 21
44.1389450019
  0
LINE
  5
290
100
AcDbEntity
  8
0
100
AcDbLine
 62
7
  6
CONTINUOUS
 10
24.2507470626
 20
25.2123385796
 11
24.2507470626
 21
44.7186565275
  0
LINE
  5
291
100
AcDbEntity
  8
0
100
AcDbLine
 62
7
  6
CONTINUOUS
 10
25.0498057808
 20
17.0433172455
 11
25.0498057808
 21
17.5658787928
  0
LINE
  5
292
100
AcDbEntity
  8
0
100
AcDbLine
 62
7
  6
CONTINUOUS
 10
25.0498057808
 20
48.1193992412
 11
25.0498057808
 21
48.6419607879
  0
LINE
  5
293
100
AcDbEntity
  8
0
100
AcDbLine
 62
7
  6
CONTINUOUS
 10
25.0517244771
 20
17.5658049222
 11
25.0517244771
 21
20.5063952473
  0
LINE
  5
294
100
AcDbEntity
  8
0
100
AcDbLine
 62
7
  6
CONTINUOUS
 10
25.0517244771
 20
45.181098293
 11
25.0517244771
 21
48.1216886178
  0
LINE
  5
295
100
AcDbEntity
  8
0
100
AcDbLine
 62
7
  6
CONTINUOUS
 10
25.4210136572
 20
26.5208010053
 11
25.4210136572
 21
26.9290522139
  0
LINE
  5
296
100
AcDbEntity
  8
0
100
AcDbLine
 62
7
  6
CONTINUOUS
 10
25.4210136572
 20
28.5947171441
 11
25.4210136572
 21
29.0029683527
  0
LINE
  5
297
100
AcDbEntity
  8
0
100
AcDbLine
 62
7
  6
CONTINUOUS
 10
25.4210136572
 20
30.6686332829
 11
25.4210136572
 21
31.0768844914
  0
LINE
  5
298
100
AcDbEntity
  8
0
100
AcDbLine
 62
7
  6
CONTINUOUS
 10
25.4210136572
 20
32.7425494232
 11
25.4210136572
 21
33.1508006318
  0
LINE
  5
299
100
AcDbEntity
  8
0
100
AcDbLine
 62
7
  6
CONTINUOUS
 10
25.4210136572
 20
34.816465562
 11
25.4210136572
 21
35.2247167705
  0
LINE
  5
29A
100
AcDbEntity
  8
0
100
AcDbLine
 62
7
  6
CONTINUOUS
 10
25.4210136572
 20
36.8903817022
 11
25.4210136572
 21
37.2986329108
  0
LINE
  5
29B
100
AcDbEntity
  8
0
100
AcDbLine
 62
7
  6
CONTINUOUS
 10
25.4210136572
 20
38.9642978411
 11
25.4210136572
 21
39.3725490496
  0
LINE
  5
29C
100
AcDbEntity
  8
0
100
AcDbLine
 62
7
  6
CONTINUOUS
 10
25.4210136572
 20
41.0382139813
 11
25.4210136572
 21
41.4464651899
  0
LINE
  5
29D
100
AcDbEntity
  8
0
100
AcDbLine
 62
7
  6
CONTINUOUS
 10
25.4210136572
 20
43.1121301201
 11
25.4210136572
 21
43.5203813287
  0
LINE
  5
29E
100
AcDbEntity
  8
0
100
AcDbLine
 62
7
  6
CONTINUOUS
 10
25.7745685198
 20
43.3162609514
 11
25.7745685198
 21
42.9080097428
  0
LINE
  5
29F
100
AcDbEntity
  8
0
100
AcDbLine
 62
7
  6
CONTINUOUS
 10
25.7745685198
 20
41.2423448126
 11
25.7745685198
 21
40.8340936041
  0
LINE
  5
2A0
100
AcDbEntity
  8
0
100
AcDbLine
 62
7
  6
CONTINUOUS
 10
25.7745685198
 20
39.1684286724
 11
25.7745685198
 21
38.7601774638
  0
LINE
  5
2A1
100
AcDbEntity
  8
0
100
AcDbLine
 62
7
  6
CONTINUOUS
 10
25.7745685198
 20
37.0945125335
 11
25.7745685198
 21
36.686261325
  0
LINE
  5
2A2
100
AcDbEntity
  8
0
100
AcDbLine
 62
7
  6
CONTINUOUS
 10
25.7745685198
 20
35.0205963933
 11
25.7745685198
 21
34.6123451847
  0
LINE
  5
2A3
100
AcDbEntity
  8
0
100
AcDbLine
 62
7
  6
CONTINUOUS
 10
25.7745685198
 20
32.9466802545
 11
25.7745685198
 21
32.5384290459
  0
LINE
  5
2A4
100
AcDbEntity
  8
0
100
AcDbLine
 62
7
  6
CONTINUOUS
 10
25.7745685198
 20
30.8727641142
 11
25.7745685198
 21
30.4645129056
  0
LINE
  5
2A5
100
AcDbEntity
  8
0
100
AcDbLine
 62
7
  6
CONTINUOUS
 10
25.7745685198
 20
28.7988479754
 11
25.7745685198
 21
28.3905967668
  0
LINE
  5
2A6
100
AcDbEntity
  8
0
100
AcDbLine
 62
7
  6
CONTINUOUS
 10
25.7745685198
 20
26.7249318366
 11
25.7745685198
 21
26.3166806281
  0
LINE
  5
2A7
100
AcDbEntity
  8
0
100
AcDbLine
 62
7
  6
CONTINUOUS
 10
26.3598774686
 20
16.2885465901
 11
26.3598774686
 21
19.7516773626
  0
LINE
  5
2A8
100
AcDbEntity
  8
0
100
AcDbLine
 62
7
  6
CONTINUOUS
 10
26.3598774686
 20
44.425325386
 11
26.3598774686
 21
47.8884561577
  0
LINE
  5
2A9
100
AcDbEntity
  8
0
100
AcDbLine
 62
7
  6
CONTINUOUS
 10
37.2120212211
 20
86.8134149925
 11
31.9720484276
 21
83.682518548
  0
LINE
  5
2AA
100
AcDbEntity
  8
0
100
AcDbLine
 62
7
  6
CONTINUOUS
 10
78.3527523539
 20
113.6831937043
 11
76.2573590568
 21
112.4434976931
  0
LINE
  5
2AB
100
AcDbEntity
  8
0
100
AcDbLine
 62
7
  6
CONTINUOUS
 10
29.042270441
 20
84.1375303437
 11
26.7086251624
 21
82.7902076564
  0
LINE
  5
2AC
100
AcDbEntity
  8
0
100
AcDbLine
 62
7
  6
CONTINUOUS
 10
37.2120212211
 20
86.8134149925
 11
81.0524591283
 21
112.1245525325
  0
LINE
  5
2AD
100
AcDbEntity
  8
0
100
AcDbLine
 62
7
  6
CONTINUOUS
 10
19.2893341642
 20
57.7680159208
 11
26.7086251627
 21
53.4845831698
  0
LINE
  5
2AE
100
AcDbEntity
  8
0
100
AcDbLine
 62
7
  6
CONTINUOUS
 10
27.4036113337
 20
53.2666983717
 11
29.6938001024
 21
51.9444871821
  0
LINE
  5
2AF
100
AcDbEntity
  8
0
100
AcDbLine
 62
7
  6
CONTINUOUS
 10
28.3343164312
 20
53.5777744189
 11
29.6938001024
 21
52.7928939118
  0
LINE
  5
2B0
100
AcDbEntity
  8
0
100
AcDbLine
 62
7
  6
CONTINUOUS
 10
27.2170723598
 20
25.4838694885
 11
27.2170723598
 21
25.892120697
  0
LINE
  5
2B1
100
AcDbEntity
  8
0
100
AcDbLine
 62
7
  6
CONTINUOUS
 10
27.2170723598
 20
27.5577856272
 11
27.2170723598
 21
27.9660368358
  0
LINE
  5
2B2
100
AcDbEntity
  8
0
100
AcDbLine
 62
7
  6
CONTINUOUS
 10
27.2170723598
 20
29.631701766
 11
27.2170723598
 21
30.0399529746
  0
LINE
  5
2B3
100
AcDbEntity
  8
0
100
AcDbLine
 62
7
  6
CONTINUOUS
 10
27.2170723598
 20
31.7056179063
 11
27.2170723598
 21
32.1138691149
  0
LINE
  5
2B4
100
AcDbEntity
  8
0
100
AcDbLine
 62
7
  6
CONTINUOUS
 10
27.2170723598
 20
33.7795340451
 11
27.2170723598
 21
34.1877852537
  0
LINE
  5
2B5
100
AcDbEntity
  8
0
100
AcDbLine
 62
7
  6
CONTINUOUS
 10
27.2170723598
 20
35.8534501853
 11
27.2170723598
 21
36.2617013939
  0
LINE
  5
2B6
100
AcDbEntity
  8
0
100
AcDbLine
 62
7
  6
CONTINUOUS
 10
27.2170723598
 20
37.9273663242
 11
27.2170723598
 21
38.3356175328
  0
LINE
  5
2B7
100
AcDbEntity
  8
0
100
AcDbLine
 62
7
  6
CONTINUOUS
 10
27.2170723598
 20
40.0012824644
 11
27.2170723598
 21
40.409533673
  0
LINE
  5
2B8
100
AcDbEntity
  8
0
100
AcDbLine
 62
7
  6
CONTINUOUS
 10
27.2170723598
 20
42.0751986032
 11
27.2170723598
 21
42.4834498118
  0
LINE
  5
2B9
100
AcDbEntity
  8
0
100
AcDbLine
 62
7
  6
CONTINUOUS
 10
27.2170723598
 20
44.1491147435
 11
27.2170723598
 21
44.5573659521
  0
LINE
  5
2BA
100
AcDbEntity
  8
0
100
AcDbLine
 62
7
  6
CONTINUOUS
 10
27.5706272224
 20
44.3532455748
 11
27.5706272224
 21
43.9449943663
  0
LINE
  5
2BB
100
AcDbEntity
  8
0
100
AcDbLine
 62
7
  6
CONTINUOUS
 10
27.5706272224
 20
42.2793294345
 11
27.5706272224
 21
41.871078226
  0
LINE
  5
2BC
100
AcDbEntity
  8
0
100
AcDbLine
 62
7
  6
CONTINUOUS
 10
27.5706272224
 20
40.2054132957
 11
27.5706272224
 21
39.7971620872
  0
LINE
  5
2BD
100
AcDbEntity
  8
0
100
AcDbLine
 62
7
  6
CONTINUOUS
 10
27.5706272224
 20
38.1314971555
 11
27.5706272224
 21
37.7232459469
  0
LINE
  5
2BE
100
AcDbEntity
  8
0
100
AcDbLine
 62
7
  6
CONTINUOUS
 10
27.5706272224
 20
36.0575810166
 11
27.5706272224
 21
35.6493298081
  0
LINE
  5
2BF
100
AcDbEntity
  8
0
100
AcDbLine
 62
7
  6
CONTINUOUS
 10
27.5706272224
 20
33.9836648764
 11
27.5706272224
 21
33.5754136678
  0
LINE
  5
2C0
100
AcDbEntity
  8
0
100
AcDbLine
 62
7
  6
CONTINUOUS
 10
27.5706272224
 20
31.9097487376
 11
27.5706272224
 21
31.5014975291
  0
LINE
  5
2C1
100
AcDbEntity
  8
0
100
AcDbLine
 62
7
  6
CONTINUOUS
 10
27.5706272224
 20
29.8358325973
 11
27.5706272224
 21
29.4275813887
  0
LINE
  5
2C2
100
AcDbEntity
  8
0
100
AcDbLine
 62
7
  6
CONTINUOUS
 10
27.5706272224
 20
27.7619164585
 11
27.5706272224
 21
27.35366525
  0
LINE
  5
2C3
100
AcDbEntity
  8
0
100
AcDbLine
 62
7
  6
CONTINUOUS
 10
27.5706272224
 20
25.6880003198
 11
27.5706272224
 21
25.2797491112
  0
LINE
  5
2C4
100
AcDbEntity
  8
0
100
AcDbLine
 62
7
  6
CONTINUOUS
 10
28.4761302347
 20
54.5050753293
 11
28.4761302347
 21
79.7277457807
  0
LINE
  5
2C5
100
AcDbEntity
  8
0
100
AcDbLine
 62
7
  6
CONTINUOUS
 10
28.7408938173
 20
45.1453804771
 11
28.7408938173
 21
22.6200097884
  0
LINE
  5
2C6
100
AcDbEntity
  8
0
100
AcDbLine
 62
7
  6
CONTINUOUS
 10
29.3277948892
 20
22.2811699621
 11
29.3277948892
 21
45.3228681741
  0
LINE
  5
2C7
100
AcDbEntity
  8
0
100
AcDbLine
 62
7
  6
CONTINUOUS
 10
29.6938001024
 20
52.7928939118
 11
29.6938001024
 21
14.3885273677
  0
LINE
  5
2C8
100
AcDbEntity
  8
0
100
AcDbLine
 62
7
  6
CONTINUOUS
 10
30.8097755133
 20
55.8524045632
 11
30.8097755133
 21
81.0761387506
  0
LINE
  5
2C9
100
AcDbEntity
  8
0
100
AcDbLine
 62
7
  6
CONTINUOUS
 10
43.1249963907
 20
88.8700257741
 11
44.9461501102
 21
89.921463088
  0
LINE
  5
2CA
100
AcDbEntity
  8
0
100
AcDbLine
 62
7
  6
CONTINUOUS
 10
65.7523191816
 20
101.933838698
 11
67.5734729011
 21
102.9852760119
  0
LINE
  5
2CB
100
AcDbEntity
  8
0
100
AcDbLine
 62
7
  6
CONTINUOUS
 10
74.3119907649
 20
106.6950852448
 11
75.9599786005
 21
107.6465457859
  0
LINE
  5
2CC
100
AcDbEntity
  8
0
100
AcDbLine
 62
7
  6
CONTINUOUS
 10
28.4761302347
 20
79.7288160633
 11
30.8097755133
 21
81.0761387506
  0
LINE
  5
2CD
100
AcDbEntity
  8
0
100
AcDbLine
 62
7
  6
CONTINUOUS
 10
74.3119907649
 20
105.7017788257
 11
74.5579166569
 21
105.8437633581
  0
LINE
  5
2CE
100
AcDbEntity
  8
0
100
AcDbLine
 62
7
  6
CONTINUOUS
 10
66.1588831744
 20
100.8009076791
 11
65.7656800418
 21
100.5738930997
  0
LINE
  5
2CF
100
AcDbEntity
  8
0
100
AcDbLine
 62
7
  6
CONTINUOUS
 10
43.5319306599
 20
87.7368809701
 11
43.1249963907
 21
87.5019387627
  0
LINE
  5
2D0
100
AcDbEntity
  8
0
100
AcDbLine
 62
7
  6
CONTINUOUS
 10
56.5036134336
 20
94.0463949655
 11
63.1627320468
 21
97.89101594
  0
LINE
  5
2D1
100
AcDbEntity
  8
0
100
AcDbLine
 62
7
  6
CONTINUOUS
 10
68.2694188892
 20
100.6082191783
 11
74.3119907649
 21
104.0968788528
  0
LINE
  5
2D2
100
AcDbEntity
  8
0
100
AcDbLine
 62
7
  6
CONTINUOUS
 10
75.9599786005
 20
105.0483393939
 11
76.1579034369
 21
105.1626106693
  0
LINE
  5
2D3
100
AcDbEntity
  8
0
100
AcDbLine
 62
7
  6
CONTINUOUS
 10
67.5731026247
 20
99.98442617
 11
65.7526894577
 21
98.9334164117
  0
LINE
  5
2D4
100
AcDbEntity
  8
0
100
AcDbLine
 62
7
  6
CONTINUOUS
 10
44.9461501102
 20
86.9203994611
 11
43.1249963907
 21
85.8689621471
  0
LINE
  5
2D5
100
AcDbEntity
  8
0
100
AcDbLine
 62
7
  6
CONTINUOUS
 10
70.3645693202
 20
101.1977700443
 11
71.7080666109
 21
101.9734339366
  0
LINE
  5
2D6
100
AcDbEntity
  8
0
100
AcDbLine
 62
7
  6
CONTINUOUS
 10
69.0422851446
 20
99.8791318329
 11
70.3645693202
 21
100.6425484006
  0
LINE
  5
2D7
100
AcDbEntity
  8
0
100
AcDbLine
 62
7
  6
CONTINUOUS
 10
72.7793289248
 20
101.3875827638
 11
72.7510714793
 21
101.3712684174
  0
LINE
  5
2D8
100
AcDbEntity
  8
0
100
AcDbLine
 62
7
  6
CONTINUOUS
 10
68.536705901
 20
98.9381178402
 11
68.2694188892
 21
98.7838005332
  0
LINE
  5
2D9
100
AcDbEntity
  8
0
100
AcDbLine
 62
7
  6
CONTINUOUS
 10
21.2314450605
 20
45.2616788772
 11
18.7565816301
 21
44.9759277226
  0
LINE
  5
2DA
100
AcDbEntity
  8
0
100
AcDbLine
 62
7
  6
CONTINUOUS
 10
61.7608551399
 20
38.1158919236
 11
63.1750745902
 21
37.2994104145
  0
LINE
  5
2DB
100
AcDbEntity
  8
0
100
AcDbLine
 62
7
  6
CONTINUOUS
 10
31.5551905234
 20
10.6576858559
 11
31.5551905234
 21
82.9520201255
  0
LINE
  5
2DC
100
AcDbEntity
  8
0
100
AcDbLine
 62
7
  6
CONTINUOUS
 10
34.0186843539
 20
27.5973286629
 11
34.0186843539
 21
32.1143492202
  0
LINE
  5
2DD
100
AcDbEntity
  8
0
100
AcDbLine
 62
7
  6
CONTINUOUS
 10
34.0186843539
 20
64.3399374337
 11
34.0186843539
 21
68.856957991
  0
LINE
  5
2DE
100
AcDbEntity
  8
0
100
AcDbLine
 62
7
  6
CONTINUOUS
 10
34.0418497192
 20
68.856957991
 11
34.0418497192
 21
65.9857828032
  0
LINE
  5
2DF
100
AcDbEntity
  8
0
100
AcDbLine
 62
7
  6
CONTINUOUS
 10
34.0418497192
 20
32.1143492202
 11
34.0418497192
 21
29.2431740323
  0
LINE
  5
2E0
100
AcDbEntity
  8
0
100
AcDbLine
 62
7
  6
CONTINUOUS
 10
35.4560691695
 20
69.6873332438
 11
35.4560691695
 21
65.1693012941
  0
LINE
  5
2E1
100
AcDbEntity
  8
0
100
AcDbLine
 62
7
  6
CONTINUOUS
 10
35.4560691695
 20
32.944724473
 11
35.4560691695
 21
28.4266925233
  0
LINE
  5
2E2
100
AcDbEntity
  8
0
100
AcDbLine
 62
7
  6
CONTINUOUS
 10
72.2030546056
 20
100.1363440825
 11
73.5465518959
 21
100.9120079746
  0
LINE
  5
2E3
100
AcDbEntity
  8
0
100
AcDbLine
 62
7
  6
CONTINUOUS
 10
70.88077043
 20
98.8177058711
 11
72.2030546056
 21
99.5811224389
  0
LINE
  5
2E4
100
AcDbEntity
  8
0
100
AcDbLine
 62
7
  6
CONTINUOUS
 10
61.7485125965
 20
92.8144279431
 11
56.5036134336
 21
89.786302075
  0
LINE
  5
2E5
100
AcDbEntity
  8
0
100
AcDbLine
 62
7
  6
CONTINUOUS
 10
63.1627320468
 20
91.997946434
 11
56.5036134336
 21
88.1533254594
  0
LINE
  5
2E6
100
AcDbEntity
  8
0
100
AcDbLine
 62
7
  6
CONTINUOUS
 10
15.2917439769
 20
46.9763074198
 11
17.7666074072
 21
47.2620585743
  0
LINE
  5
2E7
100
AcDbEntity
  8
0
100
AcDbLine
 62
7
  6
CONTINUOUS
 10
37.2243637649
 20
29.6511196187
 11
37.2243637649
 21
33.7621359108
  0
LINE
  5
2E8
100
AcDbEntity
  8
0
100
AcDbLine
 62
7
  6
CONTINUOUS
 10
37.2243637649
 20
66.3937283895
 11
37.2243637649
 21
70.5047446817
  0
LINE
  5
2E9
100
AcDbEntity
  8
0
100
AcDbLine
 62
7
  6
CONTINUOUS
 10
37.5655613638
 20
70.7017340313
 11
37.5655613638
 21
68.2236943547
  0
LINE
  5
2EA
100
AcDbEntity
  8
0
100
AcDbLine
 62
7
  6
CONTINUOUS
 10
37.5655613638
 20
33.9591252605
 11
37.5655613638
 21
31.4810855839
  0
LINE
  5
2EB
100
AcDbEntity
  8
0
100
AcDbLine
 62
7
  6
CONTINUOUS
 10
38.9797808141
 20
71.5182291378
 11
38.9797808141
 21
67.4072128457
  0
LINE
  5
2EC
100
AcDbEntity
  8
0
100
AcDbLine
 62
7
  6
CONTINUOUS
 10
38.9797808141
 20
34.775620367
 11
38.9797808141
 21
30.6646040749
  0
LINE
  5
2ED
100
AcDbEntity
  8
0
100
AcDbLine
 62
7
  6
CONTINUOUS
 10
21.3728590567
 20
20.3011784396
 11
21.549635016
 21
20.8114906866
  0
LINE
  5
2EE
100
AcDbEntity
  8
0
100
AcDbLine
 62
7
  6
CONTINUOUS
 10
15.2917439769
 20
15.7695850371
 11
17.0595035699
 21
19.8929046068
  0
LINE
  5
2EF
100
AcDbEntity
  8
0
100
AcDbLine
 62
7
  6
CONTINUOUS
 10
20.5243123728
 20
48.8542107747
 11
21.5868868238
 21
50.122068315
  0
LINE
  5
2F0
100
AcDbEntity
  8
0
100
AcDbLine
 62
7
  6
CONTINUOUS
 10
34.0186843539
 20
68.856957991
 11
35.4560691695
 21
69.6873332438
  0
LINE
  5
2F1
100
AcDbEntity
  8
0
100
AcDbLine
 62
7
  6
CONTINUOUS
 10
76.1579034369
 20
97.336935944
 11
76.5515686215
 21
97.5642172876
  0
LINE
  5
2F2
100
AcDbEntity
  8
0
100
AcDbLine
 62
7
  6
CONTINUOUS
 10
37.2243637649
 20
70.5047446817
 11
38.9797808141
 21
71.5182291378
  0
LINE
  5
2F3
100
AcDbEntity
  8
0
100
AcDbLine
 62
7
  6
CONTINUOUS
 10
74.6444994973
 20
37.9299231187
 11
76.0587189476
 21
37.1134416097
  0
LINE
  5
2F4
100
AcDbEntity
  8
0
100
AcDbLine
 62
7
  6
CONTINUOUS
 10
41.2162112375
 20
98.5964857469
 11
41.2162112375
 21
99.5391586117
  0
LINE
  5
2F5
100
AcDbEntity
  8
0
100
AcDbLine
 62
7
  6
CONTINUOUS
 10
43.1249963907
 20
18.0992615254
 11
43.1249963907
 21
21.1003251523
  0
LINE
  5
2F6
100
AcDbEntity
  8
0
100
AcDbLine
 62
7
  6
CONTINUOUS
 10
43.1249963907
 20
85.8689621471
 11
43.1249963907
 21
88.8700257741
  0
LINE
  5
2F7
100
AcDbEntity
  8
0
100
AcDbLine
 62
7
  6
CONTINUOUS
 10
43.5319306599
 20
89.1049679815
 11
43.5319306599
 21
87.7368809701
  0
LINE
  5
2F8
100
AcDbEntity
  8
0
100
AcDbLine
 62
7
  6
CONTINUOUS
 10
43.5319306599
 20
21.3352673597
 11
43.5319306599
 21
19.9671803484
  0
LINE
  5
2F9
100
AcDbEntity
  8
0
100
AcDbLine
 62
7
  6
CONTINUOUS
 10
44.318364045
 20
96.3192859139
 11
44.318364045
 21
97.9522907481
  0
LINE
  5
2FA
100
AcDbEntity
  8
0
100
AcDbLine
 62
7
  6
CONTINUOUS
 10
20.5243412231
 20
17.8925249097
 11
18.7565816301
 21
13.7692053399
  0
LINE
  5
2FB
100
AcDbEntity
  8
0
100
AcDbLine
 62
7
  6
CONTINUOUS
 10
25.0517244771
 20
48.1216886178
 11
23.989150026
 21
46.8538310775
  0
LINE
  5
2FC
100
AcDbEntity
  8
0
100
AcDbLine
 62
7
  6
CONTINUOUS
 10
20.2787338323
 20
51.3993266466
 11
24.1838014816
 21
54.9422578247
  0
LINE
  5
2FD
100
AcDbEntity
  8
0
100
AcDbLine
 62
7
  6
CONTINUOUS
 10
75.1373491712
 20
92.0936301838
 11
74.7436839866
 21
91.8663488402
  0
LINE
  5
2FE
100
AcDbEntity
  8
0
100
AcDbLine
 62
7
  6
CONTINUOUS
 10
61.7485243719
 20
83.343034921
 11
64.5769397213
 21
84.9760115368
  0
LINE
  5
2FF
100
AcDbEntity
  8
0
100
AcDbLine
 62
7
  6
CONTINUOUS
 10
76.5515686215
 20
91.2771486748
 11
76.1579034369
 21
91.0498673312
  0
LINE
  5
300
100
AcDbEntity
  8
0
100
AcDbLine
 62
7
  6
CONTINUOUS
 10
37.5655613638
 20
68.2236943547
 11
37.2243637649
 21
68.026705005
  0
LINE
  5
301
100
AcDbEntity
  8
0
100
AcDbLine
 62
7
  6
CONTINUOUS
 10
68.2694188892
 20
84.7399589592
 11
68.536705901
 21
84.8942762662
  0
LINE
  5
302
100
AcDbEntity
  8
0
100
AcDbLine
 62
7
  6
CONTINUOUS
 10
38.9797808141
 20
67.4072128457
 11
37.2243637649
 21
66.3937283895
  0
LINE
  5
303
100
AcDbEntity
  8
0
100
AcDbLine
 62
7
  6
CONTINUOUS
 10
34.0418497192
 20
65.9857828032
 11
34.0186843539
 21
65.9724165031
  0
LINE
  5
304
100
AcDbEntity
  8
0
100
AcDbLine
 62
7
  6
CONTINUOUS
 10
35.4560691695
 20
65.1693012941
 11
34.0186843539
 21
64.3399374337
  0
LINE
  5
305
100
AcDbEntity
  8
0
100
AcDbLine
 62
7
  6
CONTINUOUS
 10
34.0418497192
 20
65.9857828032
 11
35.4560691695
 21
65.1693012941
  0
LINE
  5
306
100
AcDbEntity
  8
0
100
AcDbLine
 62
7
  6
CONTINUOUS
 10
37.5655613638
 20
68.2236943547
 11
38.9797808141
 21
67.4072128457
  0
LINE
  5
307
100
AcDbEntity
  8
0
100
AcDbLine
 62
7
  6
CONTINUOUS
 10
44.3828539779
 20
107.8140068513
 11
44.3828539779
 21
104.1919971061
  0
LINE
  5
308
100
AcDbEntity
  8
0
100
AcDbLine
 62
7
  6
CONTINUOUS
 10
44.9461501102
 20
89.921463088
 11
44.9461501102
 21
86.9203994611
  0
LINE
  5
309
100
AcDbEntity
  8
0
100
AcDbLine
 62
7
  6
CONTINUOUS
 10
44.9461501102
 20
22.1517624662
 11
44.9461501102
 21
19.1506988394
  0
LINE
  5
30A
100
AcDbEntity
  8
0
100
AcDbLine
 62
7
  6
CONTINUOUS
 10
46.5226955584
 20
106.599972666
 11
46.5226955584
 21
103.3339686412
  0
LINE
  5
30B
100
AcDbEntity
  8
0
100
AcDbLine
 62
7
  6
CONTINUOUS
 10
70.3646538281
 20
122.7997281427
 11
69.159805014
 21
120.052140122
  0
LINE
  5
30C
100
AcDbEntity
  8
0
100
AcDbLine
 62
7
  6
CONTINUOUS
 10
29.6938001024
 20
50.9132074567
 11
26.3598774686
 21
47.8884561577
  0
LINE
  5
30D
100
AcDbEntity
  8
0
100
AcDbLine
 62
7
  6
CONTINUOUS
 10
80.0695110771
 20
87.6042473722
 11
79.4968306863
 21
87.2620694517
  0
LINE
  5
30E
100
AcDbEntity
  8
0
100
AcDbLine
 62
7
  6
CONTINUOUS
 10
70.1065036708
 20
83.9226384622
 11
68.2694188892
 21
82.8620034001
  0
LINE
  5
30F
100
AcDbEntity
  8
0
100
AcDbLine
 62
7
  6
CONTINUOUS
 10
79.1432787679
 20
88.6909522086
 11
78.2240437795
 21
88.1602348086
  0
LINE
  5
310
100
AcDbEntity
  8
0
100
AcDbLine
 62
7
  6
CONTINUOUS
 10
72.2030546056
 20
84.239042021
 11
70.8807704299
 21
83.4756254532
  0
LINE
  5
311
100
AcDbEntity
  8
0
100
AcDbLine
 62
7
  6
CONTINUOUS
 10
73.5465518963
 20
84.4594842697
 11
72.203054606
 21
83.6838203776
  0
LINE
  5
312
100
AcDbEntity
  8
0
100
AcDbLine
 62
7
  6
CONTINUOUS
 10
74.6885128181
 20
84.0368978587
 11
68.2694188892
 21
80.330854373
  0
LINE
  5
313
100
AcDbEntity
  8
0
100
AcDbLine
 62
7
  6
CONTINUOUS
 10
74.7436839866
 20
84.0406741148
 11
68.2694188892
 21
80.3027777303
  0
LINE
  5
314
100
AcDbEntity
  8
0
100
AcDbLine
 62
7
  6
CONTINUOUS
 10
63.162720271
 20
75.9944640402
 11
61.7485243719
 21
75.177982531
  0
LINE
  5
315
100
AcDbEntity
  8
0
100
AcDbLine
 62
7
  6
CONTINUOUS
 10
76.1579034369
 20
83.2241926058
 11
68.2694188892
 21
78.6698011147
  0
LINE
  5
316
100
AcDbEntity
  8
0
100
AcDbLine
 62
7
  6
CONTINUOUS
 10
30.8097755133
 20
55.8524045632
 11
28.4761302347
 21
54.5050818758
  0
LINE
  5
317
100
AcDbEntity
  8
0
100
AcDbLine
 62
7
  6
CONTINUOUS
 10
64.5769397213
 20
75.1779825312
 11
61.7485243719
 21
73.5450059154
  0
LINE
  5
318
100
AcDbEntity
  8
0
100
AcDbLine
 62
7
  6
CONTINUOUS
 10
30.29210008
 20
54.7080945885
 11
27.9584548014
 21
53.3607719011
  0
LINE
  5
319
100
AcDbEntity
  8
0
100
AcDbLine
 62
7
  6
CONTINUOUS
 10
20.5243123726
 20
48.8542107746
 11
17.7666074073
 21
47.2620585744
  0
LINE
  5
31A
100
AcDbEntity
  8
0
100
AcDbLine
 62
7
  6
CONTINUOUS
 10
26.7086251628
 20
82.7902076561
 11
19.289334164
 21
87.0736404073
  0
LINE
  5
31B
100
AcDbEntity
  8
0
100
AcDbLine
 62
7
  6
CONTINUOUS
 10
53.2862091888
 20
110.5048657721
 11
53.2862091888
 21
107.2388617474
  0
LINE
  5
31C
100
AcDbEntity
  8
0
100
AcDbLine
 62
7
  6
CONTINUOUS
 10
53.7361900467
 20
109.0907807474
 11
53.7361900467
 21
110.7237855817
  0
LINE
  5
31D
100
AcDbEntity
  8
0
100
AcDbLine
 62
7
  6
CONTINUOUS
 10
56.5036134336
 20
33.4476635118
 11
56.5036134336
 21
39.3407330178
  0
LINE
  5
31E
100
AcDbEntity
  8
0
100
AcDbLine
 62
7
  6
CONTINUOUS
 10
56.5036134336
 20
88.1533254594
 11
56.5036134336
 21
94.0463949655
  0
LINE
  5
31F
100
AcDbEntity
  8
0
100
AcDbLine
 62
7
  6
CONTINUOUS
 10
23.989150026
 20
46.8538310775
 11
21.2314450605
 21
45.2616788772
  0
LINE
  5
320
100
AcDbEntity
  8
0
100
AcDbLine
 62
7
  6
CONTINUOUS
 10
25.0498057813
 20
45.1799905401
 11
20.5243412232
 21
42.5672279553
  0
LINE
  5
321
100
AcDbEntity
  8
0
100
AcDbLine
 62
7
  6
CONTINUOUS
 10
21.549635016
 20
42.3834845471
 11
20.276848109
 21
41.6486450701
  0
LINE
  5
322
100
AcDbEntity
  8
0
100
AcDbLine
 62
7
  6
CONTINUOUS
 10
27.6796890308
 20
44.8244562174
 11
25.4210136572
 21
43.5203813287
  0
LINE
  5
323
100
AcDbEntity
  8
0
100
AcDbLine
 62
7
  6
CONTINUOUS
 10
29.042270441
 20
84.1375303437
 11
21.6229794429
 21
88.4209630945
  0
LINE
  5
324
100
AcDbEntity
  8
0
100
AcDbLine
 62
7
  6
CONTINUOUS
 10
19.1100593608
 20
90.1370574051
 11
31.5551905234
 21
82.9520201255
  0
LINE
  5
325
100
AcDbEntity
  8
0
100
AcDbLine
 62
7
  6
CONTINUOUS
 10
31.9720484275
 20
83.682518548
 11
19.5269172649
 21
90.8675558275
  0
LINE
  5
326
100
AcDbEntity
  8
0
100
AcDbLine
 62
7
  6
CONTINUOUS
 10
61.7485125965
 20
97.0745208335
 11
61.7485125965
 21
92.8144279431
  0
LINE
  5
327
100
AcDbEntity
  8
0
100
AcDbLine
 62
7
  6
CONTINUOUS
 10
61.7485243719
 20
73.5450059154
 11
61.7485243719
 21
83.343034921
  0
LINE
  5
328
100
AcDbEntity
  8
0
100
AcDbLine
 62
7
  6
CONTINUOUS
 10
61.7608551399
 20
42.3759848141
 11
61.7608551399
 21
38.1158919236
  0
LINE
  5
329
100
AcDbEntity
  8
0
100
AcDbLine
 62
7
  6
CONTINUOUS
 10
28.7408938173
 20
45.0288952754
 11
27.5706272224
 21
44.3532455748
  0
LINE
  5
32A
100
AcDbEntity
  8
0
100
AcDbLine
 62
7
  6
CONTINUOUS
 10
27.2170848232
 20
44.1490931561
 11
25.7745685198
 21
43.3162609514
  0
LINE
  5
32B
100
AcDbEntity
  8
0
100
AcDbLine
 62
7
  6
CONTINUOUS
 10
28.7408938173
 20
44.6206440668
 11
25.7745685198
 21
42.9080097428
  0
LINE
  5
32C
100
AcDbEntity
  8
0
100
AcDbLine
 62
7
  6
CONTINUOUS
 10
28.7408938173
 20
43.3632232889
 11
25.4210136572
 21
41.4464651899
  0
LINE
  5
32D
100
AcDbEntity
  8
0
100
AcDbLine
 62
7
  6
CONTINUOUS
 10
28.7408938173
 20
42.954979135
 11
27.5706272224
 21
42.2793294345
  0
LINE
  5
32E
100
AcDbEntity
  8
0
100
AcDbLine
 62
7
  6
CONTINUOUS
 10
27.2170848226
 20
42.075177017
 11
25.7745685198
 21
41.2423448126
  0
LINE
  5
32F
100
AcDbEntity
  8
0
100
AcDbLine
 62
7
  6
CONTINUOUS
 10
28.7408938173
 20
42.5467279265
 11
25.7745685198
 21
40.8340936041
  0
LINE
  5
330
100
AcDbEntity
  8
0
100
AcDbLine
 62
7
  6
CONTINUOUS
 10
28.7408938173
 20
41.2893071501
 11
25.4210136572
 21
39.3725490496
  0
LINE
  5
331
100
AcDbEntity
  8
0
100
AcDbLine
 62
7
  6
CONTINUOUS
 10
28.7408938173
 20
40.8810629963
 11
27.5706272224
 21
40.2054132957
  0
LINE
  5
332
100
AcDbEntity
  8
0
100
AcDbLine
 62
7
  6
CONTINUOUS
 10
27.2170848232
 20
40.0012608771
 11
25.7745685198
 21
39.1684286724
  0
LINE
  5
333
100
AcDbEntity
  8
0
100
AcDbLine
 62
7
  6
CONTINUOUS
 10
28.7408938173
 20
40.4728117877
 11
25.7745685198
 21
38.7601774638
  0
LINE
  5
334
100
AcDbEntity
  8
0
100
AcDbLine
 62
7
  6
CONTINUOUS
 10
81.0524591283
 20
60.913667689
 11
78.2240437795
 21
62.5466171098
  0
LINE
  5
335
100
AcDbEntity
  8
0
100
AcDbLine
 62
7
  6
CONTINUOUS
 10
37.2120212211
 20
86.8134149925
 11
24.7668900585
 21
93.9984522721
  0
LINE
  5
336
100
AcDbEntity
  8
0
100
AcDbLine
 62
7
  6
CONTINUOUS
 10
63.162720271
 20
84.1595164303
 11
63.162720271
 21
75.9944640402
  0
LINE
  5
337
100
AcDbEntity
  8
0
100
AcDbLine
 62
7
  6
CONTINUOUS
 10
63.1627320468
 20
97.89101594
 11
63.1627320468
 21
91.997946434
  0
LINE
  5
338
100
AcDbEntity
  8
0
100
AcDbLine
 62
7
  6
CONTINUOUS
 10
63.1750745902
 20
43.1924799206
 11
63.1750745902
 21
37.2994104145
  0
LINE
  5
339
100
AcDbEntity
  8
0
100
AcDbLine
 62
7
  6
CONTINUOUS
 10
64.5769397213
 20
84.9760115368
 11
64.5769397213
 21
75.1779825312
  0
LINE
  5
33A
100
AcDbEntity
  8
0
100
AcDbLine
 62
7
  6
CONTINUOUS
 10
65.7526894577
 20
98.9334164117
 11
65.7523191816
 21
101.933838698
  0
LINE
  5
33B
100
AcDbEntity
  8
0
100
AcDbLine
 62
7
  6
CONTINUOUS
 10
66.1588831744
 20
102.1685671275
 11
66.1588831744
 21
100.8009076791
  0
LINE
  5
33C
100
AcDbEntity
  8
0
100
AcDbLine
 62
7
  6
CONTINUOUS
 10
18.7565816301
 20
13.442604373
 11
21.2314450604
 21
16.0145622956
  0
LINE
  5
33D
100
AcDbEntity
  8
0
100
AcDbLine
 62
7
  6
CONTINUOUS
 10
20.2787338323
 20
23.2625478514
 11
23.2466512529
 21
25.7920404516
  0
LINE
  5
33E
100
AcDbEntity
  8
0
100
AcDbLine
 62
7
  6
CONTINUOUS
 10
28.7408938173
 20
39.2153910099
 11
25.4210136572
 21
37.2986329108
  0
LINE
  5
33F
100
AcDbEntity
  8
0
100
AcDbLine
 62
7
  6
CONTINUOUS
 10
28.7408938173
 20
38.807146856
 11
27.5706272224
 21
38.1314971555
  0
LINE
  5
340
100
AcDbEntity
  8
0
100
AcDbLine
 62
7
  6
CONTINUOUS
 10
27.2170848226
 20
37.9273447379
 11
25.7745685198
 21
37.0945125335
  0
LINE
  5
341
100
AcDbEntity
  8
0
100
AcDbLine
 62
7
  6
CONTINUOUS
 10
28.7408938173
 20
38.3988956474
 11
25.7745685198
 21
36.686261325
  0
LINE
  5
342
100
AcDbEntity
  8
0
100
AcDbLine
 62
7
  6
CONTINUOUS
 10
28.7408938173
 20
37.141474871
 11
25.4210136572
 21
35.2247167705
  0
LINE
  5
343
100
AcDbEntity
  8
0
100
AcDbLine
 62
7
  6
CONTINUOUS
 10
28.7408938173
 20
36.7332307172
 11
27.5706272224
 21
36.0575810166
  0
LINE
  5
344
100
AcDbEntity
  8
0
100
AcDbLine
 62
7
  6
CONTINUOUS
 10
27.2170848232
 20
35.853428598
 11
25.7745685198
 21
35.0205963933
  0
LINE
  5
345
100
AcDbEntity
  8
0
100
AcDbLine
 62
7
  6
CONTINUOUS
 10
28.7408938173
 20
36.3249795086
 11
25.7745685198
 21
34.6123451847
  0
LINE
  5
346
100
AcDbEntity
  8
0
100
AcDbLine
 62
7
  6
CONTINUOUS
 10
26.3598774686
 20
44.425325386
 11
29.3277948892
 21
45.3228681726
  0
LINE
  5
347
100
AcDbEntity
  8
0
100
AcDbLine
 62
7
  6
CONTINUOUS
 10
63.162720271
 20
75.9944640402
 11
64.5769397213
 21
75.1779825312
  0
LINE
  5
348
100
AcDbEntity
  8
0
100
AcDbLine
 62
7
  6
CONTINUOUS
 10
43.5319306599
 20
87.7368809701
 11
44.9461501102
 21
86.9203994611
  0
LINE
  5
349
100
AcDbEntity
  8
0
100
AcDbLine
 62
7
  6
CONTINUOUS
 10
66.6719493772
 20
113.2932752863
 11
66.6719493772
 21
114.2359481511
  0
LINE
  5
34A
100
AcDbEntity
  8
0
100
AcDbLine
 62
7
  6
CONTINUOUS
 10
68.2694188892
 20
78.6698011147
 11
68.2694188892
 21
100.6082191783
  0
LINE
  5
34B
100
AcDbEntity
  8
0
100
AcDbLine
 62
7
  6
CONTINUOUS
 10
68.536705901
 20
84.8942762662
 11
68.536705901
 21
98.9381178402
  0
LINE
  5
34C
100
AcDbEntity
  8
0
100
AcDbLine
 62
7
  6
CONTINUOUS
 10
69.0422851446
 20
84.537051415
 11
69.0422851446
 21
99.8791318329
  0
LINE
  5
34D
100
AcDbEntity
  8
0
100
AcDbLine
 62
7
  6
CONTINUOUS
 10
69.159805014
 20
120.052140122
 11
69.159805014
 21
116.5411797283
  0
LINE
  5
34E
100
AcDbEntity
  8
0
100
AcDbLine
 62
7
  6
CONTINUOUS
 10
69.7741021847
 20
111.0160754532
 11
69.7741021847
 21
112.6490802875
  0
LINE
  5
34F
100
AcDbEntity
  8
0
100
AcDbLine
 62
7
  6
CONTINUOUS
 10
70.3645693202
 20
100.6425484006
 11
70.3645693202
 21
101.1977700443
  0
LINE
  5
350
100
AcDbEntity
  8
0
100
AcDbLine
 62
7
  6
CONTINUOUS
 10
67.5734729011
 20
102.9852760119
 11
67.5731026247
 21
99.98442617
  0
LINE
  5
351
100
AcDbEntity
  8
0
100
AcDbLine
 62
7
  6
CONTINUOUS
 10
80.0695110771
 20
87.6042473722
 11
81.0524591283
 21
89.7932114243
  0
LINE
  5
352
100
AcDbEntity
  8
0
100
AcDbLine
 62
7
  6
CONTINUOUS
 10
29.3277948892
 20
22.2811699627
 11
26.3598774686
 21
19.7516773625
  0
LINE
  5
353
100
AcDbEntity
  8
0
100
AcDbLine
 62
7
  6
CONTINUOUS
 10
28.7408938173
 20
35.0675587308
 11
25.4210136572
 21
33.1508006318
  0
LINE
  5
354
100
AcDbEntity
  8
0
100
AcDbLine
 62
7
  6
CONTINUOUS
 10
28.7408938173
 20
34.6593145769
 11
27.5706272224
 21
33.9836648764
  0
LINE
  5
355
100
AcDbEntity
  8
0
100
AcDbLine
 62
7
  6
CONTINUOUS
 10
27.2170848226
 20
33.7795124589
 11
25.7745685198
 21
32.9466802545
  0
LINE
  5
356
100
AcDbEntity
  8
0
100
AcDbLine
 62
7
  6
CONTINUOUS
 10
28.7408938173
 20
34.2510633683
 11
25.7745685198
 21
32.5384290459
  0
LINE
  5
357
100
AcDbEntity
  8
0
100
AcDbLine
 62
7
  6
CONTINUOUS
 10
28.7408938173
 20
32.993642592
 11
25.4210136572
 21
31.0768844914
  0
LINE
  5
358
100
AcDbEntity
  8
0
100
AcDbLine
 62
7
  6
CONTINUOUS
 10
28.7408938173
 20
32.5853984381
 11
27.5706272224
 21
31.9097487376
  0
LINE
  5
359
100
AcDbEntity
  8
0
100
AcDbLine
 62
7
  6
CONTINUOUS
 10
27.2170848232
 20
31.7055963189
 11
25.7745685198
 21
30.8727641142
  0
LINE
  5
35A
100
AcDbEntity
  8
0
100
AcDbLine
 62
7
  6
CONTINUOUS
 10
28.7408938173
 20
32.1771472296
 11
25.7745685198
 21
30.4645129056
  0
LINE
  5
35B
100
AcDbEntity
  8
0
100
AcDbLine
 62
7
  6
CONTINUOUS
 10
28.7408938173
 20
30.9197264517
 11
25.4210136572
 21
29.0029683527
  0
LINE
  5
35C
100
AcDbEntity
  8
0
100
AcDbLine
 62
7
  6
CONTINUOUS
 10
28.7408938173
 20
30.5114822978
 11
27.5706272224
 21
29.8358325973
  0
LINE
  5
35D
100
AcDbEntity
  8
0
100
AcDbLine
 62
7
  6
CONTINUOUS
 10
27.2170848226
 20
29.6316801798
 11
25.7745685198
 21
28.7988479754
  0
LINE
  5
35E
100
AcDbEntity
  8
0
100
AcDbLine
 62
7
  6
CONTINUOUS
 10
28.7408938173
 20
30.1032310892
 11
25.7745685198
 21
28.3905967668
  0
LINE
  5
35F
100
AcDbEntity
  8
0
100
AcDbLine
 62
7
  6
CONTINUOUS
 10
81.0524591283
 20
60.913667689
 11
78.2240437795
 21
59.3376994835
  0
LINE
  5
360
100
AcDbEntity
  8
0
100
AcDbLine
 62
7
  6
CONTINUOUS
 10
41.4899606789
 20
94.6578407213
 11
40.0510559353
 21
95.4885739687
  0
LINE
  5
361
100
AcDbEntity
  8
0
100
AcDbLine
 62
7
  6
CONTINUOUS
 10
38.1188453659
 20
96.8082314016
 11
37.3024550465
 21
97.2795639093
  0
LINE
  5
362
100
AcDbEntity
  8
0
100
AcDbLine
 62
7
  6
CONTINUOUS
 10
70.88077043
 20
83.4756254533
 11
70.88077043
 21
98.8177058707
  0
LINE
  5
363
100
AcDbEntity
  8
0
100
AcDbLine
 62
7
  6
CONTINUOUS
 10
72.2030546056
 20
83.6838203774
 11
72.2030546056
 21
84.2390420209
  0
LINE
  5
364
100
AcDbEntity
  8
0
100
AcDbLine
 62
7
  6
CONTINUOUS
 10
72.2030546056
 20
99.581122439
 11
72.2030546056
 21
100.1363440824
  0
LINE
  5
365
100
AcDbEntity
  8
0
100
AcDbLine
 62
7
  6
CONTINUOUS
 10
72.7793289248
 20
102.9389373576
 11
72.7793289248
 21
101.3875827638
  0
LINE
  5
366
100
AcDbEntity
  8
0
100
AcDbLine
 62
7
  6
CONTINUOUS
 10
73.5465518963
 20
100.9120079749
 11
73.5465518963
 21
84.4594842704
  0
LINE
  5
367
100
AcDbEntity
  8
0
100
AcDbLine
 62
7
  6
CONTINUOUS
 10
74.2375652281
 20
36.0620042957
 11
74.2375652281
 21
39.0630679226
  0
LINE
  5
368
100
AcDbEntity
  8
0
100
AcDbLine
 62
7
  6
CONTINUOUS
 10
74.3119907649
 20
104.0968788528
 11
74.3119907649
 21
106.6950852448
  0
LINE
  5
369
100
AcDbEntity
  8
0
100
AcDbLine
 62
7
  6
CONTINUOUS
 10
74.5457591503
 20
106.8300506794
 11
74.5457591503
 21
105.8648209029
  0
LINE
  5
36A
100
AcDbEntity
  8
0
100
AcDbLine
 62
7
  6
CONTINUOUS
 10
74.6444994973
 20
39.2980101301
 11
74.6444994973
 21
37.9299231187
  0
LINE
  5
36B
100
AcDbEntity
  8
0
100
AcDbLine
 62
7
  6
CONTINUOUS
 10
74.6885128181
 20
105.7824038989
 11
74.6885128181
 21
84.0368978587
  0
LINE
  5
36C
100
AcDbEntity
  8
0
100
AcDbLine
 62
7
  6
CONTINUOUS
 10
74.7436839866
 20
105.7505515305
 11
74.7436839866
 21
98.153417453
  0
LINE
  5
36D
100
AcDbEntity
  8
0
100
AcDbLine
 62
7
  6
CONTINUOUS
 10
74.7436839866
 20
91.8663488402
 11
74.7436839866
 21
84.0406741148
  0
LINE
  5
36E
100
AcDbEntity
  8
0
100
AcDbLine
 62
7
  6
CONTINUOUS
 10
34.0186843539
 20
32.1143492202
 11
35.4560691695
 21
32.944724473
  0
LINE
  5
36F
100
AcDbEntity
  8
0
100
AcDbLine
 62
7
  6
CONTINUOUS
 10
37.2243637649
 20
33.7621359108
 11
38.9797808141
 21
34.775620367
  0
LINE
  5
370
100
AcDbEntity
  8
0
100
AcDbLine
 62
7
  6
CONTINUOUS
 10
28.7408938173
 20
28.8458103129
 11
25.4210136572
 21
26.9290522139
  0
LINE
  5
371
100
AcDbEntity
  8
0
100
AcDbLine
 62
7
  6
CONTINUOUS
 10
28.7408938173
 20
28.437566159
 11
27.5706272224
 21
27.7619164585
  0
LINE
  5
372
100
AcDbEntity
  8
0
100
AcDbLine
 62
7
  6
CONTINUOUS
 10
27.2170848226
 20
27.557764041
 11
25.7745685198
 21
26.7249318366
  0
LINE
  5
373
100
AcDbEntity
  8
0
100
AcDbLine
 62
7
  6
CONTINUOUS
 10
28.7408938173
 20
28.0293149505
 11
25.7745685198
 21
26.3166806281
  0
LINE
  5
374
100
AcDbEntity
  8
0
100
AcDbLine
 62
7
  6
CONTINUOUS
 10
28.7408938173
 20
27.8047105423
 11
24.2507470629
 21
25.2123385793
  0
LINE
  5
375
100
AcDbEntity
  8
0
100
AcDbLine
 62
7
  6
CONTINUOUS
 10
19.7111497314
 20
22.1995176153
 11
18.4383628239
 21
21.464678138
  0
LINE
  5
376
100
AcDbEntity
  8
0
100
AcDbLine
 62
7
  6
CONTINUOUS
 10
28.7408938173
 20
26.7718941742
 11
27.2170723598
 21
25.892120697
  0
LINE
  5
377
100
AcDbEntity
  8
0
100
AcDbLine
 62
7
  6
CONTINUOUS
 10
21.5849681281
 20
22.5056671922
 11
20.38292963
 21
21.8116740843
  0
LINE
  5
378
100
AcDbEntity
  8
0
100
AcDbLine
 62
7
  6
CONTINUOUS
 10
18.4383628239
 20
20.6889846169
 11
17.0595035699
 21
19.8929046074
  0
LINE
  5
379
100
AcDbEntity
  8
0
100
AcDbLine
 62
7
  6
CONTINUOUS
 10
37.5655613638
 20
31.4810855839
 11
37.2243637649
 21
31.2840962342
  0
LINE
  5
37A
100
AcDbEntity
  8
0
100
AcDbLine
 62
7
  6
CONTINUOUS
 10
28.7408938173
 20
26.3636500203
 11
27.5706272224
 21
25.6880003198
  0
LINE
  5
37B
100
AcDbEntity
  8
0
100
AcDbLine
 62
7
  6
CONTINUOUS
 10
28.7408938173
 20
25.9553988117
 11
27.5706272224
 21
25.2797491112
  0
LINE
  5
37C
100
AcDbEntity
  8
0
100
AcDbLine
 62
7
  6
CONTINUOUS
 10
21.549635016
 20
21.1380916534
 11
20.276848109
 21
20.4032521764
  0
LINE
  5
37D
100
AcDbEntity
  8
0
100
AcDbLine
 62
7
  6
CONTINUOUS
 10
34.0418497192
 20
29.2431740323
 11
34.0186843539
 21
29.2298077322
  0
LINE
  5
37E
100
AcDbEntity
  8
0
100
AcDbLine
 62
7
  6
CONTINUOUS
 10
44.318364045
 20
96.3192859139
 11
44.3430248998
 21
96.3050482848
  0
LINE
  5
37F
100
AcDbEntity
  8
0
100
AcDbLine
 62
7
  6
CONTINUOUS
 10
41.2162112375
 20
99.5391586117
 11
42.0326015569
 21
99.067826104
  0
LINE
  5
380
100
AcDbEntity
  8
0
100
AcDbLine
 62
7
  6
CONTINUOUS
 10
44.318364045
 20
97.9522907481
 11
45.7572687886
 21
97.1215575008
  0
LINE
  5
381
100
AcDbEntity
  8
0
100
AcDbLine
 62
7
  6
CONTINUOUS
 10
70.8807704299
 20
83.4756254532
 11
69.0422851445
 21
84.5370514149
  0
LINE
  5
382
100
AcDbEntity
  8
0
100
AcDbLine
 62
7
  6
CONTINUOUS
 10
68.536705901
 20
84.8942762662
 11
68.2694188892
 21
85.0485910034
  0
LINE
  5
383
100
AcDbEntity
  8
0
100
AcDbLine
 62
7
  6
CONTINUOUS
 10
72.203054606
 20
83.6838203776
 11
71.7222116839
 21
83.9614288878
  0
LINE
  5
384
100
AcDbEntity
  8
0
100
AcDbLine
 62
7
  6
CONTINUOUS
 10
75.1373491712
 20
97.9261398945
 11
75.1373491712
 21
92.0936301838
  0
LINE
  5
385
100
AcDbEntity
  8
0
100
AcDbLine
 62
7
  6
CONTINUOUS
 10
75.9599786005
 20
107.6465457859
 11
75.9599786005
 21
105.0483393939
  0
LINE
  5
386
100
AcDbEntity
  8
0
100
AcDbLine
 62
7
  6
CONTINUOUS
 10
76.0587189476
 20
40.1145052366
 11
76.0587189476
 21
37.1134416097
  0
LINE
  5
387
100
AcDbEntity
  8
0
100
AcDbLine
 62
7
  6
CONTINUOUS
 10
76.1579034369
 20
105.1626106693
 11
76.1579034369
 21
97.336935944
  0
LINE
  5
388
100
AcDbEntity
  8
0
100
AcDbLine
 62
7
  6
CONTINUOUS
 10
76.1579034369
 20
91.0498673312
 11
76.1579034369
 21
83.2241926058
  0
LINE
  5
389
100
AcDbEntity
  8
0
100
AcDbLine
 62
7
  6
CONTINUOUS
 10
76.2573590568
 20
115.9544580868
 11
76.2573590568
 21
112.4434976931
  0
LINE
  5
38A
100
AcDbEntity
  8
0
100
AcDbLine
 62
7
  6
CONTINUOUS
 10
76.5515686215
 20
97.5642172876
 11
76.5515686215
 21
91.2771486748
  0
LINE
  5
38B
100
AcDbEntity
  8
0
100
AcDbLine
 62
7
  6
CONTINUOUS
 10
78.2240437795
 20
88.1602348086
 11
78.2240437795
 21
59.3376994836
  0
LINE
  5
38C
100
AcDbEntity
  8
0
100
AcDbLine
 62
7
  6
CONTINUOUS
 10
78.3527523539
 20
117.1941540979
 11
78.3527523539
 21
113.6831937043
  0
LINE
  5
38D
100
AcDbEntity
  8
0
100
AcDbLine
 62
7
  6
CONTINUOUS
 10
79.1432787679
 20
88.1194005166
 11
79.1432787679
 21
88.6909522086
  0
LINE
  5
38E
100
AcDbEntity
  8
0
100
AcDbLine
 62
7
  6
CONTINUOUS
 10
38.9797808141
 20
30.6646040749
 11
37.2243637649
 21
29.6511196187
  0
LINE
  5
38F
100
AcDbEntity
  8
0
100
AcDbLine
 62
7
  6
CONTINUOUS
 10
21.3728590567
 20
19.3213755395
 11
20.276848109
 21
18.688597101
  0
LINE
  5
390
100
AcDbEntity
  8
0
100
AcDbLine
 62
7
  6
CONTINUOUS
 10
56.5036134336
 20
39.3407330178
 11
63.1750745902
 21
43.1924799206
  0
LINE
  5
391
100
AcDbEntity
  8
0
100
AcDbLine
 62
7
  6
CONTINUOUS
 10
25.0517244771
 20
20.5063952473
 11
20.5243412231
 21
17.8925249097
  0
LINE
  5
392
100
AcDbEntity
  8
0
100
AcDbLine
 62
7
  6
CONTINUOUS
 10
23.9891500255
 20
17.6067144957
 11
21.2314450604
 21
16.0145622956
  0
LINE
  5
393
100
AcDbEntity
  8
0
100
AcDbLine
 62
7
  6
CONTINUOUS
 10
35.4560691695
 20
28.4266925233
 11
34.0186843539
 21
27.5973286629
  0
LINE
  5
394
100
AcDbEntity
  8
0
100
AcDbLine
 62
7
  6
CONTINUOUS
 10
46.2275147756
 20
103.1635469541
 11
43.3856783139
 21
104.7479505174
  0
LINE
  5
395
100
AcDbEntity
  8
0
100
AcDbLine
 62
7
  6
CONTINUOUS
 10
73.5465518963
 20
84.696194389
 11
74.6885128181
 21
84.0368978587
  0
LINE
  5
396
100
AcDbEntity
  8
0
100
AcDbLine
 62
7
  6
CONTINUOUS
 10
74.7436839866
 20
84.0406741148
 11
76.1579034369
 21
83.2241926058
  0
LINE
  5
397
100
AcDbEntity
  8
0
100
AcDbLine
 62
7
  6
CONTINUOUS
 10
61.7485125965
 20
92.8144279431
 11
63.1627320468
 21
91.997946434
  0
LINE
  5
398
100
AcDbEntity
  8
0
100
AcDbLine
 62
7
  6
CONTINUOUS
 10
81.0524591283
 20
112.1245525325
 11
81.0524591283
 21
89.7932114244
  0
LINE
  5
399
100
AcDbEntity
  8
0
100
AcDbLine
 62
7
  6
CONTINUOUS
 10
81.0524591283
 20
60.913667689
 11
81.0524591283
 21
38.6393349909
  0
LINE
  5
39A
100
AcDbEntity
  8
0
100
AcDbLine
 62
7
  6
CONTINUOUS
 10
61.7608551399
 20
38.1158919236
 11
56.5036134336
 21
35.0806401273
  0
LINE
  5
39B
100
AcDbEntity
  8
0
100
AcDbLine
 62
7
  6
CONTINUOUS
 10
63.1750745902
 20
37.2994104145
 11
56.5036134336
 21
33.4476635118
  0
LINE
  5
39C
100
AcDbEntity
  8
0
100
AcDbLine
 62
7
  6
CONTINUOUS
 10
46.5226955584
 20
106.599972666
 11
44.3828539779
 21
107.8140068513
  0
LINE
  5
39D
100
AcDbEntity
  8
0
100
AcDbLine
 62
7
  6
CONTINUOUS
 10
79.4968306863
 20
87.2620694517
 11
78.2240437795
 21
87.9968966909
  0
LINE
  5
39E
100
AcDbEntity
  8
0
100
AcDbLine
 62
7
  6
CONTINUOUS
 10
79.1432787678
 20
88.1194005166
 11
78.6482934068
 21
88.405173983
  0
LINE
  5
39F
100
AcDbEntity
  8
0
100
AcDbLine
 62
7
  6
CONTINUOUS
 10
74.7436839866
 20
91.8663488402
 11
76.1579034369
 21
91.0498673312
  0
LINE
  5
3A0
100
AcDbEntity
  8
0
100
AcDbLine
 62
7
  6
CONTINUOUS
 10
75.1373491712
 20
92.0936301838
 11
76.5515686215
 21
91.2771486748
  0
LINE
  5
3A1
100
AcDbEntity
  8
0
100
AcDbLine
 62
7
  6
CONTINUOUS
 10
43.1249963907
 20
21.1003251523
 11
44.9461501102
 21
22.1517624662
  0
LINE
  5
3A2
100
AcDbEntity
  8
0
100
AcDbLine
 62
7
  6
CONTINUOUS
 10
74.2375652281
 20
39.0630679226
 11
76.0587189476
 21
40.1145052366
  0
LINE
  5
3A3
100
AcDbEntity
  8
0
100
AcDbLine
 62
7
  6
CONTINUOUS
 10
74.6444994973
 20
37.9299231187
 11
74.2375652281
 21
37.6949809113
  0
LINE
  5
3A4
100
AcDbEntity
  8
0
100
AcDbLine
 62
7
  6
CONTINUOUS
 10
43.5319306599
 20
19.9671803484
 11
43.1249963907
 21
19.7322381409
  0
LINE
  5
3A5
100
AcDbEntity
  8
0
100
AcDbLine
 62
7
  6
CONTINUOUS
 10
66.1588831744
 20
100.8009076791
 11
67.5731026247
 21
99.98442617
  0
LINE
  5
3A6
100
AcDbEntity
  8
0
100
AcDbLine
 62
7
  6
CONTINUOUS
 10
70.88077043
 20
98.8177058707
 11
69.0422851446
 21
99.8791318325
  0
LINE
  5
3A7
100
AcDbEntity
  8
0
100
AcDbLine
 62
7
  6
CONTINUOUS
 10
72.2030546056
 20
99.5811224389
 11
70.3645693202
 21
100.6425484006
  0
LINE
  5
3A8
100
AcDbEntity
  8
0
100
AcDbLine
 62
7
  6
CONTINUOUS
 10
51.1833924185
 20
111.740276114
 11
53.2862091888
 21
110.5048657721
  0
LINE
  5
3A9
100
AcDbEntity
  8
0
100
AcDbLine
 62
7
  6
CONTINUOUS
 10
55.0909620394
 20
108.2808300718
 11
53.7361900466
 21
109.0907807474
  0
LINE
  5
3AA
100
AcDbEntity
  8
0
100
AcDbLine
 62
7
  6
CONTINUOUS
 10
72.7793289248
 20
102.9389373576
 11
72.6964796584
 21
103.1220443015
  0
LINE
  5
3AB
100
AcDbEntity
  8
0
100
AcDbLine
 62
7
  6
CONTINUOUS
 10
79.1432787679
 20
88.1194005166
 11
79.4968306863
 21
87.2620694517
  0
LINE
  5
3AC
100
AcDbEntity
  8
0
100
AcDbLine
 62
7
  6
CONTINUOUS
 10
76.0587189476
 20
37.1134416097
 11
74.2375652281
 21
36.0620042957
  0
LINE
  5
3AD
100
AcDbEntity
  8
0
100
AcDbLine
 62
7
  6
CONTINUOUS
 10
44.9461501102
 20
19.1506988394
 11
43.1249963907
 21
18.0992615254
  0
LINE
  5
3AE
100
AcDbEntity
  8
0
100
AcDbLine
 62
7
  6
CONTINUOUS
 10
81.0524591283
 20
38.6393349909
 11
37.2120212211
 21
13.3281974508
  0
LINE
  5
3AF
100
AcDbEntity
  8
0
100
AcDbLine
 62
7
  6
CONTINUOUS
 10
31.9720484275
 20
10.4085306065
 11
37.2120212211
 21
13.3281974509
  0
LINE
  5
3B0
100
AcDbEntity
  8
0
100
AcDbLine
 62
7
  6
CONTINUOUS
 10
74.7436839866
 20
98.153417453
 11
76.1579034369
 21
97.336935944
  0
LINE
  5
3B1
100
AcDbEntity
  8
0
100
AcDbLine
 62
7
  6
CONTINUOUS
 10
72.2030546056
 20
100.1363440824
 11
70.3645693202
 21
101.1977700442
  0
LINE
  5
3B2
100
AcDbEntity
  8
0
100
AcDbLine
 62
7
  6
CONTINUOUS
 10
73.5465518959
 20
100.9120079746
 11
71.7080666105
 21
101.9734339364
  0
LINE
  5
3B3
100
AcDbEntity
  8
0
100
AcDbLine
 62
7
  6
CONTINUOUS
 10
72.6964839969
 20
103.1220518162
 11
72.6600070598
 21
103.1431113092
  0
LINE
  5
3B4
100
AcDbEntity
  8
0
100
AcDbLine
 62
7
  6
CONTINUOUS
 10
53.7361900466
 20
110.7237855817
 11
56.4805204151
 21
109.0830871852
  0
LINE
  5
3B5
100
AcDbEntity
  8
0
100
AcDbLine
 62
7
  6
CONTINUOUS
 10
76.2573590568
 20
115.9544580868
 11
75.0525102427
 21
120.0932542084
  0
LINE
  5
3B6
100
AcDbEntity
  8
0
100
AcDbLine
 62
7
  6
CONTINUOUS
 10
77.1479035398
 20
121.3329502198
 11
78.3527523539
 21
117.1941540979
  0
LINE
  5
3B7
100
AcDbEntity
  8
0
100
AcDbLine
 62
7
  6
CONTINUOUS
 10
66.9456988186
 20
109.3546302607
 11
65.506794075
 21
110.1853635081
  0
LINE
  5
3B8
100
AcDbEntity
  8
0
100
AcDbLine
 62
7
  6
CONTINUOUS
 10
63.5745835056
 20
111.5050209409
 11
62.7581931862
 21
111.9763534486
  0
LINE
  5
3B9
100
AcDbEntity
  8
0
100
AcDbLine
 62
7
  6
CONTINUOUS
 10
74.5457591503
 20
105.8648209029
 11
75.9599786005
 21
105.0483393939
  0
LINE
  5
3BA
100
AcDbEntity
  8
0
100
AcDbLine
 62
7
  6
CONTINUOUS
 10
69.7741021847
 20
111.0160754532
 11
69.7987630395
 21
111.0018378242
  0
LINE
  5
3BB
100
AcDbEntity
  8
0
100
AcDbLine
 62
7
  6
CONTINUOUS
 10
66.6719493772
 20
114.2359481511
 11
67.4883396966
 21
113.7646156434
  0
LINE
  5
3BC
100
AcDbEntity
  8
0
100
AcDbLine
 62
7
  6
CONTINUOUS
 10
69.7741021847
 20
112.6490802875
 11
71.2130069283
 21
111.8183470401
  0
LINE
  5
3BD
100
AcDbEntity
  8
0
100
AcDbLine
 62
7
  6
CONTINUOUS
 10
76.2573590568
 20
112.4434976931
 11
69.159805014
 21
116.5411797283
  0
LINE
  5
3BE
100
AcDbEntity
  8
0
100
AcDbLine
 62
7
  6
CONTINUOUS
 10
81.0524591283
 20
112.1245525325
 11
78.3527523539
 21
113.6831937043
  0
LINE
  5
3BF
100
AcDbEntity
  8
0
100
AcDbLine
 62
7
  6
CONTINUOUS
 10
69.159805014
 20
118.9906242555
 11
68.6073279658
 21
119.3095898121
  0
LINE
  5
3C0
100
AcDbEntity
  8
0
100
AcDbLine
 62
7
  6
CONTINUOUS
 10
72.3562722478
 20
122.2892127391
 11
70.6843771324
 21
122.9140784159
  0
LINE
  5
3C1
100
AcDbEntity
  8
0
100
AcDbLine
 62
7
  6
CONTINUOUS
 10
72.8316068585
 20
124.1238473279
 11
74.503501974
 21
123.4989816511
  0
LINE
  5
3C2
100
AcDbEntity
  8
0
100
AcDbLine
 62
7
  6
CONTINUOUS
 10
73.060891823
 20
121.8824096409
 11
72.3562722478
 21
122.2892127391
  0
LINE
  5
3C3
100
AcDbEntity
  8
0
100
AcDbLine
 62
7
  6
CONTINUOUS
 10
74.503501974
 20
123.4989816511
 11
75.1562851201
 21
123.1221056521
  0
LINE
  5
3C4
100
AcDbEntity
  8
0
100
AcDbLine
 62
7
  6
CONTINUOUS
 10
74.7327869384
 20
120.5767808013
 11
73.060891823
 21
121.8824096409
  0
LINE
  5
3C5
100
AcDbEntity
  8
0
100
AcDbLine
 62
7
  6
CONTINUOUS
 10
75.1562851201
 20
123.1221056521
 11
76.8281802356
 21
121.8164768125
  0
ARC
  5
3C6
100
AcDbEntity
  8
0
100
AcDbCircle
 62
7
  6
CONTINUOUS
 10
77.0459068818
 20
121.0788747778
 40
3.8578804422
100
AcDbArc
 50
202.8852083623
 51
217.0901299212
  0
SPLINE
  5
3C7
100
AcDbEntity
  8
0
100
AcDbSpline
 62
7
  6
CONTINUOUS
 70
0
 71
3
 72
11
 73
7
 74
0
 42
0.0000001
 43
0.0000001
 44
0.0000000001
 40
0.0
 40
0.0
 40
0.0
 40
0.0
 40
0.2367285468
 40
0.4989100111
 40
0.7616834297
 40
1.0
 40
1.0
 40
1.0
 40
1.0
 10
19.1100593608
 20
90.1370574051
 30
0.0
 10
19.1100593608
 20
90.2057885612
 30
0.0
 10
19.1355593824
 20
90.3507387356
 30
0.0
 10
19.2246845701
 20
90.5548846926
 30
0.0
 10
19.3554246483
 20
90.7358057007
 30
0.0
 10
19.467520079
 20
90.832065865
 30
0.0
 10
19.526917265
 20
90.8675558276
 30
0.0
  0
SPLINE
  5
3C8
100
AcDbEntity
  8
0
100
AcDbSpline
 62
7
  6
CONTINUOUS
 70
0
 71
3
 72
11
 73
7
 74
0
 42
0.0000001
 43
0.0000001
 44
0.0000000001
 40
0.0
 40
0.0
 40
0.0
 40
0.0
 40
0.2177231375
 40
0.4508717887
 40
0.7104673698
 40
1.0
 40
1.0
 40
1.0
 40
1.0
 10
77.5990816137
 20
39.1898775121
 30
0.0
 10
77.5578592941
 20
39.2136745771
 30
0.0
 10
77.4806656204
 20
39.27845313
 30
0.0
 10
77.3985198436
 20
39.4127957893
 30
0.0
 10
77.3498302178
 20
39.5783181818
 30
0.0
 10
77.340163983
 20
39.6987659245
 30
0.0
 10
77.340163983
 20
39.7620628516
 30
0.0
  0
SPLINE
  5
3C9
100
AcDbEntity
  8
0
100
AcDbSpline
 62
7
  6
CONTINUOUS
 70
0
 71
3
 72
11
 73
7
 74
0
 42
0.0000001
 43
0.0000001
 44
0.0000000001
 40
0.0
 40
0.0
 40
0.0
 40
0.0
 40
0.2177231375
 40
0.4508717887
 40
0.7104673698
 40
1.0
 40
1.0
 40
1.0
 40
1.0
 10
77.5990816137
 20
106.1430757167
 30
0.0
 10
77.5578592941
 20
106.1668727817
 30
0.0
 10
77.4806656204
 20
106.2316513347
 30
0.0
 10
77.3985198436
 20
106.3659939939
 30
0.0
 10
77.3498302178
 20
106.5315163865
 30
0.0
 10
77.340163983
 20
106.6519641291
 30
0.0
 10
77.340163983
 20
106.7152610562
 30
0.0
  0
SPLINE
  5
3CA
100
AcDbEntity
  8
0
100
AcDbSpline
 62
7
  6
CONTINUOUS
 70
0
 71
3
 72
11
 73
7
 74
0
 42
0.0000001
 43
0.0000001
 44
0.0000000001
 40
0.0
 40
0.0
 40
0.0
 40
0.0
 40
0.2177231375
 40
0.4508717887
 40
0.7104673698
 40
1.0
 40
1.0
 40
1.0
 40
1.0
 10
50.7116817913
 20
90.5995659616
 30
0.0
 10
50.6693082105
 20
90.6240276334
 30
0.0
 10
50.5899586638
 20
90.6906153286
 30
0.0
 10
50.5055187113
 20
90.8287099236
 30
0.0
 10
50.4554692765
 20
90.9988550427
 30
0.0
 10
50.4455330821
 20
91.1226666624
 30
0.0
 10
50.4455330821
 20
91.1877313526
 30
0.0
  0
SPLINE
  5
3CB
100
AcDbEntity
  8
0
100
AcDbSpline
 62
7
  6
CONTINUOUS
 70
0
 71
3
 72
11
 73
7
 74
0
 42
0.0000001
 43
0.0000001
 44
0.0000000001
 40
0.0
 40
0.0
 40
0.0
 40
0.0
 40
0.2177231375
 40
0.4508717887
 40
0.7104673698
 40
1.0
 40
1.0
 40
1.0
 40
1.0
 10
50.7116817913
 20
23.6463677569
 30
0.0
 10
50.6693082105
 20
23.6708294288
 30
0.0
 10
50.589958664
 20
23.7374171238
 30
0.0
 10
50.5055187115
 20
23.8755117185
 30
0.0
 10
50.4554692767
 20
24.0456568373
 30
0.0
 10
50.4455330822
 20
24.1694684568
 30
0.0
 10
50.4455330822
 20
24.2345331469
 30
0.0
  0
SPLINE
  5
3CC
100
AcDbEntity
  8
0
100
AcDbSpline
 62
7
  6
CONTINUOUS
 70
0
 71
3
 72
11
 73
7
 74
0
 42
0.0000001
 43
0.0000001
 44
0.0000000001
 40
0.0
 40
0.0
 40
0.0
 40
0.0
 40
0.2177843137
 40
0.4509117637
 40
0.7102976701
 40
1.0
 40
1.0
 40
1.0
 40
1.0
 10
71.5835926855
 20
120.5234011396
 30
0.0
 10
71.6578108792
 20
120.5662507452
 30
0.0
 10
71.828338718
 20
120.6281366945
 30
0.0
 10
72.1115825522
 20
120.6353083738
 30
0.0
 10
72.4134540982
 20
120.5624117769
 30
0.0
 10
72.6098546813
 20
120.4689802099
 30
0.0
 10
72.7085820354
 20
120.4119812349
 30
0.0
  0
SPLINE
  5
3CD
100
AcDbEntity
  8
0
100
AcDbSpline
 62
7
  6
CONTINUOUS
 70
0
 71
3
 72
17
 73
13
 74
0
 42
0.0000001
 43
0.0000001
 44
0.0000000001
 40
0.0
 40
0.0
 40
0.0
 40
0.0
 40
0.1286880245
 40
0.270278509
 40
0.4174305517
 40
0.5617723386
 40
0.6954448884
 40
0.8127093339
 40
0.8646747764
 40
0.9125085238
 40
0.9571389706
 40
1.0
 40
1.0
 40
1.0
 40
1.0
 10
72.7085820354
 20
120.4119812349
 30
0.0
 10
72.8751358119
 20
120.3158235426
 30
0.0
 10
73.19843864
 20
120.0670395895
 30
0.0
 10
73.6122336472
 20
119.5962657976
 30
0.0
 10
73.9528443121
 20
119.0423007538
 30
0.0
 10
74.192102999
 20
118.450146464
 30
0.0
 10
74.3108655863
 20
117.8679479571
 30
0.0
 10
74.3002133486
 20
117.4091904581
 30
0.0
 10
74.2152887011
 20
117.0945481976
 30
0.0
 10
74.120729574
 20
116.8988451068
 30
0.0
 10
73.9941895106
 20
116.7388355572
 30
0.0
 10
73.8890386872
 20
116.6583364449
 30
0.0
 10
73.8335535473
 20
116.6263316533
 30
0.0
  0
SPLINE
  5
3CE
100
AcDbEntity
  8
0
100
AcDbSpline
 62
7
  6
CONTINUOUS
 70
0
 71
3
 72
11
 73
7
 74
0
 42
0.0000001
 43
0.0000001
 44
0.0000000001
 40
0.0
 40
0.0
 40
0.0
 40
0.0
 40
0.2177175204
 40
0.4509435687
 40
0.7102966624
 40
1.0
 40
1.0
 40
1.0
 40
1.0
 10
18.0395045256
 20
87.1974516759
 30
0.0
 10
17.9570787507
 20
87.1498569344
 30
0.0
 10
17.8028552167
 20
87.0201053502
 30
0.0
 10
17.6385194183
 20
86.7516347005
 30
0.0
 10
17.5410633187
 20
86.4206360371
 30
0.0
 10
17.5218287404
 20
86.1797986772
 30
0.0
 10
17.5218290922
 20
86.0531482475
 30
0.0
  0
SPLINE
  5
3CF
100
AcDbEntity
  8
0
100
AcDbSpline
 62
7
  6
CONTINUOUS
 70
0
 71
3
 72
10
 73
6
 74
0
 42
0.0000001
 43
0.0000001
 44
0.0000000001
 40
0.0
 40
0.0
 40
0.0
 40
0.0
 40
0.2284689862
 40
0.4750657979
 40
1.0
 40
1.0
 40
1.0
 40
1.0
 10
17.5218290922
 20
60.8304777967
 30
0.0
 10
17.5218925947
 20
60.6907093566
 30
0.0
 10
17.5474954153
 20
60.3997630819
 30
0.0
 10
17.6861621033
 20
59.8026952114
 30
0.0
 10
17.8790255408
 20
59.3655123775
 30
0.0
 10
18.0395045255
 20
59.0873509605
 30
0.0
  0
SPLINE
  5
3D0
100
AcDbEntity
  8
0
100
AcDbSpline
 62
7
  6
CONTINUOUS
 70
0
 71
3
 72
10
 73
6
 74
0
 42
0.0000001
 43
0.0000001
 44
0.0000000001
 40
0.0
 40
0.0
 40
0.0
 40
0.0
 40
0.524929522
 40
0.7715433573
 40
1.0
 40
1.0
 40
1.0
 40
1.0
 10
18.0395045255
 20
59.0873509605
 30
0.0
 10
18.1999854884
 20
58.8094007403
 30
0.0
 10
18.4819455744
 20
58.4239341334
 30
0.0
 10
18.9293618785
 20
58.0054749827
 30
0.0
 10
19.1683642844
 20
57.8378558854
 30
0.0
 10
19.2893341642
 20
57.7680159208
 30
0.0
  0
SPLINE
  5
3D1
100
AcDbEntity
  8
0
100
AcDbSpline
 62
7
  6
CONTINUOUS
 70
0
 71
3
 72
11
 73
7
 74
0
 42
0.0000001
 43
0.0000001
 44
0.0000000001
 40
0.0
 40
0.0
 40
0.0
 40
0.0
 40
0.2896557146
 40
0.5490015708
 40
0.7822538878
 40
1.0
 40
1.0
 40
1.0
 40
1.0
 10
26.7086251627
 20
53.4845831698
 30
0.0
 10
26.8183059347
 20
53.4213268401
 30
0.0
 10
27.0364863777
 20
53.3176782793
 30
0.0
 10
27.3718256293
 20
53.2366621466
 30
0.0
 10
27.686467676
 20
53.2447013081
 30
0.0
 10
27.8759803573
 20
53.3132592409
 30
0.0
 10
27.9584548014
 20
53.3607719011
 30
0.0
  0
SPLINE
  5
3D2
100
AcDbEntity
  8
0
100
AcDbSpline
 62
7
  6
CONTINUOUS
 70
0
 71
3
 72
17
 73
13
 74
0
 42
0.0000001
 43
0.0000001
 44
0.0000000001
 40
0.0
 40
0.0
 40
0.0
 40
0.0
 40
0.1286849204
 40
0.270303802
 40
0.4174438805
 40
0.5617821442
 40
0.6954492858
 40
0.8127130377
 40
0.8646795618
 40
0.9125091497
 40
0.9571393989
 40
1.0
 40
1.0
 40
1.0
 40
1.0
 10
50.4455330822
 20
24.2345331469
 30
0.0
 10
50.4455330822
 20
24.3443561837
 30
0.0
 10
50.4762802702
 20
24.5752995944
 30
0.0
 10
50.5909277868
 20
24.9143841263
 30
0.0
 10
50.7676771706
 20
25.2410017291
 30
0.0
 10
50.992189741
 20
25.5283957573
 30
0.0
 10
51.2462078347
 20
25.7533681498
 30
0.0
 10
51.4761322221
 20
25.8790424489
 30
0.0
 10
51.6559719594
 20
25.9269606614
 30
0.0
 10
51.7797539132
 20
25.9360046589
 30
0.0
 10
51.89503146
 20
25.9191908593
 30
0.0
 10
51.9648354809
 20
25.8901002798
 30
0.0
 10
51.9965141392
 20
25.8718126362
 30
0.0
  0
SPLINE
  5
3D3
100
AcDbEntity
  8
0
100
AcDbSpline
 62
7
  6
CONTINUOUS
 70
0
 71
3
 72
17
 73
13
 74
0
 42
0.0000001
 43
0.0000001
 44
0.0000000001
 40
0.0
 40
0.0
 40
0.0
 40
0.0
 40
0.1286865535
 40
0.2703065218
 40
0.4174612681
 40
0.5617989266
 40
0.6954528234
 40
0.8127091351
 40
0.8646746914
 40
0.9125055669
 40
0.957137259
 40
1.0
 40
1.0
 40
1.0
 40
1.0
 10
50.4455330821
 20
91.1877313526
 30
0.0
 10
50.4455330821
 20
91.2975557575
 30
0.0
 10
50.4762817637
 20
91.52850115
 30
0.0
 10
50.5909319535
 20
91.8676007184
 30
0.0
 10
50.7676975181
 20
92.194224586
 30
0.0
 10
50.9922122274
 20
92.4816175306
 30
0.0
 10
51.246219509
 20
92.7065736125
 30
0.0
 10
51.4761268297
 20
92.832240997
 30
0.0
 10
51.6559611241
 20
92.8801542439
 30
0.0
 10
51.7797441011
 20
92.889204237
 30
0.0
 10
51.8950260071
 20
92.872388582
 30
0.0
 10
51.9648325717
 20
92.8432969798
 30
0.0
 10
51.9965133842
 20
92.8250094323
 30
0.0
  0
SPLINE
  5
3D4
100
AcDbEntity
  8
0
100
AcDbSpline
 62
7
  6
CONTINUOUS
 70
0
 71
3
 72
17
 73
13
 74
0
 42
0.0000001
 43
0.0000001
 44
0.0000000001
 40
0.0
 40
0.0
 40
0.0
 40
0.0
 40
0.1286865535
 40
0.2703065218
 40
0.4174612681
 40
0.5617989266
 40
0.6954528234
 40
0.8127091351
 40
0.8646746914
 40
0.9125055669
 40
0.957137259
 40
1.0
 40
1.0
 40
1.0
 40
1.0
 10
77.340163983
 20
106.7152610562
 30
0.0
 10
77.340163983
 20
106.822101607
 30
0.0
 10
77.3700772439
 20
107.0467723711
 30
0.0
 10
77.4816124665
 20
107.3766588361
 30
0.0
 10
77.6535754316
 20
107.6944085564
 30
0.0
 10
77.8719902296
 20
107.9739932312
 30
0.0
 10
78.119096307
 20
108.1928374101
 30
0.0
 10
78.342757203
 20
108.3150904977
 30
0.0
 10
78.5177055226
 20
108.3617019745
 30
0.0
 10
78.6381254007
 20
108.3705060854
 30
0.0
 10
78.7502751761
 20
108.3541473002
 30
0.0
 10
78.8181851441
 20
108.325846097
 30
0.0
 10
78.8490052106
 20
108.3080554096
 30
0.0
  0
SPLINE
  5
3D5
100
AcDbEntity
  8
0
100
AcDbSpline
 62
7
  6
CONTINUOUS
 70
0
 71
3
 72
17
 73
13
 74
0
 42
0.0000001
 43
0.0000001
 44
0.0000000001
 40
0.0
 40
0.0
 40
0.0
 40
0.0
 40
0.1286865535
 40
0.2703065218
 40
0.4174612681
 40
0.5617989266
 40
0.6954528234
 40
0.8127091351
 40
0.8646746914
 40
0.9125055669
 40
0.957137259
 40
1.0
 40
1.0
 40
1.0
 40
1.0
 10
77.340163983
 20
39.7620628516
 30
0.0
 10
77.340163983
 20
39.8689034024
 30
0.0
 10
77.3700772439
 20
40.0935741664
 30
0.0
 10
77.4816124665
 20
40.4234606314
 30
0.0
 10
77.6535754316
 20
40.7412103518
 30
0.0
 10
77.8719902296
 20
41.0207950266
 30
0.0
 10
78.119096307
 20
41.2396392055
 30
0.0
 10
78.342757203
 20
41.361892293
 30
0.0
 10
78.5177055226
 20
41.4085037698
 30
0.0
 10
78.6381254007
 20
41.4173078808
 30
0.0
 10
78.7502751761
 20
41.4009490956
 30
0.0
 10
78.8181851441
 20
41.3726478924
 30
0.0
 10
78.8490052106
 20
41.354857205
 30
0.0
  0
SPLINE
  5
3D6
100
AcDbEntity
  8
0
100
AcDbSpline
 62
7
  6
CONTINUOUS
 70
0
 71
3
 72
9
 73
5
 74
0
 42
0.0000001
 43
0.0000001
 44
0.0000000001
 40
0.0
 40
0.0
 40
0.0
 40
0.0
 40
0.2426093735
 40
1.0
 40
1.0
 40
1.0
 40
1.0
 10
72.6964796584
 20
103.1220443015
 30
0.0
 10
72.6907522963
 20
103.1253509194
 30
0.0
 10
72.6661319436
 20
103.1372298883
 30
0.0
 10
72.6381252794
 20
103.1413378035
 30
0.0
 10
72.6174891305
 20
103.1407032746
 30
0.0
  0
SPLINE
  5
3D7
100
AcDbEntity
  8
0
100
AcDbSpline
 62
7
  6
CONTINUOUS
 70
0
 71
3
 72
11
 73
7
 74
0
 42
0.0000001
 43
0.0000001
 44
0.0000000001
 40
0.0
 40
0.0
 40
0.0
 40
0.0
 40
0.2177231993
 40
0.4508753011
 40
0.7104743705
 40
1.0
 40
1.0
 40
1.0
 40
1.0
 10
78.8490052106
 20
41.354857205
 30
0.0
 10
78.8902282427
 20
41.3310614719
 30
0.0
 10
78.9674216552
 20
41.2662811267
 30
0.0
 10
79.0495690679
 20
41.131938123
 30
0.0
 10
79.0982562461
 20
40.9664150789
 30
0.0
 10
79.107923576
 20
40.8459685501
 30
0.0
 10
79.107923576
 20
40.7826732362
 30
0.0
  0
SPLINE
  5
3D8
100
AcDbEntity
  8
0
100
AcDbSpline
 62
7
  6
CONTINUOUS
 70
0
 71
3
 72
11
 73
7
 74
0
 42
0.0000001
 43
0.0000001
 44
0.0000000001
 40
0.0
 40
0.0
 40
0.0
 40
0.0
 40
0.2177231993
 40
0.4508753011
 40
0.7104743705
 40
1.0
 40
1.0
 40
1.0
 40
1.0
 10
78.8490052106
 20
108.3080554096
 30
0.0
 10
78.8902282427
 20
108.2842596765
 30
0.0
 10
78.9674216552
 20
108.2194793314
 30
0.0
 10
79.0495690679
 20
108.0851363277
 30
0.0
 10
79.0982562461
 20
107.9196132835
 30
0.0
 10
79.107923576
 20
107.7991667547
 30
0.0
 10
79.107923576
 20
107.7358714409
 30
0.0
  0
SPLINE
  5
3D9
100
AcDbEntity
  8
0
100
AcDbSpline
 62
7
  6
CONTINUOUS
 70
0
 71
3
 72
11
 73
7
 74
0
 42
0.0000001
 43
0.0000001
 44
0.0000000001
 40
0.0
 40
0.0
 40
0.0
 40
0.0
 40
0.2177669599
 40
0.450898211
 40
0.7103709681
 40
1.0
 40
1.0
 40
1.0
 40
1.0
 10
73.8335535473
 20
116.6263316533
 30
0.0
 10
73.7593245167
 20
116.5835150604
 30
0.0
 10
73.5888583564
 20
116.5215070461
 30
0.0
 10
73.3055578311
 20
116.5143911102
 30
0.0
 10
73.0037058036
 20
116.5873386632
 30
0.0
 10
72.8072840813
 20
116.6807359942
 30
0.0
 10
72.7085820354
 20
116.7377203578
 30
0.0
  0
SPLINE
  5
3DA
100
AcDbEntity
  8
0
100
AcDbSpline
 62
7
  6
CONTINUOUS
 70
0
 71
3
 72
11
 73
7
 74
0
 42
0.0000001
 43
0.0000001
 44
0.0000000001
 40
0.0
 40
0.0
 40
0.0
 40
0.0
 40
0.2177231993
 40
0.4508753011
 40
0.7104743705
 40
1.0
 40
1.0
 40
1.0
 40
1.0
 10
51.9965133842
 20
92.8250094323
 30
0.0
 10
52.0388876975
 20
92.8005491294
 30
0.0
 10
52.1182369756
 20
92.7339595921
 30
0.0
 10
52.2026786098
 20
92.595864643
 30
0.0
 10
52.2527255285
 20
92.4257188541
 30
0.0
 10
52.2626628487
 20
92.3019084821
 30
0.0
 10
52.2626628487
 20
92.2368454502
 30
0.0
  0
SPLINE
  5
3DB
100
AcDbEntity
  8
0
100
AcDbSpline
 62
7
  6
CONTINUOUS
 70
0
 71
3
 72
10
 73
6
 74
0
 42
0.0000001
 43
0.0000001
 44
0.0000000001
 40
0.0
 40
0.0
 40
0.0
 40
0.0
 40
0.2284566427
 40
0.4750704779
 40
1.0
 40
1.0
 40
1.0
 40
1.0
 10
29.0422704414
 20
84.1375303435
 30
0.0
 10
29.1632403212
 20
84.0676903789
 30
0.0
 10
29.4022427271
 20
83.9000712817
 30
0.0
 10
29.8496590311
 20
83.481612131
 30
0.0
 10
30.1316191171
 20
83.0961455241
 30
0.0
 10
30.29210008
 20
82.818195304
 30
0.0
  0
SPLINE
  5
3DC
100
AcDbEntity
  8
0
100
AcDbSpline
 62
7
  6
CONTINUOUS
 70
0
 71
3
 72
11
 73
7
 74
0
 42
0.0000001
 43
0.0000001
 44
0.0000000001
 40
0.0
 40
0.0
 40
0.0
 40
0.0
 40
0.2177461122
 40
0.4509984292
 40
0.7103442854
 40
1.0
 40
1.0
 40
1.0
 40
1.0
 10
20.3731498042
 20
88.5447743633
 30
0.0
 10
20.4556242483
 20
88.5922870235
 30
0.0
 10
20.6451369295
 20
88.6608449562
 30
0.0
 10
20.9597789762
 20
88.6688841177
 30
0.0
 10
21.2951182277
 20
88.5878679851
 30
0.0
 10
21.5132986707
 20
88.4842194243
 30
0.0
 10
21.6229794426
 20
88.4209630947
 30
0.0
  0
SPLINE
  5
3DD
100
AcDbEntity
  8
0
100
AcDbSpline
 62
7
  6
CONTINUOUS
 70
0
 71
3
 72
11
 73
7
 74
0
 42
0.0000001
 43
0.0000001
 44
0.0000000001
 40
0.0
 40
0.0
 40
0.0
 40
0.0
 40
0.2177231375
 40
0.4508717886
 40
0.7104673698
 40
1.0
 40
1.0
 40
1.0
 40
1.0
 10
51.9965141392
 20
25.8718126362
 30
0.0
 10
52.03888772
 20
25.8473509643
 30
0.0
 10
52.1182372668
 20
25.7807632691
 30
0.0
 10
52.2026772193
 20
25.6426686738
 30
0.0
 10
52.2527266541
 20
25.4725235544
 30
0.0
 10
52.2626628485
 20
25.3487119345
 30
0.0
 10
52.2626628485
 20
25.2836472442
 30
0.0
  0
SPLINE
  5
3DE
100
AcDbEntity
  8
0
100
AcDbSpline
 62
7
  6
CONTINUOUS
 70
0
 71
3
 72
11
 73
7
 74
0
 42
0.0000001
 43
0.0000001
 44
0.0000000001
 40
0.0
 40
0.0
 40
0.0
 40
0.0
 40
0.2897033281
 40
0.5490895198
 40
0.7822165953
 40
1.0
 40
1.0
 40
1.0
 40
1.0
 10
71.1175851538
 20
119.493392494
 30
0.0
 10
71.1175851538
 20
119.6073958189
 30
0.0
 10
71.1348697352
 20
119.8242059809
 30
0.0
 10
71.2226752496
 20
120.1220917819
 30
0.0
 10
71.3705105745
 20
120.3638092635
 30
0.0
 10
71.5093728172
 20
120.4805505673
 30
0.0
 10
71.5835926855
 20
120.5234011396
 30
0.0
  0
SPLINE
  5
3DF
100
AcDbEntity
  8
0
100
AcDbSpline
 62
7
  6
CONTINUOUS
 70
0
 71
3
 72
13
 73
9
 74
0
 42
0.0000001
 43
0.0000001
 44
0.0000000001
 40
0.0
 40
0.0
 40
0.0
 40
0.0
 40
0.1142250362
 40
0.2375584228
 40
0.4999988469
 40
0.762439898
 40
0.8857740437
 40
1.0
 40
1.0
 40
1.0
 40
1.0
 10
72.7085820354
 20
116.7377203578
 30
0.0
 10
72.5996959704
 20
116.8005843346
 30
0.0
 10
72.3845492777
 20
116.9514322933
 30
0.0
 10
71.9817300104
 20
117.3283751676
 30
0.0
 10
71.5562846004
 20
117.9095534616
 30
0.0
 10
71.2656887643
 20
118.5685884845
 30
0.0
 10
71.1406523206
 20
119.105913295
 30
0.0
 10
71.1175851538
 20
119.3676613944
 30
0.0
 10
71.1175851538
 20
119.493392494
 30
0.0
  0
SPLINE
  5
3E0
100
AcDbEntity
  8
0
100
AcDbSpline
 62
7
  6
CONTINUOUS
 70
0
 71
3
 72
11
 73
7
 74
0
 42
0.0000001
 43
0.0000001
 44
0.0000000001
 40
0.0
 40
0.0
 40
0.0
 40
0.0
 40
0.2897033376
 40
0.5490564313
 40
0.7822824796
 40
1.0
 40
1.0
 40
1.0
 40
1.0
 10
30.8097755133
 20
55.8523980167
 30
0.0
 10
30.8097758651
 20
55.725747587
 30
0.0
 10
30.7905412868
 20
55.4849102272
 30
0.0
 10
30.6930851873
 20
55.1539115638
 30
0.0
 10
30.5287493889
 20
54.8854409142
 30
0.0
 10
30.3745258548
 20
54.75568933
 30
0.0
 10
30.29210008
 20
54.7080945885
 30
0.0
  0
SPLINE
  5
3E1
100
AcDbEntity
  8
0
100
AcDbSpline
 62
7
  6
CONTINUOUS
 70
0
 71
3
 72
10
 73
6
 74
0
 42
0.0000001
 43
0.0000001
 44
0.0000000001
 40
0.0
 40
0.0
 40
0.0
 40
0.0
 40
0.5249342021
 40
0.7715310138
 40
1.0
 40
1.0
 40
1.0
 40
1.0
 10
30.29210008
 20
82.818195304
 30
0.0
 10
30.4525790646
 20
82.540033887
 30
0.0
 10
30.6454425021
 20
82.1028510531
 30
0.0
 10
30.7841091902
 20
81.5057831828
 30
0.0
 10
30.8097120108
 20
81.2148369081
 30
0.0
 10
30.8097755133
 20
81.075068468
 30
0.0
  0
SPLINE
  5
3E2
100
AcDbEntity
  8
0
100
AcDbSpline
 62
7
  6
CONTINUOUS
 70
0
 71
3
 72
11
 73
7
 74
0
 42
0.0000001
 43
0.0000001
 44
0.0000000001
 40
0.0
 40
0.0
 40
0.0
 40
0.0
 40
0.2896557146
 40
0.5490015708
 40
0.7822538878
 40
1.0
 40
1.0
 40
1.0
 40
1.0
 10
19.289334164
 20
87.0736404073
 30
0.0
 10
19.1796533921
 20
87.1368967369
 30
0.0
 10
18.9614729491
 20
87.2405452977
 30
0.0
 10
18.6261336976
 20
87.3215614304
 30
0.0
 10
18.3114916509
 20
87.3135222689
 30
0.0
 10
18.1219789697
 20
87.2449643361
 30
0.0
 10
18.0395045256
 20
87.1974516759
 30
0.0
  0
SPLINE
  5
3E3
100
AcDbEntity
  8
0
100
AcDbSpline
 62
7
  6
CONTINUOUS
 70
0
 71
3
 72
11
 73
7
 74
0
 42
0.0000001
 43
0.0000001
 44
0.0000000001
 40
0.0
 40
0.0
 40
0.0
 40
0.0
 40
0.2177175204
 40
0.4509435687
 40
0.7102966624
 40
1.0
 40
1.0
 40
1.0
 40
1.0
 10
27.9584548014
 20
53.3607719011
 30
0.0
 10
28.0408805762
 20
53.4083666426
 30
0.0
 10
28.1951041103
 20
53.5381182268
 30
0.0
 10
28.3594399087
 20
53.8065888764
 30
0.0
 10
28.4568960082
 20
54.1375875398
 30
0.0
 10
28.4761305865
 20
54.3784248996
 30
0.0
 10
28.4761302347
 20
54.5050753293
 30
0.0
  0
SPLINE
  5
3E4
100
AcDbEntity
  8
0
100
AcDbSpline
 62
7
  6
CONTINUOUS
 70
0
 71
3
 72
10
 73
6
 74
0
 42
0.0000001
 43
0.0000001
 44
0.0000000001
 40
0.0
 40
0.0
 40
0.0
 40
0.0
 40
0.2284689862
 40
0.4750657979
 40
1.0
 40
1.0
 40
1.0
 40
1.0
 10
28.4761302347
 20
79.7277457807
 30
0.0
 10
28.4760667322
 20
79.8675142207
 30
0.0
 10
28.4504639116
 20
80.1584604954
 30
0.0
 10
28.3117972235
 20
80.7555283658
 30
0.0
 10
28.118933786
 20
81.1927111996
 30
0.0
 10
27.9584548014
 20
81.4708726166
 30
0.0
  0
SPLINE
  5
3E5
100
AcDbEntity
  8
0
100
AcDbSpline
 62
7
  6
CONTINUOUS
 70
0
 71
3
 72
10
 73
6
 74
0
 42
0.0000001
 43
0.0000001
 44
0.0000000001
 40
0.0
 40
0.0
 40
0.0
 40
0.0
 40
0.5249295221
 40
0.7715433573
 40
1.0
 40
1.0
 40
1.0
 40
1.0
 10
27.9584548014
 20
81.4708726166
 30
0.0
 10
27.7979738385
 20
81.7488228367
 30
0.0
 10
27.5160137525
 20
82.1342894436
 30
0.0
 10
27.0685974485
 20
82.5527485943
 30
0.0
 10
26.8295950426
 20
82.7203676915
 30
0.0
 10
26.7086251628
 20
82.7902076561
 30
0.0
  0
SPLINE
  5
3E6
100
AcDbEntity
  8
0
100
AcDbSpline
 62
7
  6
CONTINUOUS
 70
0
 71
3
 72
11
 73
7
 74
0
 42
0.0000001
 43
0.0000001
 44
0.0000000001
 40
0.0
 40
0.0
 40
0.0
 40
0.0
 40
0.2383165703
 40
0.5010899889
 40
0.7632714532
 40
1.0
 40
1.0
 40
1.0
 40
1.0
 10
31.9720484276
 20
83.682518548
 30
0.0
 10
31.9126512416
 20
83.6470285854
 30
0.0
 10
31.8005558109
 20
83.5507684211
 30
0.0
 10
31.6698157327
 20
83.369847413
 30
0.0
 10
31.580690545
 20
83.165701456
 30
0.0
 10
31.5551905234
 20
83.0207512817
 30
0.0
 10
31.5551905234
 20
82.9520201255
 30
0.0
  0
SPLINE
  5
3E7
100
AcDbEntity
  8
0
100
AcDbSpline
 62
7
  6
CONTINUOUS
 70
0
 71
3
 72
17
 73
13
 74
0
 42
0.0000001
 43
0.0000001
 44
0.0000000001
 40
0.0
 40
0.0
 40
0.0
 40
0.0
 40
0.1286849204
 40
0.2703038021
 40
0.4174438807
 40
0.5617821443
 40
0.6954492859
 40
0.8127130378
 40
0.8646795618
 40
0.9125091497
 40
0.9571393989
 40
1.0
 40
1.0
 40
1.0
 40
1.0
 10
52.2626628485
 20
25.2836472442
 30
0.0
 10
52.2626628485
 20
25.1738242075
 30
0.0
 10
52.2319156603
 20
24.9428807969
 30
0.0
 10
52.1172681433
 20
24.6037962652
 30
0.0
 10
51.9405187593
 20
24.2771786627
 30
0.0
 10
51.7160061889
 20
23.989784635
 30
0.0
 10
51.4619880952
 20
23.7648122428
 30
0.0
 10
51.2320637079
 20
23.639137944
 30
0.0
 10
51.0522239708
 20
23.5912197317
 30
0.0
 10
50.9284420171
 20
23.5821757343
 30
0.0
 10
50.8131644704
 20
23.5989895338
 30
0.0
 10
50.7433604496
 20
23.6280801133
 30
0.0
 10
50.7116817913
 20
23.6463677569
 30
0.0
  0
SPLINE
  5
3E8
100
AcDbEntity
  8
0
100
AcDbSpline
 62
7
  6
CONTINUOUS
 70
0
 71
3
 72
17
 73
13
 74
0
 42
0.0000001
 43
0.0000001
 44
0.0000000001
 40
0.0
 40
0.0
 40
0.0
 40
0.0
 40
0.1286849204
 40
0.270303802
 40
0.4174438806
 40
0.5617821443
 40
0.6954492858
 40
0.8127130378
 40
0.8646795618
 40
0.9125091497
 40
0.9571393989
 40
1.0
 40
1.0
 40
1.0
 40
1.0
 10
52.2626628487
 20
92.2368454502
 30
0.0
 10
52.2626628487
 20
92.1270224134
 30
0.0
 10
52.2319156606
 20
91.8960790027
 30
0.0
 10
52.1172681437
 20
91.5569944708
 30
0.0
 10
51.9405187598
 20
91.2303768681
 30
0.0
 10
51.7160061894
 20
90.9429828401
 30
0.0
 10
51.4619880956
 20
90.7180104477
 30
0.0
 10
51.2320637082
 20
90.5923361487
 30
0.0
 10
51.052223971
 20
90.5444179363
 30
0.0
 10
50.9284420173
 20
90.5353739389
 30
0.0
 10
50.8131644705
 20
90.5521877384
 30
0.0
 10
50.7433604496
 20
90.5812783179
 30
0.0
 10
50.7116817913
 20
90.5995659616
 30
0.0
  0
SPLINE
  5
3E9
100
AcDbEntity
  8
0
100
AcDbSpline
 62
7
  6
CONTINUOUS
 70
0
 71
3
 72
17
 73
13
 74
0
 42
0.0000001
 43
0.0000001
 44
0.0000000001
 40
0.0
 40
0.0
 40
0.0
 40
0.0
 40
0.1286849204
 40
0.270303802
 40
0.4174438806
 40
0.5617821443
 40
0.6954492858
 40
0.8127130378
 40
0.8646795618
 40
0.9125091497
 40
0.9571393989
 40
1.0
 40
1.0
 40
1.0
 40
1.0
 10
79.107923576
 20
107.7358714409
 30
0.0
 10
79.107923576
 20
107.6290322209
 30
0.0
 10
79.078011768
 20
107.4043633848
 30
0.0
 10
78.9664791458
 20
107.0744915479
 30
0.0
 10
78.7945319218
 20
106.7567479222
 30
0.0
 10
78.5761192045
 20
106.4771621934
 30
0.0
 10
78.3290026087
 20
106.2583021471
 30
0.0
 10
78.1053251097
 20
106.1360423329
 30
0.0
 10
77.9303714952
 20
106.0894260256
 30
0.0
 10
77.8099526125
 20
106.0806277474
 30
0.0
 10
77.6978070779
 20
106.0969847275
 30
0.0
 10
77.6298995845
 20
106.1252849359
 30
0.0
 10
77.5990816137
 20
106.1430757167
 30
0.0
  0
SPLINE
  5
3EA
100
AcDbEntity
  8
0
100
AcDbSpline
 62
7
  6
CONTINUOUS
 70
0
 71
3
 72
17
 73
13
 74
0
 42
0.0000001
 43
0.0000001
 44
0.0000000001
 40
0.0
 40
0.0
 40
0.0
 40
0.0
 40
0.1286849204
 40
0.270303802
 40
0.4174438806
 40
0.5617821443
 40
0.6954492858
 40
0.8127130378
 40
0.8646795618
 40
0.9125091497
 40
0.9571393989
 40
1.0
 40
1.0
 40
1.0
 40
1.0
 10
79.107923576
 20
40.7826732362
 30
0.0
 10
79.107923576
 20
40.6758340163
 30
0.0
 10
79.078011768
 20
40.4511651802
 30
0.0
 10
78.9664791458
 20
40.1212933433
 30
0.0
 10
78.7945319218
 20
39.8035497175
 30
0.0
 10
78.5761192045
 20
39.5239639888
 30
0.0
 10
78.3290026087
 20
39.3051039425
 30
0.0
 10
78.1053251097
 20
39.1828441283
 30
0.0
 10
77.9303714952
 20
39.136227821
 30
0.0
 10
77.8099526125
 20
39.1274295428
 30
0.0
 10
77.6978070779
 20
39.1437865229
 30
0.0
 10
77.6298995845
 20
39.1720867312
 30
0.0
 10
77.5990816137
 20
39.1898775121
 30
0.0
  0
ELLIPSE
  5
3EB
100
AcDbEntity
  8
0
100
AcDbEllipse
 62
7
  6
CONTINUOUS
 10
72.9052853462
 20
123.598851249
 30
0.0
 11
-0.300043439
 21
0.519616017
 31
0.0
 40
0.5773567973
 41
-0.6109312325
 42
-0.0061087526
  0
ELLIPSE
  5
3EC
100
AcDbEntity
  8
0
100
AcDbEllipse
 62
7
  6
CONTINUOUS
 10
76.7545017479
 20
121.3765553984
 30
0.0
 11
-0.300043439
 21
0.519616017
 31
0.0
 40
0.5773567973
 41
-1.9722880486
 42
-0.9599970826
  0
ELLIPSE
  5
3ED
100
AcDbEntity
  8
0
100
AcDbEllipse
 62
7
  6
CONTINUOUS
 10
70.7580556201
 20
122.389082337
 30
0.0
 11
-0.300043439
 21
0.519616017
 31
0.0
 40
0.5773567973
 41
-0.6109312324
 42
0.4013597337
  0
ELLIPSE
  5
3EE
100
AcDbEntity
  8
0
100
AcDbEllipse
 62
7
  6
CONTINUOUS
 10
74.6591084507
 20
120.1368593872
 30
0.0
 11
-0.300043439
 21
0.519616017
 31
0.0
 40
0.5773567973
 41
-1.9722880488
 42
-0.9599970828
  0
ENDSEC
  0
SECTION
  2
OBJECTS
  0
DICTIONARY
  5
C
100
AcDbDictionary
280
0
281
1
  3
ACAD_GROUP
350
D
  3
ACAD_MLINESTYLE
350
17
  3
ACAD_LAYOUT
350
1A
  3
ACAD_PLOTSETTINGS
350
19
  3
ACAD_PLOTSTYLENAME
350
E
  0
DICTIONARY
  5
D
102
{ACAD_REACTORS
330
C
102
}
100
AcDbDictionary
280
0
281
1
  0
ACDBDICTIONARYWDFLT
  5
E
102
{ACAD_REACTORS
330
C
102
}
100
AcDbDictionary
281
1
  3
Normal
350
F
100
AcDbDictionaryWithDefault
340
F
  0
DICTIONARY
  5
17
102
{ACAD_REACTORS
330
C
102
}
100
AcDbDictionary
280
0
281
1
  3
Standard
350
18
  0
DICTIONARY
  5
19
102
{ACAD_REACTORS
330
C
102
}
100
AcDbDictionary
281
1
  0
DICTIONARY
  5
1A
102
{ACAD_REACTORS
330
C
102
}
100
AcDbDictionary
281
1
  3
Model
350
3EF
  3
Layout1
350
3F0
  0
ACDBPLACEHOLDER
  5
F
102
{ACAD_REACTORS
330
E
102
}
  0
MLINESTYLE
  5
18
102
{ACAD_REACTORS
330
17
102
}
100
AcDbMlineStyle
  2
STANDARD
 70
0
  3

 62
256
 51
90.0
 52
90.0
 71
2
 49
0.5
 62
256
  6
BYLAYER
 49
-0.5
 62
256
  6
BYLAYER
  0
LAYOUT
  5
3EF
102
{ACAD_REACTORS
330
1A
102
}
100
AcDbPlotSettings
  1

  2
none_device
  4

  6

 40
0.0
 41
0.0
 42
0.0
 43
0.0
 44
210.0
 45
297.0
 46
0.0
 47
0.0
 48
0.0
 49
0.0
140
0.0
141
0.0
142
1.0
143
1.0
 70
1024
 72
1
 73
0
 74
0
  7

 75
0
147
1.0
148
0.0
149
0.0
100
AcDbLayout
  1
Model
 70
0
 71
0
 10
0.0
 20
0.0
 11
210.0
 21
297.0
 12
0.0
 22
0.0
 32
0.0
 14
0.0
 24
0.0
 34
0.0
 15
0.0
 25
0.0
 35
0.0
146
0.0
 13
0.0
 23
0.0
 33
0.0
 16
1.0
 26
0.0
 36
0.0
 17
0.0
 27
1.0
 37
0.0
 76
0
330
210
345
0
346
0
  0
LAYOUT
  5
3F0
102
{ACAD_REACTORS
330
1A
102
}
100
AcDbPlotSettings
  1

  2
none_device
  4

  6

 40
0.0
 41
0.0
 42
0.0
 43
0.0
 44
210.0
 45
297.0
 46
0.0
 47
0.0
 48
0.0
 49
0.0
140
0.0
141
0.0
142
1.0
143
1.0
 70
0
 72
1
 73
0
 74
0
  7

 75
0
147
1.0
148
0.0
149
0.0
100
AcDbLayout
  1
Layout1
 70
0
 71
1
 10
0.0
 20
0.0
 11
210.0
 21
297.0
 12
0.0
 22
0.0
 32
0.0
 14
0.0
 24
0.0
 34
0.0
 15
0.0
 25
0.0
 35
0.0
146
0.0
 13
0.0
 23
0.0
 33
0.0
 16
1.0
 26
0.0
 36
0.0
 17
0.0
 27
1.0
 37
0.0
 76
0
330
211
345
0
346
0
  0
ENDSEC
  0
EOF
