999
DXF file: C:\Users\sesa63760\Dev\_Creo\CAD\MCADID0000956_3D-CAD\drw0001_7.dxf
999
Pro/ENGINEER 2019471 by Parametric Technology Corporation
  0
SECTION
  2
HEADER
  9
$ACADVER
  1
AC1024
  9
$DWGCODEPAGE
  3
ANSI_1252
  9
$EXTMAX
 10
191.8712121212
 20
271.3607142857
 30
0.0
  9
$EXTMIN
 10
0.0
 20
0.0
 30
0.0
  9
$LIMMIN
 10
0.0
 20
0.0
  9
$LIMMAX
 10
191.8712121212
 20
271.3607142857
  9
$VIEWCTR
 10
95.9356060606
 20
135.6803571429
  9
$VIEWSIZE
 40
271.3607142857
  9
$CLAYER
  8
0
  9
$LTSCALE
 40
17.6886984127
  9
$CELTYPE
  6
BYLAYER
  9
$DIMSCALE
 40
1.0
  9
$DIMASZ
 40
2.2841810967
  9
$DIMEXO
 40
1.0
  9
$DIMDLI
 40
12.2212825397
  9
$DIMEXE
 40
1.0
  9
$DIMCEN
 40
2.8945142857
  9
$DIMLFAC
 40
1.0
  9
$DIMBLK
  1
_FILLED
  9
$DIMALT
 70
0
  9
$DIMALTF
 40
0.0393700787
  9
$DIMTXT
 40
3.1978535354
  9
$DIMTOL
 70
1
  9
$DIMLIM
 70
0
  9
$DIMTFAC
 40
1.0
  9
$DIMTP
 40
0.01
  9
$DIMTM
 40
0.01
  9
$DIMGAP
 40
0.625
  9
$DIMDSEP
 70
46
  9
$AUNITS
 70
0
  9
$PDMODE
 70
3
  9
$PDSIZE
 40
0.3125
  9
$HANDSEED
  5
2B8
  9
$TILEMODE
 70
1
  9
$MEASUREMENT
 70
1
  9
$INSUNITS
 70
4
  0
ENDSEC
  0
SECTION
  2
CLASSES
  0
CLASS
  1
ACDBDICTIONARYWDFLT
  2
AcDbDictionaryWithDefault
  3
AutoCAD 2000
 90
0
 91
1
280
0
281
0
  0
CLASS
  1
ACDBPLACEHOLDER
  2
AcDbPlaceHolder
  3
AutoCAD 2000
 90
0
 91
1
280
0
281
0
  0
CLASS
  1
LAYOUT
  2
AcDbLayout
  3
AutoCAD 2000
 90
0
 91
0
280
0
281
0
  0
ENDSEC
  0
SECTION
  2
TABLES
  0
TABLE
  2
VPORT
  5
8
100
AcDbSymbolTable
 70
2
  0
VPORT
  5
1F4
100
AcDbSymbolTableRecord
100
AcDbViewportTableRecord
  2
*ACTIVE
 70
0
 10
0.0
 20
0.0
 11
1.0
 21
1.0
 12
95.9356060606
 22
135.6803571429
 13
0.0
 23
0.0
 14
1.0
 24
1.0
 15
0.0
 25
0.0
 16
0.0
 26
0.0
 36
1.0
 17
0.0
 27
0.0
 37
0.0
 40
271.3607142857
 41
0.7070707071
 42
50.0
 43
0.0
 44
0.0
 50
0.0
 51
0.0
 71
0
 72
100
 73
1
 74
1
 75
0
 76
0
 77
0
 78
0
  0
ENDTAB
  0
TABLE
  2
LTYPE
  5
5
100
AcDbSymbolTable
 70
6
  0
LTYPE
  5
14
100
AcDbSymbolTableRecord
100
AcDbLinetypeTableRecord
  2
BYBLOCK
 70
0
  3

 72
65
 73
0
 40
0.0
  0
LTYPE
  5
15
100
AcDbSymbolTableRecord
100
AcDbLinetypeTableRecord
  2
BYLAYER
 70
0
  3

 72
65
 73
0
 40
0.0
  0
LTYPE
  5
16
100
AcDbSymbolTableRecord
100
AcDbLinetypeTableRecord
  2
CONTINUOUS
 70
64
  3
Solid line
 72
65
 73
0
 40
0.0
  0
LTYPE
  5
1F5
100
AcDbSymbolTableRecord
100
AcDbLinetypeTableRecord
  2
CENTER
 70
64
  3
____ _ ____ _ ____ _ ____ _ ____ _ ____ _ ____
 72
65
 73
4
 40
0.6
 49
0.375
 74
0
 49
-0.075
 74
0
 49
0.075
 74
0
 49
-0.075
 74
0
  0
LTYPE
  5
1F6
100
AcDbSymbolTableRecord
100
AcDbLinetypeTableRecord
  2
HIDDEN
 70
64
  3
- - - - - - - - - - - - - - - - - - - -
 72
65
 73
2
 40
0.2
 49
0.1
 74
0
 49
-0.1
 74
0
  0
LTYPE
  5
1F7
100
AcDbSymbolTableRecord
100
AcDbLinetypeTableRecord
  2
PHANTOM
 70
64
  3
_____ _ _ _____ _ _ _____ _ _ _____
 72
65
 73
6
 40
0.8
 49
0.45
 74
0
 49
-0.05
 74
0
 49
0.1
 74
0
 49
-0.05
 74
0
 49
0.1
 74
0
 49
-0.05
 74
0
  0
LTYPE
  5
1F8
100
AcDbSymbolTableRecord
100
AcDbLinetypeTableRecord
  2
DOT
 70
64
  3
. . . . . . . . . . . . . . . . . . . .
 72
65
 73
2
 40
0.2
 49
0.1
 74
0
 49
-0.1
 74
0
  0
LTYPE
  5
1F9
100
AcDbSymbolTableRecord
100
AcDbLinetypeTableRecord
  2
DASHED
 70
64
  3
- - - - - - - - - - - - - - - - - - - -
 72
65
 73
2
 40
0.2
 49
0.1
 74
0
 49
-0.1
 74
0
  0
ENDTAB
  0
TABLE
  2
LAYER
  5
2
100
AcDbSymbolTable
 70
36
  0
LAYER
  5
10
100
AcDbSymbolTableRecord
100
AcDbLayerTableRecord
  2
0
 70
0
 62
7
  6
CONTINUOUS
370
-3
390
F
  0
LAYER
  5
1FA
100
AcDbSymbolTableRecord
100
AcDbLayerTableRecord
  2
DEFAULT_1
 70
0
 62
7
  6
CENTER
370
-3
390
F
  0
LAYER
  5
1FB
100
AcDbSymbolTableRecord
100
AcDbLayerTableRecord
  2
DEFAULT_2
 70
0
 62
8
  6
HIDDEN
370
-3
390
F
  0
LAYER
  5
1FC
100
AcDbSymbolTableRecord
100
AcDbLayerTableRecord
  2
DEFAULT_3
 70
0
 62
7
  6
PHANTOM
370
-3
390
F
  0
LAYER
  5
1FD
100
AcDbSymbolTableRecord
100
AcDbLayerTableRecord
  2
00_COMPONENTS
 70
0
 62
7
  6
CONTINUOUS
370
-3
390
F
  0
LAYER
  5
1FE
100
AcDbSymbolTableRecord
100
AcDbLayerTableRecord
  2
01_1_DEFAULT_DATUMS
 70
0
 62
7
  6
CONTINUOUS
370
-3
390
F
  0
LAYER
  5
1FF
100
AcDbSymbolTableRecord
100
AcDbLayerTableRecord
  2
01_PLANES
 70
0
 62
7
  6
CONTINUOUS
370
-3
390
F
  0
LAYER
  5
200
100
AcDbSymbolTableRecord
100
AcDbLayerTableRecord
  2
02_COORD_SYS
 70
0
 62
7
  6
CONTINUOUS
370
-3
390
F
  0
LAYER
  5
201
100
AcDbSymbolTableRecord
100
AcDbLayerTableRecord
  2
03_AXES
 70
0
 62
7
  6
CONTINUOUS
370
-3
390
F
  0
LAYER
  5
202
100
AcDbSymbolTableRecord
100
AcDbLayerTableRecord
  2
04_POINTS
 70
0
 62
7
  6
CONTINUOUS
370
-3
390
F
  0
LAYER
  5
203
100
AcDbSymbolTableRecord
100
AcDbLayerTableRecord
  2
05_CURVES
 70
0
 62
7
  6
CONTINUOUS
370
-3
390
F
  0
LAYER
  5
204
100
AcDbSymbolTableRecord
100
AcDbLayerTableRecord
  2
06_SURFS
 70
0
 62
7
  6
CONTINUOUS
370
-3
390
F
  0
LAYER
  5
205
100
AcDbSymbolTableRecord
100
AcDbLayerTableRecord
  2
07_COSMETICS
 70
0
 62
7
  6
CONTINUOUS
370
-3
390
F
  0
LAYER
  5
206
100
AcDbSymbolTableRecord
100
AcDbLayerTableRecord
  2
10_NOTES
 70
0
 62
7
  6
CONTINUOUS
370
-3
390
F
  0
LAYER
  5
207
100
AcDbSymbolTableRecord
100
AcDbLayerTableRecord
  2
11_NOTES_PUB
 70
0
 62
7
  6
CONTINUOUS
370
-3
390
F
  0
LAYER
  5
208
100
AcDbSymbolTableRecord
100
AcDbLayerTableRecord
  2
13_REF_GTOL
 70
0
 62
7
  6
CONTINUOUS
370
-3
390
F
  0
LAYER
  5
209
100
AcDbSymbolTableRecord
100
AcDbLayerTableRecord
  2
16_MISC
 70
0
 62
7
  6
CONTINUOUS
370
-3
390
F
  0
LAYER
  5
20A
100
AcDbSymbolTableRecord
100
AcDbLayerTableRecord
  2
17_NO_PRINT
 70
0
 62
7
  6
CONTINUOUS
370
-3
390
F
  0
LAYER
  5
20B
100
AcDbSymbolTableRecord
100
AcDbLayerTableRecord
  2
18_DATUM_CAMS_JOINTS
 70
0
 62
7
  6
CONTINUOUS
370
-3
390
F
  0
LAYER
  5
20C
100
AcDbSymbolTableRecord
100
AcDbLayerTableRecord
  2
19_DATUM_FUNCTIONAL
 70
0
 62
7
  6
CONTINUOUS
370
-3
390
F
  0
LAYER
  5
20D
100
AcDbSymbolTableRecord
100
AcDbLayerTableRecord
  2
2
 70
0
 62
7
  6
CONTINUOUS
370
-3
390
F
  0
LAYER
  5
20E
100
AcDbSymbolTableRecord
100
AcDbLayerTableRecord
  2
20_DATUM_KINEMATIC_SCHEME
 70
0
 62
7
  6
CONTINUOUS
370
-3
390
F
  0
LAYER
  5
20F
100
AcDbSymbolTableRecord
100
AcDbLayerTableRecord
  2
5
 70
0
 62
7
  6
CONTINUOUS
370
-3
390
F
  0
LAYER
  5
210
100
AcDbSymbolTableRecord
100
AcDbLayerTableRecord
  2
_1
 70
0
 62
7
  6
CONTINUOUS
370
-3
390
F
  0
ENDTAB
  0
TABLE
  2
STYLE
  5
3
100
AcDbSymbolTable
 70
1
  0
STYLE
  5
11
100
AcDbSymbolTableRecord
100
AcDbTextStyleTableRecord
  2
STANDARD
 70
0
 40
0.0
 41
0.8
 50
0.0
 71
0
 42
0.2
  3
txt
  4

  0
STYLE
  5
211
100
AcDbSymbolTableRecord
100
AcDbTextStyleTableRecord
  2
TEXTSTYLE_1
 70
0
 40
0.0
 41
0.8
 50
0.0
 71
0
 42
0.2
  3
gdt
  4

  0
ENDTAB
  0
TABLE
  2
VIEW
  5
6
100
AcDbSymbolTable
 70
0
  0
ENDTAB
  0
TABLE
  2
UCS
  5
7
100
AcDbSymbolTable
 70
0
  0
ENDTAB
  0
TABLE
  2
APPID
  5
9
100
AcDbSymbolTable
 70
1
  0
APPID
  5
212
100
AcDbSymbolTableRecord
100
AcDbRegAppTableRecord
  2
ACAD
 70
0
  0
ENDTAB
  0
TABLE
  2
BLOCK_RECORD
  5
1
100
AcDbSymbolTable
 70
0
  0
BLOCK_RECORD
  5
213
100
AcDbSymbolTableRecord
100
AcDbBlockTableRecord
  2
*Model_Space
  0
BLOCK_RECORD
  5
214
100
AcDbSymbolTableRecord
100
AcDbBlockTableRecord
  2
*Paper_Space
  0
BLOCK_RECORD
  5
215
100
AcDbSymbolTableRecord
100
AcDbBlockTableRecord
  2
_FILLED
  0
ENDTAB
  0
TABLE
  2
DIMSTYLE
  5
A
100
AcDbSymbolTable
 70
1
100
AcDbDimStyleTable
 71
0
  0
DIMSTYLE
105
216
100
AcDbSymbolTableRecord
100
AcDbDimStyleTableRecord
  2
STANDARD
 70
0
  3

  4

 40
1.0
 41
2.2841810967
 42
1.0
 43
0.38
 44
1.0
 45
0.0
 46
0.0
 47
0.01
 48
0.01
140
3.1978535354
141
0.09
142
0.0
143
25.4
144
1.0
145
0.0
146
1.0
147
0.625
 71
1
 72
0
 73
0
 74
0
 75
0
 76
0
 77
1
 78
8
 79
2
170
0
171
1
172
0
173
0
174
0
175
0
176
0
177
0
178
0
270
2
179
2
271
2
272
2
273
2
274
2
275
0
280
0
281
0
282
0
283
1
284
8
285
0
286
0
287
3
288
0
340
11
278
46
341
215
342
215
343
215
344
215
  0
ENDTAB
  0
ENDSEC
  0
SECTION
  2
BLOCKS
  0
BLOCK
  5
20
100
AcDbEntity
  8
0
100
AcDbBlockBegin
  2
*Model_Space
 70
0
 10
0.0
 20
0.0
 30
0.0
  3
*Model_Space
  1

  0
ENDBLK
  5
21
100
AcDbEntity
  8
0
100
AcDbBlockEnd
  0
BLOCK
  5
1C
100
AcDbEntity
  8
0
100
AcDbBlockBegin
  2
*Paper_Space
 70
0
 10
0.0
 20
0.0
 30
0.0
  3
*Paper_Space
  1

  0
ENDBLK
  5
1D
100
AcDbEntity
  8
0
100
AcDbBlockEnd
  0
BLOCK
  5
217
100
AcDbEntity
  8
0
100
AcDbBlockBegin
  2
_FILLED
 70
64
 10
0.0
 20
0.0
  3
_FILLED
  1

  0
SOLID
  5
218
100
AcDbEntity
  8
0
  6
BYBLOCK
 62
0
100
AcDbTrace
 10
0.0
 20
0.0
 11
-1.0
 21
0.25
 12
-1.0
 22
-0.25
 13
-1.0
 23
-0.25
  0
ENDBLK
  5
219
100
AcDbEntity
  8
0
  6
BYBLOCK
 62
0
100
AcDbBlockEnd
  0
ENDSEC
  0
SECTION
  2
ENTITIES
  0
LINE
  5
21A
100
AcDbEntity
  8
_1
100
AcDbLine
 62
7
  6
CONTINUOUS
 10
77.1677517384
 20
20.0946428571
 11
83.9677517384
 21
20.0946428571
  0
LINE
  5
21B
100
AcDbEntity
  8
_1
100
AcDbLine
 62
7
  6
CONTINUOUS
 10
55.7677517384
 20
26.5946428571
 11
53.7677517384
 21
26.5946428571
  0
LINE
  5
21C
100
AcDbEntity
  8
_1
100
AcDbLine
 62
7
  6
CONTINUOUS
 10
55.9568727601
 20
29.5946428571
 11
54.0041530155
 21
29.5946428571
  0
LINE
  5
21D
100
AcDbEntity
  8
_1
100
AcDbLine
 62
7
  6
CONTINUOUS
 10
58.7177517384
 20
32.8544504783
 11
57.9677517384
 21
33.2874631802
  0
LINE
  5
21E
100
AcDbEntity
  8
_1
100
AcDbLine
 62
7
  6
CONTINUOUS
 10
105.5677517384
 20
30.9554123726
 11
104.5677517384
 21
30.9554123726
  0
LINE
  5
21F
100
AcDbEntity
  8
_1
100
AcDbLine
 62
7
  6
CONTINUOUS
 10
57.9677517384
 20
30.9554123726
 11
56.9677517384
 21
30.9554123726
  0
LINE
  5
220
100
AcDbEntity
  8
_1
100
AcDbLine
 62
7
  6
CONTINUOUS
 10
54.0041530155
 20
32.5946428571
 11
55.9568727601
 21
32.5946428571
  0
LINE
  5
221
100
AcDbEntity
  8
_1
100
AcDbLine
 62
7
  6
CONTINUOUS
 10
55.1023261759
 20
35.5946428571
 11
138.7677517384
 21
35.5946428571
  0
LINE
  5
222
100
AcDbEntity
  8
_1
100
AcDbLine
 62
7
  6
CONTINUOUS
 10
113.2151563279
 20
39.5946428571
 11
120.4159380797
 21
39.5946428571
  0
LINE
  5
223
100
AcDbEntity
  8
_1
100
AcDbLine
 62
7
  6
CONTINUOUS
 10
120.4203471489
 20
39.5946428571
 11
126.7151563279
 21
39.5946428571
  0
LINE
  5
224
100
AcDbEntity
  8
_1
100
AcDbLine
 62
7
  6
CONTINUOUS
 10
126.7195653972
 20
39.5946428571
 11
134.1198332664
 21
39.5946428571
  0
LINE
  5
225
100
AcDbEntity
  8
_1
100
AcDbLine
 62
7
  6
CONTINUOUS
 10
134.1198332664
 20
39.7420249962
 11
126.7195653972
 21
39.7420249962
  0
LINE
  5
226
100
AcDbEntity
  8
_1
100
AcDbLine
 62
7
  6
CONTINUOUS
 10
120.4159380797
 20
39.7420249962
 11
113.2151563279
 21
39.7420249962
  0
LINE
  5
227
100
AcDbEntity
  8
_1
100
AcDbLine
 62
7
  6
CONTINUOUS
 10
126.5695882429
 20
39.7446428571
 11
120.5659152339
 21
39.7446428571
  0
LINE
  5
228
100
AcDbEntity
  8
_1
100
AcDbLine
 62
7
  6
CONTINUOUS
 10
126.5677517384
 20
39.8946428571
 11
120.5677517384
 21
39.8946428571
  0
LINE
  5
229
100
AcDbEntity
  8
_1
100
AcDbLine
 62
7
  6
CONTINUOUS
 10
113.2029377824
 20
40.4420249962
 11
120.4157248041
 21
40.4420249962
  0
LINE
  5
22A
100
AcDbEntity
  8
_1
100
AcDbLine
 62
7
  6
CONTINUOUS
 10
126.7197786727
 20
40.4420249962
 11
133.8298837728
 21
40.4420249962
  0
LINE
  5
22B
100
AcDbEntity
  8
_1
100
AcDbLine
 62
7
  6
CONTINUOUS
 10
120.5657019584
 20
40.4446428571
 11
120.5800949629
 21
40.4446428571
  0
LINE
  5
22C
100
AcDbEntity
  8
_1
100
AcDbLine
 62
7
  6
CONTINUOUS
 10
126.5554085139
 20
40.4446428571
 11
126.5698015184
 21
40.4446428571
  0
LINE
  5
22D
100
AcDbEntity
  8
_1
100
AcDbLine
 62
7
  6
CONTINUOUS
 10
133.7677517384
 20
40.5946428571
 11
102.7677517384
 21
40.5946428571
  0
LINE
  5
22E
100
AcDbEntity
  8
_1
100
AcDbLine
 62
7
  6
CONTINUOUS
 10
53.7677517384
 20
50.5946428571
 11
138.7677517384
 21
50.5946428571
  0
LINE
  5
22F
100
AcDbEntity
  8
_1
100
AcDbLine
 62
7
  6
CONTINUOUS
 10
138.7677517384
 20
51.0946428571
 11
53.7677517384
 21
51.0946428571
  0
LINE
  5
230
100
AcDbEntity
  8
_1
100
AcDbLine
 62
7
  6
CONTINUOUS
 10
112.8047114889
 20
58.5478430001
 11
104.3706635408
 21
58.5478430001
  0
LINE
  5
231
100
AcDbEntity
  8
_1
100
AcDbLine
 62
7
  6
CONTINUOUS
 10
104.3706635408
 20
80.3724794028
 11
112.8047114889
 21
80.3724794028
  0
LINE
  5
232
100
AcDbEntity
  8
_1
100
AcDbLine
 62
7
  6
CONTINUOUS
 10
112.8281216319
 20
81.5675402768
 11
101.3216679025
 21
81.5675402768
  0
LINE
  5
233
100
AcDbEntity
  8
_1
100
AcDbLine
 62
7
  6
CONTINUOUS
 10
56.4217245633
 20
35.1773222331
 11
56.9677517384
 21
30.9554123726
  0
LINE
  5
234
100
AcDbEntity
  8
_1
100
AcDbLine
 62
7
  6
CONTINUOUS
 10
53.7677517384
 20
50.5946428571
 11
53.7677517384
 21
26.5946428571
  0
LINE
  5
235
100
AcDbEntity
  8
_1
100
AcDbLine
 62
7
  6
CONTINUOUS
 10
53.7677517384
 20
51.0946428571
 11
53.7677517384
 21
252.5946428571
  0
LINE
  5
236
100
AcDbEntity
  8
_1
100
AcDbLine
 62
7
  6
CONTINUOUS
 10
54.0041530155
 20
29.5946428571
 11
54.0041530155
 21
32.5946428571
  0
LINE
  5
237
100
AcDbEntity
  8
_1
100
AcDbLine
 62
7
  6
CONTINUOUS
 10
54.9677517384
 20
51.0946428571
 11
54.9677517384
 21
50.5946428571
  0
LINE
  5
238
100
AcDbEntity
  8
_1
100
AcDbLine
 62
7
  6
CONTINUOUS
 10
55.7677517384
 20
26.5946428571
 11
55.7677517384
 21
26.8770898196
  0
LINE
  5
239
100
AcDbEntity
  8
_1
100
AcDbLine
 62
7
  6
CONTINUOUS
 10
55.9568727601
 20
32.5946428571
 11
55.9568727601
 21
29.5946428571
  0
LINE
  5
23A
100
AcDbEntity
  8
_1
100
AcDbLine
 62
7
  6
CONTINUOUS
 10
56.0677517384
 20
172.5946428571
 11
56.0677517384
 21
248.0946428571
  0
LINE
  5
23B
100
AcDbEntity
  8
_1
100
AcDbLine
 62
7
  6
CONTINUOUS
 10
103.7079441173
 20
32.4446428571
 11
104.5677517384
 21
30.9554123726
  0
LINE
  5
23C
100
AcDbEntity
  8
_1
100
AcDbLine
 62
7
  6
CONTINUOUS
 10
57.9677517384
 20
35.5946428571
 11
57.9677517384
 21
33.2874631802
  0
LINE
  5
23D
100
AcDbEntity
  8
_1
100
AcDbLine
 62
7
  6
CONTINUOUS
 10
58.0677517384
 20
246.5946428571
 11
58.0677517384
 21
172.5946428571
  0
LINE
  5
23E
100
AcDbEntity
  8
_1
100
AcDbLine
 62
7
  6
CONTINUOUS
 10
61.9070698936
 20
108.4730067717
 11
61.9070698936
 21
139.472015089
  0
LINE
  5
23F
100
AcDbEntity
  8
_1
100
AcDbLine
 62
7
  6
CONTINUOUS
 10
63.7677517384
 20
35.5946428571
 11
63.7677517384
 21
108.4730067717
  0
LINE
  5
240
100
AcDbEntity
  8
_1
100
AcDbLine
 62
7
  6
CONTINUOUS
 10
63.7677517384
 20
139.472015089
 11
63.7677517384
 21
164.2946428571
  0
LINE
  5
241
100
AcDbEntity
  8
_1
100
AcDbLine
 62
7
  6
CONTINUOUS
 10
82.0177517384
 20
106.7004428571
 11
77.1177517384
 21
106.7004428571
  0
LINE
  5
242
100
AcDbEntity
  8
_1
100
AcDbLine
 62
7
  6
CONTINUOUS
 10
77.1177517384
 20
108.2746428571
 11
82.0177517384
 21
108.2746428571
  0
LINE
  5
243
100
AcDbEntity
  8
_1
100
AcDbLine
 62
7
  6
CONTINUOUS
 10
61.9070698936
 20
108.4730067717
 11
75.7894508254
 21
108.4730067717
  0
LINE
  5
244
100
AcDbEntity
  8
_1
100
AcDbLine
 62
7
  6
CONTINUOUS
 10
74.2177517384
 20
244.8946428571
 11
74.2177517384
 21
243.6946428571
  0
LINE
  5
245
100
AcDbEntity
  8
_1
100
AcDbLine
 62
7
  6
CONTINUOUS
 10
75.7894508254
 20
139.472015089
 11
75.7894508254
 21
108.4730067717
  0
LINE
  5
246
100
AcDbEntity
  8
_1
100
AcDbLine
 62
7
  6
CONTINUOUS
 10
76.2177517384
 20
244.8946428571
 11
76.2177517384
 21
246.5946428571
  0
LINE
  5
247
100
AcDbEntity
  8
_1
100
AcDbLine
 62
7
  6
CONTINUOUS
 10
76.3050270631
 20
244.8946428571
 11
76.3050270631
 21
246.5946428571
  0
LINE
  5
248
100
AcDbEntity
  8
_1
100
AcDbLine
 62
7
  6
CONTINUOUS
 10
77.1177517384
 20
106.7004428571
 11
77.1177517384
 21
108.2746428571
  0
LINE
  5
249
100
AcDbEntity
  8
_1
100
AcDbLine
 62
7
  6
CONTINUOUS
 10
77.1177517384
 20
139.7446428571
 11
77.1177517384
 21
141.3188428571
  0
LINE
  5
24A
100
AcDbEntity
  8
_1
100
AcDbLine
 62
7
  6
CONTINUOUS
 10
77.1677517384
 20
20.0946428571
 11
77.1677517384
 21
35.5946428571
  0
LINE
  5
24B
100
AcDbEntity
  8
_1
100
AcDbLine
 62
7
  6
CONTINUOUS
 10
77.3548910254
 20
244.8946428571
 11
77.3548910254
 21
246.5946428571
  0
LINE
  5
24C
100
AcDbEntity
  8
_1
100
AcDbLine
 62
7
  6
CONTINUOUS
 10
78.2177517384
 20
243.6946428571
 11
78.2177517384
 21
246.5946428571
  0
LINE
  5
24D
100
AcDbEntity
  8
_1
100
AcDbLine
 62
7
  6
CONTINUOUS
 10
101.3216679025
 20
113.8322585043
 11
112.8281216319
 21
113.8322585043
  0
LINE
  5
24E
100
AcDbEntity
  8
_1
100
AcDbLine
 62
7
  6
CONTINUOUS
 10
112.4750673509
 20
118.3332027261
 11
99.6375968118
 21
118.3332027261
  0
LINE
  5
24F
100
AcDbEntity
  8
_1
100
AcDbLine
 62
7
  6
CONTINUOUS
 10
81.9677517384
 20
35.5946428571
 11
81.9677517384
 21
20.0946428571
  0
LINE
  5
250
100
AcDbEntity
  8
_1
100
AcDbLine
 62
7
  6
CONTINUOUS
 10
82.5177517384
 20
108.7746428571
 11
82.5177517384
 21
139.2446428571
  0
LINE
  5
251
100
AcDbEntity
  8
_1
100
AcDbLine
 62
7
  6
CONTINUOUS
 10
83.9677517384
 20
20.0946428571
 11
83.9677517384
 21
35.5946428571
  0
LINE
  5
252
100
AcDbEntity
  8
_1
100
AcDbLine
 62
7
  6
CONTINUOUS
 10
84.0919517384
 20
139.2446428571
 11
84.0919517384
 21
108.7746428571
  0
LINE
  5
253
100
AcDbEntity
  8
_1
100
AcDbLine
 62
7
  6
CONTINUOUS
 10
99.6375968118
 20
118.3332027261
 11
99.6375968118
 21
149.5809992321
  0
LINE
  5
254
100
AcDbEntity
  8
_1
100
AcDbLine
 62
7
  6
CONTINUOUS
 10
101.3216679025
 20
81.5675402768
 11
101.3216679025
 21
113.8322585043
  0
LINE
  5
255
100
AcDbEntity
  8
_1
100
AcDbLine
 62
7
  6
CONTINUOUS
 10
102.7677517384
 20
40.5946428571
 11
102.7677517384
 21
35.5946428571
  0
LINE
  5
256
100
AcDbEntity
  8
_1
100
AcDbLine
 62
7
  6
CONTINUOUS
 10
104.3706635408
 20
58.5478430001
 11
104.3706635408
 21
80.3724794028
  0
LINE
  5
257
100
AcDbEntity
  8
_1
100
AcDbLine
 62
7
  6
CONTINUOUS
 10
104.5677517384
 20
33.2874631802
 11
104.5677517384
 21
35.5946428571
  0
LINE
  5
258
100
AcDbEntity
  8
_1
100
AcDbLine
 62
7
  6
CONTINUOUS
 10
61.9070698936
 20
139.472015089
 11
75.7894508254
 21
139.472015089
  0
LINE
  5
259
100
AcDbEntity
  8
_1
100
AcDbLine
 62
7
  6
CONTINUOUS
 10
82.0177517384
 20
139.7446428571
 11
77.1177517384
 21
139.7446428571
  0
LINE
  5
25A
100
AcDbEntity
  8
_1
100
AcDbLine
 62
7
  6
CONTINUOUS
 10
77.1177517384
 20
141.3188428571
 11
82.0177517384
 21
141.3188428571
  0
LINE
  5
25B
100
AcDbEntity
  8
_1
100
AcDbLine
 62
7
  6
CONTINUOUS
 10
113.0651791736
 20
39.7420249962
 11
113.0529606282
 21
40.4420249962
  0
LINE
  5
25C
100
AcDbEntity
  8
_1
100
AcDbLine
 62
7
  6
CONTINUOUS
 10
113.2029377824
 20
40.4420249962
 11
113.2151563279
 21
39.7420249962
  0
LINE
  5
25D
100
AcDbEntity
  8
_1
100
AcDbLine
 62
7
  6
CONTINUOUS
 10
112.4750673509
 20
149.5809992321
 11
112.4750673509
 21
118.3332027261
  0
LINE
  5
25E
100
AcDbEntity
  8
_1
100
AcDbLine
 62
7
  6
CONTINUOUS
 10
112.7677517384
 20
35.5946428571
 11
112.7677517384
 21
40.5946428571
  0
LINE
  5
25F
100
AcDbEntity
  8
_1
100
AcDbLine
 62
7
  6
CONTINUOUS
 10
112.8047114889
 20
80.3724794028
 11
112.8047114889
 21
58.5478430001
  0
LINE
  5
260
100
AcDbEntity
  8
_1
100
AcDbLine
 62
7
  6
CONTINUOUS
 10
112.8281216319
 20
113.8322585043
 11
112.8281216319
 21
81.5675402768
  0
LINE
  5
261
100
AcDbEntity
  8
_1
100
AcDbLine
 62
7
  6
CONTINUOUS
 10
113.2029377824
 20
40.4420249962
 11
113.2029377824
 21
40.5946428571
  0
LINE
  5
262
100
AcDbEntity
  8
_1
100
AcDbLine
 62
7
  6
CONTINUOUS
 10
113.2151563279
 20
39.5946428571
 11
113.2151563279
 21
39.7420249962
  0
LINE
  5
263
100
AcDbEntity
  8
_1
100
AcDbLine
 62
7
  6
CONTINUOUS
 10
99.6375968118
 20
149.5809992321
 11
112.4750673509
 21
149.5809992321
  0
LINE
  5
264
100
AcDbEntity
  8
_1
100
AcDbLine
 62
7
  6
CONTINUOUS
 10
120.5657019584
 20
40.4446428571
 11
120.5659152339
 21
39.7446428571
  0
LINE
  5
265
100
AcDbEntity
  8
_1
100
AcDbLine
 62
7
  6
CONTINUOUS
 10
114.3177517384
 20
243.6946428571
 11
114.3177517384
 21
246.5946428571
  0
LINE
  5
266
100
AcDbEntity
  8
_1
100
AcDbLine
 62
7
  6
CONTINUOUS
 10
115.1806124515
 20
244.8946428571
 11
115.1806124515
 21
246.5946428571
  0
LINE
  5
267
100
AcDbEntity
  8
_1
100
AcDbLine
 62
7
  6
CONTINUOUS
 10
116.2304764138
 20
244.8946428571
 11
116.2304764138
 21
246.5946428571
  0
LINE
  5
268
100
AcDbEntity
  8
_1
100
AcDbLine
 62
7
  6
CONTINUOUS
 10
116.3177517384
 20
244.8946428571
 11
116.3177517384
 21
246.5946428571
  0
LINE
  5
269
100
AcDbEntity
  8
_1
100
AcDbLine
 62
7
  6
CONTINUOUS
 10
117.7677517384
 20
35.5946428571
 11
117.7677517384
 21
39.5946428571
  0
LINE
  5
26A
100
AcDbEntity
  8
_1
100
AcDbLine
 62
7
  6
CONTINUOUS
 10
118.3177517384
 20
244.8946428571
 11
118.3177517384
 21
243.6946428571
  0
LINE
  5
26B
100
AcDbEntity
  8
_1
100
AcDbLine
 62
7
  6
CONTINUOUS
 10
120.4157248041
 20
40.5946428571
 11
120.4159380797
 21
39.5946428571
  0
LINE
  5
26C
100
AcDbEntity
  8
_1
100
AcDbLine
 62
7
  6
CONTINUOUS
 10
105.5677517384
 20
30.9554123726
 11
106.1677517384
 21
35.5946428571
  0
LINE
  5
26D
100
AcDbEntity
  8
_1
100
AcDbLine
 62
7
  6
CONTINUOUS
 10
57.9677517384
 20
30.9554123726
 11
58.8275593595
 21
32.4446428571
  0
LINE
  5
26E
100
AcDbEntity
  8
_1
100
AcDbLine
 62
7
  6
CONTINUOUS
 10
126.5554085139
 20
40.4446428571
 11
126.5677517384
 21
39.8946428571
  0
LINE
  5
26F
100
AcDbEntity
  8
_1
100
AcDbLine
 62
7
  6
CONTINUOUS
 10
128.7677517384
 20
164.2946428571
 11
128.7677517384
 21
40.5946428571
  0
LINE
  5
270
100
AcDbEntity
  8
_1
100
AcDbLine
 62
7
  6
CONTINUOUS
 10
126.5695882429
 20
39.7446428571
 11
126.5698015184
 21
40.4446428571
  0
LINE
  5
271
100
AcDbEntity
  8
_1
100
AcDbLine
 62
7
  6
CONTINUOUS
 10
126.7195653972
 20
39.5946428571
 11
126.7197786727
 21
40.5946427346
  0
LINE
  5
272
100
AcDbEntity
  8
_1
100
AcDbLine
 62
7
  6
CONTINUOUS
 10
120.5800949629
 20
40.4446428571
 11
120.5677517384
 21
39.8946428571
  0
LINE
  5
273
100
AcDbEntity
  8
_1
100
AcDbLine
 62
7
  6
CONTINUOUS
 10
60.7677517384
 20
164.2946428571
 11
63.7677517384
 21
164.2946428571
  0
LINE
  5
274
100
AcDbEntity
  8
_1
100
AcDbLine
 62
7
  6
CONTINUOUS
 10
128.7677517384
 20
164.2946428571
 11
131.7677517384
 21
164.2946428571
  0
LINE
  5
275
100
AcDbEntity
  8
_1
100
AcDbLine
 62
7
  6
CONTINUOUS
 10
133.7677517384
 20
39.5946428571
 11
133.7677517384
 21
35.5946428571
  0
LINE
  5
276
100
AcDbEntity
  8
_1
100
AcDbLine
 62
7
  6
CONTINUOUS
 10
134.1198332664
 20
39.7420249962
 11
134.1198332664
 21
39.5946428571
  0
LINE
  5
277
100
AcDbEntity
  8
_1
100
AcDbLine
 62
7
  6
CONTINUOUS
 10
134.4677517384
 20
172.5946428571
 11
134.4677517384
 21
246.5946428571
  0
LINE
  5
278
100
AcDbEntity
  8
_1
100
AcDbLine
 62
7
  6
CONTINUOUS
 10
136.4677517384
 20
248.0946428571
 11
136.4677517384
 21
172.5946428571
  0
LINE
  5
279
100
AcDbEntity
  8
_1
100
AcDbLine
 62
7
  6
CONTINUOUS
 10
137.5677517384
 20
50.5946428571
 11
137.5677517384
 21
51.0946428571
  0
LINE
  5
27A
100
AcDbEntity
  8
_1
100
AcDbLine
 62
7
  6
CONTINUOUS
 10
56.0677517384
 20
172.5946428571
 11
58.0677517384
 21
172.5946428571
  0
LINE
  5
27B
100
AcDbEntity
  8
_1
100
AcDbLine
 62
7
  6
CONTINUOUS
 10
134.4677517384
 20
172.5946428571
 11
136.4677517384
 21
172.5946428571
  0
LINE
  5
27C
100
AcDbEntity
  8
_1
100
AcDbLine
 62
7
  6
CONTINUOUS
 10
56.0677517384
 20
172.7722398353
 11
58.0677517384
 21
172.7722398353
  0
LINE
  5
27D
100
AcDbEntity
  8
_1
100
AcDbLine
 62
7
  6
CONTINUOUS
 10
134.4677517384
 20
172.7722398353
 11
136.4677517384
 21
172.7722398353
  0
LINE
  5
27E
100
AcDbEntity
  8
_1
100
AcDbLine
 62
7
  6
CONTINUOUS
 10
138.7677517384
 20
35.5946428571
 11
138.7677517384
 21
50.5946428571
  0
LINE
  5
27F
100
AcDbEntity
  8
_1
100
AcDbLine
 62
7
  6
CONTINUOUS
 10
138.7677517384
 20
51.0946428571
 11
138.7677517384
 21
252.5946428571
  0
LINE
  5
280
100
AcDbEntity
  8
_1
100
AcDbLine
 62
7
  6
CONTINUOUS
 10
137.0718752331
 20
42.6940669629
 11
137.0894618412
 21
43.7016030646
  0
LINE
  5
281
100
AcDbEntity
  8
_1
100
AcDbLine
 62
7
  6
CONTINUOUS
 10
137.2394389955
 20
43.7016030646
 11
137.2218523874
 21
42.6940669629
  0
LINE
  5
282
100
AcDbEntity
  8
_1
100
AcDbLine
 62
7
  6
CONTINUOUS
 10
136.4677517384
 20
182.7707167869
 11
134.4677517384
 21
182.7707167869
  0
LINE
  5
283
100
AcDbEntity
  8
_1
100
AcDbLine
 62
7
  6
CONTINUOUS
 10
58.0677517384
 20
182.7707167869
 11
56.0677517384
 21
182.7707167869
  0
LINE
  5
284
100
AcDbEntity
  8
_1
100
AcDbLine
 62
7
  6
CONTINUOUS
 10
133.7677517384
 20
40.5946428571
 11
138.7677517384
 21
45.5946428571
  0
LINE
  5
285
100
AcDbEntity
  8
_1
100
AcDbLine
 62
7
  6
CONTINUOUS
 10
137.0894618412
 20
43.7016030646
 11
133.8298837728
 21
40.4420249962
  0
LINE
  5
286
100
AcDbEntity
  8
_1
100
AcDbLine
 62
7
  6
CONTINUOUS
 10
134.1198332664
 20
39.7420249962
 11
137.0718752331
 21
42.6940669629
  0
LINE
  5
287
100
AcDbEntity
  8
_1
100
AcDbLine
 62
7
  6
CONTINUOUS
 10
137.1779412503
 20
42.5906188067
 11
134.2258992836
 21
39.63857684
  0
LINE
  5
288
100
AcDbEntity
  8
_1
100
AcDbLine
 62
7
  6
CONTINUOUS
 10
104.5677517384
 20
33.2874631802
 11
103.8177517384
 21
32.8544504783
  0
LINE
  5
289
100
AcDbEntity
  8
_1
100
AcDbLine
 62
7
  6
CONTINUOUS
 10
74.2177517384
 20
243.6946428571
 11
78.2177517384
 21
243.6946428571
  0
LINE
  5
28A
100
AcDbEntity
  8
_1
100
AcDbLine
 62
7
  6
CONTINUOUS
 10
114.3177517384
 20
243.6946428571
 11
118.3177517384
 21
243.6946428571
  0
LINE
  5
28B
100
AcDbEntity
  8
_1
100
AcDbLine
 62
7
  6
CONTINUOUS
 10
74.2177517384
 20
244.8946428571
 11
77.3548910254
 21
244.8946428571
  0
LINE
  5
28C
100
AcDbEntity
  8
_1
100
AcDbLine
 62
7
  6
CONTINUOUS
 10
115.1806124515
 20
244.8946428571
 11
118.3177517384
 21
244.8946428571
  0
LINE
  5
28D
100
AcDbEntity
  8
_1
100
AcDbLine
 62
7
  6
CONTINUOUS
 10
134.4677517384
 20
246.5946428571
 11
58.0677517384
 21
246.5946428571
  0
LINE
  5
28E
100
AcDbEntity
  8
_1
100
AcDbLine
 62
7
  6
CONTINUOUS
 10
56.0677517384
 20
248.0946428571
 11
53.7677517384
 21
248.0946428571
  0
LINE
  5
28F
100
AcDbEntity
  8
_1
100
AcDbLine
 62
7
  6
CONTINUOUS
 10
136.4677517384
 20
248.0946428571
 11
138.7677517384
 21
248.0946428571
  0
LINE
  5
290
100
AcDbEntity
  8
_1
100
AcDbLine
 62
7
  6
CONTINUOUS
 10
53.7677517384
 20
252.5946428571
 11
138.7677517384
 21
252.5946428571
  0
ARC
  5
291
100
AcDbEntity
  8
_1
100
AcDbCircle
 62
7
  6
CONTINUOUS
 10
58.5677517384
 20
32.5946428571
 40
0.3
100
AcDbArc
 50
330.0000000002
 51
59.9999999997
  0
ARC
  5
292
100
AcDbEntity
  8
_1
100
AcDbCircle
 62
7
  6
CONTINUOUS
 10
60.7677517384
 20
171.2946428571
 40
7.0
100
AcDbArc
 50
180.0
 51
270.0
  0
ARC
  5
293
100
AcDbEntity
  8
_1
100
AcDbCircle
 62
7
  6
CONTINUOUS
 10
82.0177517384
 20
108.7746428571
 40
2.0742
100
AcDbArc
 50
270.0
 51
360.0
  0
ARC
  5
294
100
AcDbEntity
  8
_1
100
AcDbCircle
 62
7
  6
CONTINUOUS
 10
82.0177517384
 20
139.2446428571
 40
2.0742
100
AcDbArc
 50
0.0
 51
90.0
  0
ARC
  5
295
100
AcDbEntity
  8
_1
100
AcDbCircle
 62
7
  6
CONTINUOUS
 10
82.0177517384
 20
139.2446428571
 40
0.5
100
AcDbArc
 50
0.0
 51
90.0
  0
ARC
  5
296
100
AcDbEntity
  8
_1
100
AcDbCircle
 62
7
  6
CONTINUOUS
 10
82.0177517384
 20
108.7746428571
 40
0.5
100
AcDbArc
 50
270.0
 51
360.0
  0
ARC
  5
297
100
AcDbEntity
  8
_1
100
AcDbCircle
 62
7
  6
CONTINUOUS
 10
103.9677517384
 20
32.5946428571
 40
0.3
100
AcDbArc
 50
120.0000000005
 51
210.0000000088
  0
ARC
  5
298
100
AcDbEntity
  8
_1
100
AcDbCircle
 62
7
  6
CONTINUOUS
 10
113.2029377824
 20
40.4446428571
 40
0.15
100
AcDbArc
 50
90.0
 51
181.0
  0
ARC
  5
299
100
AcDbEntity
  8
_1
100
AcDbCircle
 62
7
  6
CONTINUOUS
 10
113.2151563279
 20
39.7446428571
 40
0.15
100
AcDbArc
 50
181.0000000001
 51
270.0
  0
ARC
  5
29A
100
AcDbEntity
  8
_1
100
AcDbCircle
 62
7
  6
CONTINUOUS
 10
120.4159258627
 20
39.7446306418
 40
0.1499885784
100
AcDbArc
 50
270.0046669191
 51
0.0046662569
  0
ARC
  5
29B
100
AcDbEntity
  8
_1
100
AcDbCircle
 62
7
  6
CONTINUOUS
 10
120.4157125872
 20
40.4446550725
 40
0.1499885784
100
AcDbArc
 50
359.9953337424
 51
89.9953330802
  0
ARC
  5
29C
100
AcDbEntity
  8
_1
100
AcDbCircle
 62
7
  6
CONTINUOUS
 10
126.7197908896
 20
40.4446550725
 40
0.1499885784
100
AcDbArc
 50
90.0046669205
 51
180.0046662583
  0
ARC
  5
29D
100
AcDbEntity
  8
_1
100
AcDbCircle
 62
7
  6
CONTINUOUS
 10
126.7195776141
 20
39.7446306418
 40
0.1499885784
100
AcDbArc
 50
179.9953337424
 51
269.9953330802
  0
ARC
  5
29E
100
AcDbEntity
  8
_1
100
AcDbCircle
 62
7
  6
CONTINUOUS
 10
134.1198332664
 20
39.7446428571
 40
0.15
100
AcDbArc
 50
270.0
 51
315.0
  0
ARC
  5
29F
100
AcDbEntity
  8
_1
100
AcDbCircle
 62
7
  6
CONTINUOUS
 10
137.0718752331
 20
42.6966848239
 40
0.15
100
AcDbArc
 50
315.0000000005
 51
359.0
  0
ARC
  5
2A0
100
AcDbEntity
  8
_1
100
AcDbCircle
 62
7
  6
CONTINUOUS
 10
137.0894618412
 20
43.7042209256
 40
0.15
100
AcDbArc
 50
358.9999999998
 51
135.0
  0
ARC
  5
2A1
100
AcDbEntity
  8
_1
100
AcDbCircle
 62
7
  6
CONTINUOUS
 10
131.7677517384
 20
171.2946428571
 40
7.0
100
AcDbArc
 50
270.0
 51
360.0
  0
SPLINE
  5
2A2
100
AcDbEntity
  8
_1
100
AcDbSpline
 62
7
  6
CONTINUOUS
 70
0
 71
3
 72
18
 73
14
 74
0
 42
0.0000001
 43
0.0000001
 44
0.0000000001
 40
0.0
 40
0.0
 40
0.0
 40
0.0
 40
0.0052820608
 40
0.0209617842
 40
0.0467020969
 40
0.0821546947
 40
0.1268163496
 40
0.1799155389
 40
0.308232562
 40
0.460765444
 40
0.6312777944
 40
0.8133403031
 40
1.0
 40
1.0
 40
1.0
 40
1.0
 10
133.7677520849
 20
40.5946425106
 30
0.0
 10
133.767471366
 20
40.5945691805
 30
0.0
 10
133.7686772477
 20
40.5929690093
 30
0.0
 10
133.768793943
 20
40.59105889
 30
0.0
 10
133.7707620057
 20
40.5868471815
 30
0.0
 10
133.7727039698
 20
40.5815567019
 30
0.0
 10
133.775485228
 20
40.574714825
 30
0.0
 10
133.7800824132
 20
40.5632119792
 30
0.0
 10
133.7870007106
 20
40.5462025889
 30
0.0
 10
133.7963886967
 20
40.5232639635
 30
0.0
 10
133.8069417429
 20
40.4976016033
 30
0.0
 10
133.8182225181
 20
40.4702150353
 30
0.0
 10
133.8259592339
 20
40.451497208
 30
0.0
 10
133.8298837728
 20
40.4420249962
 30
0.0
  0
SPLINE
  5
2A3
100
AcDbEntity
  8
_1
100
AcDbSpline
 62
7
  6
CONTINUOUS
 70
0
 71
3
 72
18
 73
14
 74
0
 42
0.0000001
 43
0.0000001
 44
0.0000000001
 40
0.0
 40
0.0
 40
0.0
 40
0.0
 40
0.0051355828
 40
0.0196489044
 40
0.0435089459
 40
0.0765566623
 40
0.1185583181
 40
0.1690366495
 40
0.2932667735
 40
0.4446560775
 40
0.6175168608
 40
0.8054114652
 40
1.0
 40
1.0
 40
1.0
 40
1.0
 10
113.0529606281
 20
40.4420249962
 30
0.0
 10
113.0529651108
 20
40.4417681825
 30
0.0
 10
113.0544498025
 20
40.4418253964
 30
0.0
 10
113.0561405082
 20
40.4414380992
 30
0.0
 10
113.0599763026
 20
40.4413841891
 30
0.0
 10
113.0648047066
 20
40.4411872864
 30
0.0
 10
113.0711262597
 20
40.441090577
 30
0.0
 10
113.0819438287
 20
40.4409615352
 30
0.0
 10
113.098266393
 20
40.4409212752
 30
0.0
 10
113.1206915249
 20
40.4409986864
 30
0.0
 10
113.1463070268
 20
40.4412128964
 30
0.0
 10
113.1740796047
 20
40.4415542043
 30
0.0
 10
113.193207048
 20
40.4418551714
 30
0.0
 10
113.2029377824
 20
40.4420249962
 30
0.0
  0
SPLINE
  5
2A4
100
AcDbEntity
  8
_1
100
AcDbSpline
 62
7
  6
CONTINUOUS
 70
0
 71
3
 72
18
 73
14
 74
0
 42
0.0000001
 43
0.0000001
 44
0.0000000001
 40
0.0
 40
0.0
 40
0.0
 40
0.0
 40
0.0050214568
 40
0.0195742997
 40
0.0435504983
 40
0.0767755303
 40
0.1189596983
 40
0.1696201517
 40
0.2943353244
 40
0.4460657757
 40
0.6188335792
 40
0.8059978834
 40
1.0
 40
1.0
 40
1.0
 40
1.0
 10
136.983395824
 20
43.8102869428
 30
0.0
 10
136.983216045
 20
43.8101071637
 30
0.0
 10
136.9844436311
 20
43.8091491719
 30
0.0
 10
136.9853006389
 20
43.8076455624
 30
0.0
 10
136.9880807091
 20
43.8048715032
 30
0.0
 10
136.9913758583
 20
43.8012375619
 30
0.0
 10
136.995829336
 20
43.7965968525
 30
0.0
 10
137.0034360603
 20
43.7886605783
 30
0.0
 10
137.0149964906
 20
43.776780782
 30
0.0
 10
137.0309162387
 20
43.7605445854
 30
0.0
 10
137.0491213776
 20
43.7421104296
 30
0.0
 10
137.0688826746
 20
43.7222086738
 30
0.0
 10
137.0825150867
 20
43.7085477032
 30
0.0
 10
137.0894618412
 20
43.7016030646
 30
0.0
  0
SPLINE
  5
2A5
100
AcDbEntity
  8
_1
100
AcDbSpline
 62
7
  6
CONTINUOUS
 70
0
 71
3
 72
18
 73
14
 74
0
 42
0.0000001
 43
0.0000001
 44
0.0000000001
 40
0.0
 40
0.0
 40
0.0
 40
0.0
 40
0.194588527
 40
0.382483123
 40
0.5553439102
 40
0.7067332268
 40
0.8309633563
 40
0.8814416884
 40
0.9234433452
 40
0.956491061
 40
0.9803510998
 40
0.9948644184
 40
1.0
 40
1.0
 40
1.0
 40
1.0
 10
113.2151563279
 20
39.7420249962
 30
0.0
 10
113.2054255934
 20
39.7418551973
 30
0.0
 10
113.1862981509
 20
39.7415542374
 30
0.0
 10
113.1585255741
 20
39.7412128916
 30
0.0
 10
113.1329100717
 20
39.7409986771
 30
0.0
 10
113.1104849387
 20
39.7409212761
 30
0.0
 10
113.0941623735
 20
39.7409615375
 30
0.0
 10
113.0833448041
 20
39.7410905781
 30
0.0
 10
113.0770232509
 20
39.7411872864
 30
0.0
 10
113.072194847
 20
39.7413841887
 30
0.0
 10
113.068359053
 20
39.7414380989
 30
0.0
 10
113.0666683475
 20
39.741825396
 30
0.0
 10
113.0651836563
 20
39.7417681826
 30
0.0
 10
113.0651791736
 20
39.7420249962
 30
0.0
  0
SPLINE
  5
2A6
100
AcDbEntity
  8
_1
100
AcDbSpline
 62
7
  6
CONTINUOUS
 70
0
 71
3
 72
16
 73
12
 74
0
 42
0.0000001
 43
0.0000001
 44
0.0000000001
 40
0.0
 40
0.0
 40
0.0
 40
0.0
 40
0.0066397951
 40
0.0225020586
 40
0.0474888232
 40
0.0814256597
 40
0.1749513227
 40
0.2993074208
 40
0.4499957987
 40
0.6214797596
 40
1.0
 40
1.0
 40
1.0
 40
1.0
 10
120.5659152339
 20
39.7446428571
 30
0.0
 10
120.5656804359
 20
39.7444079875
 30
0.0
 10
120.5644150323
 20
39.7444027357
 30
0.0
 10
120.5621775901
 20
39.7440319879
 30
0.0
 10
120.558376943
 20
39.7438786743
 30
0.0
 10
120.5507979752
 20
39.7434874786
 30
0.0
 10
120.5381801678
 20
39.7431497342
 30
0.0
 10
120.519761473
 20
39.7427586393
 30
0.0
 10
120.497424866
 20
39.7424524837
 30
0.0
 10
120.4623813717
 20
39.7421243042
 30
0.0
 10
120.4348706717
 20
39.7420307628
 30
0.0
 10
120.4159380797
 20
39.7420249962
 30
0.0
  0
SPLINE
  5
2A7
100
AcDbEntity
  8
_1
100
AcDbSpline
 62
7
  6
CONTINUOUS
 70
0
 71
3
 72
16
 73
12
 74
0
 42
0.0000001
 43
0.0000001
 44
0.0000000001
 40
0.0
 40
0.0
 40
0.0
 40
0.0
 40
0.3785202362
 40
0.5500041971
 40
0.7006925771
 40
0.8250486767
 40
0.9185743406
 40
0.9525111771
 40
0.9774979416
 40
0.993360205
 40
1.0
 40
1.0
 40
1.0
 40
1.0
 10
120.4157248041
 20
40.4420249962
 30
0.0
 10
120.434657396
 20
40.4420307628
 30
0.0
 10
120.4621680958
 20
40.4421243042
 30
0.0
 10
120.49721159
 20
40.4424524837
 30
0.0
 10
120.5195481971
 20
40.4427586393
 30
0.0
 10
120.5379668922
 20
40.4431497342
 30
0.0
 10
120.5505846997
 20
40.4434874786
 30
0.0
 10
120.5581636675
 20
40.4438786743
 30
0.0
 10
120.5619643146
 20
40.4440319879
 30
0.0
 10
120.5642017568
 20
40.4444027357
 30
0.0
 10
120.5654671604
 20
40.4444079875
 30
0.0
 10
120.5657019584
 20
40.4446428571
 30
0.0
  0
SPLINE
  5
2A8
100
AcDbEntity
  8
_1
100
AcDbSpline
 62
7
  6
CONTINUOUS
 70
0
 71
3
 72
16
 73
12
 74
0
 42
0.0000001
 43
0.0000001
 44
0.0000000001
 40
0.0
 40
0.0
 40
0.0
 40
0.0
 40
0.3785202362
 40
0.5500041971
 40
0.7006925771
 40
0.8250486767
 40
0.9185743406
 40
0.9525111771
 40
0.9774979416
 40
0.993360205
 40
1.0
 40
1.0
 40
1.0
 40
1.0
 10
126.7195653972
 20
39.7420249962
 30
0.0
 10
126.7006328053
 20
39.7420307628
 30
0.0
 10
126.6731221055
 20
39.7421243042
 30
0.0
 10
126.6380786113
 20
39.7424524837
 30
0.0
 10
126.6157420042
 20
39.7427586393
 30
0.0
 10
126.5973233091
 20
39.7431497342
 30
0.0
 10
126.5847055016
 20
39.7434874786
 30
0.0
 10
126.5771265338
 20
39.7438786743
 30
0.0
 10
126.5733258867
 20
39.7440319879
 30
0.0
 10
126.5710884445
 20
39.7444027357
 30
0.0
 10
126.569823041
 20
39.7444079875
 30
0.0
 10
126.5695882429
 20
39.7446428571
 30
0.0
  0
SPLINE
  5
2A9
100
AcDbEntity
  8
_1
100
AcDbSpline
 62
7
  6
CONTINUOUS
 70
0
 71
3
 72
18
 73
14
 74
0
 42
0.0000001
 43
0.0000001
 44
0.0000000001
 40
0.0
 40
0.0
 40
0.0
 40
0.0
 40
0.0049779465
 40
0.0193965716
 40
0.0431577681
 40
0.0760966412
 40
0.1179780211
 40
0.1683294353
 40
0.2923278304
 40
0.4435800901
 40
0.6164889448
 40
0.8047100408
 40
1.0
 40
1.0
 40
1.0
 40
1.0
 10
134.2258992836
 20
39.63857684
 30
0.0
 10
134.225725406
 20
39.6384029623
 30
0.0
 10
134.2247958822
 20
39.6395841327
 30
0.0
 10
134.2233423541
 20
39.640414671
 30
0.0
 10
134.220656859
 20
39.6430986846
 30
0.0
 10
134.2171384701
 20
39.6462861544
 30
0.0
 10
134.2126408637
 20
39.65059765
 30
0.0
 10
134.2049424064
 20
39.6579706896
 30
0.0
 10
134.1934013138
 20
39.6691932333
 30
0.0
 10
134.177593705
 20
39.6846841724
 30
0.0
 10
134.1595784289
 20
39.7024654207
 30
0.0
 10
134.1400698076
 20
39.721826777
 30
0.0
 10
134.1266557031
 20
39.7352046375
 30
0.0
 10
134.1198332664
 20
39.7420249962
 30
0.0
  0
SPLINE
  5
2AA
100
AcDbEntity
  8
_1
100
AcDbSpline
 62
7
  6
CONTINUOUS
 70
0
 71
3
 72
11
 73
7
 74
0
 42
0.0000001
 43
0.0000001
 44
0.0000000001
 40
0.0
 40
0.0
 40
0.0
 40
0.0
 40
0.2954028855
 40
0.5544707101
 40
0.7840175265
 40
1.0
 40
1.0
 40
1.0
 40
1.0
 10
126.5677517384
 20
39.7446428571
 30
0.0
 10
126.5677517384
 20
39.7217949154
 30
0.0
 10
126.57770798
 20
39.6782406936
 30
0.0
 10
126.6157058496
 20
39.6289463486
 30
0.0
 10
126.6637031985
 20
39.6007232965
 30
0.0
 10
126.6984511594
 20
39.5946428571
 30
0.0
 10
126.7151563279
 20
39.5946428571
 30
0.0
  0
SPLINE
  5
2AB
100
AcDbEntity
  8
_1
100
AcDbSpline
 62
7
  6
CONTINUOUS
 70
0
 71
3
 72
11
 73
7
 74
0
 42
0.0000001
 43
0.0000001
 44
0.0000000001
 40
0.0
 40
0.0
 40
0.0
 40
0.0
 40
0.2954065696
 40
0.5544741383
 40
0.7840402782
 40
1.0
 40
1.0
 40
1.0
 40
1.0
 10
120.5677517384
 20
39.7446428571
 30
0.0
 10
120.5677517384
 20
39.7217947872
 30
0.0
 10
120.5577928837
 20
39.6782415687
 30
0.0
 10
120.5197964377
 20
39.6289441288
 30
0.0
 10
120.4717969858
 20
39.600725781
 30
0.0
 10
120.4370504431
 20
39.5946428571
 30
0.0
 10
120.4203471489
 20
39.5946428571
 30
0.0
  0
SPLINE
  5
2AC
100
AcDbEntity
  8
_1
100
AcDbSpline
 62
7
  6
CONTINUOUS
 70
0
 71
3
 72
18
 73
14
 74
0
 42
0.0000001
 43
0.0000001
 44
0.0000000001
 40
0.0
 40
0.0
 40
0.0
 40
0.0
 40
0.1945661565
 40
0.3818536018
 40
0.5544943401
 40
0.7060063301
 40
0.8304628065
 40
0.8810289793
 40
0.9231183229
 40
0.9562689648
 40
0.9802352229
 40
0.9948315399
 40
1.0
 40
1.0
 40
1.0
 40
1.0
 10
137.0894618412
 20
43.7016030646
 30
0.0
 10
137.0991914465
 20
43.7014332855
 30
0.0
 10
137.1182873775
 20
43.7011321969
 30
0.0
 10
137.1460174466
 20
43.700792003
 30
0.0
 10
137.1715976744
 20
43.7005773314
 30
0.0
 10
137.1940292319
 20
43.7004996501
 30
0.0
 10
137.2103736473
 20
43.7005387817
 30
0.0
 10
137.2212112781
 20
43.7006675502
 30
0.0
 10
137.2275468481
 20
43.70076409
 30
0.0
 10
137.2323896922
 20
43.7009616412
 30
0.0
 10
137.2362414723
 20
43.7010144394
 30
0.0
 10
137.2379401352
 20
43.701404666
 30
0.0
 10
137.2394344841
 20
43.7013446072
 30
0.0
 10
137.2394389955
 20
43.7016030646
 30
0.0
  0
SPLINE
  5
2AD
100
AcDbEntity
  8
_1
100
AcDbSpline
 62
7
  6
CONTINUOUS
 70
0
 71
3
 72
18
 73
14
 74
0
 42
0.0000001
 43
0.0000001
 44
0.0000000001
 40
0.0
 40
0.0
 40
0.0
 40
0.0
 40
0.1952862346
 40
0.3834971091
 40
0.5563989736
 40
0.707650729
 40
0.8316546198
 40
0.8820099427
 40
0.9238932803
 40
0.9568338605
 40
0.9805985232
 40
0.9950205532
 40
1.0
 40
1.0
 40
1.0
 40
1.0
 10
137.0718752331
 20
42.6940669629
 30
0.0
 10
137.0786975394
 20
42.6872467347
 30
0.0
 10
137.0921111508
 20
42.6738693567
 30
0.0
 10
137.1116190382
 20
42.6545087308
 30
0.0
 10
137.1296336876
 20
42.6367280954
 30
0.0
 10
137.1454412163
 20
42.6212372167
 30
0.0
 10
137.1569826115
 20
42.6100143547
 30
0.0
 10
137.1646814598
 20
42.6026409135
 30
0.0
 10
137.1691793336
 20
42.5983291556
 30
0.0
 10
137.1726979986
 20
42.5951414717
 30
0.0
 10
137.175383787
 20
42.592457097
 30
0.0
 10
137.1768376211
 20
42.5916264554
 30
0.0
 10
137.1777673203
 20
42.5904448767
 30
0.0
 10
137.1779412503
 20
42.5906188067
 30
0.0
  0
SPLINE
  5
2AE
100
AcDbEntity
  8
_1
100
AcDbSpline
 62
7
  6
CONTINUOUS
 70
0
 71
3
 72
18
 73
14
 74
0
 42
0.0000001
 43
0.0000001
 44
0.0000000001
 40
0.0
 40
0.0
 40
0.0
 40
0.0
 40
0.0051268151
 40
0.0196394057
 40
0.0435034306
 40
0.0765560339
 40
0.1185600883
 40
0.1690383149
 40
0.2932656664
 40
0.4446544226
 40
0.6175162692
 40
0.8054114997
 40
1.0
 40
1.0
 40
1.0
 40
1.0
 10
137.2218523874
 20
42.6940669629
 30
0.0
 10
137.22185015
 20
42.6938105583
 30
0.0
 10
137.2203613772
 20
42.6938667455
 30
0.0
 10
137.218675641
 20
42.6934803161
 30
0.0
 10
137.2148367157
 20
42.6934260211
 30
0.0
 10
137.2100089298
 20
42.6932293178
 30
0.0
 10
137.2036865675
 20
42.6931325407
 30
0.0
 10
137.1928692209
 20
42.6930035285
 30
0.0
 10
137.1765466919
 20
42.6929632331
 30
0.0
 10
137.1541217136
 20
42.6930406433
 30
0.0
 10
137.1285061243
 20
42.6932548564
 30
0.0
 10
137.1007334552
 20
42.6935962043
 30
0.0
 10
137.0816059713
 20
42.693897164
 30
0.0
 10
137.0718752331
 20
42.6940669629
 30
0.0
  0
SPLINE
  5
2AF
100
AcDbEntity
  8
_1
100
AcDbSpline
 62
7
  6
CONTINUOUS
 70
0
 71
3
 72
16
 73
12
 74
0
 42
0.0000001
 43
0.0000001
 44
0.0000000001
 40
0.0
 40
0.0
 40
0.0
 40
0.0
 40
0.0066397951
 40
0.0225020586
 40
0.0474888232
 40
0.0814256596
 40
0.1749513227
 40
0.2993074208
 40
0.4499957987
 40
0.6214797596
 40
1.0
 40
1.0
 40
1.0
 40
1.0
 10
126.5698015184
 20
40.4446428571
 30
0.0
 10
126.5700363165
 20
40.4444079875
 30
0.0
 10
126.57130172
 20
40.4444027357
 30
0.0
 10
126.5735391622
 20
40.4440319879
 30
0.0
 10
126.5773398093
 20
40.4438786743
 30
0.0
 10
126.5849187771
 20
40.4434874786
 30
0.0
 10
126.5975365845
 20
40.4431497342
 30
0.0
 10
126.6159552794
 20
40.4427586393
 30
0.0
 10
126.6382918863
 20
40.4424524837
 30
0.0
 10
126.6733353806
 20
40.4421243042
 30
0.0
 10
126.7008460806
 20
40.4420307628
 30
0.0
 10
126.7197786727
 20
40.4420249962
 30
0.0
  0
SPLINE
  5
2B0
100
AcDbEntity
  8
_1
100
AcDbSpline
 62
7
  6
CONTINUOUS
 70
0
 71
3
 72
14
 73
10
 74
0
 42
0.0000001
 43
0.0000001
 44
0.0000000001
 40
0.0
 40
0.0
 40
0.0
 40
0.0
 40
0.3276817938
 40
0.4764700192
 40
0.6089347121
 40
0.7229596212
 40
0.8205428347
 40
0.9093273244
 40
1.0
 40
1.0
 40
1.0
 40
1.0
 10
55.9568727601
 20
32.5946428571
 30
0.0
 10
55.9568727601
 20
32.9832801074
 30
0.0
 10
55.9773470547
 20
33.5493736757
 30
0.0
 10
56.0739527246
 20
34.2657575187
 30
0.0
 10
56.1837391141
 20
34.7228285316
 30
0.0
 10
56.3426821718
 20
35.1015085023
 30
0.0
 10
56.5632581914
 20
35.3890979851
 30
0.0
 10
56.8519227699
 20
35.5631083075
 30
0.0
 10
57.0677875054
 20
35.5946428571
 30
0.0
 10
57.1753271369
 20
35.5946428571
 30
0.0
  0
SPLINE
  5
2B1
100
AcDbEntity
  8
_1
100
AcDbSpline
 62
7
  6
CONTINUOUS
 70
0
 71
3
 72
12
 73
8
 74
0
 42
0.0000001
 43
0.0000001
 44
0.0000000001
 40
0.0
 40
0.0
 40
0.0
 40
0.0
 40
0.0748947941
 40
0.1690121802
 40
0.4063054925
 40
0.6911575943
 40
1.0
 40
1.0
 40
1.0
 40
1.0
 10
55.7677517384
 20
26.8770898196
 30
0.0
 10
55.7677517384
 20
26.9451296506
 30
0.0
 10
55.7762958082
 20
27.0986025899
 30
0.0
 10
55.8116006584
 20
27.4659983093
 30
0.0
 10
55.8766531749
 20
28.0221168356
 30
0.0
 10
55.9401799227
 20
28.7745818568
 30
0.0
 10
55.9568727601
 20
29.3140681477
 30
0.0
 10
55.9568727601
 20
29.5946428571
 30
0.0
  0
SPLINE
  5
2B2
100
AcDbEntity
  8
_1
100
AcDbSpline
 62
7
  6
CONTINUOUS
 70
0
 71
3
 72
13
 73
9
 74
0
 42
0.0000001
 43
0.0000001
 44
0.0000000001
 40
0.0
 40
0.0
 40
0.0
 40
0.0
 40
0.3295729354
 40
0.6260843904
 40
0.7520042939
 40
0.8581267783
 40
0.941492165
 40
1.0
 40
1.0
 40
1.0
 40
1.0
 10
54.0041530155
 20
29.5946428571
 30
0.0
 10
54.0041530155
 20
29.2769170843
 30
0.0
 10
53.9832815617
 20
28.6731285074
 30
0.0
 10
53.9130872796
 20
27.9512480381
 30
0.0
 10
53.8488334994
 20
27.4457773138
 30
0.0
 10
53.8081751377
 20
27.1443929403
 30
0.0
 10
53.7792068295
 20
26.9071758892
 30
0.0
 10
53.7677517384
 20
26.7706065467
 30
0.0
 10
53.7677517384
 20
26.7142018936
 30
0.0
  0
SPLINE
  5
2B3
100
AcDbEntity
  8
_1
100
AcDbSpline
 62
7
  6
CONTINUOUS
 70
0
 71
3
 72
14
 73
10
 74
0
 42
0.0000001
 43
0.0000001
 44
0.0000000001
 40
0.0
 40
0.0
 40
0.0
 40
0.0
 40
0.3343897623
 40
0.4863272051
 40
0.6214740035
 40
0.7370294727
 40
0.8337862641
 40
0.9178456312
 40
1.0
 40
1.0
 40
1.0
 40
1.0
 10
54.0041530155
 20
32.5946428571
 30
0.0
 10
54.0041530155
 20
32.9811822354
 30
0.0
 10
54.0248605149
 20
33.544244234
 30
0.0
 10
54.1174239633
 20
34.2572024964
 30
0.0
 10
54.2197873421
 20
34.7122952692
 30
0.0
 10
54.3638380058
 20
35.0893169212
 30
0.0
 10
54.5578592124
 20
35.3775235412
 30
0.0
 10
54.811924511
 20
35.5591624838
 30
0.0
 10
55.0073594568
 20
35.5946428571
 30
0.0
 10
55.1023261759
 20
35.5946428571
 30
0.0
  0
ELLIPSE
  5
2B4
100
AcDbEntity
  8
_1
100
AcDbEllipse
 62
7
  6
CONTINUOUS
 10
120.4300721137
 20
40.4446428571
 30
0.0
 11
0.1082324452
 21
0.1063008162
 31
0.0
 40
0.9778093532
 41
-0.7876143275
 42
0.7831819993
  0
ELLIPSE
  5
2B5
100
AcDbEntity
  8
_1
100
AcDbEllipse
 62
7
  6
CONTINUOUS
 10
126.7054313631
 20
40.4446428571
 30
0.0
 11
-0.1082324452
 21
0.1063008162
 31
0.0
 40
0.9778093532
 41
5.5000033079
 42
7.0707996347
  0
ENDSEC
  0
SECTION
  2
OBJECTS
  0
DICTIONARY
  5
C
100
AcDbDictionary
280
0
281
1
  3
ACAD_GROUP
350
D
  3
ACAD_MLINESTYLE
350
17
  3
ACAD_LAYOUT
350
1A
  3
ACAD_PLOTSETTINGS
350
19
  3
ACAD_PLOTSTYLENAME
350
E
  0
DICTIONARY
  5
D
102
{ACAD_REACTORS
330
C
102
}
100
AcDbDictionary
280
0
281
1
  0
ACDBDICTIONARYWDFLT
  5
E
102
{ACAD_REACTORS
330
C
102
}
100
AcDbDictionary
281
1
  3
Normal
350
F
100
AcDbDictionaryWithDefault
340
F
  0
DICTIONARY
  5
17
102
{ACAD_REACTORS
330
C
102
}
100
AcDbDictionary
280
0
281
1
  3
Standard
350
18
  0
DICTIONARY
  5
19
102
{ACAD_REACTORS
330
C
102
}
100
AcDbDictionary
281
1
  0
DICTIONARY
  5
1A
102
{ACAD_REACTORS
330
C
102
}
100
AcDbDictionary
281
1
  3
Model
350
2B6
  3
Layout1
350
2B7
  0
ACDBPLACEHOLDER
  5
F
102
{ACAD_REACTORS
330
E
102
}
  0
MLINESTYLE
  5
18
102
{ACAD_REACTORS
330
17
102
}
100
AcDbMlineStyle
  2
STANDARD
 70
0
  3

 62
256
 51
90.0
 52
90.0
 71
2
 49
0.5
 62
256
  6
BYLAYER
 49
-0.5
 62
256
  6
BYLAYER
  0
LAYOUT
  5
2B6
102
{ACAD_REACTORS
330
1A
102
}
100
AcDbPlotSettings
  1

  2
none_device
  4

  6

 40
0.0
 41
0.0
 42
0.0
 43
0.0
 44
210.0
 45
297.0
 46
0.0
 47
0.0
 48
0.0
 49
0.0
140
0.0
141
0.0
142
1.0
143
1.0
 70
1024
 72
1
 73
0
 74
0
  7

 75
0
147
1.0
148
0.0
149
0.0
100
AcDbLayout
  1
Model
 70
0
 71
0
 10
0.0
 20
0.0
 11
210.0
 21
297.0
 12
0.0
 22
0.0
 32
0.0
 14
0.0
 24
0.0
 34
0.0
 15
0.0
 25
0.0
 35
0.0
146
0.0
 13
0.0
 23
0.0
 33
0.0
 16
1.0
 26
0.0
 36
0.0
 17
0.0
 27
1.0
 37
0.0
 76
0
330
213
345
0
346
0
  0
LAYOUT
  5
2B7
102
{ACAD_REACTORS
330
1A
102
}
100
AcDbPlotSettings
  1

  2
none_device
  4

  6

 40
0.0
 41
0.0
 42
0.0
 43
0.0
 44
210.0
 45
297.0
 46
0.0
 47
0.0
 48
0.0
 49
0.0
140
0.0
141
0.0
142
1.0
143
1.0
 70
0
 72
1
 73
0
 74
0
  7

 75
0
147
1.0
148
0.0
149
0.0
100
AcDbLayout
  1
Layout1
 70
0
 71
1
 10
0.0
 20
0.0
 11
210.0
 21
297.0
 12
0.0
 22
0.0
 32
0.0
 14
0.0
 24
0.0
 34
0.0
 15
0.0
 25
0.0
 35
0.0
146
0.0
 13
0.0
 23
0.0
 33
0.0
 16
1.0
 26
0.0
 36
0.0
 17
0.0
 27
1.0
 37
0.0
 76
0
330
214
345
0
346
0
  0
ENDSEC
  0
EOF
