999
DXF file: C:\Users\sesa63760\Dev\_Creo\CAD\MCADPD0004517_3D-CAD\drw0001_3.dxf
999
Pro/ENGINEER 2019471 by Parametric Technology Corporation
  0
SECTION
  2
HEADER
  9
$ACADVER
  1
AC1024
  9
$DWGCODEPAGE
  3
ANSI_1252
  9
$EXTMAX
 10
256.6047786398
 20
362.9124726477
 30
0.0
  9
$EXTMIN
 10
0.0
 20
0.0
 30
0.0
  9
$LIMMIN
 10
0.0
 20
0.0
  9
$LIMMAX
 10
256.6047786398
 20
362.9124726477
  9
$VIEWCTR
 10
128.3023893199
 20
181.4562363239
  9
$VIEWSIZE
 40
362.9124726477
  9
$CLAYER
  8
0
  9
$LTSCALE
 40
23.6565167356
  9
$CELTYPE
  6
BYLAYER
  9
$DIMSCALE
 40
1.0
  9
$DIMASZ
 40
3.0548187933
  9
$DIMEXO
 40
1.0
  9
$DIMDLI
 40
16.3445024718
  9
$DIMEXE
 40
1.0
  9
$DIMCEN
 40
3.8710663749
  9
$DIMLFAC
 40
1.0
  9
$DIMBLK
  1
_FILLED
  9
$DIMALT
 70
0
  9
$DIMALTF
 40
0.0393700787
  9
$DIMTXT
 40
4.2767463107
  9
$DIMTOL
 70
1
  9
$DIMLIM
 70
0
  9
$DIMTFAC
 40
1.0
  9
$DIMTP
 40
0.01
  9
$DIMTM
 40
0.01
  9
$DIMGAP
 40
0.625
  9
$DIMDSEP
 70
46
  9
$AUNITS
 70
0
  9
$PDMODE
 70
3
  9
$PDSIZE
 40
0.3125
  9
$HANDSEED
  5
348
  9
$TILEMODE
 70
1
  9
$MEASUREMENT
 70
1
  9
$INSUNITS
 70
4
  0
ENDSEC
  0
SECTION
  2
CLASSES
  0
CLASS
  1
ACDBDICTIONARYWDFLT
  2
AcDbDictionaryWithDefault
  3
AutoCAD 2000
 90
0
 91
1
280
0
281
0
  0
CLASS
  1
ACDBPLACEHOLDER
  2
AcDbPlaceHolder
  3
AutoCAD 2000
 90
0
 91
1
280
0
281
0
  0
CLASS
  1
LAYOUT
  2
AcDbLayout
  3
AutoCAD 2000
 90
0
 91
0
280
0
281
0
  0
ENDSEC
  0
SECTION
  2
TABLES
  0
TABLE
  2
VPORT
  5
8
100
AcDbSymbolTable
 70
2
  0
VPORT
  5
1F4
100
AcDbSymbolTableRecord
100
AcDbViewportTableRecord
  2
*ACTIVE
 70
0
 10
0.0
 20
0.0
 11
1.0
 21
1.0
 12
128.3023893199
 22
181.4562363239
 13
0.0
 23
0.0
 14
1.0
 24
1.0
 15
0.0
 25
0.0
 16
0.0
 26
0.0
 36
1.0
 17
0.0
 27
0.0
 37
0.0
 40
362.9124726477
 41
0.7070707071
 42
50.0
 43
0.0
 44
0.0
 50
0.0
 51
0.0
 71
0
 72
100
 73
1
 74
1
 75
0
 76
0
 77
0
 78
0
  0
ENDTAB
  0
TABLE
  2
LTYPE
  5
5
100
AcDbSymbolTable
 70
6
  0
LTYPE
  5
14
100
AcDbSymbolTableRecord
100
AcDbLinetypeTableRecord
  2
BYBLOCK
 70
0
  3

 72
65
 73
0
 40
0.0
  0
LTYPE
  5
15
100
AcDbSymbolTableRecord
100
AcDbLinetypeTableRecord
  2
BYLAYER
 70
0
  3

 72
65
 73
0
 40
0.0
  0
LTYPE
  5
16
100
AcDbSymbolTableRecord
100
AcDbLinetypeTableRecord
  2
CONTINUOUS
 70
64
  3
Solid line
 72
65
 73
0
 40
0.0
  0
LTYPE
  5
1F5
100
AcDbSymbolTableRecord
100
AcDbLinetypeTableRecord
  2
CENTER
 70
64
  3
____ _ ____ _ ____ _ ____ _ ____ _ ____ _ ____
 72
65
 73
4
 40
0.6
 49
0.375
 74
0
 49
-0.075
 74
0
 49
0.075
 74
0
 49
-0.075
 74
0
  0
LTYPE
  5
1F6
100
AcDbSymbolTableRecord
100
AcDbLinetypeTableRecord
  2
HIDDEN
 70
64
  3
- - - - - - - - - - - - - - - - - - - -
 72
65
 73
2
 40
0.2
 49
0.1
 74
0
 49
-0.1
 74
0
  0
LTYPE
  5
1F7
100
AcDbSymbolTableRecord
100
AcDbLinetypeTableRecord
  2
PHANTOM
 70
64
  3
_____ _ _ _____ _ _ _____ _ _ _____
 72
65
 73
6
 40
0.8
 49
0.45
 74
0
 49
-0.05
 74
0
 49
0.1
 74
0
 49
-0.05
 74
0
 49
0.1
 74
0
 49
-0.05
 74
0
  0
LTYPE
  5
1F8
100
AcDbSymbolTableRecord
100
AcDbLinetypeTableRecord
  2
DOT
 70
64
  3
. . . . . . . . . . . . . . . . . . . .
 72
65
 73
2
 40
0.2
 49
0.1
 74
0
 49
-0.1
 74
0
  0
LTYPE
  5
1F9
100
AcDbSymbolTableRecord
100
AcDbLinetypeTableRecord
  2
DASHED
 70
64
  3
- - - - - - - - - - - - - - - - - - - -
 72
65
 73
2
 40
0.2
 49
0.1
 74
0
 49
-0.1
 74
0
  0
ENDTAB
  0
TABLE
  2
LAYER
  5
2
100
AcDbSymbolTable
 70
36
  0
LAYER
  5
10
100
AcDbSymbolTableRecord
100
AcDbLayerTableRecord
  2
0
 70
0
 62
7
  6
CONTINUOUS
370
-3
390
F
  0
LAYER
  5
1FA
100
AcDbSymbolTableRecord
100
AcDbLayerTableRecord
  2
DEFAULT_1
 70
0
 62
7
  6
CENTER
370
-3
390
F
  0
LAYER
  5
1FB
100
AcDbSymbolTableRecord
100
AcDbLayerTableRecord
  2
DEFAULT_2
 70
0
 62
7
  6
HIDDEN
370
-3
390
F
  0
LAYER
  5
1FC
100
AcDbSymbolTableRecord
100
AcDbLayerTableRecord
  2
DEFAULT_3
 70
0
 62
7
  6
PHANTOM
370
-3
390
F
  0
LAYER
  5
1FD
100
AcDbSymbolTableRecord
100
AcDbLayerTableRecord
  2
00_COMPONENTS
 70
0
 62
7
  6
CONTINUOUS
370
-3
390
F
  0
LAYER
  5
1FE
100
AcDbSymbolTableRecord
100
AcDbLayerTableRecord
  2
01_1_DEFAULT_DATUMS
 70
0
 62
7
  6
CONTINUOUS
370
-3
390
F
  0
LAYER
  5
1FF
100
AcDbSymbolTableRecord
100
AcDbLayerTableRecord
  2
01_PLANES
 70
0
 62
7
  6
CONTINUOUS
370
-3
390
F
  0
LAYER
  5
200
100
AcDbSymbolTableRecord
100
AcDbLayerTableRecord
  2
02_COORD_SYS
 70
0
 62
7
  6
CONTINUOUS
370
-3
390
F
  0
LAYER
  5
201
100
AcDbSymbolTableRecord
100
AcDbLayerTableRecord
  2
03_AXES
 70
0
 62
7
  6
CONTINUOUS
370
-3
390
F
  0
LAYER
  5
202
100
AcDbSymbolTableRecord
100
AcDbLayerTableRecord
  2
04_POINTS
 70
0
 62
7
  6
CONTINUOUS
370
-3
390
F
  0
LAYER
  5
203
100
AcDbSymbolTableRecord
100
AcDbLayerTableRecord
  2
05_CURVES
 70
0
 62
7
  6
CONTINUOUS
370
-3
390
F
  0
LAYER
  5
204
100
AcDbSymbolTableRecord
100
AcDbLayerTableRecord
  2
06_SURFS
 70
0
 62
7
  6
CONTINUOUS
370
-3
390
F
  0
LAYER
  5
205
100
AcDbSymbolTableRecord
100
AcDbLayerTableRecord
  2
07_COSMETICS
 70
0
 62
7
  6
CONTINUOUS
370
-3
390
F
  0
LAYER
  5
206
100
AcDbSymbolTableRecord
100
AcDbLayerTableRecord
  2
10_NOTES
 70
0
 62
7
  6
CONTINUOUS
370
-3
390
F
  0
LAYER
  5
207
100
AcDbSymbolTableRecord
100
AcDbLayerTableRecord
  2
11_NOTES_PUB
 70
0
 62
7
  6
CONTINUOUS
370
-3
390
F
  0
LAYER
  5
208
100
AcDbSymbolTableRecord
100
AcDbLayerTableRecord
  2
13_REF_GTOL
 70
0
 62
7
  6
CONTINUOUS
370
-3
390
F
  0
LAYER
  5
209
100
AcDbSymbolTableRecord
100
AcDbLayerTableRecord
  2
16_MISC
 70
0
 62
7
  6
CONTINUOUS
370
-3
390
F
  0
LAYER
  5
20A
100
AcDbSymbolTableRecord
100
AcDbLayerTableRecord
  2
17_NO_PRINT
 70
0
 62
7
  6
CONTINUOUS
370
-3
390
F
  0
LAYER
  5
20B
100
AcDbSymbolTableRecord
100
AcDbLayerTableRecord
  2
18_DATUM_CAMS_JOINTS
 70
0
 62
7
  6
CONTINUOUS
370
-3
390
F
  0
LAYER
  5
20C
100
AcDbSymbolTableRecord
100
AcDbLayerTableRecord
  2
19_DATUM_FUNCTIONAL
 70
0
 62
7
  6
CONTINUOUS
370
-3
390
F
  0
LAYER
  5
20D
100
AcDbSymbolTableRecord
100
AcDbLayerTableRecord
  2
20_DATUM_KINEMATIC_SCHEME
 70
0
 62
7
  6
CONTINUOUS
370
-3
390
F
  0
ENDTAB
  0
TABLE
  2
STYLE
  5
3
100
AcDbSymbolTable
 70
1
  0
STYLE
  5
11
100
AcDbSymbolTableRecord
100
AcDbTextStyleTableRecord
  2
STANDARD
 70
0
 40
0.0
 41
1.0
 50
0.0
 71
0
 42
0.2
  3
ARIAL.TTF
  4

  0
STYLE
  5
20E
100
AcDbSymbolTableRecord
100
AcDbTextStyleTableRecord
  2
TEXTSTYLE_1
 70
0
 40
0.0
 41
0.8
 50
0.0
 71
0
 42
0.2
  3
gdt
  4

  0
ENDTAB
  0
TABLE
  2
VIEW
  5
6
100
AcDbSymbolTable
 70
0
  0
ENDTAB
  0
TABLE
  2
UCS
  5
7
100
AcDbSymbolTable
 70
0
  0
ENDTAB
  0
TABLE
  2
APPID
  5
9
100
AcDbSymbolTable
 70
1
  0
APPID
  5
20F
100
AcDbSymbolTableRecord
100
AcDbRegAppTableRecord
  2
ACAD
 70
0
  0
ENDTAB
  0
TABLE
  2
BLOCK_RECORD
  5
1
100
AcDbSymbolTable
 70
0
  0
BLOCK_RECORD
  5
210
100
AcDbSymbolTableRecord
100
AcDbBlockTableRecord
  2
*Model_Space
  0
BLOCK_RECORD
  5
211
100
AcDbSymbolTableRecord
100
AcDbBlockTableRecord
  2
*Paper_Space
  0
BLOCK_RECORD
  5
212
100
AcDbSymbolTableRecord
100
AcDbBlockTableRecord
  2
_FILLED
  0
ENDTAB
  0
TABLE
  2
DIMSTYLE
  5
A
100
AcDbSymbolTable
 70
1
100
AcDbDimStyleTable
 71
0
  0
DIMSTYLE
105
213
100
AcDbSymbolTableRecord
100
AcDbDimStyleTableRecord
  2
STANDARD
 70
0
  3

  4

 40
1.0
 41
3.0548187933
 42
1.0
 43
0.38
 44
1.0
 45
0.0
 46
0.0
 47
0.01
 48
0.01
140
4.2767463107
141
0.09
142
0.0
143
25.4
144
1.0
145
0.0
146
1.0
147
0.625
 71
1
 72
0
 73
0
 74
0
 75
0
 76
0
 77
1
 78
8
 79
2
170
0
171
1
172
0
173
0
174
0
175
0
176
0
177
0
178
0
270
2
179
2
271
2
272
2
273
2
274
2
275
0
280
0
281
0
282
0
283
1
284
8
285
0
286
0
287
3
288
0
340
11
278
46
341
212
342
212
343
212
344
212
  0
ENDTAB
  0
ENDSEC
  0
SECTION
  2
BLOCKS
  0
BLOCK
  5
20
100
AcDbEntity
  8
0
100
AcDbBlockBegin
  2
*Model_Space
 70
0
 10
0.0
 20
0.0
 30
0.0
  3
*Model_Space
  1

  0
ENDBLK
  5
21
100
AcDbEntity
  8
0
100
AcDbBlockEnd
  0
BLOCK
  5
1C
100
AcDbEntity
  8
0
100
AcDbBlockBegin
  2
*Paper_Space
 70
0
 10
0.0
 20
0.0
 30
0.0
  3
*Paper_Space
  1

  0
ENDBLK
  5
1D
100
AcDbEntity
  8
0
100
AcDbBlockEnd
  0
BLOCK
  5
214
100
AcDbEntity
  8
0
100
AcDbBlockBegin
  2
_FILLED
 70
64
 10
0.0
 20
0.0
  3
_FILLED
  1

  0
SOLID
  5
215
100
AcDbEntity
  8
0
  6
BYBLOCK
 62
0
100
AcDbTrace
 10
0.0
 20
0.0
 11
-1.0
 21
0.25
 12
-1.0
 22
-0.25
 13
-1.0
 23
-0.25
  0
ENDBLK
  5
216
100
AcDbEntity
  8
0
  6
BYBLOCK
 62
0
100
AcDbBlockEnd
  0
ENDSEC
  0
SECTION
  2
ENTITIES
  0
LINE
  5
217
100
AcDbEntity
  8
0
100
AcDbLine
 62
7
  6
BYLAYER
 10
73.3559998232
 20
277.5946389496
 11
60.3559998232
 21
267.0946389496
  0
LINE
  5
218
100
AcDbEntity
  8
0
100
AcDbLine
 62
7
  6
BYLAYER
 10
30.3559998232
 20
130.5946389496
 11
30.3559998232
 21
105.5946389496
  0
LINE
  5
219
100
AcDbEntity
  8
0
100
AcDbLine
 62
7
  6
BYLAYER
 10
30.3559998232
 20
153.5946389496
 11
30.3559998232
 21
178.5946389496
  0
LINE
  5
21A
100
AcDbEntity
  8
0
100
AcDbLine
 62
7
  6
BYLAYER
 10
30.3559998232
 20
201.5946389496
 11
30.3559998232
 21
226.5946389496
  0
LINE
  5
21B
100
AcDbEntity
  8
0
100
AcDbLine
 62
7
  6
BYLAYER
 10
65.3559998232
 20
84.5946389496
 11
198.3559998232
 21
84.5946389496
  0
LINE
  5
21C
100
AcDbEntity
  8
0
100
AcDbLine
 62
7
  6
BYLAYER
 10
200.3559998232
 20
86.5946389496
 11
175.6771744469
 21
86.5946391089
  0
LINE
  5
21D
100
AcDbEntity
  8
0
100
AcDbLine
 62
7
  6
BYLAYER
 10
173.6066220635
 20
86.5946390663
 11
90.1053775949
 21
86.5946390278
  0
LINE
  5
21E
100
AcDbEntity
  8
0
100
AcDbLine
 62
7
  6
BYLAYER
 10
88.0348266081
 20
86.5946392261
 11
63.3559998232
 21
86.5946389496
  0
LINE
  5
21F
100
AcDbEntity
  8
0
100
AcDbLine
 62
7
  6
BYLAYER
 10
85.1059998232
 20
93.5946389496
 11
86.1591809109
 21
93.5946389496
  0
LINE
  5
220
100
AcDbEntity
  8
0
100
AcDbLine
 62
7
  6
BYLAYER
 10
88.2297331494
 20
93.5946389781
 11
175.4822666595
 21
93.5946390153
  0
LINE
  5
221
100
AcDbEntity
  8
0
100
AcDbLine
 62
7
  6
BYLAYER
 10
177.5528187355
 20
93.5946389496
 11
178.6059998232
 21
93.5946389496
  0
LINE
  5
222
100
AcDbEntity
  8
0
100
AcDbLine
 62
7
  6
BYLAYER
 10
85.1059998232
 20
94.5946389496
 11
178.6059998232
 21
94.5946389496
  0
LINE
  5
223
100
AcDbEntity
  8
0
100
AcDbLine
 62
7
  6
BYLAYER
 10
180.6059998232
 20
95.5946389496
 11
83.1059998232
 21
95.5946389496
  0
LINE
  5
224
100
AcDbEntity
  8
0
100
AcDbLine
 62
7
  6
BYLAYER
 10
90.1053687342
 20
86.5946721069
 11
89.1394736424
 21
86.3357383592
  0
LINE
  5
225
100
AcDbEntity
  8
0
100
AcDbLine
 62
7
  6
BYLAYER
 10
89.0007510842
 20
86.8534579947
 11
88.0348259224
 21
86.5946391277
  0
LINE
  5
226
100
AcDbEntity
  8
0
100
AcDbLine
 62
7
  6
BYLAYER
 10
86.1591815753
 20
93.5946391277
 11
87.1251067372
 21
93.8534579947
  0
LINE
  5
227
100
AcDbEntity
  8
0
100
AcDbLine
 62
7
  6
BYLAYER
 10
59.3559998232
 20
100.0946389496
 11
204.3559998232
 21
100.0946389496
  0
LINE
  5
228
100
AcDbEntity
  8
0
100
AcDbLine
 62
7
  6
BYLAYER
 10
233.3559998232
 20
105.5946389496
 11
207.4177009748
 21
105.5946389496
  0
LINE
  5
229
100
AcDbEntity
  8
0
100
AcDbLine
 62
7
  6
BYLAYER
 10
30.3559998232
 20
105.5946389496
 11
56.2942986715
 21
105.5946389496
  0
LINE
  5
22A
100
AcDbEntity
  8
0
100
AcDbLine
 62
7
  6
BYLAYER
 10
58.8559998232
 20
107.0946389496
 11
59.3559998232
 21
107.0946389496
  0
LINE
  5
22B
100
AcDbEntity
  8
0
100
AcDbLine
 62
7
  6
BYLAYER
 10
204.3559998232
 20
107.0946389496
 11
204.8559998232
 21
107.0946389496
  0
LINE
  5
22C
100
AcDbEntity
  8
0
100
AcDbLine
 62
7
  6
BYLAYER
 10
204.6306366313
 20
107.3446389496
 11
204.3559998232
 21
107.3446389496
  0
LINE
  5
22D
100
AcDbEntity
  8
0
100
AcDbLine
 62
7
  6
BYLAYER
 10
59.081363015
 20
107.3446389496
 11
59.3559998232
 21
107.3446389496
  0
LINE
  5
22E
100
AcDbEntity
  8
0
100
AcDbLine
 62
7
  6
BYLAYER
 10
175.6771744296
 20
86.5946390737
 11
174.7112485959
 21
86.8534581208
  0
LINE
  5
22F
100
AcDbEntity
  8
0
100
AcDbLine
 62
7
  6
BYLAYER
 10
176.5868929092
 20
93.8534579947
 11
177.5528187428
 21
93.5946389476
  0
LINE
  5
230
100
AcDbEntity
  8
0
100
AcDbLine
 62
7
  6
BYLAYER
 10
174.5725235344
 20
86.3357291428
 11
173.6066064601
 21
86.5945803436
  0
LINE
  5
231
100
AcDbEntity
  8
0
100
AcDbLine
 62
7
  6
BYLAYER
 10
88.2428778294
 20
86.0769985841
 11
88.0348266636
 21
86.5946390879
  0
LINE
  5
232
100
AcDbEntity
  8
0
100
AcDbLine
 62
7
  6
BYLAYER
 10
58.6059998232
 20
105.8946389496
 11
58.6059998232
 21
106.7238532304
  0
LINE
  5
233
100
AcDbEntity
  8
0
100
AcDbLine
 62
7
  6
BYLAYER
 10
58.6059998232
 20
140.8446389496
 11
58.6059998232
 21
149.3446389496
  0
LINE
  5
234
100
AcDbEntity
  8
0
100
AcDbLine
 62
7
  6
BYLAYER
 10
58.6059998232
 20
182.8446389496
 11
58.6059998232
 21
191.3446389496
  0
LINE
  5
235
100
AcDbEntity
  8
0
100
AcDbLine
 62
7
  6
BYLAYER
 10
58.6059998232
 20
225.4654246688
 11
58.6059998232
 21
226.2946389496
  0
LINE
  5
236
100
AcDbEntity
  8
0
100
AcDbLine
 62
7
  6
BYLAYER
 10
58.8559998232
 20
226.087878799
 11
58.8559998232
 21
225.0946389496
  0
LINE
  5
237
100
AcDbEntity
  8
0
100
AcDbLine
 62
7
  6
BYLAYER
 10
58.8559998232
 20
191.0946389496
 11
58.8559998232
 21
183.0946389496
  0
LINE
  5
238
100
AcDbEntity
  8
0
100
AcDbLine
 62
7
  6
BYLAYER
 10
58.8559998232
 20
149.0946389496
 11
58.8559998232
 21
141.0946389496
  0
LINE
  5
239
100
AcDbEntity
  8
0
100
AcDbLine
 62
7
  6
BYLAYER
 10
58.8559998232
 20
106.0946389496
 11
58.8559998232
 21
107.0946389496
  0
LINE
  5
23A
100
AcDbEntity
  8
0
100
AcDbLine
 62
7
  6
BYLAYER
 10
59.2559998232
 20
107.3446389496
 11
59.2559998232
 21
107.5940461591
  0
LINE
  5
23B
100
AcDbEntity
  8
0
100
AcDbLine
 62
7
  6
BYLAYER
 10
59.2559998232
 20
131.4029293265
 11
59.2559998232
 21
140.8446389496
  0
LINE
  5
23C
100
AcDbEntity
  8
0
100
AcDbLine
 62
7
  6
BYLAYER
 10
59.2559998232
 20
149.3446389496
 11
59.2559998232
 21
154.4029293265
  0
LINE
  5
23D
100
AcDbEntity
  8
0
100
AcDbLine
 62
7
  6
BYLAYER
 10
59.2559998232
 20
177.7863485728
 11
59.2559998232
 21
182.8446389496
  0
LINE
  5
23E
100
AcDbEntity
  8
0
100
AcDbLine
 62
7
  6
BYLAYER
 10
59.2559998232
 20
191.3446389496
 11
59.2559998232
 21
200.7863485728
  0
LINE
  5
23F
100
AcDbEntity
  8
0
100
AcDbLine
 62
7
  6
BYLAYER
 10
59.2559998232
 20
224.5952317402
 11
59.2559998232
 21
224.8446389496
  0
LINE
  5
240
100
AcDbEntity
  8
0
100
AcDbLine
 62
7
  6
BYLAYER
 10
59.3559998232
 20
242.0946389496
 11
59.3559998232
 21
177.3446389496
  0
LINE
  5
241
100
AcDbEntity
  8
0
100
AcDbLine
 62
7
  6
BYLAYER
 10
59.3559998232
 20
164.8446389496
 11
59.3559998232
 21
100.0946389496
  0
LINE
  5
242
100
AcDbEntity
  8
0
100
AcDbLine
 62
7
  6
BYLAYER
 10
60.3559998232
 20
242.0946389496
 11
60.3559998232
 21
267.0946389496
  0
LINE
  5
243
100
AcDbEntity
  8
0
100
AcDbLine
 62
7
  6
BYLAYER
 10
60.8559998232
 20
100.0946389496
 11
60.8559998232
 21
166.3446389496
  0
LINE
  5
244
100
AcDbEntity
  8
0
100
AcDbLine
 62
7
  6
BYLAYER
 10
60.8559998232
 20
175.8446389496
 11
60.8559998232
 21
242.0946389496
  0
LINE
  5
245
100
AcDbEntity
  8
0
100
AcDbLine
 62
7
  6
BYLAYER
 10
63.3559998232
 20
100.0946389496
 11
63.3559998232
 21
86.5946389496
  0
LINE
  5
246
100
AcDbEntity
  8
0
100
AcDbLine
 62
7
  6
BYLAYER
 10
66.8559998232
 20
174.3446389496
 11
66.8559998232
 21
167.8446389496
  0
LINE
  5
247
100
AcDbEntity
  8
0
100
AcDbLine
 62
7
  6
BYLAYER
 10
88.0348266081
 20
86.5946392261
 11
86.1591809109
 21
93.5946389496
  0
LINE
  5
248
100
AcDbEntity
  8
0
100
AcDbLine
 62
7
  6
BYLAYER
 10
89.2088012136
 20
86.0770043414
 11
87.1251067372
 21
93.8534579948
  0
LINE
  5
249
100
AcDbEntity
  8
0
100
AcDbLine
 62
7
  6
BYLAYER
 10
88.2297331494
 20
93.5946389781
 11
90.1053775949
 21
86.5946390278
  0
LINE
  5
24A
100
AcDbEntity
  8
0
100
AcDbLine
 62
7
  6
BYLAYER
 10
68.3559998232
 20
242.0946389496
 11
68.3559998232
 21
259.5890854502
  0
LINE
  5
24B
100
AcDbEntity
  8
0
100
AcDbLine
 62
7
  6
BYLAYER
 10
70.6059998232
 20
221.9330415875
 11
70.6059998232
 21
216.2530487735
  0
LINE
  5
24C
100
AcDbEntity
  8
0
100
AcDbLine
 62
7
  6
BYLAYER
 10
70.6059998232
 20
174.3446389496
 11
70.6059998232
 21
167.8446389496
  0
LINE
  5
24D
100
AcDbEntity
  8
0
100
AcDbLine
 62
7
  6
BYLAYER
 10
70.6059998232
 20
150.7083711286
 11
70.6059998232
 21
139.4780566257
  0
LINE
  5
24E
100
AcDbEntity
  8
0
100
AcDbLine
 62
7
  6
BYLAYER
 10
70.6059998232
 20
125.9350705621
 11
70.6059998232
 21
120.2542073372
  0
LINE
  5
24F
100
AcDbEntity
  8
0
100
AcDbLine
 62
7
  6
BYLAYER
 10
71.3559997993
 20
84.5946389496
 11
71.3559998217
 21
100.0946389496
  0
LINE
  5
250
100
AcDbEntity
  8
0
100
AcDbLine
 62
7
  6
BYLAYER
 10
71.8559998232
 20
222.3446389496
 11
71.8559998232
 21
215.8446389496
  0
LINE
  5
251
100
AcDbEntity
  8
0
100
AcDbLine
 62
7
  6
BYLAYER
 10
71.8559998232
 20
174.3446389496
 11
71.8559998232
 21
167.8446389496
  0
LINE
  5
252
100
AcDbEntity
  8
0
100
AcDbLine
 62
7
  6
BYLAYER
 10
71.8559998232
 20
151.3700051567
 11
71.8559998232
 21
138.8183016663
  0
LINE
  5
253
100
AcDbEntity
  8
0
100
AcDbLine
 62
7
  6
BYLAYER
 10
71.8559998232
 20
126.3446389496
 11
71.8559998232
 21
119.8446389496
  0
LINE
  5
254
100
AcDbEntity
  8
0
100
AcDbLine
 62
7
  6
BYLAYER
 10
72.2953396514
 20
119.8446389496
 11
72.2953396514
 21
126.3446389496
  0
LINE
  5
255
100
AcDbEntity
  8
0
100
AcDbLine
 62
7
  6
BYLAYER
 10
72.2953396514
 20
138.7549055763
 11
72.2953396514
 21
151.4336764934
  0
LINE
  5
256
100
AcDbEntity
  8
0
100
AcDbLine
 62
7
  6
BYLAYER
 10
72.2953396514
 20
167.8446389496
 11
72.2953396514
 21
174.3446389496
  0
LINE
  5
257
100
AcDbEntity
  8
0
100
AcDbLine
 62
7
  6
BYLAYER
 10
72.2953396514
 20
215.8446389496
 11
72.2953396514
 21
222.3446389496
  0
LINE
  5
258
100
AcDbEntity
  8
0
100
AcDbLine
 62
7
  6
BYLAYER
 10
73.3559998232
 20
277.5946389496
 11
73.3559998232
 21
280.0946389496
  0
LINE
  5
259
100
AcDbEntity
  8
0
100
AcDbLine
 62
7
  6
BYLAYER
 10
191.8559998232
 20
119.8446389496
 11
184.8559998232
 21
119.8446389496
  0
LINE
  5
25A
100
AcDbEntity
  8
0
100
AcDbLine
 62
7
  6
BYLAYER
 10
78.8559998232
 20
119.8446389496
 11
71.8559998232
 21
119.8446389496
  0
LINE
  5
25B
100
AcDbEntity
  8
0
100
AcDbLine
 62
7
  6
BYLAYER
 10
71.8559998232
 20
126.3446389496
 11
78.8559998232
 21
126.3446389496
  0
LINE
  5
25C
100
AcDbEntity
  8
0
100
AcDbLine
 62
7
  6
BYLAYER
 10
184.8559998232
 20
126.3446389496
 11
191.8559998232
 21
126.3446389496
  0
LINE
  5
25D
100
AcDbEntity
  8
0
100
AcDbLine
 62
7
  6
BYLAYER
 10
80.1059998232
 20
246.5946389496
 11
80.1059998232
 21
242.0946389496
  0
LINE
  5
25E
100
AcDbEntity
  8
0
100
AcDbLine
 62
7
  6
BYLAYER
 10
82.1059998232
 20
242.0946389496
 11
82.1059998232
 21
244.5946389496
  0
LINE
  5
25F
100
AcDbEntity
  8
0
100
AcDbLine
 62
7
  6
BYLAYER
 10
83.1059998232
 20
100.0946389496
 11
83.1059998232
 21
95.5946389496
  0
LINE
  5
260
100
AcDbEntity
  8
0
100
AcDbLine
 62
7
  6
BYLAYER
 10
84.1059998232
 20
100.0946389496
 11
84.1059998232
 21
95.5946389496
  0
LINE
  5
261
100
AcDbEntity
  8
0
100
AcDbLine
 62
7
  6
BYLAYER
 10
85.1059998232
 20
93.5946389496
 11
85.1059998232
 21
94.5946389496
  0
LINE
  5
262
100
AcDbEntity
  8
0
100
AcDbLine
 62
7
  6
BYLAYER
 10
85.6820559929
 20
267.0946389496
 11
85.6820559929
 21
264.8533286515
  0
LINE
  5
263
100
AcDbEntity
  8
0
100
AcDbLine
 62
7
  6
BYLAYER
 10
86.1059999626
 20
94.5946389496
 11
86.1059998247
 21
100.0946389496
  0
LINE
  5
264
100
AcDbEntity
  8
0
100
AcDbLine
 62
7
  6
BYLAYER
 10
57.0521522459
 20
130.5946389496
 11
30.3559998232
 21
130.5946389496
  0
LINE
  5
265
100
AcDbEntity
  8
0
100
AcDbLine
 62
7
  6
BYLAYER
 10
206.6598474005
 20
130.5946389496
 11
233.3559998232
 21
130.5946389496
  0
LINE
  5
266
100
AcDbEntity
  8
0
100
AcDbLine
 62
7
  6
BYLAYER
 10
148.6059998232
 20
131.0946389496
 11
115.1059998232
 21
131.0946389496
  0
LINE
  5
267
100
AcDbEntity
  8
0
100
AcDbLine
 62
7
  6
BYLAYER
 10
62.3559998232
 20
174.3446389496
 11
59.3559998232
 21
177.3446389496
  0
LINE
  5
268
100
AcDbEntity
  8
0
100
AcDbLine
 62
7
  6
BYLAYER
 10
86.1591809109
 20
94.5946389496
 11
86.1591809109
 21
93.5946389496
  0
LINE
  5
269
100
AcDbEntity
  8
0
100
AcDbLine
 62
7
  6
BYLAYER
 10
88.2297332708
 20
93.5946389496
 11
88.2297332708
 21
94.5946389496
  0
LINE
  5
26A
100
AcDbEntity
  8
0
100
AcDbLine
 62
7
  6
BYLAYER
 10
88.3559998232
 20
259.5890854502
 11
88.3559998232
 21
246.5946389496
  0
LINE
  5
26B
100
AcDbEntity
  8
0
100
AcDbLine
 62
7
  6
BYLAYER
 10
89.9115134503
 20
100.0946389496
 11
89.9115134503
 21
242.0946389496
  0
LINE
  5
26C
100
AcDbEntity
  8
0
100
AcDbLine
 62
7
  6
BYLAYER
 10
90.3559998232
 20
244.5946389496
 11
90.3559998232
 21
258.4343849118
  0
LINE
  5
26D
100
AcDbEntity
  8
0
100
AcDbLine
 62
7
  6
BYLAYER
 10
92.8559998232
 20
100.0946389496
 11
92.8559998232
 21
242.0946389496
  0
LINE
  5
26E
100
AcDbEntity
  8
0
100
AcDbLine
 62
7
  6
BYLAYER
 10
62.3559998232
 20
167.8446389496
 11
59.3559998232
 21
164.8446389496
  0
LINE
  5
26F
100
AcDbEntity
  8
0
100
AcDbLine
 62
7
  6
BYLAYER
 10
205.1059998232
 20
140.8446389496
 11
204.3559998232
 21
140.8446389496
  0
LINE
  5
270
100
AcDbEntity
  8
0
100
AcDbLine
 62
7
  6
BYLAYER
 10
58.6059998232
 20
140.8446389496
 11
59.3559998232
 21
140.8446389496
  0
LINE
  5
271
100
AcDbEntity
  8
0
100
AcDbLine
 62
7
  6
BYLAYER
 10
204.8559998232
 20
141.0946389496
 11
204.3559998232
 21
141.0946389496
  0
LINE
  5
272
100
AcDbEntity
  8
0
100
AcDbLine
 62
7
  6
BYLAYER
 10
59.3559998232
 20
141.0946389496
 11
58.8559998232
 21
141.0946389496
  0
LINE
  5
273
100
AcDbEntity
  8
0
100
AcDbLine
 62
7
  6
BYLAYER
 10
59.3559998232
 20
177.7286135458
 11
58.5521522459
 21
178.192715161
  0
LINE
  5
274
100
AcDbEntity
  8
0
100
AcDbLine
 62
7
  6
BYLAYER
 10
58.8559998232
 20
149.0946389496
 11
59.3559998232
 21
149.0946389496
  0
LINE
  5
275
100
AcDbEntity
  8
0
100
AcDbLine
 62
7
  6
BYLAYER
 10
204.3559998232
 20
149.0946389496
 11
204.8559998232
 21
149.0946389496
  0
LINE
  5
276
100
AcDbEntity
  8
0
100
AcDbLine
 62
7
  6
BYLAYER
 10
205.1059998232
 20
149.3446389496
 11
204.3559998232
 21
149.3446389496
  0
LINE
  5
277
100
AcDbEntity
  8
0
100
AcDbLine
 62
7
  6
BYLAYER
 10
58.6059998232
 20
149.3446389496
 11
59.3559998232
 21
149.3446389496
  0
LINE
  5
278
100
AcDbEntity
  8
0
100
AcDbLine
 62
7
  6
BYLAYER
 10
233.3559998232
 20
153.5946389496
 11
206.6598474005
 21
153.5946389496
  0
LINE
  5
279
100
AcDbEntity
  8
0
100
AcDbLine
 62
7
  6
BYLAYER
 10
57.0521522459
 20
153.5946389496
 11
30.3559998232
 21
153.5946389496
  0
LINE
  5
27A
100
AcDbEntity
  8
0
100
AcDbLine
 62
7
  6
BYLAYER
 10
59.3559998232
 20
224.4524169395
 11
58.9063111305
 21
225.0946389496
  0
LINE
  5
27B
100
AcDbEntity
  8
0
100
AcDbLine
 62
7
  6
BYLAYER
 10
58.8559998232
 20
225.1664909429
 11
58.7517548044
 21
225.3153682587
  0
LINE
  5
27C
100
AcDbEntity
  8
0
100
AcDbLine
 62
7
  6
BYLAYER
 10
111.8559998232
 20
134.3446389496
 11
111.8559998232
 21
207.8446389496
  0
LINE
  5
27D
100
AcDbEntity
  8
0
100
AcDbLine
 62
7
  6
BYLAYER
 10
58.5521522459
 20
201.192715161
 11
59.3559998232
 21
200.7286135458
  0
LINE
  5
27E
100
AcDbEntity
  8
0
100
AcDbLine
 62
7
  6
BYLAYER
 10
121.8559998232
 20
277.5946389496
 11
121.8559998232
 21
267.0946389496
  0
LINE
  5
27F
100
AcDbEntity
  8
0
100
AcDbLine
 62
7
  6
BYLAYER
 10
58.7517548044
 20
106.8739096406
 11
58.8559998232
 21
107.0227869564
  0
LINE
  5
280
100
AcDbEntity
  8
0
100
AcDbLine
 62
7
  6
BYLAYER
 10
58.9063111305
 20
107.0946389496
 11
59.3559998232
 21
107.7368609597
  0
LINE
  5
281
100
AcDbEntity
  8
0
100
AcDbLine
 62
7
  6
BYLAYER
 10
175.3559998232
 20
246.5946389496
 11
173.3559998232
 21
244.5946389496
  0
LINE
  5
282
100
AcDbEntity
  8
0
100
AcDbLine
 62
7
  6
BYLAYER
 10
183.6059998232
 20
246.5946389496
 11
181.6059998232
 21
244.5946389496
  0
LINE
  5
283
100
AcDbEntity
  8
0
100
AcDbLine
 62
7
  6
BYLAYER
 10
58.5521522459
 20
153.9965627383
 11
59.3559998232
 21
154.4606643534
  0
LINE
  5
284
100
AcDbEntity
  8
0
100
AcDbLine
 62
7
  6
BYLAYER
 10
201.3559998232
 20
167.8446389496
 11
184.8559998232
 21
167.8446389496
  0
LINE
  5
285
100
AcDbEntity
  8
0
100
AcDbLine
 62
7
  6
BYLAYER
 10
78.8559998232
 20
167.8446389496
 11
62.3559998232
 21
167.8446389496
  0
LINE
  5
286
100
AcDbEntity
  8
0
100
AcDbLine
 62
7
  6
BYLAYER
 10
66.4540760345
 20
174.0946389496
 11
66.8559998232
 21
174.0946389496
  0
LINE
  5
287
100
AcDbEntity
  8
0
100
AcDbLine
 62
7
  6
BYLAYER
 10
196.8559998232
 20
174.0946389496
 11
197.2579236118
 21
174.0946389496
  0
LINE
  5
288
100
AcDbEntity
  8
0
100
AcDbLine
 62
7
  6
BYLAYER
 10
62.3559998232
 20
174.3446389496
 11
78.8559998232
 21
174.3446389496
  0
LINE
  5
289
100
AcDbEntity
  8
0
100
AcDbLine
 62
7
  6
BYLAYER
 10
184.8559998232
 20
174.3446389496
 11
201.3559998232
 21
174.3446389496
  0
LINE
  5
28A
100
AcDbEntity
  8
0
100
AcDbLine
 62
7
  6
BYLAYER
 10
30.3559998232
 20
178.5946389496
 11
57.0521522459
 21
178.5946389496
  0
LINE
  5
28B
100
AcDbEntity
  8
0
100
AcDbLine
 62
7
  6
BYLAYER
 10
206.6598474005
 20
178.5946389496
 11
233.3559998232
 21
178.5946389496
  0
LINE
  5
28C
100
AcDbEntity
  8
0
100
AcDbLine
 62
7
  6
BYLAYER
 10
205.1059998232
 20
182.8446389496
 11
204.3559998232
 21
182.8446389496
  0
LINE
  5
28D
100
AcDbEntity
  8
0
100
AcDbLine
 62
7
  6
BYLAYER
 10
58.6059998232
 20
182.8446389496
 11
59.3559998232
 21
182.8446389496
  0
LINE
  5
28E
100
AcDbEntity
  8
0
100
AcDbLine
 62
7
  6
BYLAYER
 10
204.8559998232
 20
183.0946389496
 11
204.3559998232
 21
183.0946389496
  0
LINE
  5
28F
100
AcDbEntity
  8
0
100
AcDbLine
 62
7
  6
BYLAYER
 10
59.3559998232
 20
183.0946389496
 11
58.8559998232
 21
183.0946389496
  0
LINE
  5
290
100
AcDbEntity
  8
0
100
AcDbLine
 62
7
  6
BYLAYER
 10
205.1598474004
 20
130.9965627383
 11
204.3559998232
 21
131.4606643534
  0
LINE
  5
291
100
AcDbEntity
  8
0
100
AcDbLine
 62
7
  6
BYLAYER
 10
141.8559998232
 20
267.0946389496
 11
141.8559998232
 21
277.5946389496
  0
LINE
  5
292
100
AcDbEntity
  8
0
100
AcDbLine
 62
7
  6
BYLAYER
 10
59.3559998232
 20
131.4606643534
 11
58.5521522459
 21
130.9965627383
  0
LINE
  5
293
100
AcDbEntity
  8
0
100
AcDbLine
 62
7
  6
BYLAYER
 10
58.8559998232
 20
191.0946389496
 11
59.3559998232
 21
191.0946389496
  0
LINE
  5
294
100
AcDbEntity
  8
0
100
AcDbLine
 62
7
  6
BYLAYER
 10
204.3559998232
 20
191.0946389496
 11
204.8559998232
 21
191.0946389496
  0
LINE
  5
295
100
AcDbEntity
  8
0
100
AcDbLine
 62
7
  6
BYLAYER
 10
205.1059998232
 20
191.3446389496
 11
204.3559998232
 21
191.3446389496
  0
LINE
  5
296
100
AcDbEntity
  8
0
100
AcDbLine
 62
7
  6
BYLAYER
 10
58.6059998232
 20
191.3446389496
 11
59.3559998232
 21
191.3446389496
  0
LINE
  5
297
100
AcDbEntity
  8
0
100
AcDbLine
 62
7
  6
BYLAYER
 10
80.1059998232
 20
246.5946389496
 11
82.1059998232
 21
244.5946389496
  0
LINE
  5
298
100
AcDbEntity
  8
0
100
AcDbLine
 62
7
  6
BYLAYER
 10
151.8559998232
 20
207.8446389496
 11
151.8559998232
 21
134.3446389496
  0
LINE
  5
299
100
AcDbEntity
  8
0
100
AcDbLine
 62
7
  6
BYLAYER
 10
57.0521522459
 20
201.5946389496
 11
30.3559998232
 21
201.5946389496
  0
LINE
  5
29A
100
AcDbEntity
  8
0
100
AcDbLine
 62
7
  6
BYLAYER
 10
206.6598474005
 20
201.5946389496
 11
233.3559998232
 21
201.5946389496
  0
LINE
  5
29B
100
AcDbEntity
  8
0
100
AcDbLine
 62
7
  6
BYLAYER
 10
204.3559998232
 20
154.4606643534
 11
205.1598474005
 21
153.9965627382
  0
LINE
  5
29C
100
AcDbEntity
  8
0
100
AcDbLine
 62
7
  6
BYLAYER
 10
88.3559998232
 20
246.5946389496
 11
90.3559998232
 21
244.5946389496
  0
LINE
  5
29D
100
AcDbEntity
  8
0
100
AcDbLine
 62
7
  6
BYLAYER
 10
204.3559998232
 20
107.7368609597
 11
204.8056885159
 21
107.0946389496
  0
LINE
  5
29E
100
AcDbEntity
  8
0
100
AcDbLine
 62
7
  6
BYLAYER
 10
204.8559998232
 20
107.0227869564
 11
204.960244842
 21
106.8739096406
  0
LINE
  5
29F
100
AcDbEntity
  8
0
100
AcDbLine
 62
7
  6
BYLAYER
 10
204.3559998232
 20
200.7286135458
 11
205.1598474005
 21
201.192715161
  0
LINE
  5
2A0
100
AcDbEntity
  8
0
100
AcDbLine
 62
7
  6
BYLAYER
 10
115.1059998232
 20
211.0946389496
 11
148.6059998232
 21
211.0946389496
  0
LINE
  5
2A1
100
AcDbEntity
  8
0
100
AcDbLine
 62
7
  6
BYLAYER
 10
204.960244842
 20
225.3153682587
 11
204.8559998232
 21
225.1664909429
  0
LINE
  5
2A2
100
AcDbEntity
  8
0
100
AcDbLine
 62
7
  6
BYLAYER
 10
204.8056885159
 20
225.0946389496
 11
204.3559998232
 21
224.4524169395
  0
LINE
  5
2A3
100
AcDbEntity
  8
0
100
AcDbLine
 62
7
  6
BYLAYER
 10
191.8559998232
 20
215.8446389496
 11
184.8559998232
 21
215.8446389496
  0
LINE
  5
2A4
100
AcDbEntity
  8
0
100
AcDbLine
 62
7
  6
BYLAYER
 10
78.8559998232
 20
215.8446389496
 11
71.8559998232
 21
215.8446389496
  0
LINE
  5
2A5
100
AcDbEntity
  8
0
100
AcDbLine
 62
7
  6
BYLAYER
 10
170.8559998232
 20
100.0946389496
 11
170.8559998232
 21
242.0946389496
  0
LINE
  5
2A6
100
AcDbEntity
  8
0
100
AcDbLine
 62
7
  6
BYLAYER
 10
173.3559998232
 20
258.4343849118
 11
173.3559998232
 21
244.5946389496
  0
LINE
  5
2A7
100
AcDbEntity
  8
0
100
AcDbLine
 62
7
  6
BYLAYER
 10
173.800486196
 20
100.0946389496
 11
173.800486196
 21
242.0946389496
  0
LINE
  5
2A8
100
AcDbEntity
  8
0
100
AcDbLine
 62
7
  6
BYLAYER
 10
175.3559998232
 20
246.5946389496
 11
175.3559998232
 21
259.5890854502
  0
LINE
  5
2A9
100
AcDbEntity
  8
0
100
AcDbLine
 62
7
  6
BYLAYER
 10
175.4822663805
 20
94.5946389496
 11
175.4822663805
 21
93.5946389496
  0
LINE
  5
2AA
100
AcDbEntity
  8
0
100
AcDbLine
 62
7
  6
BYLAYER
 10
177.5528187355
 20
93.5946389496
 11
177.5528187355
 21
94.5946389496
  0
LINE
  5
2AB
100
AcDbEntity
  8
0
100
AcDbLine
 62
7
  6
BYLAYER
 10
177.6059998256
 20
100.0946389496
 11
177.6059998232
 21
94.5946389496
  0
LINE
  5
2AC
100
AcDbEntity
  8
0
100
AcDbLine
 62
7
  6
BYLAYER
 10
178.6059998232
 20
94.5946389496
 11
178.6059998232
 21
93.5946389496
  0
LINE
  5
2AD
100
AcDbEntity
  8
0
100
AcDbLine
 62
7
  6
BYLAYER
 10
179.6059998232
 20
95.5946389496
 11
179.6059998232
 21
100.0946389496
  0
LINE
  5
2AE
100
AcDbEntity
  8
0
100
AcDbLine
 62
7
  6
BYLAYER
 10
205.1598474005
 20
178.192715161
 11
204.3559998232
 21
177.7286135458
  0
LINE
  5
2AF
100
AcDbEntity
  8
0
100
AcDbLine
 62
7
  6
BYLAYER
 10
71.8559998232
 20
222.3446389496
 11
78.8559998232
 21
222.3446389496
  0
LINE
  5
2B0
100
AcDbEntity
  8
0
100
AcDbLine
 62
7
  6
BYLAYER
 10
184.8559998232
 20
222.3446389496
 11
191.8559998232
 21
222.3446389496
  0
LINE
  5
2B1
100
AcDbEntity
  8
0
100
AcDbLine
 62
7
  6
BYLAYER
 10
204.6306366313
 20
224.8446389496
 11
204.3559998232
 21
224.8446389496
  0
LINE
  5
2B2
100
AcDbEntity
  8
0
100
AcDbLine
 62
7
  6
BYLAYER
 10
59.081363015
 20
224.8446389496
 11
59.3559998232
 21
224.8446389496
  0
LINE
  5
2B3
100
AcDbEntity
  8
0
100
AcDbLine
 62
7
  6
BYLAYER
 10
204.8559998232
 20
225.0946389496
 11
204.3559998232
 21
225.0946389496
  0
LINE
  5
2B4
100
AcDbEntity
  8
0
100
AcDbLine
 62
7
  6
BYLAYER
 10
59.3559998232
 20
225.0946389496
 11
58.8559998232
 21
225.0946389496
  0
LINE
  5
2B5
100
AcDbEntity
  8
0
100
AcDbLine
 62
7
  6
BYLAYER
 10
233.3559998232
 20
226.5946389496
 11
207.4177009748
 21
226.5946389496
  0
LINE
  5
2B6
100
AcDbEntity
  8
0
100
AcDbLine
 62
7
  6
BYLAYER
 10
30.3559998232
 20
226.5946389496
 11
56.2942986715
 21
226.5946389496
  0
LINE
  5
2B7
100
AcDbEntity
  8
0
100
AcDbLine
 62
7
  6
BYLAYER
 10
201.3559998232
 20
167.8446389496
 11
204.3559998232
 21
164.8446389496
  0
LINE
  5
2B8
100
AcDbEntity
  8
0
100
AcDbLine
 62
7
  6
BYLAYER
 10
180.6059998232
 20
95.5946389496
 11
180.6059998232
 21
100.0946389496
  0
LINE
  5
2B9
100
AcDbEntity
  8
0
100
AcDbLine
 62
7
  6
BYLAYER
 10
181.6059998232
 20
242.0946389496
 11
181.6059998232
 21
244.5946389496
  0
LINE
  5
2BA
100
AcDbEntity
  8
0
100
AcDbLine
 62
7
  6
BYLAYER
 10
183.6059998232
 20
242.0946389496
 11
183.6059998232
 21
246.5946389496
  0
LINE
  5
2BB
100
AcDbEntity
  8
0
100
AcDbLine
 62
7
  6
BYLAYER
 10
173.6066215875
 20
86.594639047
 11
173.537275837
 21
86.0770241392
  0
LINE
  5
2BC
100
AcDbEntity
  8
0
100
AcDbLine
 62
7
  6
BYLAYER
 10
201.3559998232
 20
174.3446389496
 11
204.3559998232
 21
177.3446389496
  0
LINE
  5
2BD
100
AcDbEntity
  8
0
100
AcDbLine
 62
7
  6
BYLAYER
 10
137.8559998232
 20
232.3946389496
 11
125.8559998232
 21
232.3946389496
  0
LINE
  5
2BE
100
AcDbEntity
  8
0
100
AcDbLine
 62
7
  6
BYLAYER
 10
125.8559998232
 20
238.8946389496
 11
137.8559998232
 21
238.8946389496
  0
LINE
  5
2BF
100
AcDbEntity
  8
0
100
AcDbLine
 62
7
  6
BYLAYER
 10
190.3559998232
 20
277.5946389496
 11
190.3559998232
 21
280.0946389496
  0
LINE
  5
2C0
100
AcDbEntity
  8
0
100
AcDbLine
 62
7
  6
BYLAYER
 10
191.416659995
 20
222.3446389496
 11
191.416659995
 21
215.8446389496
  0
LINE
  5
2C1
100
AcDbEntity
  8
0
100
AcDbLine
 62
7
  6
BYLAYER
 10
191.416659995
 20
174.3446389496
 11
191.416659995
 21
167.8446389496
  0
LINE
  5
2C2
100
AcDbEntity
  8
0
100
AcDbLine
 62
7
  6
BYLAYER
 10
191.416659995
 20
126.3446389496
 11
191.416659995
 21
119.8446389496
  0
LINE
  5
2C3
100
AcDbEntity
  8
0
100
AcDbLine
 62
7
  6
BYLAYER
 10
191.8559998232
 20
119.8446389496
 11
191.8559998232
 21
126.3446389496
  0
LINE
  5
2C4
100
AcDbEntity
  8
0
100
AcDbLine
 62
7
  6
BYLAYER
 10
191.8559998232
 20
167.8446389496
 11
191.8559998232
 21
174.3446389496
  0
LINE
  5
2C5
100
AcDbEntity
  8
0
100
AcDbLine
 62
7
  6
BYLAYER
 10
191.8559998232
 20
215.8446389496
 11
191.8559998232
 21
222.3446389496
  0
LINE
  5
2C6
100
AcDbEntity
  8
0
100
AcDbLine
 62
7
  6
BYLAYER
 10
192.3559998224
 20
100.0946389496
 11
192.3559998201
 21
84.5946389496
  0
LINE
  5
2C7
100
AcDbEntity
  8
0
100
AcDbLine
 62
7
  6
BYLAYER
 10
193.1059998232
 20
221.9362291257
 11
193.1059998232
 21
216.2562363117
  0
LINE
  5
2C8
100
AcDbEntity
  8
0
100
AcDbLine
 62
7
  6
BYLAYER
 10
193.1059998232
 20
174.3446389496
 11
193.1059998232
 21
167.8446389496
  0
LINE
  5
2C9
100
AcDbEntity
  8
0
100
AcDbLine
 62
7
  6
BYLAYER
 10
193.1059998232
 20
125.9362291257
 11
193.1059998232
 21
120.2562363117
  0
LINE
  5
2CA
100
AcDbEntity
  8
0
100
AcDbLine
 62
7
  6
BYLAYER
 10
195.3559998232
 20
259.5890854502
 11
195.3559998232
 21
242.0946389496
  0
LINE
  5
2CB
100
AcDbEntity
  8
0
100
AcDbLine
 62
7
  6
BYLAYER
 10
196.8559998232
 20
167.8446389496
 11
196.8559998232
 21
174.3446389496
  0
LINE
  5
2CC
100
AcDbEntity
  8
0
100
AcDbLine
 62
7
  6
BYLAYER
 10
173.6066220635
 20
86.5946390663
 11
175.4822666595
 21
93.5946390153
  0
LINE
  5
2CD
100
AcDbEntity
  8
0
100
AcDbLine
 62
7
  6
BYLAYER
 10
174.5031980927
 20
86.0770030721
 11
176.5868929092
 21
93.8534579947
  0
LINE
  5
2CE
100
AcDbEntity
  8
0
100
AcDbLine
 62
7
  6
BYLAYER
 10
59.3559998232
 20
242.0946389496
 11
204.3559998232
 21
242.0946389496
  0
LINE
  5
2CF
100
AcDbEntity
  8
0
100
AcDbLine
 62
7
  6
BYLAYER
 10
181.6059998232
 20
244.5946389496
 11
173.3559998232
 21
244.5946389496
  0
LINE
  5
2D0
100
AcDbEntity
  8
0
100
AcDbLine
 62
7
  6
BYLAYER
 10
82.1059998232
 20
244.5946389496
 11
90.3559998232
 21
244.5946389496
  0
LINE
  5
2D1
100
AcDbEntity
  8
0
100
AcDbLine
 62
7
  6
BYLAYER
 10
183.6059998232
 20
246.5946389496
 11
175.3559998232
 21
246.5946389496
  0
LINE
  5
2D2
100
AcDbEntity
  8
0
100
AcDbLine
 62
7
  6
BYLAYER
 10
88.3559998232
 20
246.5946389496
 11
80.1059998232
 21
246.5946389496
  0
LINE
  5
2D3
100
AcDbEntity
  8
0
100
AcDbLine
 62
7
  6
BYLAYER
 10
200.3559998232
 20
86.5946389496
 11
200.3559998232
 21
100.0946389496
  0
LINE
  5
2D4
100
AcDbEntity
  8
0
100
AcDbLine
 62
7
  6
BYLAYER
 10
202.8559998232
 20
242.0946389496
 11
202.8559998232
 21
175.8446389496
  0
LINE
  5
2D5
100
AcDbEntity
  8
0
100
AcDbLine
 62
7
  6
BYLAYER
 10
202.8559998232
 20
166.3446389496
 11
202.8559998232
 21
100.0946389496
  0
LINE
  5
2D6
100
AcDbEntity
  8
0
100
AcDbLine
 62
7
  6
BYLAYER
 10
203.3559998232
 20
242.0946389496
 11
203.3559998232
 21
267.0946389496
  0
LINE
  5
2D7
100
AcDbEntity
  8
0
100
AcDbLine
 62
7
  6
BYLAYER
 10
204.3559998232
 20
100.0946389496
 11
204.3559998232
 21
164.8446389496
  0
LINE
  5
2D8
100
AcDbEntity
  8
0
100
AcDbLine
 62
7
  6
BYLAYER
 10
204.3559998232
 20
177.3446389496
 11
204.3559998232
 21
242.0946389496
  0
LINE
  5
2D9
100
AcDbEntity
  8
0
100
AcDbLine
 62
7
  6
BYLAYER
 10
204.4559998232
 20
107.3446389496
 11
204.4559998232
 21
107.5940461591
  0
LINE
  5
2DA
100
AcDbEntity
  8
0
100
AcDbLine
 62
7
  6
BYLAYER
 10
204.4559998232
 20
131.4029293265
 11
204.4559998232
 21
140.8446389496
  0
LINE
  5
2DB
100
AcDbEntity
  8
0
100
AcDbLine
 62
7
  6
BYLAYER
 10
204.4559998232
 20
149.3446389496
 11
204.4559998232
 21
154.4029293265
  0
LINE
  5
2DC
100
AcDbEntity
  8
0
100
AcDbLine
 62
7
  6
BYLAYER
 10
204.4559998232
 20
177.7863485728
 11
204.4559998232
 21
182.8446389496
  0
LINE
  5
2DD
100
AcDbEntity
  8
0
100
AcDbLine
 62
7
  6
BYLAYER
 10
204.4559998232
 20
191.3446389496
 11
204.4559998232
 21
200.7863485728
  0
LINE
  5
2DE
100
AcDbEntity
  8
0
100
AcDbLine
 62
7
  6
BYLAYER
 10
204.4559998232
 20
224.5952317402
 11
204.4559998232
 21
224.8446389496
  0
LINE
  5
2DF
100
AcDbEntity
  8
0
100
AcDbLine
 62
7
  6
BYLAYER
 10
204.8559998232
 20
226.0946389496
 11
204.8559998232
 21
225.0946389496
  0
LINE
  5
2E0
100
AcDbEntity
  8
0
100
AcDbLine
 62
7
  6
BYLAYER
 10
204.8559998232
 20
106.1013991003
 11
204.8559998232
 21
107.0946389496
  0
LINE
  5
2E1
100
AcDbEntity
  8
0
100
AcDbLine
 62
7
  6
BYLAYER
 10
204.8559998232
 20
141.0946389496
 11
204.8559998232
 21
149.0946389496
  0
LINE
  5
2E2
100
AcDbEntity
  8
0
100
AcDbLine
 62
7
  6
BYLAYER
 10
204.8559998232
 20
183.0946389496
 11
204.8559998232
 21
191.0946389496
  0
LINE
  5
2E3
100
AcDbEntity
  8
0
100
AcDbLine
 62
7
  6
BYLAYER
 10
205.1059998232
 20
226.2946389496
 11
205.1059998232
 21
225.4654246688
  0
LINE
  5
2E4
100
AcDbEntity
  8
0
100
AcDbLine
 62
7
  6
BYLAYER
 10
205.1059998232
 20
191.3446389496
 11
205.1059998232
 21
182.8446389496
  0
LINE
  5
2E5
100
AcDbEntity
  8
0
100
AcDbLine
 62
7
  6
BYLAYER
 10
205.1059998232
 20
149.3446389496
 11
205.1059998232
 21
140.8446389496
  0
LINE
  5
2E6
100
AcDbEntity
  8
0
100
AcDbLine
 62
7
  6
BYLAYER
 10
205.1059998232
 20
106.7238532304
 11
205.1059998232
 21
105.8946389496
  0
LINE
  5
2E7
100
AcDbEntity
  8
0
100
AcDbLine
 62
7
  6
BYLAYER
 10
177.5528187355
 20
93.5946389496
 11
175.6771744469
 21
86.5946391089
  0
LINE
  5
2E8
100
AcDbEntity
  8
0
100
AcDbLine
 62
7
  6
BYLAYER
 10
175.6771744149
 20
86.5946390293
 11
175.4691240416
 21
86.0769981463
  0
LINE
  5
2E9
100
AcDbEntity
  8
0
100
AcDbLine
 62
7
  6
BYLAYER
 10
173.3559998232
 20
254.3929330275
 11
90.3559998232
 21
254.3929330275
  0
LINE
  5
2EA
100
AcDbEntity
  8
0
100
AcDbLine
 62
7
  6
BYLAYER
 10
68.3559998232
 20
259.5890854502
 11
88.3559998232
 21
259.5890854502
  0
LINE
  5
2EB
100
AcDbEntity
  8
0
100
AcDbLine
 62
7
  6
BYLAYER
 10
175.3559998232
 20
259.5890854502
 11
195.3559998232
 21
259.5890854502
  0
LINE
  5
2EC
100
AcDbEntity
  8
0
100
AcDbLine
 62
7
  6
BYLAYER
 10
60.3559998232
 20
267.0946389496
 11
203.3559998232
 21
267.0946389496
  0
LINE
  5
2ED
100
AcDbEntity
  8
0
100
AcDbLine
 62
7
  6
BYLAYER
 10
233.3559998232
 20
178.5946389496
 11
233.3559998232
 21
153.5946389496
  0
LINE
  5
2EE
100
AcDbEntity
  8
0
100
AcDbLine
 62
7
  6
BYLAYER
 10
233.3559998232
 20
130.5946389496
 11
233.3559998232
 21
105.5946389496
  0
LINE
  5
2EF
100
AcDbEntity
  8
0
100
AcDbLine
 62
7
  6
BYLAYER
 10
233.3559998232
 20
201.5946389496
 11
233.3559998232
 21
226.5946389496
  0
LINE
  5
2F0
100
AcDbEntity
  8
0
100
AcDbLine
 62
7
  6
BYLAYER
 10
190.3559998232
 20
277.5946389496
 11
141.8559998232
 21
277.5946389496
  0
LINE
  5
2F1
100
AcDbEntity
  8
0
100
AcDbLine
 62
7
  6
BYLAYER
 10
121.8559998232
 20
277.5946389496
 11
73.3559998232
 21
277.5946389496
  0
LINE
  5
2F2
100
AcDbEntity
  8
0
100
AcDbLine
 62
7
  6
BYLAYER
 10
190.3559998232
 20
280.0946389496
 11
73.3559998232
 21
280.0946389496
  0
LINE
  5
2F3
100
AcDbEntity
  8
0
100
AcDbLine
 62
7
  6
BYLAYER
 10
203.3559998232
 20
267.0946389496
 11
190.3559998232
 21
277.5946389496
  0
CIRCLE
  5
2F4
100
AcDbEntity
  8
0
100
AcDbCircle
 62
7
  6
BYLAYER
 10
73.4059998232
 20
145.0946389496
 40
6.5
  0
CIRCLE
  5
2F5
100
AcDbEntity
  8
0
100
AcDbCircle
 62
7
  6
BYLAYER
 10
42.8559998232
 20
118.0946389496
 40
5.5
  0
ARC
  5
2F6
100
AcDbEntity
  8
0
100
AcDbCircle
 62
7
  6
BYLAYER
 10
63.8559998232
 20
106.0946389496
 40
5.0
100
AcDbArc
 50
180.0
 51
202.3923048454
  0
ARC
  5
2F7
100
AcDbEntity
  8
0
100
AcDbCircle
 62
7
  6
BYLAYER
 10
63.6059998232
 20
105.8946389496
 40
5.0
100
AcDbArc
 50
180.0
 51
211.3123072853
  0
ARC
  5
2F8
100
AcDbEntity
  8
0
100
AcDbCircle
 62
7
  6
BYLAYER
 10
78.8559998232
 20
123.0946389496
 40
3.25
100
AcDbArc
 50
270.0
 51
90.0
  0
ARC
  5
2F9
100
AcDbEntity
  8
0
100
AcDbCircle
 62
7
  6
BYLAYER
 10
71.8559998232
 20
123.0946389496
 40
3.25
100
AcDbArc
 50
90.0
 51
270.0
  0
ARC
  5
2FA
100
AcDbEntity
  8
0
100
AcDbCircle
 62
7
  6
BYLAYER
 10
115.1059998232
 20
134.3446389496
 40
3.25
100
AcDbArc
 50
180.0
 51
270.0
  0
ARC
  5
2FB
100
AcDbEntity
  8
0
100
AcDbCircle
 62
7
  6
BYLAYER
 10
56.2942986715
 20
108.5946389496
 40
3.0
100
AcDbArc
 50
270.0
 51
325.0000000003
  0
ARC
  5
2FC
100
AcDbEntity
  8
0
100
AcDbCircle
 62
7
  6
BYLAYER
 10
57.0521522459
 20
133.5946389496
 40
3.0
100
AcDbArc
 50
270.0
 51
300.0000000006
  0
ARC
  5
2FD
100
AcDbEntity
  8
0
100
AcDbCircle
 62
7
  6
BYLAYER
 10
57.0521522459
 20
156.5946389496
 40
3.0
100
AcDbArc
 50
270.0
 51
299.9999999998
  0
ARC
  5
2FE
100
AcDbEntity
  8
0
100
AcDbCircle
 62
7
  6
BYLAYER
 10
91.1406537991
 20
86.5946389496
 40
2.0
100
AcDbArc
 50
194.999950479
 51
270.0
  0
ARC
  5
2FF
100
AcDbEntity
  8
0
100
AcDbCircle
 62
7
  6
BYLAYER
 10
65.3559998232
 20
86.5946389496
 40
2.0
100
AcDbArc
 50
180.0
 51
270.0
  0
ARC
  5
300
100
AcDbEntity
  8
0
100
AcDbCircle
 62
7
  6
BYLAYER
 10
85.1059998232
 20
95.5946389496
 40
2.0
100
AcDbArc
 50
180.0
 51
270.0
  0
ARC
  5
301
100
AcDbEntity
  8
0
100
AcDbCircle
 62
7
  6
BYLAYER
 10
86.1591809109
 20
93.5946389496
 40
1.0
100
AcDbArc
 50
15.0
 51
90.0000001001
  0
ARC
  5
302
100
AcDbEntity
  8
0
100
AcDbCircle
 62
7
  6
BYLAYER
 10
85.1059998232
 20
95.5946389496
 40
1.0
100
AcDbArc
 50
180.0
 51
270.0
  0
CIRCLE
  5
303
100
AcDbEntity
  8
0
100
AcDbCircle
 62
7
  6
BYLAYER
 10
42.8559998232
 20
214.0946389496
 40
5.5
  0
CIRCLE
  5
304
100
AcDbEntity
  8
0
100
AcDbCircle
 62
7
  6
BYLAYER
 10
42.8559998232
 20
166.0946389496
 40
5.5
  0
ARC
  5
305
100
AcDbEntity
  8
0
100
AcDbCircle
 62
7
  6
BYLAYER
 10
63.8559998232
 20
226.0946389496
 40
5.0
100
AcDbArc
 50
157.6076951546
 51
180.0
  0
ARC
  5
306
100
AcDbEntity
  8
0
100
AcDbCircle
 62
7
  6
BYLAYER
 10
63.6059998232
 20
226.2946389496
 40
5.0
100
AcDbArc
 50
148.6871776344
 51
180.0
  0
ARC
  5
307
100
AcDbEntity
  8
0
100
AcDbCircle
 62
7
  6
BYLAYER
 10
78.8559998232
 20
219.0946389496
 40
3.25
100
AcDbArc
 50
270.0
 51
90.0
  0
ARC
  5
308
100
AcDbEntity
  8
0
100
AcDbCircle
 62
7
  6
BYLAYER
 10
71.8559998232
 20
219.0946389496
 40
3.25
100
AcDbArc
 50
90.0
 51
270.0
  0
ARC
  5
309
100
AcDbEntity
  8
0
100
AcDbCircle
 62
7
  6
BYLAYER
 10
78.8559998232
 20
171.0946389496
 40
3.25
100
AcDbArc
 50
270.0
 51
90.0
  0
ARC
  5
30A
100
AcDbEntity
  8
0
100
AcDbCircle
 62
7
  6
BYLAYER
 10
115.1059998232
 20
207.8446389496
 40
3.25
100
AcDbArc
 50
90.0
 51
180.0
  0
ARC
  5
30B
100
AcDbEntity
  8
0
100
AcDbCircle
 62
7
  6
BYLAYER
 10
125.8559998232
 20
235.6446389496
 40
3.25
100
AcDbArc
 50
90.0
 51
270.0
  0
ARC
  5
30C
100
AcDbEntity
  8
0
100
AcDbCircle
 62
7
  6
BYLAYER
 10
56.2942986715
 20
223.5946389496
 40
3.0
100
AcDbArc
 50
34.9999999997
 51
90.0
  0
ARC
  5
30D
100
AcDbEntity
  8
0
100
AcDbCircle
 62
7
  6
BYLAYER
 10
57.0521522459
 20
198.5946389496
 40
3.0
100
AcDbArc
 50
59.9999999994
 51
90.0
  0
ARC
  5
30E
100
AcDbEntity
  8
0
100
AcDbCircle
 62
7
  6
BYLAYER
 10
66.4540760345
 20
177.0946389496
 40
3.0
100
AcDbArc
 50
246.8885287225
 51
270.0
  0
ARC
  5
30F
100
AcDbEntity
  8
0
100
AcDbCircle
 62
7
  6
BYLAYER
 10
57.0521522459
 20
175.5946389496
 40
3.0
100
AcDbArc
 50
60.0000000002
 51
90.0
  0
CIRCLE
  5
310
100
AcDbEntity
  8
0
100
AcDbCircle
 62
7
  6
BYLAYER
 10
220.8559998232
 20
118.0946389496
 40
5.5
  0
ARC
  5
311
100
AcDbEntity
  8
0
100
AcDbCircle
 62
7
  6
BYLAYER
 10
199.8559998232
 20
106.0946389496
 40
5.0
100
AcDbArc
 50
337.6076951546
 51
360.0
  0
ARC
  5
312
100
AcDbEntity
  8
0
100
AcDbCircle
 62
7
  6
BYLAYER
 10
200.1059998232
 20
105.8946389496
 40
5.0
100
AcDbArc
 50
328.6871776344
 51
360.0
  0
ARC
  5
313
100
AcDbEntity
  8
0
100
AcDbCircle
 62
7
  6
BYLAYER
 10
148.6059998232
 20
134.3446389496
 40
3.25
100
AcDbArc
 50
270.0
 51
360.0
  0
ARC
  5
314
100
AcDbEntity
  8
0
100
AcDbCircle
 62
7
  6
BYLAYER
 10
191.8559998232
 20
123.0946389496
 40
3.25
100
AcDbArc
 50
270.0
 51
90.0
  0
ARC
  5
315
100
AcDbEntity
  8
0
100
AcDbCircle
 62
7
  6
BYLAYER
 10
184.8559998232
 20
123.0946389496
 40
3.25
100
AcDbArc
 50
90.0
 51
270.0
  0
ARC
  5
316
100
AcDbEntity
  8
0
100
AcDbCircle
 62
7
  6
BYLAYER
 10
206.6598474005
 20
133.5946389496
 40
3.0
100
AcDbArc
 50
239.9999999994
 51
270.0
  0
ARC
  5
317
100
AcDbEntity
  8
0
100
AcDbCircle
 62
7
  6
BYLAYER
 10
207.4177009748
 20
108.5946389496
 40
3.0
100
AcDbArc
 50
214.9999999997
 51
270.0
  0
ARC
  5
318
100
AcDbEntity
  8
0
100
AcDbCircle
 62
7
  6
BYLAYER
 10
206.6598474005
 20
156.5946389496
 40
3.0
100
AcDbArc
 50
240.000000001
 51
270.0
  0
ARC
  5
319
100
AcDbEntity
  8
0
100
AcDbCircle
 62
7
  6
BYLAYER
 10
198.3559998232
 20
86.5946389496
 40
2.0
100
AcDbArc
 50
270.0
 51
360.0
  0
ARC
  5
31A
100
AcDbEntity
  8
0
100
AcDbCircle
 62
7
  6
BYLAYER
 10
172.5713458472
 20
86.5946389496
 40
2.0
100
AcDbArc
 50
270.0
 51
344.9998872012
  0
ARC
  5
31B
100
AcDbEntity
  8
0
100
AcDbCircle
 62
7
  6
BYLAYER
 10
178.6059998232
 20
95.5946389496
 40
2.0
100
AcDbArc
 50
270.0
 51
360.0
  0
ARC
  5
31C
100
AcDbEntity
  8
0
100
AcDbCircle
 62
7
  6
BYLAYER
 10
178.6059998232
 20
95.5946389496
 40
1.0
100
AcDbArc
 50
270.0
 51
360.0
  0
ARC
  5
31D
100
AcDbEntity
  8
0
100
AcDbCircle
 62
7
  6
BYLAYER
 10
177.5528187355
 20
93.5946389496
 40
1.0
100
AcDbArc
 50
90.0000000077
 51
165.0
  0
CIRCLE
  5
31E
100
AcDbEntity
  8
0
100
AcDbCircle
 62
7
  6
BYLAYER
 10
220.8559998232
 20
166.0946389496
 40
5.5
  0
CIRCLE
  5
31F
100
AcDbEntity
  8
0
100
AcDbCircle
 62
7
  6
BYLAYER
 10
220.8559998232
 20
214.0946389496
 40
5.5
  0
ARC
  5
320
100
AcDbEntity
  8
0
100
AcDbCircle
 62
7
  6
BYLAYER
 10
199.8559998232
 20
226.0946389496
 40
5.0
100
AcDbArc
 50
0.0
 51
22.3923048454
  0
ARC
  5
321
100
AcDbEntity
  8
0
100
AcDbCircle
 62
7
  6
BYLAYER
 10
200.1059998232
 20
226.2946389496
 40
5.0
100
AcDbArc
 50
0.0
 51
31.3123072853
  0
ARC
  5
322
100
AcDbEntity
  8
0
100
AcDbCircle
 62
7
  6
BYLAYER
 10
148.6059998232
 20
207.8446389496
 40
3.25
100
AcDbArc
 50
0.0
 51
90.0
  0
ARC
  5
323
100
AcDbEntity
  8
0
100
AcDbCircle
 62
7
  6
BYLAYER
 10
137.8559998232
 20
235.6446389496
 40
3.25
100
AcDbArc
 50
270.0
 51
90.0
  0
ARC
  5
324
100
AcDbEntity
  8
0
100
AcDbCircle
 62
7
  6
BYLAYER
 10
191.8559998232
 20
219.0946389496
 40
3.25
100
AcDbArc
 50
270.0
 51
90.0
  0
ARC
  5
325
100
AcDbEntity
  8
0
100
AcDbCircle
 62
7
  6
BYLAYER
 10
184.8559998232
 20
219.0946389496
 40
3.25
100
AcDbArc
 50
90.0
 51
270.0
  0
ARC
  5
326
100
AcDbEntity
  8
0
100
AcDbCircle
 62
7
  6
BYLAYER
 10
184.8559998232
 20
171.0946389496
 40
3.25
100
AcDbArc
 50
90.0
 51
270.0
  0
ARC
  5
327
100
AcDbEntity
  8
0
100
AcDbCircle
 62
7
  6
BYLAYER
 10
206.6598474005
 20
175.5946389496
 40
3.0
100
AcDbArc
 50
90.0
 51
119.999999999
  0
ARC
  5
328
100
AcDbEntity
  8
0
100
AcDbCircle
 62
7
  6
BYLAYER
 10
197.2579236118
 20
177.0946389496
 40
3.0
100
AcDbArc
 50
270.0
 51
293.1114712775
  0
ARC
  5
329
100
AcDbEntity
  8
0
100
AcDbCircle
 62
7
  6
BYLAYER
 10
207.4177009748
 20
223.5946389496
 40
3.0
100
AcDbArc
 50
90.0
 51
145.0000000003
  0
ARC
  5
32A
100
AcDbEntity
  8
0
100
AcDbCircle
 62
7
  6
BYLAYER
 10
206.6598474005
 20
198.5946389496
 40
3.0
100
AcDbArc
 50
90.0
 51
120.0000000002
  0
SPLINE
  5
32B
100
AcDbEntity
  8
0
100
AcDbSpline
 62
7
  6
BYLAYER
 70
0
 71
3
 72
9
 73
5
 74
0
 42
0.0000001
 43
0.0000001
 44
0.0000000001
 40
0.0
 40
0.0
 40
0.0
 40
0.0
 40
0.2409659131
 40
1.0
 40
1.0
 40
1.0
 40
1.0
 10
204.4412788658
 20
228.0372390077
 30
0.0
 10
204.5096466095
 20
227.8922710908
 30
0.0
 10
204.7555384451
 20
227.2731382583
 30
0.0
 10
204.8559998232
 20
226.5995169099
 30
0.0
 10
204.8559998232
 20
226.0946389496
 30
0.0
  0
SPLINE
  5
32C
100
AcDbEntity
  8
0
100
AcDbSpline
 62
7
  6
BYLAYER
 70
0
 71
3
 72
16
 73
12
 74
0
 42
0.0000001
 43
0.0000001
 44
0.0000000001
 40
0.0
 40
0.0
 40
0.0
 40
0.0
 40
0.0070891218
 40
0.0246368206
 40
0.0523224158
 40
0.0896698901
 40
0.190270258
 40
0.3193280367
 40
0.470434944
 40
0.6382241608
 40
1.0
 40
1.0
 40
1.0
 40
1.0
 10
176.5868929099
 20
93.8534579973
 30
0.0
 10
176.5861984527
 20
93.850866248
 30
0.0
 10
176.5749888465
 20
93.8481653236
 30
0.0
 10
176.5586055029
 20
93.8405923701
 30
0.0
 10
176.527558026
 20
93.8318008214
 30
0.0
 10
176.4680793531
 20
93.8138718621
 30
0.0
 10
176.369986064
 20
93.7878627142
 30
0.0
 10
176.229766082
 20
93.7552486931
 30
0.0
 10
176.0635728731
 20
93.7213464422
 30
0.0
 10
175.811126451
 20
93.6701091309
 30
0.0
 10
175.6152344075
 20
93.6273371395
 30
0.0
 10
175.4822665204
 20
93.5946389863
 30
0.0
  0
SPLINE
  5
32D
100
AcDbEntity
  8
0
100
AcDbSpline
 62
7
  6
BYLAYER
 70
0
 71
3
 72
10
 73
6
 74
0
 42
0.0000001
 43
0.0000001
 44
0.0000000001
 40
0.0
 40
0.0
 40
0.0
 40
0.0
 40
0.3334784325
 40
0.6230254663
 40
1.0
 40
1.0
 40
1.0
 40
1.0
 10
174.5031960947
 20
86.0769593154
 30
0.0
 10
174.5127218145
 20
86.1125205637
 30
0.0
 10
174.5865426549
 20
86.1514508847
 30
0.0
 10
174.6914630823
 20
86.1685492104
 30
0.0
 10
174.7662521397
 20
86.1724935117
 30
0.0
 10
174.807868937
 20
86.1725018476
 30
0.0
  0
SPLINE
  5
32E
100
AcDbEntity
  8
0
100
AcDbSpline
 62
7
  6
BYLAYER
 70
0
 71
3
 72
9
 73
5
 74
0
 42
0.0000001
 43
0.0000001
 44
0.0000000001
 40
0.0
 40
0.0
 40
0.0
 40
0.0
 40
0.2271048439
 40
1.0
 40
1.0
 40
1.0
 40
1.0
 10
174.807868937
 20
86.1725018476
 30
0.0
 10
174.8585169221
 20
86.1725119925
 30
0.0
 10
175.0814670386
 20
86.1605255809
 30
0.0
 10
175.3018960441
 20
86.1187823115
 30
0.0
 10
175.4691175082
 20
86.0769771438
 30
0.0
  0
SPLINE
  5
32F
100
AcDbEntity
  8
0
100
AcDbSpline
 62
7
  6
BYLAYER
 70
0
 71
3
 72
8
 73
4
 74
0
 42
0.0000001
 43
0.0000001
 44
0.0000000001
 40
0.0
 40
0.0
 40
0.0
 40
0.0
 40
1.0
 40
1.0
 40
1.0
 40
1.0
 10
175.4691240416
 20
86.0769981463
 30
0.0
 10
175.4176436606
 20
85.9485792461
 30
0.0
 10
175.3475415027
 20
85.8267425837
 30
0.0
 10
175.2656156052
 20
85.7152536117
 30
0.0
  0
SPLINE
  5
330
100
AcDbEntity
  8
0
100
AcDbSpline
 62
7
  6
BYLAYER
 70
0
 71
3
 72
8
 73
4
 74
0
 42
0.0000001
 43
0.0000001
 44
0.0000000001
 40
0.0
 40
0.0
 40
0.0
 40
0.0
 40
1.0
 40
1.0
 40
1.0
 40
1.0
 10
175.2656156052
 20
85.7152536117
 30
0.0
 10
175.2157194646
 20
85.6473523792
 30
0.0
 10
175.1611523872
 20
85.5827042606
 30
0.0
 10
175.103104962
 20
85.5216248151
 30
0.0
  0
SPLINE
  5
331
100
AcDbEntity
  8
0
100
AcDbSpline
 62
7
  6
BYLAYER
 70
0
 71
3
 72
9
 73
5
 74
0
 42
0.0000001
 43
0.0000001
 44
0.0000000001
 40
0.0
 40
0.0
 40
0.0
 40
0.0
 40
0.2610640377
 40
1.0
 40
1.0
 40
1.0
 40
1.0
 10
175.103104962
 20
85.5216248151
 30
0.0
 10
174.9387724028
 20
85.3487085907
 30
0.0
 10
174.1963739091
 20
84.7953064435
 30
0.0
 10
173.2465508858
 20
84.5947568838
 30
0.0
 10
172.5713457086
 20
84.5946389496
 30
0.0
  0
SPLINE
  5
332
100
AcDbEntity
  8
0
100
AcDbSpline
 62
7
  6
BYLAYER
 70
0
 71
3
 72
11
 73
7
 74
0
 42
0.0000001
 43
0.0000001
 44
0.0000000001
 40
0.0
 40
0.0
 40
0.0
 40
0.0
 40
0.3358271002
 40
0.6136158208
 40
0.8285121156
 40
1.0
 40
1.0
 40
1.0
 40
1.0
 10
173.537275837
 20
86.0770241392
 30
0.0
 10
173.5097542204
 20
85.8668952662
 30
0.0
 10
173.4255875759
 20
85.4857477369
 30
0.0
 10
173.2058810396
 20
85.0066759848
 30
0.0
 10
172.9242148758
 20
84.6830030991
 30
0.0
 10
172.6795633067
 20
84.5946389496
 30
0.0
 10
172.5713459597
 20
84.5946389496
 30
0.0
  0
SPLINE
  5
333
100
AcDbEntity
  8
0
100
AcDbSpline
 62
7
  6
BYLAYER
 70
0
 71
3
 72
12
 73
8
 74
0
 42
0.0000001
 43
0.0000001
 44
0.0000000001
 40
0.0
 40
0.0
 40
0.0
 40
0.0
 40
0.10987221
 40
0.2057182456
 40
0.3310686952
 40
0.6502667743
 40
1.0
 40
1.0
 40
1.0
 40
1.0
 10
174.5030649256
 20
86.0769487483
 30
0.0
 10
174.4935713029
 20
86.0415675423
 30
0.0
 10
174.4200982527
 20
86.0026933077
 30
0.0
 10
174.3150529026
 20
85.9854337109
 30
0.0
 10
174.1328284651
 20
85.9765877865
 30
0.0
 10
173.8695004818
 20
86.0045364614
 30
0.0
 10
173.650408122
 20
86.04889428
 30
0.0
 10
173.53728523
 20
86.0771790153
 30
0.0
  0
SPLINE
  5
334
100
AcDbEntity
  8
0
100
AcDbSpline
 62
7
  6
BYLAYER
 70
0
 71
3
 72
9
 73
5
 74
0
 42
0.0000001
 43
0.0000001
 44
0.0000000001
 40
0.0
 40
0.0
 40
0.0
 40
0.0
 40
0.2395676875
 40
1.0
 40
1.0
 40
1.0
 40
1.0
 10
59.3447267098
 20
228.1863729745
 30
0.0
 10
59.2643174485
 20
228.0337758801
 30
0.0
 10
58.9741193164
 20
227.3732798698
 30
0.0
 10
58.8559998232
 20
226.6421424748
 30
0.0
 10
58.8559998232
 20
226.0946389496
 30
0.0
  0
SPLINE
  5
335
100
AcDbEntity
  8
0
100
AcDbSpline
 62
7
  6
BYLAYER
 70
0
 71
3
 72
11
 73
7
 74
0
 42
0.0000001
 43
0.0000001
 44
0.0000000001
 40
0.0
 40
0.0
 40
0.0
 40
0.0
 40
0.3368617545
 40
0.6157652333
 40
0.8294671806
 40
1.0
 40
1.0
 40
1.0
 40
1.0
 10
90.1747251664
 20
86.0770116174
 30
0.0
 10
90.2065705241
 20
85.8674522548
 30
0.0
 10
90.2937238118
 20
85.4865972319
 30
0.0
 10
90.5176020462
 20
85.0119151816
 30
0.0
 10
90.7899329848
 20
84.6827130677
 30
0.0
 10
91.0333484589
 20
84.5946389496
 30
0.0
 10
91.1406536831
 20
84.5946389496
 30
0.0
  0
LINE
  5
336
100
AcDbEntity
  8
0
100
AcDbLine
 62
7
  6
BYLAYER
 10
90.1053776309
 20
86.594639047
 11
90.1747251664
 21
86.0770116174
  0
SPLINE
  5
337
100
AcDbEntity
  8
0
100
AcDbSpline
 62
7
  6
BYLAYER
 70
0
 71
3
 72
12
 73
8
 74
0
 42
0.0000001
 43
0.0000001
 44
0.0000000001
 40
0.0
 40
0.0
 40
0.0
 40
0.0
 40
0.349710512
 40
0.6688803111
 40
0.7942220341
 40
0.8900695807
 40
1.0
 40
1.0
 40
1.0
 40
1.0
 10
90.1747322412
 20
86.0769791704
 30
0.0
 10
90.0616361506
 20
86.0487163127
 30
0.0
 10
89.8425976327
 20
86.0044109325
 30
0.0
 10
89.5793278455
 20
85.9765507595
 30
0.0
 10
89.3971616356
 20
85.98548425
 30
0.0
 10
89.2921196063
 20
86.0028087069
 30
0.0
 10
89.2186994621
 20
86.0417615612
 30
0.0
 10
89.2092137424
 20
86.0771572555
 30
0.0
  0
SPLINE
  5
338
100
AcDbEntity
  8
0
100
AcDbSpline
 62
7
  6
BYLAYER
 70
0
 71
3
 72
9
 73
5
 74
0
 42
0.0000001
 43
0.0000001
 44
0.0000000001
 40
0.0
 40
0.0
 40
0.0
 40
0.0
 40
0.2395676875
 40
1.0
 40
1.0
 40
1.0
 40
1.0
 10
204.3672729365
 20
104.0029049247
 30
0.0
 10
204.4476821978
 20
104.1555020192
 30
0.0
 10
204.73788033
 20
104.8159980294
 30
0.0
 10
204.8559998232
 20
105.5471354245
 30
0.0
 10
204.8559998232
 20
106.0946389496
 30
0.0
  0
SPLINE
  5
339
100
AcDbEntity
  8
0
100
AcDbSpline
 62
7
  6
BYLAYER
 70
0
 71
3
 72
16
 73
12
 74
0
 42
0.0000001
 43
0.0000001
 44
0.0000000001
 40
0.0
 40
0.0
 40
0.0
 40
0.0
 40
0.3614353207
 40
0.5291097724
 40
0.6803184719
 40
0.8095432372
 40
0.9101268554
 40
0.9474250724
 40
0.9751095752
 40
0.9927256245
 40
1.0
 40
1.0
 40
1.0
 40
1.0
 10
88.229733271
 20
93.5946389523
 30
0.0
 10
88.0970848287
 20
93.6281139129
 30
0.0
 10
87.9011570761
 20
93.6701110053
 30
0.0
 10
87.6487674252
 20
93.720978756
 30
0.0
 10
87.4825651098
 20
93.7551746459
 30
0.0
 10
87.3423164308
 20
93.7881362727
 30
0.0
 10
87.2441381383
 20
93.8138965966
 30
0.0
 10
87.1845569227
 20
93.831495832
 30
0.0
 10
87.1535554117
 20
93.8403076488
 30
0.0
 10
87.1369484637
 20
93.8477506041
 30
0.0
 10
87.1258189267
 20
93.8507987673
 30
0.0
 10
87.125106612
 20
93.8534584618
 30
0.0
  0
SPLINE
  5
33A
100
AcDbEntity
  8
0
100
AcDbSpline
 62
7
  6
BYLAYER
 70
0
 71
3
 72
9
 73
5
 74
0
 42
0.0000001
 43
0.0000001
 44
0.0000000001
 40
0.0
 40
0.0
 40
0.0
 40
0.0
 40
0.2409659131
 40
1.0
 40
1.0
 40
1.0
 40
1.0
 10
59.2707207806
 20
104.1520388915
 30
0.0
 10
59.2023530369
 20
104.2970068084
 30
0.0
 10
58.9564612013
 20
104.916139641
 30
0.0
 10
58.8559998232
 20
105.5897609893
 30
0.0
 10
58.8559998232
 20
106.0946389496
 30
0.0
  0
SPLINE
  5
33B
100
AcDbEntity
  8
0
100
AcDbSpline
 62
7
  6
BYLAYER
 70
0
 71
3
 72
10
 73
6
 74
0
 42
0.0000001
 43
0.0000001
 44
0.0000000001
 40
0.0
 40
0.0
 40
0.0
 40
0.0
 40
0.3318898125
 40
0.6213819852
 40
1.0
 40
1.0
 40
1.0
 40
1.0
 10
89.2088459629
 20
86.0770402118
 30
0.0
 10
89.1993725242
 20
86.1124362894
 30
0.0
 10
89.1258823092
 20
86.1513980505
 30
0.0
 10
89.0209424495
 20
86.1685801226
 30
0.0
 10
88.9459714132
 20
86.1725443759
 30
0.0
 10
88.9041705492
 20
86.172542479
 30
0.0
  0
SPLINE
  5
33C
100
AcDbEntity
  8
0
100
AcDbSpline
 62
7
  6
BYLAYER
 70
0
 71
3
 72
9
 73
5
 74
0
 42
0.0000001
 43
0.0000001
 44
0.0000000001
 40
0.0
 40
0.0
 40
0.0
 40
0.0
 40
0.2259427882
 40
1.0
 40
1.0
 40
1.0
 40
1.0
 10
88.9041705492
 20
86.172542479
 30
0.0
 10
88.8537784474
 20
86.1725401922
 30
0.0
 10
88.6308148363
 20
86.1606036227
 30
0.0
 10
88.4103625915
 20
86.1188586758
 30
0.0
 10
88.2428790054
 20
86.0769872382
 30
0.0
  0
SPLINE
  5
33D
100
AcDbEntity
  8
0
100
AcDbSpline
 62
7
  6
BYLAYER
 70
0
 71
3
 72
9
 73
5
 74
0
 42
0.0000001
 43
0.0000001
 44
0.0000000001
 40
0.0
 40
0.0
 40
0.0
 40
0.0
 40
0.2470919011
 40
1.0
 40
1.0
 40
1.0
 40
1.0
 10
91.1406539421
 20
84.5946389496
 30
0.0
 10
90.9158222641
 20
84.5946791586
 30
0.0
 10
90.0135708078
 20
84.6608186369
 30
0.0
 10
89.0808506913
 20
85.0250216372
 30
0.0
 10
88.6089063892
 20
85.5216125005
 30
0.0
  0
SPLINE
  5
33E
100
AcDbEntity
  8
0
100
AcDbSpline
 62
7
  6
BYLAYER
 70
0
 71
3
 72
8
 73
4
 74
0
 42
0.0000001
 43
0.0000001
 44
0.0000000001
 40
0.0
 40
0.0
 40
0.0
 40
0.0
 40
1.0
 40
1.0
 40
1.0
 40
1.0
 10
88.6089063892
 20
85.5216125005
 30
0.0
 10
88.5508833306
 20
85.5826657235
 30
0.0
 10
88.4963378658
 20
85.6472846724
 30
0.0
 10
88.4464588468
 20
85.7151540678
 30
0.0
  0
SPLINE
  5
33F
100
AcDbEntity
  8
0
100
AcDbSpline
 62
7
  6
BYLAYER
 70
0
 71
3
 72
8
 73
4
 74
0
 42
0.0000001
 43
0.0000001
 44
0.0000000001
 40
0.0
 40
0.0
 40
0.0
 40
0.0
 40
1.0
 40
1.0
 40
1.0
 40
1.0
 10
88.4464588468
 20
85.7151540678
 30
0.0
 10
88.3645020317
 20
85.8266710863
 30
0.0
 10
88.2943743817
 20
85.9485420932
 30
0.0
 10
88.2428778294
 20
86.0769985841
 30
0.0
  0
ELLIPSE
  5
340
100
AcDbEntity
  8
0
100
AcDbEllipse
 62
7
  6
BYLAYER
 10
82.8559998232
 20
271.7134411031
 30
0.0
 11
12.5
 21
0.0
 31
0.0
 40
0.5773502692
 41
-2.447094388
 42
-0.6944982656
  0
ELLIPSE
  5
341
100
AcDbEntity
  8
0
100
AcDbEllipse
 62
7
  6
BYLAYER
 10
180.8559998232
 20
271.7134411031
 30
0.0
 11
9.0
 21
-0.0
 31
0.0
 40
0.5773502692
 41
-2.0466785765
 42
-1.0949140771
  0
ELLIPSE
  5
342
100
AcDbEntity
  8
0
100
AcDbEllipse
 62
7
  6
BYLAYER
 10
88.3559998232
 20
258.4343849118
 30
0.0
 11
2.0
 21
-0.0
 31
0.0
 40
0.5773502692
 41
0.0
 42
1.5707963268
  0
ELLIPSE
  5
343
100
AcDbEntity
  8
0
100
AcDbEllipse
 62
7
  6
BYLAYER
 10
175.3559998232
 20
258.4343849118
 30
0.0
 11
2.0
 21
-0.0
 31
0.0
 40
0.5773502692
 41
1.5707963268
 42
3.1415926536
  0
ELLIPSE
  5
344
100
AcDbEntity
  8
0
100
AcDbEllipse
 62
7
  6
BYLAYER
 10
68.3559998232
 20
264.2078876037
 30
0.0
 11
8.0
 21
-0.0
 31
0.0
 40
0.5773502692
 41
-3.1415926536
 42
-1.5707963268
  0
ELLIPSE
  5
345
100
AcDbEntity
  8
0
100
AcDbEllipse
 62
7
  6
BYLAYER
 10
195.3559998232
 20
264.2078876037
 30
0.0
 11
8.0
 21
0.0
 31
0.0
 40
0.5773502692
 41
-1.5707963268
 42
-0.0
  0
ENDSEC
  0
SECTION
  2
OBJECTS
  0
DICTIONARY
  5
C
100
AcDbDictionary
280
0
281
1
  3
ACAD_GROUP
350
D
  3
ACAD_MLINESTYLE
350
17
  3
ACAD_LAYOUT
350
1A
  3
ACAD_PLOTSETTINGS
350
19
  3
ACAD_PLOTSTYLENAME
350
E
  0
DICTIONARY
  5
D
102
{ACAD_REACTORS
330
C
102
}
100
AcDbDictionary
280
0
281
1
  0
ACDBDICTIONARYWDFLT
  5
E
102
{ACAD_REACTORS
330
C
102
}
100
AcDbDictionary
281
1
  3
Normal
350
F
100
AcDbDictionaryWithDefault
340
F
  0
DICTIONARY
  5
17
102
{ACAD_REACTORS
330
C
102
}
100
AcDbDictionary
280
0
281
1
  3
Standard
350
18
  0
DICTIONARY
  5
19
102
{ACAD_REACTORS
330
C
102
}
100
AcDbDictionary
281
1
  0
DICTIONARY
  5
1A
102
{ACAD_REACTORS
330
C
102
}
100
AcDbDictionary
281
1
  3
Model
350
346
  3
Layout1
350
347
  0
ACDBPLACEHOLDER
  5
F
102
{ACAD_REACTORS
330
E
102
}
  0
MLINESTYLE
  5
18
102
{ACAD_REACTORS
330
17
102
}
100
AcDbMlineStyle
  2
STANDARD
 70
0
  3

 62
256
 51
90.0
 52
90.0
 71
2
 49
0.5
 62
256
  6
BYLAYER
 49
-0.5
 62
256
  6
BYLAYER
  0
LAYOUT
  5
346
102
{ACAD_REACTORS
330
1A
102
}
100
AcDbPlotSettings
  1

  2
none_device
  4

  6

 40
0.0
 41
0.0
 42
0.0
 43
0.0
 44
210.0
 45
297.0
 46
0.0
 47
0.0
 48
0.0
 49
0.0
140
0.0
141
0.0
142
1.0
143
1.0
 70
1024
 72
1
 73
0
 74
0
  7

 75
0
147
1.0
148
0.0
149
0.0
100
AcDbLayout
  1
Model
 70
0
 71
0
 10
0.0
 20
0.0
 11
210.0
 21
297.0
 12
0.0
 22
0.0
 32
0.0
 14
0.0
 24
0.0
 34
0.0
 15
0.0
 25
0.0
 35
0.0
146
0.0
 13
0.0
 23
0.0
 33
0.0
 16
1.0
 26
0.0
 36
0.0
 17
0.0
 27
1.0
 37
0.0
 76
0
330
210
345
0
346
0
  0
LAYOUT
  5
347
102
{ACAD_REACTORS
330
1A
102
}
100
AcDbPlotSettings
  1

  2
none_device
  4

  6

 40
0.0
 41
0.0
 42
0.0
 43
0.0
 44
210.0
 45
297.0
 46
0.0
 47
0.0
 48
0.0
 49
0.0
140
0.0
141
0.0
142
1.0
143
1.0
 70
0
 72
1
 73
0
 74
0
  7

 75
0
147
1.0
148
0.0
149
0.0
100
AcDbLayout
  1
Layout1
 70
0
 71
1
 10
0.0
 20
0.0
 11
210.0
 21
297.0
 12
0.0
 22
0.0
 32
0.0
 14
0.0
 24
0.0
 34
0.0
 15
0.0
 25
0.0
 35
0.0
146
0.0
 13
0.0
 23
0.0
 33
0.0
 16
1.0
 26
0.0
 36
0.0
 17
0.0
 27
1.0
 37
0.0
 76
0
330
211
345
0
346
0
  0
ENDSEC
  0
EOF
