999
DXF file: C:\Users\sesa63760\Dev\_Creo\CAD\MCADPP0000813_3D-CAD\drw0001_2.dxf
999
Pro/ENGINEER 2019471 by Parametric Technology Corporation
  0
SECTION
  2
HEADER
  9
$ACADVER
  1
AC1024
  9
$DWGCODEPAGE
  3
ANSI_1252
  9
$EXTMAX
 10
43.0426802963
 20
60.8746478477
 30
0.0
  9
$EXTMIN
 10
0.0
 20
0.0
 30
0.0
  9
$LIMMIN
 10
0.0
 20
0.0
  9
$LIMMAX
 10
43.0426802963
 20
60.8746478477
  9
$VIEWCTR
 10
21.5213401482
 20
30.4373239238
  9
$VIEWSIZE
 40
60.8746478477
  9
$CLAYER
  8
0
  9
$LTSCALE
 40
3.968125193
  9
$CELTYPE
  6
BYLAYER
  9
$DIMSCALE
 40
1.0
  9
$DIMASZ
 40
0.5124128607
  9
$DIMEXO
 40
1.0
  9
$DIMDLI
 40
2.7416137697
  9
$DIMEXE
 40
1.0
  9
$DIMCEN
 40
0.649329577
  9
$DIMLFAC
 40
1.0
  9
$DIMBLK
  1
_FILLED
  9
$DIMALT
 70
0
  9
$DIMALTF
 40
0.0393700787
  9
$DIMTXT
 40
0.7173780049
  9
$DIMTOL
 70
1
  9
$DIMLIM
 70
0
  9
$DIMTFAC
 40
1.0
  9
$DIMTP
 40
0.01
  9
$DIMTM
 40
0.01
  9
$DIMGAP
 40
0.625
  9
$DIMDSEP
 70
46
  9
$AUNITS
 70
0
  9
$PDMODE
 70
3
  9
$PDSIZE
 40
0.3125
  9
$HANDSEED
  5
396
  9
$TILEMODE
 70
1
  9
$MEASUREMENT
 70
1
  9
$INSUNITS
 70
4
  0
ENDSEC
  0
SECTION
  2
CLASSES
  0
CLASS
  1
ACDBDICTIONARYWDFLT
  2
AcDbDictionaryWithDefault
  3
AutoCAD 2000
 90
0
 91
1
280
0
281
0
  0
CLASS
  1
ACDBPLACEHOLDER
  2
AcDbPlaceHolder
  3
AutoCAD 2000
 90
0
 91
1
280
0
281
0
  0
CLASS
  1
LAYOUT
  2
AcDbLayout
  3
AutoCAD 2000
 90
0
 91
0
280
0
281
0
  0
ENDSEC
  0
SECTION
  2
TABLES
  0
TABLE
  2
VPORT
  5
8
100
AcDbSymbolTable
 70
2
  0
VPORT
  5
1F4
100
AcDbSymbolTableRecord
100
AcDbViewportTableRecord
  2
*ACTIVE
 70
0
 10
0.0
 20
0.0
 11
1.0
 21
1.0
 12
21.5213401482
 22
30.4373239238
 13
0.0
 23
0.0
 14
1.0
 24
1.0
 15
0.0
 25
0.0
 16
0.0
 26
0.0
 36
1.0
 17
0.0
 27
0.0
 37
0.0
 40
60.8746478477
 41
0.7070707071
 42
50.0
 43
0.0
 44
0.0
 50
0.0
 51
0.0
 71
0
 72
100
 73
1
 74
1
 75
0
 76
0
 77
0
 78
0
  0
ENDTAB
  0
TABLE
  2
LTYPE
  5
5
100
AcDbSymbolTable
 70
6
  0
LTYPE
  5
14
100
AcDbSymbolTableRecord
100
AcDbLinetypeTableRecord
  2
BYBLOCK
 70
0
  3

 72
65
 73
0
 40
0.0
  0
LTYPE
  5
15
100
AcDbSymbolTableRecord
100
AcDbLinetypeTableRecord
  2
BYLAYER
 70
0
  3

 72
65
 73
0
 40
0.0
  0
LTYPE
  5
16
100
AcDbSymbolTableRecord
100
AcDbLinetypeTableRecord
  2
CONTINUOUS
 70
64
  3
Solid line
 72
65
 73
0
 40
0.0
  0
LTYPE
  5
1F5
100
AcDbSymbolTableRecord
100
AcDbLinetypeTableRecord
  2
CENTER
 70
64
  3
____ _ ____ _ ____ _ ____ _ ____ _ ____ _ ____
 72
65
 73
4
 40
0.6
 49
0.375
 74
0
 49
-0.075
 74
0
 49
0.075
 74
0
 49
-0.075
 74
0
  0
LTYPE
  5
1F6
100
AcDbSymbolTableRecord
100
AcDbLinetypeTableRecord
  2
HIDDEN
 70
64
  3
- - - - - - - - - - - - - - - - - - - -
 72
65
 73
2
 40
0.2
 49
0.1
 74
0
 49
-0.1
 74
0
  0
LTYPE
  5
1F7
100
AcDbSymbolTableRecord
100
AcDbLinetypeTableRecord
  2
PHANTOM
 70
64
  3
_____ _ _ _____ _ _ _____ _ _ _____
 72
65
 73
6
 40
0.8
 49
0.45
 74
0
 49
-0.05
 74
0
 49
0.1
 74
0
 49
-0.05
 74
0
 49
0.1
 74
0
 49
-0.05
 74
0
  0
LTYPE
  5
1F8
100
AcDbSymbolTableRecord
100
AcDbLinetypeTableRecord
  2
DOT
 70
64
  3
. . . . . . . . . . . . . . . . . . . .
 72
65
 73
2
 40
0.2
 49
0.1
 74
0
 49
-0.1
 74
0
  0
LTYPE
  5
1F9
100
AcDbSymbolTableRecord
100
AcDbLinetypeTableRecord
  2
DASHED
 70
64
  3
- - - - - - - - - - - - - - - - - - - -
 72
65
 73
2
 40
0.2
 49
0.1
 74
0
 49
-0.1
 74
0
  0
ENDTAB
  0
TABLE
  2
LAYER
  5
2
100
AcDbSymbolTable
 70
36
  0
LAYER
  5
10
100
AcDbSymbolTableRecord
100
AcDbLayerTableRecord
  2
0
 70
0
 62
7
  6
CONTINUOUS
370
-3
390
F
  0
LAYER
  5
1FA
100
AcDbSymbolTableRecord
100
AcDbLayerTableRecord
  2
DEFAULT_1
 70
0
 62
7
  6
CENTER
370
-3
390
F
  0
LAYER
  5
1FB
100
AcDbSymbolTableRecord
100
AcDbLayerTableRecord
  2
DEFAULT_2
 70
0
 62
8
  6
HIDDEN
370
-3
390
F
  0
LAYER
  5
1FC
100
AcDbSymbolTableRecord
100
AcDbLayerTableRecord
  2
DEFAULT_3
 70
0
 62
7
  6
PHANTOM
370
-3
390
F
  0
LAYER
  5
1FD
100
AcDbSymbolTableRecord
100
AcDbLayerTableRecord
  2
00_COMPONENTS
 70
0
 62
7
  6
CONTINUOUS
370
-3
390
F
  0
LAYER
  5
1FE
100
AcDbSymbolTableRecord
100
AcDbLayerTableRecord
  2
01_1_DEFAULT_DATUMS
 70
0
 62
7
  6
CONTINUOUS
370
-3
390
F
  0
LAYER
  5
1FF
100
AcDbSymbolTableRecord
100
AcDbLayerTableRecord
  2
01_PLANES
 70
0
 62
7
  6
CONTINUOUS
370
-3
390
F
  0
LAYER
  5
200
100
AcDbSymbolTableRecord
100
AcDbLayerTableRecord
  2
02_COORD_SYS
 70
0
 62
7
  6
CONTINUOUS
370
-3
390
F
  0
LAYER
  5
201
100
AcDbSymbolTableRecord
100
AcDbLayerTableRecord
  2
03_AXES
 70
0
 62
7
  6
CONTINUOUS
370
-3
390
F
  0
LAYER
  5
202
100
AcDbSymbolTableRecord
100
AcDbLayerTableRecord
  2
04_POINTS
 70
0
 62
7
  6
CONTINUOUS
370
-3
390
F
  0
LAYER
  5
203
100
AcDbSymbolTableRecord
100
AcDbLayerTableRecord
  2
05_CURVES
 70
0
 62
7
  6
CONTINUOUS
370
-3
390
F
  0
LAYER
  5
204
100
AcDbSymbolTableRecord
100
AcDbLayerTableRecord
  2
06_SURFS
 70
0
 62
7
  6
CONTINUOUS
370
-3
390
F
  0
LAYER
  5
205
100
AcDbSymbolTableRecord
100
AcDbLayerTableRecord
  2
07_COSMETICS
 70
0
 62
7
  6
CONTINUOUS
370
-3
390
F
  0
LAYER
  5
206
100
AcDbSymbolTableRecord
100
AcDbLayerTableRecord
  2
10_NOTES
 70
0
 62
7
  6
CONTINUOUS
370
-3
390
F
  0
LAYER
  5
207
100
AcDbSymbolTableRecord
100
AcDbLayerTableRecord
  2
11_NOTES_PUB
 70
0
 62
7
  6
CONTINUOUS
370
-3
390
F
  0
LAYER
  5
208
100
AcDbSymbolTableRecord
100
AcDbLayerTableRecord
  2
13_REF_GTOL
 70
0
 62
7
  6
CONTINUOUS
370
-3
390
F
  0
LAYER
  5
209
100
AcDbSymbolTableRecord
100
AcDbLayerTableRecord
  2
16_MISC
 70
0
 62
7
  6
CONTINUOUS
370
-3
390
F
  0
LAYER
  5
20A
100
AcDbSymbolTableRecord
100
AcDbLayerTableRecord
  2
17_NO_PRINT
 70
0
 62
7
  6
CONTINUOUS
370
-3
390
F
  0
LAYER
  5
20B
100
AcDbSymbolTableRecord
100
AcDbLayerTableRecord
  2
18_DATUM_CAMS_JOINTS
 70
0
 62
7
  6
CONTINUOUS
370
-3
390
F
  0
LAYER
  5
20C
100
AcDbSymbolTableRecord
100
AcDbLayerTableRecord
  2
19_DATUM_FUNCTIONAL
 70
0
 62
7
  6
CONTINUOUS
370
-3
390
F
  0
LAYER
  5
20D
100
AcDbSymbolTableRecord
100
AcDbLayerTableRecord
  2
20_DATUM_KINEMATIC_SCHEME
 70
0
 62
7
  6
CONTINUOUS
370
-3
390
F
  0
ENDTAB
  0
TABLE
  2
STYLE
  5
3
100
AcDbSymbolTable
 70
1
  0
STYLE
  5
11
100
AcDbSymbolTableRecord
100
AcDbTextStyleTableRecord
  2
STANDARD
 70
0
 40
0.0
 41
0.8
 50
0.0
 71
0
 42
0.2
  3
txt
  4

  0
STYLE
  5
20E
100
AcDbSymbolTableRecord
100
AcDbTextStyleTableRecord
  2
TEXTSTYLE_1
 70
0
 40
0.0
 41
0.8
 50
0.0
 71
0
 42
0.2
  3
gdt
  4

  0
ENDTAB
  0
TABLE
  2
VIEW
  5
6
100
AcDbSymbolTable
 70
0
  0
ENDTAB
  0
TABLE
  2
UCS
  5
7
100
AcDbSymbolTable
 70
0
  0
ENDTAB
  0
TABLE
  2
APPID
  5
9
100
AcDbSymbolTable
 70
1
  0
APPID
  5
20F
100
AcDbSymbolTableRecord
100
AcDbRegAppTableRecord
  2
ACAD
 70
0
  0
ENDTAB
  0
TABLE
  2
BLOCK_RECORD
  5
1
100
AcDbSymbolTable
 70
0
  0
BLOCK_RECORD
  5
210
100
AcDbSymbolTableRecord
100
AcDbBlockTableRecord
  2
*Model_Space
  0
BLOCK_RECORD
  5
211
100
AcDbSymbolTableRecord
100
AcDbBlockTableRecord
  2
*Paper_Space
  0
BLOCK_RECORD
  5
212
100
AcDbSymbolTableRecord
100
AcDbBlockTableRecord
  2
_FILLED
  0
ENDTAB
  0
TABLE
  2
DIMSTYLE
  5
A
100
AcDbSymbolTable
 70
1
100
AcDbDimStyleTable
 71
0
  0
DIMSTYLE
105
213
100
AcDbSymbolTableRecord
100
AcDbDimStyleTableRecord
  2
STANDARD
 70
0
  3

  4

 40
1.0
 41
0.5124128607
 42
1.0
 43
0.38
 44
1.0
 45
0.0
 46
0.0
 47
0.01
 48
0.01
140
0.7173780049
141
0.09
142
0.0
143
25.4
144
1.0
145
0.0
146
1.0
147
0.625
 71
1
 72
0
 73
0
 74
0
 75
0
 76
0
 77
1
 78
8
 79
2
170
0
171
1
172
0
173
0
174
0
175
0
176
0
177
0
178
0
270
2
179
2
271
2
272
2
273
2
274
2
275
0
280
0
281
0
282
0
283
1
284
8
285
0
286
0
287
3
288
0
340
11
278
46
341
212
342
212
343
212
344
212
  0
ENDTAB
  0
ENDSEC
  0
SECTION
  2
BLOCKS
  0
BLOCK
  5
20
100
AcDbEntity
  8
0
100
AcDbBlockBegin
  2
*Model_Space
 70
0
 10
0.0
 20
0.0
 30
0.0
  3
*Model_Space
  1

  0
ENDBLK
  5
21
100
AcDbEntity
  8
0
100
AcDbBlockEnd
  0
BLOCK
  5
1C
100
AcDbEntity
  8
0
100
AcDbBlockBegin
  2
*Paper_Space
 70
0
 10
0.0
 20
0.0
 30
0.0
  3
*Paper_Space
  1

  0
ENDBLK
  5
1D
100
AcDbEntity
  8
0
100
AcDbBlockEnd
  0
BLOCK
  5
214
100
AcDbEntity
  8
0
100
AcDbBlockBegin
  2
_FILLED
 70
64
 10
0.0
 20
0.0
  3
_FILLED
  1

  0
SOLID
  5
215
100
AcDbEntity
  8
0
  6
BYBLOCK
 62
0
100
AcDbTrace
 10
0.0
 20
0.0
 11
-1.0
 21
0.25
 12
-1.0
 22
-0.25
 13
-1.0
 23
-0.25
  0
ENDBLK
  5
216
100
AcDbEntity
  8
0
  6
BYBLOCK
 62
0
100
AcDbBlockEnd
  0
ENDSEC
  0
SECTION
  2
ENTITIES
  0
LINE
  5
217
100
AcDbEntity
  8
0
100
AcDbLine
 62
7
  6
CONTINUOUS
 10
5.0693412624
 20
7.9005089159
 11
37.4193412624
 21
7.9005089159
  0
LINE
  5
218
100
AcDbEntity
  8
0
100
AcDbLine
 62
7
  6
CONTINUOUS
 10
37.4193412624
 20
9.150508916
 11
38.9193412624
 21
9.1505089162
  0
LINE
  5
219
100
AcDbEntity
  8
0
100
AcDbLine
 62
7
  6
CONTINUOUS
 10
9.1993412624
 20
9.1506219522
 11
7.7193412624
 21
9.1506219522
  0
LINE
  5
21A
100
AcDbEntity
  8
0
100
AcDbLine
 62
7
  6
CONTINUOUS
 10
4.7193412624
 20
42.1063722383
 11
4.7193412624
 21
38.5865253263
  0
LINE
  5
21B
100
AcDbEntity
  8
0
100
AcDbLine
 62
7
  6
CONTINUOUS
 10
4.8193412624
 20
43.7112089159
 11
4.8193412624
 21
42.0840389777
  0
LINE
  5
21C
100
AcDbEntity
  8
0
100
AcDbLine
 62
7
  6
CONTINUOUS
 10
4.8193412624
 20
39.4761248571
 11
4.8193412624
 21
31.4749481189
  0
LINE
  5
21D
100
AcDbEntity
  8
0
100
AcDbLine
 62
7
  6
CONTINUOUS
 10
5.0693412624
 20
31.4749481189
 11
5.0693412624
 21
7.9005089159
  0
LINE
  5
21E
100
AcDbEntity
  8
0
100
AcDbLine
 62
7
  6
CONTINUOUS
 10
5.0693412624
 20
11.8293089159
 11
7.7193412624
 21
11.8293089159
  0
LINE
  5
21F
100
AcDbEntity
  8
0
100
AcDbLine
 62
7
  6
CONTINUOUS
 10
6.0193185105
 20
43.7112089176
 11
6.019318817
 21
52.7506089823
  0
LINE
  5
220
100
AcDbEntity
  8
0
100
AcDbLine
 62
7
  6
CONTINUOUS
 10
6.0693412624
 20
29.6841124325
 11
6.0693412624
 21
39.4761248571
  0
LINE
  5
221
100
AcDbEntity
  8
0
100
AcDbLine
 62
7
  6
CONTINUOUS
 10
6.0693412624
 20
42.0840389777
 11
6.0693412624
 21
43.7112089159
  0
LINE
  5
222
100
AcDbEntity
  8
0
100
AcDbLine
 62
7
  6
CONTINUOUS
 10
11.9111899295
 20
43.8482105348
 11
11.8730081211
 21
43.7949671135
  0
LWPOLYLINE
  5
223
100
AcDbEntity
  8
0
100
AcDbPolyline
 62
7
  6
CONTINUOUS
 90
3
 70
0
 10
12.8627010526
 20
44.449239618
 10
13.3061688469
 20
44.9528879668
 10
13.4693412624
 20
45.0226101861
  0
LINE
  5
224
100
AcDbEntity
  8
0
100
AcDbLine
 62
7
  6
CONTINUOUS
 10
13.2165683106
 20
43.9605052475
 11
13.3132104224
 21
44.0696458017
  0
LINE
  5
225
100
AcDbEntity
  8
0
100
AcDbLine
 62
7
  6
CONTINUOUS
 10
13.3132104224
 20
44.0696458017
 11
13.5171962414
 21
44.1557095974
  0
LINE
  5
226
100
AcDbEntity
  8
0
100
AcDbLine
 62
7
  6
CONTINUOUS
 10
7.6693412624
 20
11.8293089159
 11
7.6693412624
 21
38.2646260713
  0
LINE
  5
227
100
AcDbEntity
  8
0
100
AcDbLine
 62
7
  6
CONTINUOUS
 10
7.7193412624
 20
47.6974729075
 11
7.7193412624
 21
9.1506219522
  0
LINE
  5
228
100
AcDbEntity
  8
0
100
AcDbLine
 62
7
  6
CONTINUOUS
 10
7.9193412624
 20
47.3802828525
 11
7.9193412624
 21
47.1939015678
  0
LWPOLYLINE
  5
229
100
AcDbEntity
  8
0
100
AcDbPolyline
 62
7
  6
CONTINUOUS
 90
3
 70
0
 10
11.8459411847
 20
44.395034104
 10
11.7499343344
 20
44.0944458095
 10
11.7460318479
 20
43.9691545189
  0
LWPOLYLINE
  5
22A
100
AcDbEntity
  8
0
100
AcDbPolyline
 62
7
  6
CONTINUOUS
 90
3
 70
0
 10
11.8098068485
 20
42.5251827989
 10
11.7470595837
 20
42.3407447347
 10
11.7408432712
 20
42.185470233
  0
LWPOLYLINE
  5
22B
100
AcDbEntity
  8
0
100
AcDbPolyline
 62
7
  6
CONTINUOUS
 90
4
 70
0
 10
15.8041340198
 20
42.1064487823
 10
16.1642956171
 20
42.3160857967
 10
16.6556034619
 20
43.172311655
 10
16.6976492223
 20
43.5241911892
  0
LINE
  5
22C
100
AcDbEntity
  8
0
100
AcDbLine
 62
7
  6
CONTINUOUS
 10
7.6693412624
 20
16.1506089459
 11
7.7193412624
 21
16.1506089442
  0
LINE
  5
22D
100
AcDbEntity
  8
0
100
AcDbLine
 62
7
  6
CONTINUOUS
 10
9.1993412624
 20
21.8777413649
 11
9.1993412624
 21
7.9005089159
  0
LINE
  5
22E
100
AcDbEntity
  8
0
100
AcDbLine
 62
7
  6
CONTINUOUS
 10
9.2193412624
 20
21.8777413649
 11
9.2193412624
 21
47.1938606014
  0
LINE
  5
22F
100
AcDbEntity
  8
0
100
AcDbLine
 62
7
  6
CONTINUOUS
 10
9.2193412624
 20
47.3802839774
 11
9.2193412624
 21
47.6974729075
  0
LINE
  5
230
100
AcDbEntity
  8
0
100
AcDbLine
 62
7
  6
CONTINUOUS
 10
9.5094912624
 20
34.1558099392
 11
9.5094912624
 21
24.9023089159
  0
LINE
  5
231
100
AcDbEntity
  8
0
100
AcDbLine
 62
7
  6
CONTINUOUS
 10
11.8229528656
 20
45.3786578212
 11
11.7464411147
 21
44.8530918196
  0
LINE
  5
232
100
AcDbEntity
  8
0
100
AcDbLine
 62
7
  6
CONTINUOUS
 10
11.8730081211
 20
43.7949671135
 11
11.7451913753
 21
43.0846014058
  0
LWPOLYLINE
  5
233
100
AcDbEntity
  8
0
100
AcDbPolyline
 62
7
  6
CONTINUOUS
 90
3
 70
0
 10
12.7441831868
 20
44.8540059893
 10
12.8398415269
 20
45.2990850143
 10
12.8902326012
 20
45.3786578212
  0
LINE
  5
234
100
AcDbEntity
  8
0
100
AcDbLine
 62
7
  6
CONTINUOUS
 10
5.0693412624
 20
18.3699089159
 11
7.6693412624
 21
18.3699089159
  0
LINE
  5
235
100
AcDbEntity
  8
0
100
AcDbLine
 62
7
  6
CONTINUOUS
 10
9.1993412624
 20
18.7299089159
 11
37.4193412624
 21
18.7299089159
  0
LWPOLYLINE
  5
236
100
AcDbEntity
  8
0
100
AcDbPolyline
 62
7
  6
CONTINUOUS
 90
9
 70
0
 10
11.7464402155
 20
44.8510075529
 10
11.7607549973
 20
44.6074195478
 10
12.1634918032
 20
43.6033197304
 10
13.0437950276
 20
42.8634706089
 10
14.1848362244
 20
42.5424026412
 10
15.324513156
 20
42.6909558901
 10
16.2102854202
 20
43.2524654955
 10
16.6632687023
 20
44.091138322
 10
16.6978343099
 20
44.4085083682
  0
LWPOLYLINE
  5
237
100
AcDbEntity
  8
0
100
AcDbPolyline
 62
7
  6
CONTINUOUS
 90
4
 70
0
 10
11.7460308068
 20
43.9666490918
 10
11.7588185075
 20
43.7366337397
 10
12.1305212852
 20
42.7597593641
 10
12.8666781099
 20
42.1064487823
  0
LWPOLYLINE
  5
238
100
AcDbEntity
  8
0
100
AcDbPolyline
 62
7
  6
CONTINUOUS
 90
3
 70
0
 10
11.7451899026
 20
43.0814456368
 10
11.7542172411
 20
42.8888824197
 10
11.8216756202
 20
42.522911926
  0
LINE
  5
239
100
AcDbEntity
  8
0
100
AcDbLine
 62
7
  6
CONTINUOUS
 10
11.7408420005
 20
42.1873650573
 11
11.7408432887
 21
42.1854702334
  0
LINE
  5
23A
100
AcDbEntity
  8
0
100
AcDbLine
 62
7
  6
CONTINUOUS
 10
11.7451913743
 20
43.0846093357
 11
11.7451899026
 21
43.0814456368
  0
LINE
  5
23B
100
AcDbEntity
  8
0
100
AcDbLine
 62
7
  6
CONTINUOUS
 10
11.7464411136
 20
44.8531018858
 11
11.7464402155
 21
44.8510075529
  0
LINE
  5
23C
100
AcDbEntity
  8
0
100
AcDbLine
 62
7
  6
CONTINUOUS
 10
11.7460318479
 20
43.9691543676
 11
11.7460308068
 21
43.9666490918
  0
LWPOLYLINE
  5
23D
100
AcDbEntity
  8
0
100
AcDbPolyline
 62
7
  6
CONTINUOUS
 90
8
 70
0
 10
15.6978361226
 20
44.4105731624
 10
15.6332586275
 20
44.1430705722
 10
15.2267044408
 20
43.7316266048
 10
14.5507485974
 20
43.5355842658
 10
13.7724255978
 20
43.62759066
 10
13.1192531765
 20
44.0187893224
 10
12.7741841009
 20
44.5977558238
 10
12.7441821551
 20
44.8533350758
  0
LWPOLYLINE
  5
23E
100
AcDbEntity
  8
0
100
AcDbPolyline
 62
7
  6
CONTINUOUS
 90
3
 70
0
 10
16.5470603951
 20
42.1064487823
 10
16.6706759072
 20
42.3685740355
 10
16.6926246592
 20
42.63430498
  0
LINE
  5
23F
100
AcDbEntity
  8
0
100
AcDbLine
 62
7
  6
CONTINUOUS
 10
9.1993412624
 20
19.7749089159
 11
37.4193412624
 21
19.7749089159
  0
LINE
  5
240
100
AcDbEntity
  8
0
100
AcDbLine
 62
7
  6
CONTINUOUS
 10
11.7408420005
 20
42.1873650573
 11
11.7472984874
 21
42.1064487823
  0
LINE
  5
241
100
AcDbEntity
  8
0
100
AcDbLine
 62
7
  6
CONTINUOUS
 10
13.4693412624
 20
44.2332812748
 11
13.4693412624
 21
47.941502143
  0
LINE
  5
242
100
AcDbEntity
  8
0
100
AcDbLine
 62
7
  6
CONTINUOUS
 10
14.4693412624
 20
44.2332812748
 11
14.4693412624
 21
47.959997842
  0
LINE
  5
243
100
AcDbEntity
  8
0
100
AcDbLine
 62
7
  6
CONTINUOUS
 10
12.7441831808
 20
44.8540157575
 11
12.7441821551
 21
44.8533350758
  0
LINE
  5
244
100
AcDbEntity
  8
0
100
AcDbLine
 62
7
  6
CONTINUOUS
 10
9.1993412624
 20
21.8777413649
 11
9.2193412624
 21
21.8777413649
  0
LINE
  5
245
100
AcDbEntity
  8
0
100
AcDbLine
 62
7
  6
CONTINUOUS
 10
11.8216828081
 20
42.5229111695
 11
11.7451899026
 21
43.0814456368
  0
LINE
  5
246
100
AcDbEntity
  8
0
100
AcDbLine
 62
7
  6
CONTINUOUS
 10
15.6978264287
 20
44.4053100854
 11
15.6978361226
 21
44.4105731624
  0
LINE
  5
247
100
AcDbEntity
  8
0
100
AcDbLine
 62
7
  6
CONTINUOUS
 10
17.869748436
 20
38.0731428393
 11
17.8665569666
 21
38.0597971698
  0
LINE
  5
248
100
AcDbEntity
  8
0
100
AcDbLine
 62
7
  6
CONTINUOUS
 10
37.4193412624
 20
24.9023089159
 11
9.2193412624
 21
24.9023089159
  0
LINE
  5
249
100
AcDbEntity
  8
0
100
AcDbLine
 62
7
  6
CONTINUOUS
 10
11.8222409038
 20
42.5209526365
 11
11.8216828081
 21
42.5229111695
  0
LWPOLYLINE
  5
24A
100
AcDbEntity
  8
0
100
AcDbPolyline
 62
7
  6
CONTINUOUS
 90
6
 70
0
 10
17.7026304576
 20
39.0864487823
 10
17.714821647
 20
38.8917050351
 10
17.7347414395
 20
38.6084443655
 10
17.7540325991
 20
38.3743205041
 10
17.7729045442
 20
38.1891075299
 10
17.791722181
 20
38.0486230106
  0
LWPOLYLINE
  5
24B
100
AcDbEntity
  8
0
100
AcDbPolyline
 62
7
  6
CONTINUOUS
 90
3
 70
0
 10
16.6978310315
 20
44.4065582126
 10
16.6863063369
 20
44.5929037797
 10
16.3472771739
 20
45.3786578212
  0
LWPOLYLINE
  5
24C
100
AcDbEntity
  8
0
100
AcDbPolyline
 62
7
  6
CONTINUOUS
 90
3
 70
0
 10
16.6926241732
 20
42.635201352
 10
16.6847304935
 20
42.7926378762
 10
16.5831923367
 20
43.0461172975
  0
LINE
  5
24D
100
AcDbEntity
  8
0
100
AcDbLine
 62
7
  6
CONTINUOUS
 10
16.6926246592
 20
42.63430498
 11
16.6926239134
 21
42.635201666
  0
LINE
  5
24E
100
AcDbEntity
  8
0
100
AcDbLine
 62
7
  6
CONTINUOUS
 10
17.2193412624
 20
38.5866504374
 11
17.2193412624
 21
42.1062471272
  0
LINE
  5
24F
100
AcDbEntity
  8
0
100
AcDbLine
 62
7
  6
CONTINUOUS
 10
17.4636412624
 20
42.6697097304
 11
17.4636412624
 21
47.6236089159
  0
LINE
  5
250
100
AcDbEntity
  8
0
100
AcDbLine
 62
7
  6
CONTINUOUS
 10
17.9636412624
 20
42.6697097304
 11
17.9636412624
 21
47.6236089159
  0
LINE
  5
251
100
AcDbEntity
  8
0
100
AcDbLine
 62
7
  6
CONTINUOUS
 10
16.6978310315
 20
44.4065580223
 11
16.6978343099
 21
44.4085083682
  0
LINE
  5
252
100
AcDbEntity
  8
0
100
AcDbLine
 62
7
  6
CONTINUOUS
 10
16.6976420321
 20
43.5213381991
 11
16.6976492223
 21
43.5241911892
  0
LWPOLYLINE
  5
253
100
AcDbEntity
  8
0
100
AcDbPolyline
 62
7
  6
CONTINUOUS
 90
10
 70
0
 10
18.4879453689
 20
39.5655773648
 10
18.5778575496
 20
41.2256250692
 10
18.5962368612
 20
41.5355535008
 10
18.6139855602
 20
41.8114311415
 10
18.6311415955
 20
42.0514541434
 10
18.6477136397
 20
42.2540280636
 10
18.6636344994
 20
42.4173723769
 10
18.6785469765
 20
42.5384297385
 10
18.6910047845
 20
42.6119847046
 10
18.6952182666
 20
42.6298003282
  0
LWPOLYLINE
  5
254
100
AcDbEntity
  8
0
100
AcDbPolyline
 62
7
  6
CONTINUOUS
 90
10
 70
0
 10
18.0723928338
 20
41.0947552711
 10
17.9814302037
 20
39.4168047981
 10
17.9647816377
 20
39.1374875109
 10
17.9485725504
 20
38.8865019329
 10
17.9327816345
 20
38.6651026632
 10
17.9174262557
 20
38.4745159039
 10
17.9025932057
 20
38.3162534386
 10
17.888480567
 20
38.1919369312
 10
17.8756838131
 20
38.1042625587
 10
17.869748436
 20
38.0731428393
  0
LWPOLYLINE
  5
255
100
AcDbEntity
  8
0
100
AcDbPolyline
 62
7
  6
CONTINUOUS
 90
9
 70
0
 10
18.7880845162
 20
39.5354537419
 10
18.7690875066
 20
39.2096249102
 10
18.7507967405
 20
38.9194551915
 10
18.7332773324
 20
38.6693448114
 10
18.7166258726
 20
38.4623277862
 10
18.7009915738
 20
38.2995264346
 10
18.6866146928
 20
38.1788754086
 10
18.6740626663
 20
38.098272744
 10
18.6684994602
 20
38.0710825977
  0
LWPOLYLINE
  5
256
100
AcDbEntity
  8
0
100
AcDbPolyline
 62
7
  6
CONTINUOUS
 90
3
 70
0
 10
18.9724805139
 20
38.3493875722
 10
18.9125983433
 20
37.7798968513
 10
18.8803970411
 20
37.6968622707
  0
LWPOLYLINE
  5
257
100
AcDbEntity
  8
0
100
AcDbPolyline
 62
7
  6
CONTINUOUS
 90
8
 70
0
 10
19.8117856408
 20
42.7503627349
 10
19.7908518153
 20
42.6389340624
 10
19.771135994
 20
42.4862588935
 10
19.7503851307
 20
42.2751869781
 10
19.7282733049
 20
41.9968744965
 10
19.7056463551
 20
41.6605246496
 10
19.6834612393
 20
41.2899322276
 10
19.5922429518
 20
39.6090982674
  0
LWPOLYLINE
  5
258
100
AcDbEntity
  8
0
100
AcDbPolyline
 62
7
  6
CONTINUOUS
 90
8
 70
0
 10
19.1508057811
 20
37.9466404372
 10
19.1715115364
 20
38.0558693412
 10
19.1908525843
 20
38.2036720895
 10
19.2099739615
 20
38.3952018483
 10
19.2294693479
 20
38.6357472637
 10
19.249547424
 20
38.9253043813
 10
19.270299572
 20
39.2605428739
 10
19.3863234041
 20
41.3712180106
  0
LINE
  5
259
100
AcDbEntity
  8
0
100
AcDbLine
 62
7
  6
CONTINUOUS
 10
31.1706169444
 20
43.9750967235
 11
31.5514335647
 21
44.2663597604
  0
LINE
  5
25A
100
AcDbEntity
  8
0
100
AcDbLine
 62
7
  6
CONTINUOUS
 10
9.2193412624
 20
25.0023089159
 11
7.7193412624
 21
25.0023089159
  0
LINE
  5
25B
100
AcDbEntity
  8
0
100
AcDbLine
 62
7
  6
CONTINUOUS
 10
21.545086121
 20
25.0023089159
 11
25.0937964156
 21
25.0023089159
  0
LINE
  5
25C
100
AcDbEntity
  8
0
100
AcDbLine
 62
7
  6
CONTINUOUS
 10
37.4193412624
 20
25.0023089159
 11
38.9193412624
 21
25.0023089159
  0
LINE
  5
25D
100
AcDbEntity
  8
0
100
AcDbLine
 62
7
  6
CONTINUOUS
 10
37.4193412624
 20
25.7041026749
 11
38.9193412624
 21
25.7041037107
  0
LINE
  5
25E
100
AcDbEntity
  8
0
100
AcDbLine
 62
7
  6
CONTINUOUS
 10
9.2193412624
 20
25.7041028415
 11
7.7193412624
 21
25.7041038772
  0
LWPOLYLINE
  5
25F
100
AcDbEntity
  8
0
100
AcDbPolyline
 62
7
  6
CONTINUOUS
 90
10
 70
0
 10
19.3023709339
 20
39.0864487823
 10
19.3211728533
 20
38.7983773524
 10
19.3401049166
 20
38.5419037609
 10
19.3581891126
 20
38.3319785916
 10
19.3757232312
 20
38.1648189152
 10
19.3934140472
 20
38.0350924142
 10
19.4137285647
 20
37.9335859503
 10
19.4468281732
 20
37.8432719009
 10
19.5617380011
 20
37.7281855415
 10
19.6804829311
 20
37.6979673274
  0
LWPOLYLINE
  5
260
100
AcDbEntity
  8
0
100
AcDbPolyline
 62
7
  6
CONTINUOUS
 90
11
 70
0
 10
18.8595550348
 20
41.6064487823
 10
18.8459711242
 20
41.8203806157
 10
18.8277624846
 20
42.0779095016
 10
18.8103442016
 20
42.2926808573
 10
18.7933960663
 20
42.4678339301
 10
18.7762972952
 20
42.6073714016
 10
18.7578414733
 20
42.7162367694
 10
18.7346247441
 20
42.8026597944
 10
18.6783508841
 20
42.9017427624
 10
18.502402021
 20
42.9927948271
 10
18.4809873883
 20
42.993773193
  0
LWPOLYLINE
  5
261
100
AcDbEntity
  8
0
100
AcDbPolyline
 62
7
  6
CONTINUOUS
 90
5
 70
0
 10
18.0595781709
 20
41.6064487823
 10
18.0474979837
 20
41.8000315605
 10
18.025213667
 20
42.1125632084
 10
18.0022130056
 20
42.3788179743
 10
17.9781285628
 20
42.5911303003
  0
LWPOLYLINE
  5
262
100
AcDbEntity
  8
0
100
AcDbPolyline
 62
7
  6
CONTINUOUS
 90
10
 70
0
 10
18.5023874598
 20
39.0864487823
 10
18.5046085786
 20
39.0491783411
 10
18.5278623525
 20
38.7032278991
 10
18.549454857
 20
38.4290742365
 10
18.5696864944
 20
38.2189869
 10
18.5893559412
 20
38.062162494
 10
18.6103608018
 20
37.9471430714
 10
18.644830744
 20
37.8461850658
 10
18.7662873403
 20
37.7247256639
 10
18.8803970411
 20
37.6968622707
  0
LWPOLYLINE
  5
263
100
AcDbEntity
  8
0
100
AcDbPolyline
 62
7
  6
CONTINUOUS
 90
9
 70
0
 10
20.1673671842
 20
41.0386145093
 10
20.1876422003
 20
41.3941510855
 10
20.2070918757
 20
41.7097936375
 10
20.2256039924
 20
41.9791516157
 10
20.2431130834
 20
42.2006228206
 10
20.2595151976
 20
42.3757260425
 10
20.2746111048
 20
42.5065347846
 10
20.2877805924
 20
42.5940924347
 10
20.293630335
 20
42.6236557871
  0
LINE
  5
264
100
AcDbEntity
  8
0
100
AcDbLine
 62
7
  6
CONTINUOUS
 10
19.0322097134
 20
39.3556896055
 11
18.9724805139
 21
38.3493875722
  0
LWPOLYLINE
  5
265
100
AcDbEntity
  8
0
100
AcDbPolyline
 62
7
  6
CONTINUOUS
 90
8
 70
0
 10
19.3863234041
 20
41.3712180106
 10
19.4052316471
 20
41.6806263351
 10
19.4232610101
 20
41.9474169608
 10
19.4405069818
 20
42.1706815733
 10
19.4569421247
 20
42.3508956308
 10
19.4723856939
 20
42.4889356853
 10
19.4862717616
 20
42.5845488846
 10
19.4964283089
 20
42.6338971711
  0
LWPOLYLINE
  5
266
100
AcDbEntity
  8
0
100
AcDbPolyline
 62
7
  6
CONTINUOUS
 90
8
 70
0
 10
20.3947891814
 20
39.6535244317
 10
20.3584755296
 20
39.03686937
 10
20.3409486363
 20
38.7762569681
 10
20.323915362
 20
38.5518165231
 10
20.3074726796
 20
38.3655487998
 10
20.2918216097
 20
38.2192983514
 10
20.2775382164
 20
38.1157028469
 10
20.2667413666
 20
38.0604525657
  0
LWPOLYLINE
  5
267
100
AcDbEntity
  8
0
100
AcDbPolyline
 62
7
  6
CONTINUOUS
 90
8
 70
0
 10
19.5922429518
 20
39.6090982674
 10
19.55549977
 20
38.992100542
 10
19.5379966826
 20
38.7343950319
 10
19.5211698229
 20
38.5157833371
 10
19.5051704884
 20
38.3391984978
 10
19.4901889776
 20
38.2052104953
 10
19.4767129086
 20
38.1126267836
 10
19.4665776415
 20
38.0633493873
  0
LWPOLYLINE
  5
268
100
AcDbEntity
  8
0
100
AcDbPolyline
 62
7
  6
CONTINUOUS
 90
3
 70
0
 10
19.1884966219
 20
42.2768519719
 10
19.1512066993
 20
41.7338529052
 10
19.0322097134
 20
39.3556896055
  0
LWPOLYLINE
  5
269
100
AcDbEntity
  8
0
100
AcDbPolyline
 62
7
  6
CONTINUOUS
 90
8
 70
0
 10
20.7511237414
 20
37.9443431461
 10
20.7713659951
 20
38.0526865036
 10
20.7901177949
 20
38.1978205092
 10
20.8091864417
 20
38.3893301129
 10
20.8292199401
 20
38.6346624777
 10
20.8505871698
 20
38.9407853586
 10
20.8731785812
 20
39.3073065144
 10
20.9796607575
 20
41.2566809515
  0
LINE
  5
26A
100
AcDbEntity
  8
0
100
AcDbLine
 62
7
  6
CONTINUOUS
 10
30.2902987868
 20
42.6369049103
 11
30.0862736589
 21
42.4011004875
  0
LINE
  5
26B
100
AcDbEntity
  8
0
100
AcDbLine
 62
7
  6
CONTINUOUS
 10
11.8222409038
 20
42.5209526365
 11
12.0465428081
 21
42.1064487823
  0
LINE
  5
26C
100
AcDbEntity
  8
0
100
AcDbLine
 62
7
  6
CONTINUOUS
 10
16.6976420322
 20
43.521338377
 11
16.5972022919
 21
43.9688201145
  0
LWPOLYLINE
  5
26D
100
AcDbEntity
  8
0
100
AcDbPolyline
 62
7
  6
CONTINUOUS
 90
3
 70
0
 10
16.6152637867
 20
42.1064487823
 10
16.552404688
 20
42.4011099081
 10
16.3483845079
 20
42.6369063784
  0
LWPOLYLINE
  5
26E
100
AcDbEntity
  8
0
100
AcDbPolyline
 62
7
  6
CONTINUOUS
 90
5
 70
0
 10
17.791722181
 20
38.0486230106
 10
17.8122062035
 20
37.9431254004
 10
17.8465358606
 20
37.8456528312
 10
17.9639326852
 20
37.727127481
 10
18.0817296265
 20
37.6973946315
  0
LINE
  5
26F
100
AcDbEntity
  8
0
100
AcDbLine
 62
7
  6
CONTINUOUS
 10
17.9781285628
 20
42.5911303003
 11
17.9636412624
 21
42.6799476768
  0
LWPOLYLINE
  5
270
100
AcDbEntity
  8
0
100
AcDbPolyline
 62
7
  6
CONTINUOUS
 90
5
 70
0
 10
17.4701074898
 20
42.6157966699
 10
17.4908621417
 20
42.4802643483
 10
17.5177580786
 20
42.2158048507
 10
17.5435777033
 20
41.8809419
 10
17.5612793055
 20
41.6064487823
  0
LINE
  5
271
100
AcDbEntity
  8
0
100
AcDbLine
 62
7
  6
CONTINUOUS
 10
17.4636413722
 20
42.6699363377
 11
17.4699144436
 21
42.6158677845
  0
LWPOLYLINE
  5
272
100
AcDbEntity
  8
0
100
AcDbPolyline
 62
7
  6
CONTINUOUS
 90
4
 70
0
 10
19.6083645009
 20
42.3139037954
 10
19.5971268347
 20
42.4300824777
 10
19.5806812643
 20
42.572841895
 10
19.5638259438
 20
42.6849406076
  0
LINE
  5
273
100
AcDbEntity
  8
0
100
AcDbLine
 62
7
  6
CONTINUOUS
 10
19.6083645009
 20
42.3139037954
 11
19.6083783728
 21
42.3137504832
  0
LWPOLYLINE
  5
274
100
AcDbEntity
  8
0
100
AcDbPolyline
 62
7
  6
CONTINUOUS
 90
6
 70
0
 10
20.1025811918
 20
39.0864487823
 10
20.1185731769
 20
38.8351613548
 10
20.1388242538
 20
38.5551950533
 10
20.1581008087
 20
38.3309618035
 10
20.1766318502
 20
38.1582294076
 10
20.1950037807
 20
38.0287540961
  0
LWPOLYLINE
  5
275
100
AcDbEntity
  8
0
100
AcDbPolyline
 62
7
  6
CONTINUOUS
 90
11
 70
0
 10
20.4596639532
 20
41.6064487823
 10
20.4539810449
 20
41.6999126555
 10
20.4355003858
 20
41.9747694026
 10
20.4177270475
 20
42.2061862409
 10
20.4005043629
 20
42.3964658946
 10
20.3836037996
 20
42.5490287374
 10
20.3662133749
 20
42.6698656786
 10
20.346677105
 20
42.7640905855
 10
20.3156345432
 20
42.8495052878
 10
20.206778973
 20
42.9634980688
 10
20.0808123255
 20
42.997740658
  0
LWPOLYLINE
  5
276
100
AcDbEntity
  8
0
100
AcDbPolyline
 62
7
  6
CONTINUOUS
 90
4
 70
0
 10
19.6596392934
 20
41.6064487823
 10
19.6573896873
 20
41.644189958
 10
19.6304969794
 20
42.0404591337
 10
19.6083614107
 20
42.3137640852
  0
LINE
  5
277
100
AcDbEntity
  8
0
100
AcDbLine
 62
7
  6
CONTINUOUS
 10
20.7565412624
 20
35.6530558027
 11
20.7565412624
 21
37.9733395428
  0
LINE
  5
278
100
AcDbEntity
  8
0
100
AcDbLine
 62
7
  6
CONTINUOUS
 10
21.2193412624
 20
42.1063722383
 11
21.2193412624
 21
38.5865253263
  0
LINE
  5
279
100
AcDbEntity
  8
0
100
AcDbLine
 62
7
  6
CONTINUOUS
 10
21.2565412624
 20
35.6530558027
 11
21.2565412624
 21
38.5864487823
  0
LWPOLYLINE
  5
27A
100
AcDbEntity
  8
0
100
AcDbPolyline
 62
7
  6
CONTINUOUS
 90
8
 70
0
 10
20.9796607575
 20
41.2566809515
 10
20.9986722991
 20
41.5747381007
 10
21.0171302058
 20
41.8576667095
 10
21.0351187603
 20
42.1032456049
 10
21.0525691255
 20
42.3077099274
 10
21.0691379631
 20
42.4660029551
 10
21.0840454459
 20
42.5738223131
 10
21.0950082591
 20
42.6284681526
  0
LWPOLYLINE
  5
27B
100
AcDbEntity
  8
0
100
AcDbPolyline
 62
7
  6
CONTINUOUS
 90
4
 70
0
 10
33.7720038748
 20
42.1064487823
 10
34.5081592376
 20
42.7597565295
 10
34.8798635465
 20
43.7366295064
 10
34.8926517186
 20
43.9666514706
  0
LINE
  5
27C
100
AcDbEntity
  8
0
100
AcDbLine
 62
7
  6
CONTINUOUS
 10
5.0693412624
 20
29.6841124325
 11
6.0693412624
 21
29.6841124325
  0
LWPOLYLINE
  5
27D
100
AcDbEntity
  8
0
100
AcDbPolyline
 62
7
  6
CONTINUOUS
 90
5
 70
0
 10
20.1950037807
 20
38.0287540961
 10
20.2155314684
 20
37.92997376
 10
20.2501839881
 20
37.8383571724
 10
20.3668239495
 20
37.7251461173
 10
20.4817455445
 20
37.6968772292
  0
LWPOLYLINE
  5
27E
100
AcDbEntity
  8
0
100
AcDbPolyline
 62
7
  6
CONTINUOUS
 90
8
 70
0
 10
21.2205520606
 20
42.1712039854
 10
21.2012008677
 20
42.391597701
 10
21.1819821705
 20
42.5653793245
 10
21.1722441215
 20
42.6351277544
 10
21.1514133641
 20
42.7452633909
 10
21.1179922183
 20
42.8422499918
 10
21.0035078946
 20
42.9613638613
 10
20.881123405
 20
42.9934947834
  0
LINE
  5
27F
100
AcDbEntity
  8
0
100
AcDbLine
 62
7
  6
CONTINUOUS
 10
21.2253234526
 20
42.106815538
 11
21.2205520606
 21
42.1712039854
  0
LWPOLYLINE
  5
280
100
AcDbEntity
  8
0
100
AcDbPolyline
 62
7
  6
CONTINUOUS
 90
7
 70
0
 10
25.4872696641
 20
42.7452654769
 10
25.4664387539
 20
42.6351300441
 10
25.4567006707
 20
42.5653817929
 10
25.4374819222
 20
42.3916004184
 10
25.4181306808
 20
42.1712066884
 10
25.3983421629
 20
41.9041671694
 10
25.3833108278
 20
41.676969761
  0
LWPOLYLINE
  5
281
100
AcDbEntity
  8
0
100
AcDbPolyline
 62
7
  6
CONTINUOUS
 90
3
 70
0
 10
30.2913944
 20
45.3786578212
 10
29.9523657308
 20
44.5928204268
 10
29.9408514959
 20
44.4065569772
  0
LINE
  5
282
100
AcDbEntity
  8
0
100
AcDbLine
 62
7
  6
CONTINUOUS
 10
4.8193412624
 20
31.4749481189
 11
6.0693412624
 21
31.4749481189
  0
LWPOLYLINE
  5
283
100
AcDbEntity
  8
0
100
AcDbPolyline
 62
7
  6
CONTINUOUS
 90
5
 70
0
 10
19.5638259438
 20
42.6849406076
 10
19.5443270572
 20
42.7741309914
 10
19.5111730528
 20
42.8587831991
 10
19.3981012501
 20
42.9684421603
 10
19.2813954033
 20
42.9976780798
  0
LINE
  5
284
100
AcDbEntity
  8
0
100
AcDbLine
 62
7
  6
CONTINUOUS
 10
25.2193412624
 20
38.5866504374
 11
25.2193412624
 21
42.1062471272
  0
LINE
  5
285
100
AcDbEntity
  8
0
100
AcDbLine
 62
7
  6
CONTINUOUS
 10
25.3821412624
 20
41.6732227462
 11
25.3821412624
 21
41.6064487823
  0
LINE
  5
286
100
AcDbEntity
  8
0
100
AcDbLine
 62
7
  6
CONTINUOUS
 10
25.3821412624
 20
39.0864487823
 11
25.3821412624
 21
35.6530558027
  0
LINE
  5
287
100
AcDbEntity
  8
0
100
AcDbLine
 62
7
  6
CONTINUOUS
 10
25.3821412624
 20
41.6732227462
 11
25.382235501
 21
41.6770149435
  0
LWPOLYLINE
  5
288
100
AcDbEntity
  8
0
100
AcDbPolyline
 62
7
  6
CONTINUOUS
 90
6
 70
0
 10
26.4447427603
 20
38.035141523
 10
26.4633613882
 20
38.1690491866
 10
26.4822905614
 20
38.3490251161
 10
26.5020019959
 20
38.5828092469
 10
26.5225632317
 20
38.8717958881
 10
26.5360569264
 20
39.0864487823
  0
LWPOLYLINE
  5
289
100
AcDbEntity
  8
0
100
AcDbPolyline
 62
7
  6
CONTINUOUS
 90
7
 70
0
 10
26.2729570648
 20
42.6727331398
 10
26.2557142084
 20
42.5540902487
 10
26.2390492215
 20
42.4051676942
 10
26.2220018068
 20
42.2187200976
 10
26.2041948923
 20
41.9888727679
 10
26.185506658
 20
41.7125307052
 10
26.1790321426
 20
41.6064487823
  0
LWPOLYLINE
  5
28A
100
AcDbEntity
  8
0
100
AcDbPolyline
 62
7
  6
CONTINUOUS
 90
4
 70
0
 10
27.0748583392
 20
42.6849505208
 10
27.0580032062
 20
42.5728568326
 10
27.0415579269
 20
42.4301041171
 10
27.0303197985
 20
42.3139233051
  0
LWPOLYLINE
  5
28B
100
AcDbEntity
  8
0
100
AcDbPolyline
 62
7
  6
CONTINUOUS
 90
8
 70
0
 10
27.171913238
 20
38.0633499551
 10
27.1720172972
 20
38.0636715423
 10
27.1621967676
 20
38.1113107601
 10
27.1481031597
 20
38.2082984258
 10
27.1323372394
 20
38.3510226039
 10
27.1155977333
 20
38.5390572418
 10
27.0981707221
 20
38.769653169
 10
27.0802193524
 20
39.0383960268
  0
LWPOLYLINE
  5
28C
100
AcDbEntity
  8
0
100
AcDbPolyline
 62
7
  6
CONTINUOUS
 90
3
 70
0
 10
30.0554909142
 20
43.0461149347
 10
29.9539509026
 20
42.7926265281
 10
29.9460583546
 20
42.6352041441
  0
LINE
  5
28D
100
AcDbEntity
  8
0
100
AcDbLine
 62
7
  6
CONTINUOUS
 10
37.4193412624
 20
33.6707089238
 11
37.1293912624
 21
33.6705752214
  0
LINE
  5
28E
100
AcDbEntity
  8
0
100
AcDbLine
 62
7
  6
CONTINUOUS
 10
9.2193412624
 20
34.1514093525
 11
37.4193412624
 21
34.1514093778
  0
LINE
  5
28F
100
AcDbEntity
  8
0
100
AcDbLine
 62
7
  6
CONTINUOUS
 10
9.5094912624
 20
33.6705751503
 11
9.2193412624
 21
33.6707089238
  0
LWPOLYLINE
  5
290
100
AcDbEntity
  8
0
100
AcDbPolyline
 62
7
  6
CONTINUOUS
 90
5
 70
0
 10
26.9308443561
 20
41.695147966
 10
26.9085013447
 20
42.0229414804
 10
26.8867253008
 20
42.292927628
 10
26.8663211358
 20
42.4971272784
 10
26.8468649997
 20
42.6451953373
  0
LWPOLYLINE
  5
291
100
AcDbEntity
  8
0
100
AcDbPolyline
 62
7
  6
CONTINUOUS
 90
10
 70
0
 10
25.7780787149
 20
39.0983518422
 10
25.7995768417
 20
38.7709498194
 10
25.8200223613
 20
38.4999844631
 10
25.839508851
 20
38.2834127689
 10
25.8583129003
 20
38.1168985033
 10
25.8772998251
 20
37.993240778
 10
25.901063158
 20
37.8959406976
 10
25.958576303
 20
37.7902930797
 10
26.1344438254
 20
37.697958888
 10
26.1569441095
 20
37.6968775343
  0
LWPOLYLINE
  5
292
100
AcDbEntity
  8
0
100
AcDbPolyline
 62
7
  6
CONTINUOUS
 90
10
 70
0
 10
26.1425065123
 20
41.5048823751
 10
26.1197802936
 20
41.86100037
 10
26.0981921608
 20
42.1570509293
 10
26.0777593837
 20
42.3913967255
 10
26.0581426004
 20
42.5681800168
 10
26.0383791526
 20
42.6960099552
 10
26.0140093445
 20
42.7942234482
 10
25.9565896284
 20
42.8995456276
 10
25.7780263791
 20
42.9925999153
 10
25.757546096
 20
42.9934948592
  0
LWPOLYLINE
  5
293
100
AcDbEntity
  8
0
100
AcDbPolyline
 62
7
  6
CONTINUOUS
 90
10
 70
0
 10
26.5729835113
 20
39.1838827634
 10
26.593115651
 20
38.8656151646
 10
26.6129735699
 20
38.5865286564
 10
26.6321044541
 20
38.3574733414
 10
26.6504853789
 20
38.17965862
 10
26.6686780073
 20
38.0456065686
 10
26.6887357517
 20
37.9431207238
 10
26.721744132
 20
37.8486076135
 10
26.831780829
 20
37.7323758343
 10
26.9582087083
 20
37.6979672868
  0
LINE
  5
294
100
AcDbEntity
  8
0
100
AcDbLine
 62
7
  6
CONTINUOUS
 10
27.0802193524
 20
39.0383960268
 11
27.0431313428
 21
39.6684035357
  0
LINE
  5
295
100
AcDbEntity
  8
0
100
AcDbLine
 62
7
  6
CONTINUOUS
 10
26.973947073
 20
40.9548755882
 11
26.9308443561
 21
41.695147966
  0
LINE
  5
296
100
AcDbEntity
  8
0
100
AcDbLine
 62
7
  6
CONTINUOUS
 10
26.443728162
 20
41.516213847
 11
26.4784534285
 21
40.908781974
  0
LINE
  5
297
100
AcDbEntity
  8
0
100
AcDbLine
 62
7
  6
CONTINUOUS
 10
26.5337053349
 20
39.8766352708
 11
26.5729835113
 21
39.1838827634
  0
LINE
  5
298
100
AcDbEntity
  8
0
100
AcDbLine
 62
7
  6
CONTINUOUS
 10
25.7323662846
 20
39.9013655315
 11
25.7780787149
 21
39.0983518422
  0
LINE
  5
299
100
AcDbEntity
  8
0
100
AcDbLine
 62
7
  6
CONTINUOUS
 10
25.6519427078
 20
41.3778767984
 11
25.7323662846
 21
39.9013655315
  0
LWPOLYLINE
  5
29A
100
AcDbEntity
  8
0
100
AcDbPolyline
 62
7
  6
CONTINUOUS
 90
3
 70
0
 10
26.266004856
 20
39.2674423983
 10
26.1896126142
 20
40.6665349058
 10
26.1425065123
 20
41.5048823751
  0
LINE
  5
29B
100
AcDbEntity
  8
0
100
AcDbLine
 62
7
  6
CONTINUOUS
 10
26.4784534285
 20
40.908781974
 11
26.5337053349
 21
39.8766352708
  0
LINE
  5
29C
100
AcDbEntity
  8
0
100
AcDbLine
 62
7
  6
CONTINUOUS
 10
27.0431313428
 20
39.6684035357
 11
26.973947073
 21
40.9548755882
  0
LINE
  5
29D
100
AcDbEntity
  8
0
100
AcDbLine
 62
7
  6
CONTINUOUS
 10
25.8821412624
 20
37.973417286
 11
25.8821412624
 21
35.6530558027
  0
LWPOLYLINE
  5
29E
100
AcDbEntity
  8
0
100
AcDbPolyline
 62
7
  6
CONTINUOUS
 90
4
 70
0
 10
27.0303192159
 20
42.3137429766
 10
27.0118528467
 20
42.0893102766
 10
26.9882334743
 20
41.7524312767
 10
26.9792206384
 20
41.6064487823
  0
LINE
  5
29F
100
AcDbEntity
  8
0
100
AcDbLine
 62
7
  6
CONTINUOUS
 10
27.030334025
 20
42.313906705
 11
27.0303192159
 21
42.3137429766
  0
LINE
  5
2A0
100
AcDbEntity
  8
0
100
AcDbLine
 62
7
  6
CONTINUOUS
 10
29.168750613
 20
42.6157938262
 11
29.1750412624
 21
42.6697097304
  0
LWPOLYLINE
  5
2A1
100
AcDbEntity
  8
0
100
AcDbPolyline
 62
7
  6
CONTINUOUS
 90
6
 70
0
 10
28.0467885685
 20
38.0454417455
 10
28.0655292976
 20
38.1878681682
 10
28.0846215341
 20
38.3770832271
 10
28.1048125516
 20
38.62210708
 10
28.1264976715
 20
38.9311664279
 10
28.136095207
 20
39.0864487823
  0
LWPOLYLINE
  5
2A2
100
AcDbEntity
  8
0
100
AcDbPolyline
 62
7
  6
CONTINUOUS
 90
5
 70
0
 10
28.6750412624
 20
42.6785992914
 10
28.6568828602
 20
42.5633071775
 10
28.6295579476
 20
42.3051374928
 10
28.6034250448
 20
41.9780064291
 10
28.5788688445
 20
41.6064487823
  0
LINE
  5
2A3
100
AcDbEntity
  8
0
100
AcDbLine
 62
7
  6
CONTINUOUS
 10
30.0862736589
 20
42.4011004875
 11
30.0234173943
 21
42.1064487823
  0
LINE
  5
2A4
100
AcDbEntity
  8
0
100
AcDbLine
 62
7
  6
CONTINUOUS
 10
30.0414729439
 20
43.9688323767
 11
29.9410404928
 21
43.5213381702
  0
LWPOLYLINE
  5
2A5
100
AcDbEntity
  8
0
100
AcDbPolyline
 62
7
  6
CONTINUOUS
 90
4
 70
0
 10
30.9408561027
 20
44.4053089219
 10
31.0715855832
 20
44.7853209707
 10
31.5429597655
 20
45.1507451225
 10
32.1693412624
 20
45.272837182
  0
LINE
  5
2A6
100
AcDbEntity
  8
0
100
AcDbLine
 62
7
  6
CONTINUOUS
 10
34.592147984
 20
42.1064487823
 11
34.8164370278
 21
42.5209368673
  0
LWPOLYLINE
  5
2A7
100
AcDbEntity
  8
0
100
AcDbPolyline
 62
7
  6
CONTINUOUS
 90
10
 70
0
 10
26.9581993699
 20
37.6979673274
 10
27.0769506162
 20
37.7281887447
 10
27.191856436
 20
37.8432758797
 10
27.2249549489
 20
37.9335897969
 10
27.2452692991
 20
38.0350975149
 10
27.2629601619
 20
38.1648262564
 10
27.280494348
 20
38.3319884979
 10
27.2985786202
 20
38.5419165066
 10
27.3175107697
 20
38.7983932283
 10
27.3363115342
 20
39.0864487823
  0
LWPOLYLINE
  5
2A8
100
AcDbEntity
  8
0
100
AcDbPolyline
 62
7
  6
CONTINUOUS
 90
5
 70
0
 10
27.7582839105
 20
37.6968622708
 10
27.8751865496
 20
37.7261475872
 10
27.9918815867
 20
37.8423420922
 10
28.0263646122
 20
37.9389671595
 10
28.0467885685
 20
38.0454417455
  0
LWPOLYLINE
  5
2A9
100
AcDbEntity
  8
0
100
AcDbPolyline
 62
7
  6
CONTINUOUS
 90
5
 70
0
 10
28.5569535189
 20
37.6973946314
 10
28.6729727062
 20
37.7262099186
 10
28.7910549438
 20
37.8435364786
 10
28.8257948096
 20
37.9403715259
 10
28.8462059039
 20
38.0438938611
  0
LINE
  5
2AA
100
AcDbEntity
  8
0
100
AcDbLine
 62
7
  6
CONTINUOUS
 10
9.2193412629
 20
35.6527572376
 11
37.4193412627
 21
35.6527572655
  0
LINE
  5
2AB
100
AcDbEntity
  8
0
100
AcDbLine
 62
7
  6
CONTINUOUS
 10
4.8193412624
 20
35.7859089159
 11
6.0693412624
 21
35.7859089159
  0
LWPOLYLINE
  5
2AC
100
AcDbEntity
  8
0
100
AcDbPolyline
 62
7
  6
CONTINUOUS
 90
3
 70
0
 10
27.6662019379
 20
38.3493885014
 10
27.7260839718
 20
37.7798979007
 10
27.7582838432
 20
37.6968621325
  0
LINE
  5
2AD
100
AcDbEntity
  8
0
100
AcDbLine
 62
7
  6
CONTINUOUS
 10
27.4501846948
 20
42.2768700238
 11
27.4874760279
 21
41.7338492124
  0
LWPOLYLINE
  5
2AE
100
AcDbEntity
  8
0
100
AcDbPolyline
 62
7
  6
CONTINUOUS
 90
10
 70
0
 10
28.1803337479
 20
39.0624399121
 10
28.1994177654
 20
38.7735521974
 10
28.2176113462
 20
38.5297953312
 10
28.2351856238
 20
38.3275031632
 10
28.2523815911
 20
38.1643175751
 10
28.2699274741
 20
38.0355845473
 10
28.2896693367
 20
37.935699152
 10
28.3211051108
 20
37.8471279818
 10
28.4302008413
 20
37.7320119982
 10
28.5569619729
 20
37.6973949315
  0
LWPOLYLINE
  5
2AF
100
AcDbEntity
  8
0
100
AcDbPolyline
 62
7
  6
CONTINUOUS
 90
10
 70
0
 10
28.5366081245
 20
41.6012649563
 10
28.5150413482
 20
41.9296283586
 10
28.4946275289
 20
42.2009212576
 10
28.4751733499
 20
42.4171732196
 10
28.4562895514
 20
42.5824604784
 10
28.436979243
 20
42.703835109
 10
28.4123464846
 20
42.7996839218
 10
28.3522423115
 20
42.9048885735
 10
28.1717349589
 20
42.9933505764
 10
28.1576871436
 20
42.9937731313
  0
LWPOLYLINE
  5
2B0
100
AcDbEntity
  8
0
100
AcDbPolyline
 62
7
  6
CONTINUOUS
 90
6
 70
0
 10
27.369972739
 20
39.2337740062
 10
27.3909464828
 20
38.8976490443
 10
27.4108385408
 20
38.6140595491
 10
27.4299548734
 20
38.3813498029
 10
27.448733486
 20
38.1957392345
 10
27.4678661956
 20
38.0514071199
  0
LWPOLYLINE
  5
2B1
100
AcDbEntity
  8
0
100
AcDbPolyline
 62
7
  6
CONTINUOUS
 90
11
 70
0
 10
27.7447975345
 20
41.4677847157
 10
27.7251373193
 20
41.7832469536
 10
27.7060735724
 20
42.0562861974
 10
27.6877581714
 20
42.2820574181
 10
27.6701278291
 20
42.4629138287
 10
27.6527960147
 20
42.60433659
 10
27.6346515054
 20
42.713694463
 10
27.6106433721
 20
42.805564742
 10
27.5502088049
 20
42.9102023591
 10
27.370668581
 20
42.9972930631
 10
27.3572845088
 20
42.9976780877
  0
LINE
  5
2B2
100
AcDbEntity
  8
0
100
AcDbLine
 62
7
  6
CONTINUOUS
 10
27.8747878197
 20
39.1246034991
 11
27.8360360648
 21
39.7975865701
  0
LINE
  5
2B3
100
AcDbEntity
  8
0
100
AcDbLine
 62
7
  6
CONTINUOUS
 10
27.2386043067
 20
41.5989879619
 11
27.2801274241
 21
40.87784054
  0
LINE
  5
2B4
100
AcDbEntity
  8
0
100
AcDbLine
 62
7
  6
CONTINUOUS
 10
28.1383103752
 20
39.7912359861
 11
28.1803337479
 21
39.0624399121
  0
LINE
  5
2B5
100
AcDbEntity
  8
0
100
AcDbLine
 62
7
  6
CONTINUOUS
 10
28.0406314612
 20
41.5648950794
 11
28.0817582075
 21
40.8496948787
  0
LINE
  5
2B6
100
AcDbEntity
  8
0
100
AcDbLine
 62
7
  6
CONTINUOUS
 10
28.5827017528
 20
40.7952417854
 11
28.5366081245
 21
41.6012649563
  0
LINE
  5
2B7
100
AcDbEntity
  8
0
100
AcDbLine
 62
7
  6
CONTINUOUS
 10
27.2801274241
 20
40.87784054
 11
27.369972739
 21
39.2337740062
  0
LINE
  5
2B8
100
AcDbEntity
  8
0
100
AcDbLine
 62
7
  6
CONTINUOUS
 10
27.8360360648
 20
39.7975865701
 11
27.7447975345
 21
41.4677847157
  0
LINE
  5
2B9
100
AcDbEntity
  8
0
100
AcDbLine
 62
7
  6
CONTINUOUS
 10
28.0817582075
 20
40.8496948787
 11
28.1383103752
 21
39.7912359861
  0
LINE
  5
2BA
100
AcDbEntity
  8
0
100
AcDbLine
 62
7
  6
CONTINUOUS
 10
28.6628693042
 20
39.3204111894
 11
28.5827017528
 21
40.7952417854
  0
LWPOLYLINE
  5
2BB
100
AcDbEntity
  8
0
100
AcDbPolyline
 62
7
  6
CONTINUOUS
 90
3
 70
0
 10
27.4874760279
 20
41.7338492124
 10
27.606472868
 20
39.3556886043
 10
27.6662019379
 20
38.3493885014
  0
LINE
  5
2BC
100
AcDbEntity
  8
0
100
AcDbLine
 62
7
  6
CONTINUOUS
 10
28.6750412624
 20
42.6697097304
 11
28.6750412624
 21
47.6236089159
  0
LINE
  5
2BD
100
AcDbEntity
  8
0
100
AcDbLine
 62
7
  6
CONTINUOUS
 10
29.1750412624
 20
42.6697097304
 11
29.1750412624
 21
47.6236089159
  0
LINE
  5
2BE
100
AcDbEntity
  8
0
100
AcDbLine
 62
7
  6
CONTINUOUS
 10
29.2193412624
 20
42.1063722383
 11
29.2193412624
 21
38.5865253263
  0
LWPOLYLINE
  5
2BF
100
AcDbEntity
  8
0
100
AcDbPolyline
 62
7
  6
CONTINUOUS
 90
5
 70
0
 10
29.0774706358
 20
41.6064487823
 10
29.0923499488
 20
41.8409740428
 10
29.1189449016
 20
42.1928035141
 10
29.1467684106
 20
42.4716924284
 10
29.1685587036
 20
42.615720785
  0
LWPOLYLINE
  5
2C0
100
AcDbEntity
  8
0
100
AcDbPolyline
 62
7
  6
CONTINUOUS
 90
6
 70
0
 10
28.8462059039
 20
38.0438938611
 10
28.8648546173
 20
38.1811886852
 10
28.883549509
 20
38.3623007219
 10
28.9026598204
 20
38.5915892212
 10
28.9223549652
 20
38.8689883243
 10
28.9360781594
 20
39.0864487823
  0
LWPOLYLINE
  5
2C1
100
AcDbEntity
  8
0
100
AcDbPolyline
 62
7
  6
CONTINUOUS
 90
4
 70
0
 10
20.4817379205
 20
37.696877535
 10
20.6082935762
 20
37.7313931091
 10
20.7183957567
 20
37.8483682857
 10
20.7511237414
 20
37.9443431461
  0
LWPOLYLINE
  5
2C2
100
AcDbEntity
  8
0
100
AcDbPolyline
 62
7
  6
CONTINUOUS
 90
12
 70
0
 10
19.6804759018
 20
37.6979672849
 10
19.8044425973
 20
37.7309981695
 10
19.9154965877
 20
37.8457623799
 10
19.9489858518
 20
37.9392657556
 10
19.9690633136
 20
38.0397784405
 10
19.9871085647
 20
38.170472468
 10
20.0051675752
 20
38.3423116087
 10
20.0237241188
 20
38.5608310481
 10
20.0429273647
 20
38.826355681
 10
20.0627858988
 20
39.135933942
 10
20.0832590137
 20
39.4842504581
 10
20.1673671842
 20
41.0386145093
  0
LWPOLYLINE
  5
2C3
100
AcDbEntity
  8
0
100
AcDbPolyline
 62
7
  6
CONTINUOUS
 90
5
 70
0
 10
26.1569359092
 20
37.6968772293
 10
26.2745005469
 20
37.7265017182
 10
26.3900557635
 20
37.841261209
 10
26.4241817443
 20
37.9339198717
 10
26.4447427603
 20
38.035141523
  0
LWPOLYLINE
  5
2C4
100
AcDbEntity
  8
0
100
AcDbPolyline
 62
7
  6
CONTINUOUS
 90
12
 70
0
 10
18.0817215511
 20
37.6973949305
 10
18.1036093494
 20
37.6984180662
 10
18.279752508
 20
37.7903661146
 10
18.3359360259
 20
37.8912006249
 10
18.3589732846
 20
37.9804722357
 10
18.3771954001
 20
38.0926700523
 10
18.3941812346
 20
38.2346565722
 10
18.4113358208
 20
38.4134809462
 10
18.4291907993
 20
38.6344942729
 10
18.448023943
 20
38.9022035968
 10
18.4677047011
 20
39.2150565355
 10
18.4879453689
 20
39.5655773648
  0
LINE
  5
2C5
100
AcDbEntity
  8
0
100
AcDbLine
 62
7
  6
CONTINUOUS
 10
28.5569536227
 20
37.6973949272
 11
28.5569619729
 21
37.6973949315
  0
LINE
  5
2C6
100
AcDbEntity
  8
0
100
AcDbLine
 62
7
  6
CONTINUOUS
 10
6.0693412624
 20
37.6712880017
 11
7.6693412624
 21
37.6720424296
  0
LINE
  5
2C7
100
AcDbEntity
  8
0
100
AcDbLine
 62
7
  6
CONTINUOUS
 10
26.156936046
 20
37.6968775306
 11
26.1569441095
 21
37.6968775343
  0
LINE
  5
2C8
100
AcDbEntity
  8
0
100
AcDbLine
 62
7
  6
CONTINUOUS
 10
26.958199588
 20
37.6979672827
 11
26.9582087083
 21
37.6979672868
  0
LINE
  5
2C9
100
AcDbEntity
  8
0
100
AcDbLine
 62
7
  6
CONTINUOUS
 10
35.8192905114
 20
36.6294035978
 11
37.0192905114
 21
36.6294033706
  0
LINE
  5
2CA
100
AcDbEntity
  8
0
100
AcDbLine
 62
7
  6
CONTINUOUS
 10
35.8192765266
 20
36.9762203151
 11
37.0192765266
 21
36.9762200879
  0
LINE
  5
2CB
100
AcDbEntity
  8
0
100
AcDbLine
 62
7
  6
CONTINUOUS
 10
4.8193412624
 20
37.4114765719
 11
6.0693412624
 21
37.4114765719
  0
LINE
  5
2CC
100
AcDbEntity
  8
0
100
AcDbLine
 62
7
  6
CONTINUOUS
 10
35.8192731851
 20
37.7475774154
 11
37.019273185
 21
37.7475771883
  0
LINE
  5
2CD
100
AcDbEntity
  8
0
100
AcDbLine
 62
7
  6
CONTINUOUS
 10
18.0817296265
 20
37.6973946315
 11
18.0817214473
 21
37.6973946347
  0
LINE
  5
2CE
100
AcDbEntity
  8
0
100
AcDbLine
 62
7
  6
CONTINUOUS
 10
19.6804829311
 20
37.6979673274
 11
19.680475686
 21
37.6979673296
  0
LINE
  5
2CF
100
AcDbEntity
  8
0
100
AcDbLine
 62
7
  6
CONTINUOUS
 10
20.4817455445
 20
37.6968772292
 11
20.4817377834
 21
37.6968772337
  0
LWPOLYLINE
  5
2D0
100
AcDbEntity
  8
0
100
AcDbPolyline
 62
7
  6
CONTINUOUS
 90
9
 70
0
 10
25.5436191991
 20
42.6291017203
 10
25.5432865026
 20
42.6300130414
 10
25.5486245353
 20
42.6068507411
 10
25.5617493863
 20
42.5267699105
 10
25.5774093863
 20
42.3955590793
 10
25.5944819286
 20
42.2141464454
 10
25.6126031936
 20
41.9839088634
 10
25.631695788
 20
41.7056933628
 10
25.6519427078
 20
41.3778767984
  0
LWPOLYLINE
  5
2D1
100
AcDbEntity
  8
0
100
AcDbPolyline
 62
7
  6
CONTINUOUS
 90
9
 70
0
 10
26.3721251433
 20
38.0593786054
 10
26.3724315075
 20
38.0585097616
 10
26.3667694964
 20
38.0839258673
 10
26.3535220176
 20
38.1671757112
 10
26.3380286958
 20
38.2978989149
 10
26.3213371405
 20
38.4736137918
 10
26.3037260827
 20
38.6938739047
 10
26.2852861073
 20
38.9584707532
 10
26.266004856
 20
39.2674423983
  0
LWPOLYLINE
  5
2D2
100
AcDbEntity
  8
0
100
AcDbPolyline
 62
7
  6
CONTINUOUS
 90
8
 70
0
 10
26.3422178088
 20
42.6351875055
 10
26.351545477
 20
42.5904536407
 10
26.3647061467
 20
42.5016611461
 10
26.3792760774
 20
42.3746746647
 10
26.3946311356
 20
42.2115121115
 10
26.4105510591
 20
42.0132040436
 10
26.4269351968
 20
41.7806829191
 10
26.443728162
 20
41.516213847
  0
LWPOLYLINE
  5
2D3
100
AcDbEntity
  8
0
100
AcDbPolyline
 62
7
  6
CONTINUOUS
 90
5
 70
0
 10
27.4678661956
 20
38.0514071199
 10
27.4885049171
 20
37.9440392093
 10
27.5213643156
 20
37.8486850719
 10
27.6351469853
 20
37.7294677994
 10
27.7582908393
 20
37.6968621352
  0
LWPOLYLINE
  5
2D4
100
AcDbEntity
  8
0
100
AcDbPolyline
 62
7
  6
CONTINUOUS
 90
5
 70
0
 10
26.8468649997
 20
42.6451953373
 10
26.8260356851
 20
42.7539262663
 10
26.7911661538
 20
42.8522472163
 10
26.6719214938
 20
42.9698513603
 10
26.557863203
 20
42.9977405946
  0
LWPOLYLINE
  5
2D5
100
AcDbEntity
  8
0
100
AcDbPolyline
 62
7
  6
CONTINUOUS
 90
9
 70
0
 10
29.9408482136
 20
44.4085099244
 10
29.9754144016
 20
44.0911356489
 10
30.4283982748
 20
43.2524642518
 10
31.3141699819
 20
42.6909556774
 10
32.4538457002
 20
42.5424026019
 10
33.5948857864
 20
42.8634697068
 10
34.4751888507
 20
43.6033172224
 10
34.8779270431
 20
44.6074154379
 10
34.8922422884
 20
44.8508547168
  0
LWPOLYLINE
  5
2D6
100
AcDbEntity
  8
0
100
AcDbPolyline
 62
7
  6
CONTINUOUS
 90
3
 70
0
 10
29.9460578618
 20
42.634297194
 10
29.9679686029
 20
42.3688023368
 10
30.0918219233
 20
42.1064487823
  0
LINE
  5
2D7
100
AcDbEntity
  8
0
100
AcDbLine
 62
7
  6
CONTINUOUS
 10
29.9410404928
 20
43.5213381702
 11
29.9410333006
 21
43.5241925474
  0
LINE
  5
2D8
100
AcDbEntity
  8
0
100
AcDbLine
 62
7
  6
CONTINUOUS
 10
29.9408514959
 20
44.4065569772
 11
29.9408482136
 21
44.4085097335
  0
LINE
  5
2D9
100
AcDbEntity
  8
0
100
AcDbLine
 62
7
  6
CONTINUOUS
 10
30.9408561027
 20
44.4053089219
 11
30.9408468897
 21
44.4108030268
  0
LINE
  5
2DA
100
AcDbEntity
  8
0
100
AcDbLine
 62
7
  6
CONTINUOUS
 10
29.9460576034
 20
42.6342975275
 11
29.9460583546
 21
42.6352041441
  0
LINE
  5
2DB
100
AcDbEntity
  8
0
100
AcDbLine
 62
7
  6
CONTINUOUS
 10
34.8164446277
 20
42.5209372714
 11
34.8170023682
 21
42.5228955992
  0
LWPOLYLINE
  5
2DC
100
AcDbEntity
  8
0
100
AcDbPolyline
 62
7
  6
CONTINUOUS
 90
4
 70
0
 10
18.8803903238
 20
37.6968621365
 10
19.0052699785
 20
37.7304291883
 10
19.1183549067
 20
37.8508025754
 10
19.1508057811
 20
37.9466404372
  0
LINE
  5
2DD
100
AcDbEntity
  8
0
100
AcDbLine
 62
7
  6
CONTINUOUS
 10
37.4193412624
 20
38.2228089159
 11
38.9193412624
 21
38.2228089159
  0
LINE
  5
2DE
100
AcDbEntity
  8
0
100
AcDbLine
 62
7
  6
CONTINUOUS
 10
9.2193412624
 20
38.2242141285
 11
7.7193412624
 21
38.2242141285
  0
LINE
  5
2DF
100
AcDbEntity
  8
0
100
AcDbLine
 62
7
  6
CONTINUOUS
 10
4.7193412624
 20
38.5864487823
 11
4.8193412624
 21
38.5864487823
  0
LINE
  5
2E0
100
AcDbEntity
  8
0
100
AcDbLine
 62
7
  6
CONTINUOUS
 10
6.0693412624
 20
38.5864487823
 11
7.7193412624
 21
38.5864487823
  0
LINE
  5
2E1
100
AcDbEntity
  8
0
100
AcDbLine
 62
7
  6
CONTINUOUS
 10
9.2193412624
 20
38.5864487823
 11
17.2193412624
 21
38.5864487823
  0
LINE
  5
2E2
100
AcDbEntity
  8
0
100
AcDbLine
 62
7
  6
CONTINUOUS
 10
21.2193412624
 20
38.5864487823
 11
25.2193412624
 21
38.5864487823
  0
LINE
  5
2E3
100
AcDbEntity
  8
0
100
AcDbLine
 62
7
  6
CONTINUOUS
 10
29.2193412624
 20
38.5864487823
 11
35.8192796365
 21
38.5864487823
  0
LINE
  5
2E4
100
AcDbEntity
  8
0
100
AcDbLine
 62
7
  6
CONTINUOUS
 10
37.0192796365
 20
38.5864487823
 11
37.4193412624
 21
38.5864487823
  0
LINE
  5
2E5
100
AcDbEntity
  8
0
100
AcDbLine
 62
7
  6
CONTINUOUS
 10
17.2193412624
 20
39.0864487823
 11
17.9614854674
 21
39.0864487823
  0
LINE
  5
2E6
100
AcDbEntity
  8
0
100
AcDbLine
 62
7
  6
CONTINUOUS
 10
18.4596143245
 20
39.0864487823
 11
18.7613231342
 21
39.0864487823
  0
LINE
  5
2E7
100
AcDbEntity
  8
0
100
AcDbLine
 62
7
  6
CONTINUOUS
 10
19.259522688
 20
39.0864487823
 11
19.561325661
 21
39.0864487823
  0
LINE
  5
2E8
100
AcDbEntity
  8
0
100
AcDbLine
 62
7
  6
CONTINUOUS
 10
20.0596115714
 20
39.0864487823
 11
20.3615031467
 21
39.0864487823
  0
LINE
  5
2E9
100
AcDbEntity
  8
0
100
AcDbLine
 62
7
  6
CONTINUOUS
 10
20.8595654846
 20
39.0864487823
 11
21.2193412624
 21
39.0864487823
  0
LINE
  5
2EA
100
AcDbEntity
  8
0
100
AcDbLine
 62
7
  6
CONTINUOUS
 10
25.2193412624
 20
39.0864487823
 11
25.7788603029
 21
39.0864487823
  0
LINE
  5
2EB
100
AcDbEntity
  8
0
100
AcDbLine
 62
7
  6
CONTINUOUS
 10
26.2772996898
 20
39.0864487823
 11
26.5791467354
 21
39.0864487823
  0
LINE
  5
2EC
100
AcDbEntity
  8
0
100
AcDbLine
 62
7
  6
CONTINUOUS
 10
27.077292356
 20
39.0864487823
 11
27.3791656341
 21
39.0864487823
  0
LINE
  5
2ED
100
AcDbEntity
  8
0
100
AcDbLine
 62
7
  6
CONTINUOUS
 10
27.8772583679
 20
39.0864487823
 11
28.1788963663
 21
39.0864487823
  0
LINE
  5
2EE
100
AcDbEntity
  8
0
100
AcDbLine
 62
7
  6
CONTINUOUS
 10
28.6773015113
 20
39.0864487823
 11
29.2193412624
 21
39.0864487823
  0
LINE
  5
2EF
100
AcDbEntity
  8
0
100
AcDbLine
 62
7
  6
CONTINUOUS
 10
6.0693412624
 20
39.4761248571
 11
4.8193412624
 21
39.4761248571
  0
LINE
  5
2F0
100
AcDbEntity
  8
0
100
AcDbLine
 62
7
  6
CONTINUOUS
 10
35.8192758259
 20
39.8402414896
 11
37.0192758259
 21
39.8402412625
  0
LWPOLYLINE
  5
2F1
100
AcDbEntity
  8
0
100
AcDbPolyline
 62
7
  6
CONTINUOUS
 90
9
 70
0
 10
27.9722729705
 20
38.0619951848
 10
27.9726130798
 20
38.0610879598
 10
27.9683636156
 20
38.0792984906
 10
27.9564237734
 20
38.1481437664
 10
27.9422170567
 20
38.2584521501
 10
27.9267511361
 20
38.4100985842
 10
27.910299544
 20
38.6051500319
 10
27.8929702526
 20
38.8437971733
 10
27.8747878197
 20
39.1246034991
  0
LWPOLYLINE
  5
2F2
100
AcDbEntity
  8
0
100
AcDbPolyline
 62
7
  6
CONTINUOUS
 90
9
 70
0
 10
28.7719723609
 20
38.060036136
 10
28.7722602132
 20
38.0592170475
 10
28.7665374536
 20
38.0848628542
 10
28.7533139695
 20
38.1682820036
 10
28.7377065272
 20
38.3006539357
 10
28.7206896
 20
38.4810832826
 10
28.7025445057
 20
38.7101046728
 10
28.6833084021
 20
38.9890702858
 10
28.6628693042
 20
39.3204111894
  0
LWPOLYLINE
  5
2F3
100
AcDbEntity
  8
0
100
AcDbPolyline
 62
7
  6
CONTINUOUS
 90
8
 70
0
 10
27.9436077655
 20
42.6296630516
 10
27.9442719408
 20
42.6267822285
 10
27.9550191643
 20
42.5719306208
 10
27.9697330328
 20
42.4643073967
 10
27.9860690078
 20
42.3077635007
 10
28.0034005146
 20
42.1049339478
 10
28.0215897348
 20
41.8569828084
 10
28.0406314612
 20
41.5648950794
  0
LWPOLYLINE
  5
2F4
100
AcDbEntity
  8
0
100
AcDbPolyline
 62
7
  6
CONTINUOUS
 90
4
 70
0
 10
29.9410333005
 20
43.5241927256
 10
29.9830796294
 20
43.1723092708
 10
30.4743877572
 20
42.3160849513
 10
30.8345481384
 20
42.1064487823
  0
LINE
  5
2F5
100
AcDbEntity
  8
0
100
AcDbLine
 62
7
  6
CONTINUOUS
 10
32.1693412624
 20
44.2332812748
 11
32.1693412624
 21
47.9599978483
  0
LINE
  5
2F6
100
AcDbEntity
  8
0
100
AcDbLine
 62
7
  6
CONTINUOUS
 10
33.1693412624
 20
44.2332812748
 11
33.1693412624
 21
47.941502143
  0
LWPOLYLINE
  5
2F7
100
AcDbEntity
  8
0
100
AcDbPolyline
 62
7
  6
CONTINUOUS
 90
8
 70
0
 10
33.8945001955
 20
44.8534570299
 10
33.8625432301
 20
44.589747255
 10
33.5080544097
 20
44.00793029
 10
32.8558705366
 20
43.6241194591
 10
32.0803694729
 20
43.5362216773
 10
31.4141000199
 20
43.730419807
 10
31.0073224379
 20
44.1391918922
 10
30.9408468898
 20
44.4108031512
  0
LINE
  5
2F8
100
AcDbEntity
  8
0
100
AcDbLine
 62
7
  6
CONTINUOUS
 10
34.8934925798
 20
43.0813372878
 11
34.8170023682
 21
42.5228955992
  0
LWPOLYLINE
  5
2F9
100
AcDbEntity
  8
0
100
AcDbPolyline
 62
7
  6
CONTINUOUS
 90
3
 70
0
 10
34.8170023682
 20
42.5228955992
 10
34.8844649901
 20
42.8888792797
 10
34.8934925807
 20
43.0813297064
  0
LWPOLYLINE
  5
2FA
100
AcDbEntity
  8
0
100
AcDbPolyline
 62
7
  6
CONTINUOUS
 90
5
 70
0
 10
26.5578693389
 20
42.9977406589
 10
26.433264614
 20
42.9642635627
 10
26.323750088
 20
42.8508771776
 10
26.2924442872
 20
42.7657620131
 10
26.2729570648
 20
42.6727331398
  0
LWPOLYLINE
  5
2FB
100
AcDbEntity
  8
0
100
AcDbPolyline
 62
7
  6
CONTINUOUS
 90
4
 70
0
 10
25.7575462957
 20
42.9934947833
 10
25.6351819318
 20
42.9613678364
 10
25.520691813
 20
42.8422530193
 10
25.4872696641
 20
42.7452654769
  0
LWPOLYLINE
  5
2FC
100
AcDbEntity
  8
0
100
AcDbPolyline
 62
7
  6
CONTINUOUS
 90
5
 70
0
 10
27.3572866703
 20
42.9976780798
 10
27.240589675
 20
42.9684464999
 10
27.1275131559
 20
42.858789853
 10
27.0943574006
 20
42.7741379696
 10
27.0748583392
 20
42.6849505208
  0
LINE
  5
2FD
100
AcDbEntity
  8
0
100
AcDbLine
 62
7
  6
CONTINUOUS
 10
17.2193412624
 20
41.6064487823
 11
18.1026351556
 21
41.6064487823
  0
LINE
  5
2FE
100
AcDbEntity
  8
0
100
AcDbLine
 62
7
  6
CONTINUOUS
 10
18.6007979377
 20
41.6064487823
 11
18.9024454801
 21
41.6064487823
  0
LINE
  5
2FF
100
AcDbEntity
  8
0
100
AcDbLine
 62
7
  6
CONTINUOUS
 10
19.4006985849
 20
41.6064487823
 11
19.7024091616
 21
41.6064487823
  0
LINE
  5
300
100
AcDbEntity
  8
0
100
AcDbLine
 62
7
  6
CONTINUOUS
 10
20.2007238373
 20
41.6064487823
 11
20.5026520555
 21
41.6064487823
  0
LINE
  5
301
100
AcDbEntity
  8
0
100
AcDbLine
 62
7
  6
CONTINUOUS
 10
21.0007410641
 20
41.6064487823
 11
21.2193412624
 21
41.6064487823
  0
LINE
  5
302
100
AcDbEntity
  8
0
100
AcDbLine
 62
7
  6
CONTINUOUS
 10
25.2193412624
 20
41.6064487823
 11
25.6378254266
 21
41.6064487823
  0
LINE
  5
303
100
AcDbEntity
  8
0
100
AcDbLine
 62
7
  6
CONTINUOUS
 10
26.1360248955
 20
41.6064487823
 11
26.4379985237
 21
41.6064487823
  0
LINE
  5
304
100
AcDbEntity
  8
0
100
AcDbLine
 62
7
  6
CONTINUOUS
 10
26.9362066326
 20
41.6064487823
 11
27.2381142945
 21
41.6064487823
  0
LINE
  5
305
100
AcDbEntity
  8
0
100
AcDbLine
 62
7
  6
CONTINUOUS
 10
27.7361557224
 20
41.6064487823
 11
28.0379225003
 21
41.6064487823
  0
LINE
  5
306
100
AcDbEntity
  8
0
100
AcDbLine
 62
7
  6
CONTINUOUS
 10
28.5362676529
 20
41.6064487823
 11
29.2193412624
 21
41.6064487823
  0
LINE
  5
307
100
AcDbEntity
  8
0
100
AcDbLine
 62
7
  6
CONTINUOUS
 10
33.894499512
 20
44.8539192236
 11
33.8945002001
 21
44.8534668123
  0
LINE
  5
308
100
AcDbEntity
  8
0
100
AcDbLine
 62
7
  6
CONTINUOUS
 10
34.8926506801
 20
43.9691514263
 11
34.8926517186
 21
43.9666513192
  0
LINE
  5
309
100
AcDbEntity
  8
0
100
AcDbLine
 62
7
  6
CONTINUOUS
 10
34.8922412702
 20
44.8532417206
 11
34.8922422876
 21
44.8508647679
  0
LINE
  5
30A
100
AcDbEntity
  8
0
100
AcDbLine
 62
7
  6
CONTINUOUS
 10
34.8934910097
 20
43.0847159341
 11
34.8934925798
 21
43.0813372878
  0
LINE
  5
30B
100
AcDbEntity
  8
0
100
AcDbLine
 62
7
  6
CONTINUOUS
 10
34.8978405507
 20
42.1873628376
 11
34.8978392558
 21
42.1854720867
  0
LINE
  5
30C
100
AcDbEntity
  8
0
100
AcDbLine
 62
7
  6
CONTINUOUS
 10
34.8913821438
 20
42.1064487823
 11
34.897840524
 21
42.1873626271
  0
LWPOLYLINE
  5
30D
100
AcDbEntity
  8
0
100
AcDbPolyline
 62
7
  6
CONTINUOUS
 90
11
 70
0
 10
18.4809956355
 20
42.9937731313
 10
18.3615034332
 20
42.9631884329
 10
18.2465132914
 20
42.8471834516
 10
18.2124921866
 20
42.7526659307
 10
18.1917848737
 20
42.6473355455
 10
18.1728298913
 20
42.5045085349
 10
18.1532941532
 20
42.3091341438
 10
18.1330489767
 20
42.0598783363
 10
18.1125446591
 20
41.765519567
 10
18.0922639813
 20
41.4399670965
 10
18.0723928338
 20
41.0947552711
  0
LWPOLYLINE
  5
30E
100
AcDbEntity
  8
0
100
AcDbPolyline
 62
7
  6
CONTINUOUS
 90
11
 70
0
 10
20.8811435522
 20
42.9934948628
 10
20.7629152995
 20
42.9635857124
 10
20.6471968029
 20
42.8479985452
 10
20.6125966149
 20
42.7524753682
 10
20.591568964
 20
42.6455352566
 10
20.5722636223
 20
42.4996781325
 10
20.5526314669
 20
42.3021404623
 10
20.5318177148
 20
42.0436443265
 10
20.5094478457
 20
41.7178186249
 10
20.4862790767
 20
41.3381273613
 10
20.3947891814
 20
39.6535244317
  0
LWPOLYLINE
  5
30F
100
AcDbEntity
  8
0
100
AcDbPolyline
 62
7
  6
CONTINUOUS
 90
4
 70
0
 10
20.0808200395
 20
42.9977405944
 10
19.9645281988
 20
42.9687154309
 10
19.8461091781
 20
42.84950774
 10
19.8117856408
 20
42.7503627349
  0
LWPOLYLINE
  5
310
100
AcDbEntity
  8
0
100
AcDbPolyline
 62
7
  6
CONTINUOUS
 90
12
 70
0
 10
19.2813974033
 20
42.9976780878
 10
19.1671435582
 20
42.969697075
 10
19.0501595018
 20
42.8562891793
 10
19.0158718115
 20
42.7654138746
 10
18.9959549419
 20
42.6697871698
 10
18.9787028098
 20
42.5501499598
 10
18.9616206124
 20
42.396168263
 10
18.9440565202
 20
42.2018108891
 10
18.9257593395
 20
41.9623917798
 10
18.9067859607
 20
41.6782578996
 10
18.8873111422
 20
41.3560655719
 10
18.7880845162
 20
39.5354537419
  0
LINE
  5
311
100
AcDbEntity
  8
0
100
AcDbLine
 62
7
  6
CONTINUOUS
 10
31.5514335647
 20
44.2663597604
 11
32.1693412624
 21
44.3837585937
  0
LWPOLYLINE
  5
312
100
AcDbEntity
  8
0
100
AcDbPolyline
 62
7
  6
CONTINUOUS
 90
11
 70
0
 10
28.1576952732
 20
42.9937731928
 10
28.1360984079
 20
42.9927781893
 10
27.9600749534
 20
42.9014495152
 10
27.9039321389
 20
42.8023056374
 10
27.8807227865
 20
42.7156663549
 10
27.8622522789
 20
42.6064341674
 10
27.8451422745
 20
42.4664948135
 10
27.8281765872
 20
42.290842482
 10
27.8107233324
 20
42.075298862
 10
27.7924478232
 20
41.8164300854
 10
27.7791349659
 20
41.6064487823
  0
LWPOLYLINE
  5
313
100
AcDbEntity
  8
0
100
AcDbPolyline
 62
7
  6
CONTINUOUS
 90
8
 70
0
 10
27.1428076587
 20
42.6327322148
 10
27.1425722627
 20
42.6327279357
 10
27.1529197312
 20
42.5815671833
 10
27.1675617974
 20
42.4788345945
 10
27.1839150899
 20
42.328962657
 10
27.2013212727
 20
42.1324890666
 10
27.2195318149
 20
41.8893816208
 10
27.2386043067
 20
41.5989879619
  0
LINE
  5
314
100
AcDbEntity
  8
0
100
AcDbLine
 62
7
  6
CONTINUOUS
 10
18.4809956355
 20
42.9937731313
 11
18.4809874698
 21
42.9937731287
  0
LINE
  5
315
100
AcDbEntity
  8
0
100
AcDbLine
 62
7
  6
CONTINUOUS
 10
20.0808200395
 20
42.9977405944
 11
20.080812235
 21
42.9977405913
  0
LINE
  5
316
100
AcDbEntity
  8
0
100
AcDbLine
 62
7
  6
CONTINUOUS
 10
25.7575336433
 20
42.9934947812
 11
25.7575462957
 21
42.9934947833
  0
LINE
  5
317
100
AcDbEntity
  8
0
100
AcDbLine
 62
7
  6
CONTINUOUS
 10
20.8811435522
 20
42.9934948628
 11
20.8811358614
 21
42.9934948605
  0
LINE
  5
318
100
AcDbEntity
  8
0
100
AcDbLine
 62
7
  6
CONTINUOUS
 10
37.0192792399
 20
42.0205766043
 11
35.8192792399
 21
42.0205773599
  0
LINE
  5
319
100
AcDbEntity
  8
0
100
AcDbLine
 62
7
  6
CONTINUOUS
 10
4.8193412624
 20
42.0840389777
 11
6.0693412624
 21
42.0840389777
  0
LINE
  5
31A
100
AcDbEntity
  8
0
100
AcDbLine
 62
7
  6
CONTINUOUS
 10
4.7193412624
 20
42.1064487823
 11
4.8193412624
 21
42.1064487823
  0
LINE
  5
31B
100
AcDbEntity
  8
0
100
AcDbLine
 62
7
  6
CONTINUOUS
 10
6.0693412624
 20
42.1064487823
 11
7.7193412624
 21
42.1064487823
  0
LINE
  5
31C
100
AcDbEntity
  8
0
100
AcDbLine
 62
7
  6
CONTINUOUS
 10
9.2193412624
 20
42.1064487823
 11
17.2193412624
 21
42.1064487823
  0
LINE
  5
31D
100
AcDbEntity
  8
0
100
AcDbLine
 62
7
  6
CONTINUOUS
 10
21.2193412624
 20
42.1064487823
 11
25.2193412624
 21
42.1064487823
  0
LINE
  5
31E
100
AcDbEntity
  8
0
100
AcDbLine
 62
7
  6
CONTINUOUS
 10
29.2193412624
 20
42.1064487823
 11
35.8192803027
 21
42.1064487823
  0
LINE
  5
31F
100
AcDbEntity
  8
0
100
AcDbLine
 62
7
  6
CONTINUOUS
 10
37.0192826055
 20
42.1064487823
 11
37.4193412624
 21
42.1064487823
  0
LINE
  5
320
100
AcDbEntity
  8
0
100
AcDbLine
 62
7
  6
CONTINUOUS
 10
35.8192785808
 20
42.1534004984
 11
37.0192785808
 21
42.1534002713
  0
LINE
  5
321
100
AcDbEntity
  8
0
100
AcDbLine
 62
7
  6
CONTINUOUS
 10
4.819340644
 20
43.7112089159
 11
6.0693412624
 21
43.7112089159
  0
LINE
  5
322
100
AcDbEntity
  8
0
100
AcDbLine
 62
7
  6
CONTINUOUS
 10
28.1576870618
 20
42.9937731955
 11
28.1576952732
 21
42.9937731928
  0
LWPOLYLINE
  5
323
100
AcDbEntity
  8
0
100
AcDbPolyline
 62
7
  6
CONTINUOUS
 90
3
 70
0
 10
14.4693412624
 20
44.3849900813
 10
15.0890680033
 20
44.2655819577
 10
15.4677861238
 20
43.9756078683
  0
LWPOLYLINE
  5
324
100
AcDbEntity
  8
0
100
AcDbPolyline
 62
7
  6
CONTINUOUS
 90
4
 70
0
 10
14.4693412624
 20
45.2723381603
 10
15.0954228604
 20
45.1508746487
 10
15.567974241
 20
44.7840829473
 10
15.6978264288
 20
44.4053102079
  0
LWPOLYLINE
  5
325
100
AcDbEntity
  8
0
100
AcDbPolyline
 62
7
  6
CONTINUOUS
 90
3
 70
0
 10
34.8978392558
 20
42.1854720867
 10
34.89162405
 20
42.340731033
 10
34.8283392915
 20
42.5267524374
  0
LWPOLYLINE
  5
326
100
AcDbEntity
  8
0
100
AcDbPolyline
 62
7
  6
CONTINUOUS
 90
3
 70
0
 10
34.8926506801
 20
43.9691514263
 10
34.8887561482
 20
44.0943160925
 10
34.7927334743
 20
44.3950126611
  0
LINE
  5
327
100
AcDbEntity
  8
0
100
AcDbLine
 62
7
  6
CONTINUOUS
 10
35.8192811609
 20
44.2641545926
 11
35.8192791117
 21
42.0205771507
  0
LINE
  5
328
100
AcDbEntity
  8
0
100
AcDbLine
 62
7
  6
CONTINUOUS
 10
35.8192757392
 20
39.8402414896
 11
35.8192905114
 21
36.6294035978
  0
LINE
  5
329
100
AcDbEntity
  8
0
100
AcDbLine
 62
7
  6
CONTINUOUS
 10
37.0192791117
 20
42.0205768135
 11
37.0192811609
 21
44.2641543655
  0
LINE
  5
32A
100
AcDbEntity
  8
0
100
AcDbLine
 62
7
  6
CONTINUOUS
 10
37.0192905114
 20
36.6294033706
 11
37.0192757392
 21
39.8402412625
  0
LINE
  5
32B
100
AcDbEntity
  8
0
100
AcDbLine
 62
7
  6
CONTINUOUS
 10
35.8192811609
 20
44.2641545926
 11
37.0192811609
 21
44.2641543655
  0
LINE
  5
32C
100
AcDbEntity
  8
0
100
AcDbLine
 62
7
  6
CONTINUOUS
 10
9.2193412624
 20
45.3786578212
 11
13.4693412624
 21
45.3786578212
  0
LINE
  5
32D
100
AcDbEntity
  8
0
100
AcDbLine
 62
7
  6
CONTINUOUS
 10
14.4693412624
 20
45.3786578212
 11
17.4636412624
 21
45.3786578212
  0
LINE
  5
32E
100
AcDbEntity
  8
0
100
AcDbLine
 62
7
  6
CONTINUOUS
 10
17.9636412624
 20
45.3786578212
 11
28.6750412624
 21
45.3786578212
  0
LINE
  5
32F
100
AcDbEntity
  8
0
100
AcDbLine
 62
7
  6
CONTINUOUS
 10
29.1750412624
 20
45.3786578212
 11
32.1693412624
 21
45.3786578212
  0
LINE
  5
330
100
AcDbEntity
  8
0
100
AcDbLine
 62
7
  6
CONTINUOUS
 10
33.1693412624
 20
45.3786578212
 11
37.4193412624
 21
45.3786578212
  0
LWPOLYLINE
  5
331
100
AcDbEntity
  8
0
100
AcDbPolyline
 62
7
  6
CONTINUOUS
 90
3
 70
0
 10
34.8934910097
 20
43.0847159341
 10
34.7657139321
 20
43.7948608687
 10
34.7262802253
 20
43.8498550064
  0
LINE
  5
332
100
AcDbEntity
  8
0
100
AcDbLine
 62
7
  6
CONTINUOUS
 10
34.8922412702
 20
44.8532417206
 11
34.8157449973
 21
45.3786578212
  0
LINE
  5
333
100
AcDbEntity
  8
0
100
AcDbLine
 62
7
  6
CONTINUOUS
 10
37.1293912624
 20
34.1558099392
 11
37.1293912624
 21
24.9023089159
  0
LINE
  5
334
100
AcDbEntity
  8
0
100
AcDbLine
 62
7
  6
CONTINUOUS
 10
37.4193412624
 20
47.6974729075
 11
37.4193412624
 21
47.3802839774
  0
LINE
  5
335
100
AcDbEntity
  8
0
100
AcDbLine
 62
7
  6
CONTINUOUS
 10
37.4193412624
 20
7.9005089159
 11
37.4193412624
 21
47.1929547005
  0
LINE
  5
336
100
AcDbEntity
  8
0
100
AcDbLine
 62
7
  6
CONTINUOUS
 10
38.7193412624
 20
47.1929547005
 11
38.7193412624
 21
47.3802828525
  0
LINE
  5
337
100
AcDbEntity
  8
0
100
AcDbLine
 62
7
  6
CONTINUOUS
 10
38.9193412624
 20
9.152333462
 11
38.919418817
 21
52.7506078669
  0
LINE
  5
338
100
AcDbEntity
  8
0
100
AcDbLine
 62
7
  6
CONTINUOUS
 10
37.4193412624
 20
47.1929547005
 11
38.9193412624
 21
47.1929547005
  0
LINE
  5
339
100
AcDbEntity
  8
0
100
AcDbLine
 62
7
  6
CONTINUOUS
 10
9.2193412624
 20
47.1939015678
 11
7.7193412624
 21
47.1939015678
  0
LINE
  5
33A
100
AcDbEntity
  8
0
100
AcDbLine
 62
7
  6
CONTINUOUS
 10
7.9193412624
 20
47.3802839774
 11
13.4693412624
 21
47.3802839774
  0
LINE
  5
33B
100
AcDbEntity
  8
0
100
AcDbLine
 62
7
  6
CONTINUOUS
 10
14.4693412624
 20
47.3802839774
 11
17.4636412624
 21
47.3802839774
  0
LINE
  5
33C
100
AcDbEntity
  8
0
100
AcDbLine
 62
7
  6
CONTINUOUS
 10
17.9636412624
 20
47.3802839774
 11
28.6750412624
 21
47.3802839774
  0
LINE
  5
33D
100
AcDbEntity
  8
0
100
AcDbLine
 62
7
  6
CONTINUOUS
 10
29.1750412624
 20
47.3802839774
 11
32.1693412624
 21
47.3802839774
  0
LINE
  5
33E
100
AcDbEntity
  8
0
100
AcDbLine
 62
7
  6
CONTINUOUS
 10
33.1693412624
 20
47.3802839774
 11
38.7193412624
 21
47.3802839774
  0
LWPOLYLINE
  5
33F
100
AcDbEntity
  8
0
100
AcDbPolyline
 62
7
  6
CONTINUOUS
 90
3
 70
0
 10
33.1219411169
 20
44.1552613201
 10
33.3291560647
 20
44.0670389916
 10
33.4245344353
 20
43.9587787054
  0
LINE
  5
340
100
AcDbEntity
  8
0
100
AcDbLine
 62
7
  6
CONTINUOUS
 10
9.2193412624
 20
47.6966053297
 11
7.7193412624
 21
47.6966053297
  0
LINE
  5
341
100
AcDbEntity
  8
0
100
AcDbLine
 62
7
  6
CONTINUOUS
 10
37.4193412624
 20
47.6975271623
 11
38.9193412624
 21
47.6975271623
  0
LWPOLYLINE
  5
342
100
AcDbEntity
  8
0
100
AcDbPolyline
 62
7
  6
CONTINUOUS
 90
3
 70
0
 10
33.1693412624
 20
45.0227076211
 10
33.3312291399
 20
44.9538000018
 10
33.7766417879
 20
44.4487585594
  0
LWPOLYLINE
  5
343
100
AcDbEntity
  8
0
100
AcDbPolyline
 62
7
  6
CONTINUOUS
 90
3
 70
0
 10
33.7484494629
 20
45.3786578212
 10
33.7988431386
 20
45.2990802374
 10
33.894499512
 20
44.8539192236
  0
LINE
  5
344
100
AcDbEntity
  8
0
100
AcDbLine
 62
7
  6
CONTINUOUS
 10
6.019318817
 20
52.7506089823
 11
38.919418817
 21
52.7506078669
  0
ARC
  5
345
100
AcDbEntity
  8
0
100
AcDbCircle
 62
7
  6
CONTINUOUS
 10
37.2203128743
 20
39.1080774557
 40
11.1792427897
100
AcDbArc
 50
184.7610145742
 51
185.3983733065
  0
ARC
  5
346
100
AcDbEntity
  8
0
100
AcDbCircle
 62
7
  6
CONTINUOUS
 10
9.7344276709
 20
39.0809872763
 40
10.8620268541
100
AcDbArc
 50
354.4957660441
 51
355.2430610925
  0
ARC
  5
347
100
AcDbEntity
  8
0
100
AcDbCircle
 62
7
  6
CONTINUOUS
 10
18.5025095885
 20
41.7154722013
 40
9.7658356685
100
AcDbArc
 50
4.6931447531
 51
5.4974135323
  0
ARC
  5
348
100
AcDbEntity
  8
0
100
AcDbCircle
 62
7
  6
CONTINUOUS
 10
28.0999851022
 20
41.718664991
 40
9.7295079547
100
AcDbArc
 50
174.49233001
 51
175.3081769619
  0
ARC
  5
349
100
AcDbEntity
  8
0
100
AcDbCircle
 62
7
  6
CONTINUOUS
 10
13.7010770324
 20
43.1148307259
 40
1.9635752295
100
AcDbArc
 50
196.2419643421
 51
197.3968231574
  0
ARC
  5
34A
100
AcDbEntity
  8
0
100
AcDbCircle
 62
7
  6
CONTINUOUS
 10
32.9380175737
 20
43.1147073074
 40
1.9631451997
100
AcDbArc
 50
342.6576001786
 51
343.7590510425
  0
ARC
  5
34B
100
AcDbEntity
  8
0
100
AcDbCircle
 62
7
  6
CONTINUOUS
 10
13.6614693766
 20
44.8504696865
 40
1.9150292344
100
AcDbArc
 50
179.9842088988
 51
203.4100257903
  0
ARC
  5
34C
100
AcDbEntity
  8
0
100
AcDbCircle
 62
7
  6
CONTINUOUS
 10
32.9772150692
 20
44.8504691481
 40
1.915027258
100
AcDbArc
 50
336.5900222726
 51
0.0115354055
  0
ARC
  5
34D
100
AcDbEntity
  8
0
100
AcDbCircle
 62
7
  6
CONTINUOUS
 10
33.1726447827
 20
42.1877192021
 40
1.7251959367
100
AcDbArc
 50
357.2941046074
 51
359.9253659918
  0
ARC
  5
34E
100
AcDbEntity
  8
0
100
AcDbCircle
 62
7
  6
CONTINUOUS
 10
13.4659989858
 20
42.1877105543
 40
1.725157152
100
AcDbArc
 50
180.0744086525
 51
182.7056676015
  0
ARC
  5
34F
100
AcDbEntity
  8
0
100
AcDbCircle
 62
7
  6
CONTINUOUS
 10
31.4091463849
 20
42.6346721179
 40
1.4630888296
100
AcDbArc
 50
180.0146820353
 51
201.8322431297
  0
ARC
  5
350
100
AcDbEntity
  8
0
100
AcDbCircle
 62
7
  6
CONTINUOUS
 10
15.2295418434
 20
42.6346694093
 40
1.4630828612
100
AcDbArc
 50
338.1677712602
 51
359.9857145833
  0
ARC
  5
351
100
AcDbEntity
  8
0
100
AcDbCircle
 62
7
  6
CONTINUOUS
 10
32.6435834807
 20
44.8521269989
 40
1.2509172955
100
AcDbArc
 50
0.0816411321
 51
25.6009839064
  0
ARC
  5
352
100
AcDbEntity
  8
0
100
AcDbCircle
 62
7
  6
CONTINUOUS
 10
13.9950981118
 20
44.8521272754
 40
1.2509163358
100
AcDbArc
 50
154.3990116671
 51
179.913949174
  0
ARC
  5
353
100
AcDbEntity
  8
0
100
AcDbCircle
 62
7
  6
CONTINUOUS
 10
32.6693412624
 20
47.9748546176
 40
0.5
100
AcDbArc
 50
0.0
 51
180.0
  0
ARC
  5
354
100
AcDbEntity
  8
0
100
AcDbCircle
 62
7
  6
CONTINUOUS
 10
31.7891482221
 20
38.7802089159
 40
0.5
100
AcDbArc
 50
210.997035386
 51
329.002964614
  0
ARC
  5
355
100
AcDbEntity
  8
0
100
AcDbCircle
 62
7
  6
CONTINUOUS
 10
14.8495343028
 20
38.7802089159
 40
0.5
100
AcDbArc
 50
210.997035386
 51
329.002964614
  0
ARC
  5
356
100
AcDbEntity
  8
0
100
AcDbCircle
 62
7
  6
CONTINUOUS
 10
13.9693412624
 20
47.9748546176
 40
0.5
100
AcDbArc
 50
0.0
 51
180.0
  0
ARC
  5
357
100
AcDbEntity
  8
0
100
AcDbCircle
 62
7
  6
CONTINUOUS
 10
17.7136412624
 20
47.6398089159
 40
0.25
100
AcDbArc
 50
0.0
 51
180.0
  0
ARC
  5
358
100
AcDbEntity
  8
0
100
AcDbCircle
 62
7
  6
CONTINUOUS
 10
28.9250412624
 20
47.6398089159
 40
0.25
100
AcDbArc
 50
0.0
 51
180.0
  0
SPLINE
  5
359
100
AcDbEntity
  8
0
100
AcDbSpline
 62
7
  6
CONTINUOUS
 70
0
 71
3
 72
15
 73
11
 74
0
 42
0.0000001
 43
0.0000001
 44
0.0000000001
 40
0.0
 40
0.0
 40
0.0
 40
0.0
 40
0.0819165477
 40
0.1724360856
 40
0.2769660799
 40
0.3974010531
 40
0.5328941183
 40
0.6810626448
 40
0.8384439401
 40
1.0
 40
1.0
 40
1.0
 40
1.0
 10
32.1693707302
 20
44.2332812584
 30
0.0
 10
32.1693701049
 20
44.2167963879
 30
0.0
 10
32.1766696777
 20
44.1818200645
 30
0.0
 10
32.2072681509
 20
44.1341794319
 30
0.0
 10
32.2548871298
 20
44.0913606489
 30
0.0
 10
32.3176662996
 20
44.0543097026
 30
0.0
 10
32.3933985567
 20
44.0240055551
 30
0.0
 10
32.4794597688
 20
44.0014956045
 30
0.0
 10
32.5726041801
 20
43.9877174012
 30
0.0
 10
32.6368297516
 20
43.9845772802
 30
0.0
 10
32.6693412624
 20
43.9845772802
 30
0.0
  0
SPLINE
  5
35A
100
AcDbEntity
  8
0
100
AcDbSpline
 62
7
  6
CONTINUOUS
 70
0
 71
3
 72
15
 73
11
 74
0
 42
0.0000001
 43
0.0000001
 44
0.0000000001
 40
0.0
 40
0.0
 40
0.0
 40
0.0
 40
0.161561559
 40
0.3189375067
 40
0.4670961126
 40
0.6025833847
 40
0.7230198703
 40
0.8275520065
 40
0.9180784141
 40
1.0
 40
1.0
 40
1.0
 40
1.0
 10
13.9693412624
 20
43.9845772802
 30
0.0
 10
14.0018539248
 20
43.9845772802
 30
0.0
 10
14.0660796975
 20
43.9877168933
 30
0.0
 10
14.1592220105
 20
44.0014958457
 30
0.0
 10
14.2452799779
 20
44.0240027531
 30
0.0
 10
14.3210084381
 20
44.054307688
 30
0.0
 10
14.3837914871
 20
44.0913524881
 30
0.0
 10
14.4314085426
 20
44.1341759486
 30
0.0
 10
14.4620144519
 20
44.1818158871
 30
0.0
 10
14.4693111693
 20
44.2167953841
 30
0.0
 10
14.4693117947
 20
44.2332812912
 30
0.0
  0
SPLINE
  5
35B
100
AcDbEntity
  8
0
100
AcDbSpline
 62
7
  6
CONTINUOUS
 70
0
 71
3
 72
15
 73
11
 74
0
 42
0.0000001
 43
0.0000001
 44
0.0000000001
 40
0.0
 40
0.0
 40
0.0
 40
0.0
 40
0.0819165477
 40
0.1724360856
 40
0.2769660799
 40
0.3974010531
 40
0.5328941183
 40
0.6810626448
 40
0.8384439401
 40
1.0
 40
1.0
 40
1.0
 40
1.0
 10
13.4693707302
 20
44.2332812584
 30
0.0
 10
13.4693701049
 20
44.2167963879
 30
0.0
 10
13.4766696777
 20
44.1818200645
 30
0.0
 10
13.5072681509
 20
44.1341794319
 30
0.0
 10
13.5548871298
 20
44.0913606489
 30
0.0
 10
13.6176662996
 20
44.0543097026
 30
0.0
 10
13.6933985567
 20
44.0240055551
 30
0.0
 10
13.7794597688
 20
44.0014956045
 30
0.0
 10
13.8726041801
 20
43.9877174012
 30
0.0
 10
13.9368297516
 20
43.9845772802
 30
0.0
 10
13.9693412624
 20
43.9845772802
 30
0.0
  0
SPLINE
  5
35C
100
AcDbEntity
  8
0
100
AcDbSpline
 62
7
  6
CONTINUOUS
 70
0
 71
3
 72
15
 73
11
 74
0
 42
0.0000001
 43
0.0000001
 44
0.0000000001
 40
0.0
 40
0.0
 40
0.0
 40
0.0
 40
0.161561559
 40
0.3189375067
 40
0.4670961126
 40
0.6025833847
 40
0.7230198703
 40
0.8275520065
 40
0.9180784141
 40
1.0
 40
1.0
 40
1.0
 40
1.0
 10
32.6693412624
 20
43.9845772802
 30
0.0
 10
32.7018539248
 20
43.9845772802
 30
0.0
 10
32.7660796975
 20
43.9877168933
 30
0.0
 10
32.8592220105
 20
44.0014958457
 30
0.0
 10
32.9452799779
 20
44.0240027531
 30
0.0
 10
33.0210084381
 20
44.054307688
 30
0.0
 10
33.0837914871
 20
44.0913524881
 30
0.0
 10
33.1314085426
 20
44.1341759486
 30
0.0
 10
33.1620144519
 20
44.1818158871
 30
0.0
 10
33.1693111693
 20
44.2167953841
 30
0.0
 10
33.1693117947
 20
44.2332812912
 30
0.0
  0
SPLINE
  5
35D
100
AcDbEntity
  8
0
100
AcDbSpline
 62
7
  6
CONTINUOUS
 70
0
 71
3
 72
9
 73
5
 74
0
 42
0.0000001
 43
0.0000001
 44
0.0000000001
 40
0.0
 40
0.0
 40
0.0
 40
0.0
 40
0.4911403306
 40
1.0
 40
1.0
 40
1.0
 40
1.0
 10
29.1750412624
 20
42.8042089159
 30
0.0
 10
29.1750412624
 20
42.7840184928
 30
0.0
 10
29.1682634637
 20
42.742658736
 30
0.0
 10
29.1489136669
 20
42.7055532217
 30
0.0
 10
29.1366374964
 20
42.6886152756
 30
0.0
  0
SPLINE
  5
35E
100
AcDbEntity
  8
0
100
AcDbSpline
 62
7
  6
CONTINUOUS
 70
0
 71
3
 72
9
 73
5
 74
0
 42
0.0000001
 43
0.0000001
 44
0.0000000001
 40
0.0
 40
0.0
 40
0.0
 40
0.0
 40
0.2457787913
 40
1.0
 40
1.0
 40
1.0
 40
1.0
 10
29.1366374964
 20
42.6886152756
 30
0.0
 10
29.1340392007
 20
42.6850302984
 30
0.0
 10
29.1230216949
 20
42.6707711648
 30
0.0
 10
29.1102580109
 20
42.6578720705
 30
0.0
 10
29.0999030566
 20
42.6490756728
 30
0.0
  0
SPLINE
  5
35F
100
AcDbEntity
  8
0
100
AcDbSpline
 62
7
  6
CONTINUOUS
 70
0
 71
3
 72
9
 73
5
 74
0
 42
0.0000001
 43
0.0000001
 44
0.0000000001
 40
0.0
 40
0.0
 40
0.0
 40
0.0
 40
0.4866944211
 40
1.0
 40
1.0
 40
1.0
 40
1.0
 10
29.0999030566
 20
42.6490756728
 30
0.0
 10
29.0766118149
 20
42.6292900688
 30
0.0
 10
29.0205591472
 20
42.5977069415
 30
0.0
 10
28.9572728607
 20
42.5871376824
 30
0.0
 10
28.9250412574
 20
42.587137687
 30
0.0
  0
SPLINE
  5
360
100
AcDbEntity
  8
0
100
AcDbSpline
 62
7
  6
CONTINUOUS
 70
0
 71
3
 72
9
 73
5
 74
0
 42
0.0000001
 43
0.0000001
 44
0.0000000001
 40
0.0
 40
0.0
 40
0.0
 40
0.0
 40
0.4949531894
 40
1.0
 40
1.0
 40
1.0
 40
1.0
 10
14.6779848519
 20
43.5870788994
 30
0.0
 10
14.6182160845
 20
43.5970214319
 30
0.0
 10
14.4962329079
 20
43.6102924602
 30
0.0
 10
14.3735640715
 20
43.6101764
 30
0.0
 10
14.311819101
 20
43.6070176982
 30
0.0
  0
SPLINE
  5
361
100
AcDbEntity
  8
0
100
AcDbSpline
 62
7
  6
CONTINUOUS
 70
0
 71
3
 72
14
 73
10
 74
0
 42
0.0000001
 43
0.0000001
 44
0.0000000001
 40
0.0
 40
0.0
 40
0.0
 40
0.0
 40
0.0875395653
 40
0.1824880931
 40
0.2893562213
 40
0.4099590064
 40
0.5439673445
 40
0.6893908851
 40
1.0
 40
1.0
 40
1.0
 40
1.0
 10
29.1750412624
 20
45.8343044011
 30
0.0
 10
29.1750412668
 20
45.8252631612
 30
0.0
 10
29.171432515
 20
45.806294294
 30
0.0
 10
29.1563704348
 20
45.7799898549
 30
0.0
 10
29.1325254107
 20
45.7563038309
 30
0.0
 10
29.1011101793
 20
45.7357722947
 30
0.0
 10
29.0631665272
 20
45.7190284796
 30
0.0
 10
29.0044969039
 20
45.7021024936
 30
0.0
 10
28.9571215114
 20
45.6972523117
 30
0.0
 10
28.9250412574
 20
45.6972494532
 30
0.0
  0
SPLINE
  5
362
100
AcDbEntity
  8
0
100
AcDbSpline
 62
7
  6
CONTINUOUS
 70
0
 71
3
 72
12
 73
8
 74
0
 42
0.0000001
 43
0.0000001
 44
0.0000000001
 40
0.0
 40
0.0
 40
0.0
 40
0.0
 40
0.2311837971
 40
0.3494808894
 40
0.471574827
 40
0.727829207
 40
1.0
 40
1.0
 40
1.0
 40
1.0
 10
27.0303047209
 20
42.3137438305
 30
0.0
 10
27.0283615142
 20
42.2917104494
 30
0.0
 10
27.0316715574
 20
42.2573717371
 30
0.0
 10
27.0490414138
 20
42.215471715
 30
0.0
 10
27.0757994184
 20
42.175852439
 30
0.0
 10
27.1240376419
 20
42.1346638307
 30
0.0
 10
27.1710757905
 20
42.1142784882
 30
0.0
 10
27.1960666547
 20
42.1069600586
 30
0.0
  0
SPLINE
  5
363
100
AcDbEntity
  8
0
100
AcDbSpline
 62
7
  6
CONTINUOUS
 70
0
 71
3
 72
25
 73
21
 74
0
 42
0.0000001
 43
0.0000001
 44
0.0000000001
 40
0.0
 40
0.0
 40
0.0
 40
0.0
 40
0.0304526173
 40
0.0613227827
 40
0.1244659363
 40
0.1895662813
 40
0.2563026334
 40
0.3241824403
 40
0.3584177912
 40
0.3927659498
 40
0.4615333964
 40
0.5299041151
 40
0.5970705135
 40
0.662215166
 40
0.7246940499
 40
0.7843277178
 40
0.8413422114
 40
0.8959803509
 40
0.9486239891
 40
1.0
 40
1.0
 40
1.0
 40
1.0
 10
11.9040755486
 20
44.0896123398
 30
0.0
 10
11.9293277069
 20
44.0313351974
 30
0.0
 10
11.9861071886
 20
43.9164416841
 30
0.0
 10
12.1238644387
 20
43.6960182988
 30
0.0
 10
12.3385163137
 20
43.4404684391
 30
0.0
 10
12.6488499181
 20
43.175184914
 30
0.0
 10
13.0039509367
 20
42.954601801
 30
0.0
 10
13.3281988008
 20
42.8137505962
 30
0.0
 10
13.6003348909
 20
42.7296258053
 30
0.0
 10
13.8798677863
 20
42.6658947682
 30
0.0
 10
14.2364989247
 20
42.6250185112
 30
0.0
 10
14.6637478465
 20
42.6347878854
 30
0.0
 10
15.0783836297
 20
42.7008823772
 30
0.0
 10
15.4680102039
 20
42.8209561657
 30
0.0
 10
15.82047353
 20
42.9934760582
 30
0.0
 10
16.1231440282
 20
43.2159794923
 30
0.0
 10
16.3693315385
 20
43.4776521738
 30
0.0
 10
16.5534720299
 20
43.7693467249
 30
0.0
 10
16.6697048872
 20
44.0817762457
 30
0.0
 10
16.697570088
 20
44.2994070399
 30
0.0
 10
16.6978310315
 20
44.4065581959
 30
0.0
  0
SPLINE
  5
364
100
AcDbEntity
  8
0
100
AcDbSpline
 62
7
  6
CONTINUOUS
 70
0
 71
3
 72
15
 73
11
 74
0
 42
0.0000001
 43
0.0000001
 44
0.0000000001
 40
0.0
 40
0.0
 40
0.0
 40
0.0
 40
0.1185543981
 40
0.2377532995
 40
0.3582570455
 40
0.4192882392
 40
0.4809635692
 40
0.6064732346
 40
0.7350913702
 40
1.0
 40
1.0
 40
1.0
 40
1.0
 10
11.7460308068
 20
43.9666492303
 30
0.0
 10
11.7460534391
 20
43.8708688936
 30
0.0
 10
11.7605131255
 20
43.6784803996
 30
0.0
 10
11.8251730546
 20
43.3953264793
 30
0.0
 10
11.914514524
 20
43.1682943077
 30
0.0
 10
12.0067597984
 20
42.9946188778
 30
0.0
 10
12.1141613594
 20
42.8250701889
 30
0.0
 10
12.2741783975
 20
42.6251258886
 30
0.0
 10
12.5776283941
 20
42.3345541595
 30
0.0
 10
12.8467822462
 20
42.1582358278
 30
0.0
 10
13.0375299867
 20
42.0611793782
 30
0.0
  0
SPLINE
  5
365
100
AcDbEntity
  8
0
100
AcDbSpline
 62
7
  6
CONTINUOUS
 70
0
 71
3
 72
13
 73
9
 74
0
 42
0.0000001
 43
0.0000001
 44
0.0000000001
 40
0.0
 40
0.0
 40
0.0
 40
0.0
 40
0.1371184715
 40
0.2701329617
 40
0.524574996
 40
0.7662531496
 40
0.8837875821
 40
1.0
 40
1.0
 40
1.0
 40
1.0
 10
15.7751527037
 20
42.0918898231
 30
0.0
 10
15.8456259309
 20
42.1322739203
 30
0.0
 10
15.980155783
 20
42.2197457267
 30
0.0
 10
16.2194292292
 20
42.4188566677
 30
0.0
 10
16.4623236276
 20
42.7066054338
 30
0.0
 10
16.6210206358
 20
43.0389444114
 30
0.0
 10
16.6859398403
 20
43.3138460344
 30
0.0
 10
16.6973937714
 20
43.4524987272
 30
0.0
 10
16.6976420322
 20
43.5213383604
 30
0.0
  0
SPLINE
  5
366
100
AcDbEntity
  8
0
100
AcDbSpline
 62
7
  6
CONTINUOUS
 70
0
 71
3
 72
30
 73
26
 74
0
 42
0.0000001
 43
0.0000001
 44
0.0000000001
 40
0.0
 40
0.0
 40
0.0
 40
0.0
 40
0.0026630678
 40
0.004981929
 40
0.0080627335
 40
0.0119321505
 40
0.0166031374
 40
0.0220827779
 40
0.0283752592
 40
0.0434077886
 40
0.0617093962
 40
0.0831862879
 40
0.1076377238
 40
0.1646308533
 40
0.2310145181
 40
0.3051063668
 40
0.3852208819
 40
0.4696037898
 40
0.5561551019
 40
0.6426640823
 40
0.7269199538
 40
0.8067123861
 40
0.8798663214
 40
0.9447184023
 40
1.0
 40
1.0
 40
1.0
 40
1.0
 10
25.757558749
 20
42.9934947837
 30
0.0
 10
25.7618476182
 20
42.9934912518
 30
0.0
 10
25.7680495345
 20
42.9857976051
 30
0.0
 10
25.7732489349
 20
42.9745560043
 30
0.0
 10
25.778285071
 20
42.9602512651
 30
0.0
 10
25.7831732558
 20
42.9422596757
 30
0.0
 10
25.7881548791
 20
42.9202024005
 30
0.0
 10
25.7931302064
 20
42.8941984905
 30
0.0
 10
25.8002160024
 20
42.8516078855
 30
0.0
 10
25.8088504822
 20
42.7883667777
 30
0.0
 10
25.8187423761
 20
42.7006445486
 30
0.0
 10
25.8286581515
 20
42.5976753263
 30
0.0
 10
25.8426594888
 20
42.4325102493
 30
0.0
 10
25.8596958318
 20
42.1950350438
 30
0.0
 10
25.8794269289
 20
41.8776225161
 30
0.0
 10
25.8992444744
 20
41.5229136346
 30
0.0
 10
25.9191198037
 20
41.1391794224
 30
0.0
 10
25.9389830571
 20
40.7353533877
 30
0.0
 10
25.958856833
 20
40.321217693
 30
0.0
 10
25.9787298055
 20
39.9072867764
 30
0.0
 10
25.9985843779
 20
39.5042527612
 30
0.0
 10
26.01838991
 20
39.122751667
 30
0.0
 10
26.0381881999
 20
38.7725441398
 30
0.0
 10
26.0579511553
 20
38.4618800475
 30
0.0
 10
26.0722361293
 20
38.2689250405
 30
0.0
 10
26.0796433354
 20
38.180202693
 30
0.0
  0
SPLINE
  5
367
100
AcDbEntity
  8
0
100
AcDbSpline
 62
7
  6
CONTINUOUS
 70
0
 71
3
 72
17
 73
13
 74
0
 42
0.0000001
 43
0.0000001
 44
0.0000000001
 40
0.0
 40
0.0
 40
0.0
 40
0.0
 40
0.4203679364
 40
0.5896185729
 40
0.7301556704
 40
0.7893516388
 40
0.8410190643
 40
0.8850766292
 40
0.9215712721
 40
0.9507201498
 40
0.9729037
 40
1.0
 40
1.0
 40
1.0
 40
1.0
 10
26.0906540951
 20
38.0563337561
 30
0.0
 10
26.0955654442
 20
38.0047320994
 30
0.0
 10
26.1030206878
 20
37.9323965506
 30
0.0
 10
26.1147590892
 20
37.8431255917
 30
0.0
 10
26.1218445934
 20
37.7981728843
 30
0.0
 10
26.1276597249
 20
37.7677185856
 30
0.0
 10
26.1317517295
 20
37.7490604941
 30
0.0
 10
26.1358486312
 20
37.7332600711
 30
0.0
 10
26.1398845707
 20
37.720383065
 30
0.0
 10
26.1440275662
 20
37.7102363114
 30
0.0
 10
26.1484471708
 20
37.701987446
 30
0.0
 10
26.1535947219
 20
37.6968781994
 30
0.0
 10
26.1569359206
 20
37.6968775306
 30
0.0
  0
SPLINE
  5
368
100
AcDbEntity
  8
0
100
AcDbSpline
 62
7
  6
CONTINUOUS
 70
0
 71
3
 72
9
 73
5
 74
0
 42
0.0000001
 43
0.0000001
 44
0.0000000001
 40
0.0
 40
0.0
 40
0.0
 40
0.0
 40
0.2476827195
 40
1.0
 40
1.0
 40
1.0
 40
1.0
 10
11.8273218057
 20
42.5277455257
 30
0.0
 10
11.8394272532
 20
42.4891074702
 30
0.0
 10
11.8930871731
 20
42.3346364381
 30
0.0
 10
11.9654866517
 20
42.186776932
 30
0.0
 10
12.0287088148
 20
42.0812859591
 30
0.0
  0
LINE
  5
369
100
AcDbEntity
  8
0
100
AcDbLine
 62
7
  6
CONTINUOUS
 10
21.5452275189
 20
24.9023089167
 11
21.5451068647
 21
25.0023213566
  0
LINE
  5
36A
100
AcDbEntity
  8
0
100
AcDbLine
 62
7
  6
CONTINUOUS
 10
25.093775668
 20
25.0023213566
 11
25.093655006
 21
24.9023089166
  0
SPLINE
  5
36B
100
AcDbEntity
  8
0
100
AcDbSpline
 62
7
  6
CONTINUOUS
 70
0
 71
3
 72
25
 73
21
 74
0
 42
0.0000001
 43
0.0000001
 44
0.0000000001
 40
0.0
 40
0.0
 40
0.0
 40
0.0
 40
0.0304526129
 40
0.061322773
 40
0.1244659152
 40
0.1895662498
 40
0.2563025937
 40
0.3241823947
 40
0.3584177436
 40
0.3927659005
 40
0.4615333453
 40
0.5299040654
 40
0.5970704686
 40
0.6622151287
 40
0.724694022
 40
0.7843276984
 40
0.8413421996
 40
0.8959803455
 40
0.948623988
 40
1.0
 40
1.0
 40
1.0
 40
1.0
 10
34.7346077217
 20
44.0896140608
 30
0.0
 10
34.7093556209
 20
44.0313368945
 30
0.0
 10
34.6525762551
 20
43.9164433277
 30
0.0
 10
34.5148192164
 20
43.6960198208
 30
0.0
 10
34.3001675601
 20
43.4404697905
 30
0.0
 10
33.9898341559
 20
43.1751860423
 30
0.0
 10
33.634733282
 20
42.9546026869
 30
0.0
 10
33.3104854974
 20
42.8137512662
 30
0.0
 10
33.0383494457
 20
42.7296262919
 30
0.0
 10
32.7588165663
 20
42.6658950654
 30
0.0
 10
32.4021854082
 20
42.6250185908
 30
0.0
 10
31.9749364148
 20
42.6347877269
 30
0.0
 10
31.5603005115
 20
42.7008820018
 30
0.0
 10
31.1706737743
 20
42.8209555948
 30
0.0
 10
30.8182102416
 20
42.9934753024
 30
0.0
 10
30.5155395098
 20
43.2159785927
 30
0.0
 10
30.2693517583
 20
43.4776511771
 30
0.0
 10
30.0852110181
 20
43.7693456696
 30
0.0
 10
29.9689779051
 20
44.0817751675
 30
0.0
 10
29.9411125261
 20
44.2994059788
 30
0.0
 10
29.9408514959
 20
44.4065571509
 30
0.0
  0
SPLINE
  5
36C
100
AcDbEntity
  8
0
100
AcDbSpline
 62
7
  6
CONTINUOUS
 70
0
 71
3
 72
9
 73
5
 74
0
 42
0.0000001
 43
0.0000001
 44
0.0000000001
 40
0.0
 40
0.0
 40
0.0
 40
0.0
 40
0.4847010707
 40
1.0
 40
1.0
 40
1.0
 40
1.0
 10
17.4636412624
 20
42.8042089159
 30
0.0
 10
17.4636412624
 20
42.7756957852
 30
0.0
 10
17.4775704771
 20
42.7161882792
 30
0.0
 10
17.5156214912
 20
42.6687530286
 30
0.0
 10
17.5387187768
 20
42.6491214559
 30
0.0
  0
SPLINE
  5
36D
100
AcDbEntity
  8
0
100
AcDbSpline
 62
7
  6
CONTINUOUS
 70
0
 71
3
 72
9
 73
5
 74
0
 42
0.0000001
 43
0.0000001
 44
0.0000000001
 40
0.0
 40
0.0
 40
0.0
 40
0.0
 40
0.4866762406
 40
1.0
 40
1.0
 40
1.0
 40
1.0
 10
17.5387187768
 20
42.6491214559
 30
0.0
 10
17.5620131442
 20
42.6293223733
 30
0.0
 10
17.618084006
 20
42.5977169042
 30
0.0
 10
17.6813956256
 20
42.5871376825
 30
0.0
 10
17.7136412927
 20
42.5871376871
 30
0.0
  0
SPLINE
  5
36E
100
AcDbEntity
  8
0
100
AcDbSpline
 62
7
  6
CONTINUOUS
 70
0
 71
3
 72
15
 73
11
 74
0
 42
0.0000001
 43
0.0000001
 44
0.0000000001
 40
0.0
 40
0.0
 40
0.0
 40
0.0
 40
0.1064855921
 40
0.2161164104
 40
0.3307576985
 40
0.4513813429
 40
0.5785728238
 40
0.7128508112
 40
0.8538184012
 40
1.0
 40
1.0
 40
1.0
 40
1.0
 10
15.6978361225
 20
44.4105732867
 30
0.0
 10
15.6977168244
 20
44.4716066453
 30
0.0
 10
15.6807435958
 20
44.5959230883
 30
0.0
 10
15.6100179986
 20
44.7734978997
 30
0.0
 10
15.498262055
 20
44.9382905952
 30
0.0
 10
15.3491862063
 20
45.0847672629
 30
0.0
 10
15.1662960508
 20
45.2074815005
 30
0.0
 10
14.9537083564
 20
45.2998831162
 30
0.0
 10
14.7189864107
 20
45.3603483463
 30
0.0
 10
14.5548018149
 20
45.3786072572
 30
0.0
 10
14.4710966717
 20
45.3822807105
 30
0.0
  0
SPLINE
  5
36F
100
AcDbEntity
  8
0
100
AcDbSpline
 62
7
  6
CONTINUOUS
 70
0
 71
3
 72
14
 73
10
 74
0
 42
0.0000001
 43
0.0000001
 44
0.0000000001
 40
0.0
 40
0.0
 40
0.0
 40
0.0
 40
0.2615986661
 40
0.3894780951
 40
0.5149279183
 40
0.6380761293
 40
0.7595149138
 40
0.8799681815
 40
1.0
 40
1.0
 40
1.0
 40
1.0
 10
13.4578363844
 20
45.1287814397
 30
0.0
 10
13.3514723636
 20
45.0645832337
 30
0.0
 10
13.2023965949
 20
44.9517384662
 30
0.0
 10
13.0354667276
 20
44.7724495433
 30
0.0
 10
12.9302865945
 20
44.6272229226
 30
0.0
 10
12.8470118084
 20
44.4718178766
 30
0.0
 10
12.7876914036
 20
44.3082833982
 30
0.0
 10
12.7520583206
 20
44.139601505
 30
0.0
 10
12.7440362306
 20
44.0252480147
 30
0.0
 10
12.7439387781
 20
43.968243464
 30
0.0
  0
SPLINE
  5
370
100
AcDbEntity
  8
0
100
AcDbSpline
 62
7
  6
CONTINUOUS
 70
0
 71
3
 72
15
 73
11
 74
0
 42
0.0000001
 43
0.0000001
 44
0.0000000001
 40
0.0
 40
0.0
 40
0.0
 40
0.0
 40
0.1185543992
 40
0.2377532985
 40
0.3582570403
 40
0.4192882317
 40
0.4809635593
 40
0.606473222
 40
0.7350913589
 40
1.0
 40
1.0
 40
1.0
 40
1.0
 10
34.8926517186
 20
43.9666514578
 30
0.0
 10
34.8926291972
 20
43.8708710026
 30
0.0
 10
34.8781696975
 20
43.6784822557
 30
0.0
 10
34.8135099378
 20
43.3953279327
 30
0.0
 10
34.724168518
 20
43.1682954246
 30
0.0
 10
34.6319232303
 20
42.9946197362
 30
0.0
 10
34.5245216178
 20
42.8250707948
 30
0.0
 10
34.3645044396
 20
42.6251262042
 30
0.0
 10
34.0610540921
 20
42.3345540811
 30
0.0
 10
33.7918998698
 20
42.1582355577
 30
0.0
 10
33.6011518616
 20
42.0611790347
 30
0.0
  0
SPLINE
  5
371
100
AcDbEntity
  8
0
100
AcDbSpline
 62
7
  6
CONTINUOUS
 70
0
 71
3
 72
13
 73
9
 74
0
 42
0.0000001
 43
0.0000001
 44
0.0000000001
 40
0.0
 40
0.0
 40
0.0
 40
0.0
 40
0.1371184558
 40
0.2701329359
 40
0.5245749644
 40
0.7662531284
 40
0.8837875706
 40
1.0
 40
1.0
 40
1.0
 40
1.0
 10
30.8635282271
 20
42.0918907374
 30
0.0
 10
30.7930551153
 20
42.1322748465
 30
0.0
 10
30.6585254891
 20
42.2197466629
 30
0.0
 10
30.4192524495
 20
42.4188575526
 30
0.0
 10
30.1763584759
 20
42.7066061497
 30
0.0
 10
30.0176617565
 20
43.0389448391
 30
0.0
 10
29.9527426676
 20
43.3138462035
 30
0.0
 10
29.9412887549
 20
43.4524987633
 30
0.0
 10
29.9410404928
 20
43.5213383312
 30
0.0
  0
SPLINE
  5
372
100
AcDbEntity
  8
0
100
AcDbSpline
 62
7
  6
CONTINUOUS
 70
0
 71
3
 72
11
 73
7
 74
0
 42
0.0000001
 43
0.0000001
 44
0.0000000001
 40
0.0
 40
0.0
 40
0.0
 40
0.0
 40
0.2260706788
 40
0.4681291361
 40
0.7270312835
 40
1.0
 40
1.0
 40
1.0
 40
1.0
 10
15.5191342048
 20
44.0131946216
 30
0.0
 10
15.4646225662
 20
44.0839364404
 30
0.0
 10
15.331664917
 20
44.2156660324
 30
0.0
 10
15.0837496057
 20
44.3655092649
 30
0.0
 10
14.7912783954
 20
44.4618628103
 30
0.0
 10
14.5816489046
 20
44.4891723373
 30
0.0
 10
14.4739188056
 20
44.4939242208
 30
0.0
  0
SPLINE
  5
373
100
AcDbEntity
  8
0
100
AcDbSpline
 62
7
  6
CONTINUOUS
 70
0
 71
3
 72
11
 73
7
 74
0
 42
0.0000001
 43
0.0000001
 44
0.0000000001
 40
0.0
 40
0.0
 40
0.0
 40
0.0
 40
0.2463763905
 40
0.4951773663
 40
0.7469120887
 40
1.0
 40
1.0
 40
1.0
 40
1.0
 10
17.4699326583
 20
42.6158718052
 30
0.0
 10
17.4761618768
 20
42.5894582152
 30
0.0
 10
17.4981762194
 20
42.53815509
 30
0.0
 10
17.5551877489
 20
42.4767453373
 30
0.0
 10
17.6297358381
 20
42.4369929774
 30
0.0
 10
17.685763842
 20
42.4278444734
 30
0.0
 10
17.7136412927
 20
42.4278444767
 30
0.0
  0
SPLINE
  5
374
100
AcDbEntity
  8
0
100
AcDbSpline
 62
7
  6
CONTINUOUS
 70
0
 71
3
 72
12
 73
8
 74
0
 42
0.0000001
 43
0.0000001
 44
0.0000000001
 40
0.0
 40
0.0
 40
0.0
 40
0.0
 40
0.3396420009
 40
0.6230119612
 40
0.8447745738
 40
0.9309950936
 40
1.0
 40
1.0
 40
1.0
 40
1.0
 10
17.7987357235
 20
41.6428715079
 30
0.0
 10
17.7921424285
 20
41.7318330314
 30
0.0
 10
17.7793514565
 20
41.8949710209
 30
0.0
 10
17.75864887
 20
42.1158815187
 30
0.0
 10
17.740604825
 20
42.270189741
 30
0.0
 10
17.7254175727
 20
42.3680405794
 30
0.0
 10
17.7176947211
 20
42.4080938736
 30
0.0
 10
17.7136327857
 20
42.4257566698
 30
0.0
  0
SPLINE
  5
375
100
AcDbEntity
  8
0
100
AcDbSpline
 62
7
  6
CONTINUOUS
 70
0
 71
3
 72
9
 73
5
 74
0
 42
0.0000001
 43
0.0000001
 44
0.0000000001
 40
0.0
 40
0.0
 40
0.0
 40
0.0
 40
0.2476764482
 40
1.0
 40
1.0
 40
1.0
 40
1.0
 10
34.8119191266
 20
42.5295303727
 30
0.0
 10
34.7998047037
 20
42.4907347245
 30
0.0
 10
34.7460675185
 20
42.3356311786
 30
0.0
 10
34.6734361148
 20
42.1871772012
 30
0.0
 10
34.6099726692
 20
42.081283888
 30
0.0
  0
SPLINE
  5
376
100
AcDbEntity
  8
0
100
AcDbSpline
 62
7
  6
CONTINUOUS
 70
0
 71
3
 72
20
 73
16
 74
0
 42
0.0000001
 43
0.0000001
 44
0.0000000001
 40
0.0
 40
0.0
 40
0.0
 40
0.0
 40
0.0094906467
 40
0.0162183776
 40
0.0246363989
 40
0.0469387336
 40
0.0767939561
 40
0.1142527687
 40
0.1592672264
 40
0.211748551
 40
0.2715881893
 40
0.4128564768
 40
0.5820597451
 40
0.7781354322
 40
1.0
 40
1.0
 40
1.0
 40
1.0
 10
27.3572871153
 20
42.9976780798
 30
0.0
 10
27.3594403021
 20
42.9976775653
 30
0.0
 10
27.3629283642
 20
42.9954294965
 30
0.0
 10
27.3662784292
 20
42.9910400276
 30
0.0
 10
27.3705295426
 20
42.9836212087
 30
0.0
 10
27.3754676606
 20
42.9707616638
 30
0.0
 10
27.3811179304
 20
42.9512179953
 30
0.0
 10
27.3867878548
 20
42.9263620631
 30
0.0
 10
27.3925036082
 20
42.89627846
 30
0.0
 10
27.3982371775
 20
42.861043216
 30
0.0
 10
27.4063584708
 20
42.8040836847
 30
0.0
 10
27.416268599
 20
42.7206460859
 30
0.0
 10
27.427684389
 20
42.6062883312
 30
0.0
 10
27.4391419395
 20
42.4735708429
 30
0.0
 10
27.4463692364
 20
42.379025426
 30
0.0
 10
27.4500268131
 20
42.3288230507
 30
0.0
  0
SPLINE
  5
377
100
AcDbEntity
  8
0
100
AcDbSpline
 62
7
  6
CONTINUOUS
 70
0
 71
3
 72
12
 73
8
 74
0
 42
0.0000001
 43
0.0000001
 44
0.0000000001
 40
0.0
 40
0.0
 40
0.0
 40
0.0
 40
0.20050397
 40
0.3132996018
 40
0.4345965755
 40
0.7025050166
 40
1.0
 40
1.0
 40
1.0
 40
1.0
 10
34.8228233892
 20
42.5656557345
 30
0.0
 10
34.8228216237
 20
42.5940665035
 30
0.0
 10
34.8109820943
 20
42.6385252619
 30
0.0
 10
34.7816560795
 20
42.6926768192
 30
0.0
 10
34.7393862019
 20
42.7501957821
 30
0.0
 10
34.6679258224
 20
42.8173698828
 30
0.0
 10
34.5997243901
 20
42.8603748398
 30
0.0
 10
34.5622240269
 20
42.8796281405
 30
0.0
  0
SPLINE
  5
378
100
AcDbEntity
  8
0
100
AcDbSpline
 62
7
  6
CONTINUOUS
 70
0
 71
3
 72
16
 73
12
 74
0
 42
0.0000001
 43
0.0000001
 44
0.0000000001
 40
0.0
 40
0.0
 40
0.0
 40
0.0
 40
0.0277439674
 40
0.0499526026
 40
0.0788877312
 40
0.1148918173
 40
0.1581421668
 40
0.2667451416
 40
0.4051841043
 40
0.5736931022
 40
1.0
 40
1.0
 40
1.0
 40
1.0
 10
28.1576953604
 20
42.9937731928
 30
0.0
 10
28.1609644907
 20
42.993770001
 30
0.0
 10
28.1660509037
 20
42.9890138542
 30
0.0
 10
28.1704863583
 20
42.9811524433
 30
0.0
 10
28.1745908386
 20
42.9716157525
 30
0.0
 10
28.1785996132
 20
42.959541332
 30
0.0
 10
28.1844755154
 20
42.9381762068
 30
0.0
 10
28.1915179948
 20
42.9046881434
 30
0.0
 10
28.1995736022
 20
42.8563804038
 30
0.0
 10
28.2112899468
 20
42.770769574
 30
0.0
 10
28.2185984865
 20
42.7010472577
 30
0.0
 10
28.2234275308
 20
42.6510472455
 30
0.0
  0
SPLINE
  5
379
100
AcDbEntity
  8
0
100
AcDbSpline
 62
7
  6
CONTINUOUS
 70
0
 71
3
 72
30
 73
26
 74
0
 42
0.0000001
 43
0.0000001
 44
0.0000000001
 40
0.0
 40
0.0
 40
0.0
 40
0.0
 40
0.0555243886
 40
0.1205494873
 40
0.1934600771
 40
0.2726375451
 40
0.3563634478
 40
0.4425307232
 40
0.5289361353
 40
0.6133764043
 40
0.6936486335
 40
0.7675964354
 40
0.8335773804
 40
0.8902744511
 40
0.9147333387
 40
0.9363826479
 40
0.955061916
 40
0.970613741
 40
0.9771696338
 40
0.9828882607
 40
0.987753997
 40
0.9917653539
 40
0.9949414247
 40
0.997315912
 40
1.0
 40
1.0
 40
1.0
 40
1.0
 10
28.2356022006
 20
42.5145056855
 30
0.0
 10
28.243001515
 20
42.4253256059
 30
0.0
 10
28.257223788
 20
42.2315540546
 30
0.0
 10
28.2768991856
 20
41.9203813619
 30
0.0
 10
28.2966705269
 20
41.5710254398
 30
0.0
 10
28.3164969241
 20
41.1914900463
 30
0.0
 10
28.3363086615
 20
40.7905613798
 30
0.0
 10
28.3561364221
 20
40.3779709784
 30
0.0
 10
28.3759653782
 20
39.9642279988
 30
0.0
 10
28.3957786314
 20
39.5599960285
 30
0.0
 10
28.4155482875
 20
39.1758642463
 30
0.0
 10
28.4353179746
 20
38.8215239291
 30
0.0
 10
28.4550517998
 20
38.5052424533
 30
0.0
 10
28.4720896265
 20
38.2687127391
 30
0.0
 10
28.486052304
 20
38.103612552
 30
0.0
 10
28.4959702114
 20
37.999666421
 30
0.0
 10
28.5058481862
 20
37.9101452121
 30
0.0
 10
28.5144240446
 20
37.8449648838
 30
0.0
 10
28.5214679364
 20
37.8006675283
 30
0.0
 10
28.5264228032
 20
37.7734986928
 30
0.0
 10
28.5313860583
 20
37.7504674329
 30
0.0
 10
28.5362591818
 20
37.7317460282
 30
0.0
 10
28.5412875826
 20
37.716906589
 30
0.0
 10
28.5464384267
 20
37.7053811887
 30
0.0
 10
28.5526276864
 20
37.6973956339
 30
0.0
 10
28.5569535275
 20
37.6973949272
 30
0.0
  0
SPLINE
  5
37A
100
AcDbEntity
  8
0
100
AcDbSpline
 62
7
  6
CONTINUOUS
 70
0
 71
3
 72
12
 73
8
 74
0
 42
0.0000001
 43
0.0000001
 44
0.0000000001
 40
0.0
 40
0.0
 40
0.0
 40
0.0
 40
0.2005210314
 40
0.3133168105
 40
0.4346106192
 40
0.7025079545
 40
1.0
 40
1.0
 40
1.0
 40
1.0
 10
11.8158579107
 20
42.565658486
 30
0.0
 10
11.8158536712
 20
42.5940729491
 30
0.0
 10
11.8276854391
 20
42.6385391624
 30
0.0
 10
11.8570083162
 20
42.6926980419
 30
0.0
 10
11.8992762189
 20
42.7502201762
 30
0.0
 10
11.9707425981
 20
42.8173919576
 30
0.0
 10
12.038948103
 20
42.8603923386
 30
0.0
 10
12.0764494339
 20
42.8796469907
 30
0.0
  0
SPLINE
  5
37B
100
AcDbEntity
  8
0
100
AcDbSpline
 62
7
  6
CONTINUOUS
 70
0
 71
3
 72
20
 73
16
 74
0
 42
0.0000001
 43
0.0000001
 44
0.0000000001
 40
0.0
 40
0.0
 40
0.0
 40
0.0
 40
0.0094905664
 40
0.0162182782
 40
0.0246362909
 40
0.0469386301
 40
0.0767938757
 40
0.114252723
 40
0.1592672215
 40
0.2117485895
 40
0.2715882697
 40
0.4128566246
 40
0.5820599176
 40
0.7781355631
 40
1.0
 40
1.0
 40
1.0
 40
1.0
 10
19.2813953936
 20
42.9976780876
 30
0.0
 10
19.2792421714
 20
42.9976775692
 30
0.0
 10
19.2757540589
 20
42.9954294202
 30
0.0
 10
19.2724039601
 20
42.9910398386
 30
0.0
 10
19.2681527893
 20
42.9836208116
 30
0.0
 10
19.2632146092
 20
42.9707609199
 30
0.0
 10
19.2575642655
 20
42.9512167292
 30
0.0
 10
19.2518942674
 20
42.9263601386
 30
0.0
 10
19.2461784392
 20
42.8962757444
 30
0.0
 10
19.2404447948
 20
42.861039581
 30
0.0
 10
19.2323233957
 20
42.8040785792
 30
0.0
 10
19.2224131384
 20
42.7206388535
 30
0.0
 10
19.2109971988
 20
42.6062782196
 30
0.0
 10
19.1995394982
 20
42.4735574408
 30
0.0
 10
19.1923121049
 20
42.3790096969
 30
0.0
 10
19.1886544796
 20
42.3288060953
 30
0.0
  0
SPLINE
  5
37C
100
AcDbEntity
  8
0
100
AcDbSpline
 62
7
  6
CONTINUOUS
 70
0
 71
3
 72
11
 73
7
 74
0
 42
0.0000001
 43
0.0000001
 44
0.0000000001
 40
0.0
 40
0.0
 40
0.0
 40
0.0
 40
0.2748452755
 40
0.5343486477
 40
0.7738741977
 40
1.0
 40
1.0
 40
1.0
 40
1.0
 10
28.9250412574
 20
42.5871376864
 30
0.0
 10
28.8916065285
 20
42.5871376912
 30
0.0
 10
28.8259806714
 20
42.5985602957
 30
0.0
 10
28.7430071506
 20
42.6473705576
 30
0.0
 10
28.6880083479
 20
42.7193784355
 30
0.0
 10
28.6750412624
 20
42.7767008757
 30
0.0
 10
28.6750412624
 20
42.8042089159
 30
0.0
  0
SPLINE
  5
37D
100
AcDbEntity
  8
0
100
AcDbSpline
 62
7
  6
CONTINUOUS
 70
0
 71
3
 72
15
 73
11
 74
0
 42
0.0000001
 43
0.0000001
 44
0.0000000001
 40
0.0
 40
0.0
 40
0.0
 40
0.0
 40
0.0286233043
 40
0.0518141451
 40
0.0819996172
 40
0.1194120973
 40
0.1641168398
 40
0.2753204842
 40
0.5830904082
 40
1.0
 40
1.0
 40
1.0
 40
1.0
 10
26.5578692625
 20
42.9977406589
 30
0.0
 10
26.5610022546
 20
42.9977377587
 30
0.0
 10
26.5658324028
 20
42.9930231608
 30
0.0
 10
26.5700065153
 20
42.9853977553
 30
0.0
 10
26.5739023653
 20
42.9761301484
 30
0.0
 10
26.5777041041
 20
42.964470125
 30
0.0
 10
26.5832631884
 20
42.9440301303
 30
0.0
 10
26.5936891539
 20
42.8943420588
 30
0.0
 10
26.6068693566
 20
42.8037408756
 30
0.0
 10
26.6156541029
 20
42.7249104887
 30
0.0
 10
26.6202727923
 20
42.6795115557
 30
0.0
  0
SPLINE
  5
37E
100
AcDbEntity
  8
0
100
AcDbSpline
 62
7
  6
CONTINUOUS
 70
0
 71
3
 72
33
 73
29
 74
0
 42
0.0000001
 43
0.0000001
 44
0.0000000001
 40
0.0
 40
0.0
 40
0.0
 40
0.0
 40
0.0477358712
 40
0.1067734007
 40
0.175959413
 40
0.253385764
 40
0.3366668887
 40
0.4234079087
 40
0.5112131415
 40
0.5976978062
 40
0.680639401
 40
0.7579387186
 40
0.8275011327
 40
0.8587273642
 40
0.8872356272
 40
0.9127658181
 40
0.9351032665
 40
0.9541747733
 40
0.9699376732
 40
0.9765669623
 40
0.9823565191
 40
0.9873044667
 40
0.9914117142
 40
0.9946848556
 40
0.9971439065
 40
0.9980853179
 40
0.9988533071
 40
1.0
 40
1.0
 40
1.0
 40
1.0
 10
26.6202727923
 20
42.6795115557
 30
0.0
 10
26.6283266907
 20
42.6003465906
 30
0.0
 10
26.6435460194
 20
42.4229937203
 30
0.0
 10
26.6641591645
 20
42.130398967
 30
0.0
 10
26.6847954118
 20
41.7882064894
 30
0.0
 10
26.7055090944
 20
41.4055434803
 30
0.0
 10
26.7262978141
 20
40.9935813139
 30
0.0
 10
26.7471223698
 20
40.5642991933
 30
0.0
 10
26.7679564768
 20
40.1296712108
 30
0.0
 10
26.7888001634
 20
39.7013844718
 30
0.0
 10
26.8096242913
 20
39.29063073
 30
0.0
 10
26.8303904045
 20
38.9081210799
 30
0.0
 10
26.8481788131
 20
38.611786296
 30
0.0
 10
26.8626806787
 20
38.3967414201
 30
0.0
 10
26.8731423542
 20
38.2549932141
 30
0.0
 10
26.8835797422
 20
38.128104622
 30
0.0
 10
26.8940149365
 20
38.0170052312
 30
0.0
 10
26.9044177043
 20
37.922267821
 30
0.0
 10
26.9134658153
 20
37.8537332937
 30
0.0
 10
26.9208844959
 20
37.8073421451
 30
0.0
 10
26.9261094393
 20
37.778864133
 30
0.0
 10
26.9313180011
 20
37.7546688982
 30
0.0
 10
26.9364912532
 20
37.7347677494
 30
0.0
 10
26.9416433624
 20
37.7191859963
 30
0.0
 10
26.9461712636
 20
37.7089783721
 30
0.0
 10
26.9500267119
 20
37.7031524816
 30
0.0
 10
26.9531757735
 20
37.699621321
 30
0.0
 10
26.9562878922
 20
37.6979678236
 30
0.0
 10
26.9581993786
 20
37.6979672827
 30
0.0
  0
SPLINE
  5
37F
100
AcDbEntity
  8
0
100
AcDbSpline
 62
7
  6
CONTINUOUS
 70
0
 71
3
 72
14
 73
10
 74
0
 42
0.0000001
 43
0.0000001
 44
0.0000000001
 40
0.0
 40
0.0
 40
0.0
 40
0.0
 40
0.3106131546
 40
0.4560392895
 40
0.5900499057
 40
0.71065391
 40
0.8175214079
 40
0.9124666931
 40
1.0
 40
1.0
 40
1.0
 40
1.0
 10
28.9250412574
 20
45.6972493915
 30
0.0
 10
28.8929608109
 20
45.6972545595
 30
0.0
 10
28.8455854677
 20
45.7021075292
 30
0.0
 10
28.7869160531
 20
45.7190359363
 30
0.0
 10
28.7489725191
 20
45.7357807721
 30
0.0
 10
28.7175573879
 20
45.7563124459
 30
0.0
 10
28.6937124156
 20
45.7799977288
 30
0.0
 10
28.6786502259
 20
45.8063006113
 30
0.0
 10
28.6750412624
 20
45.8252683356
 30
0.0
 10
28.6750412624
 20
45.8343088658
 30
0.0
  0
SPLINE
  5
380
100
AcDbEntity
  8
0
100
AcDbSpline
 62
7
  6
CONTINUOUS
 70
0
 71
3
 72
30
 73
26
 74
0
 42
0.0000001
 43
0.0000001
 44
0.0000000001
 40
0.0
 40
0.0
 40
0.0
 40
0.0
 40
0.0026631635
 40
0.0049820874
 40
0.0080629523
 40
0.011932424
 40
0.0166034584
 40
0.0220831377
 40
0.0283756483
 40
0.0434082033
 40
0.0617097928
 40
0.0831866634
 40
0.107638081
 40
0.1646311723
 40
0.2310147797
 40
0.3051065317
 40
0.3852208901
 40
0.4696036009
 40
0.5561547372
 40
0.6426635888
 40
0.7269194035
 40
0.8067118764
 40
0.8798659481
 40
0.944718187
 40
1.0
 40
1.0
 40
1.0
 40
1.0
 10
20.8811233865
 20
42.9934948609
 30
0.0
 10
20.8768343714
 20
42.9934909861
 30
0.0
 10
20.8706327375
 20
42.9857969532
 30
0.0
 10
20.8654332465
 20
42.9745550105
 30
0.0
 10
20.8603971587
 20
42.9602499897
 30
0.0
 10
20.8555089738
 20
42.9422581635
 30
0.0
 10
20.8505273706
 20
42.9202006952
 30
0.0
 10
20.8455520572
 20
42.8941966433
 30
0.0
 10
20.8384662926
 20
42.8516059622
 30
0.0
 10
20.8298318431
 20
42.7883649113
 30
0.0
 10
20.8199399685
 20
42.7006428684
 30
0.0
 10
20.8100242283
 20
42.5976739302
 30
0.0
 10
20.7960229393
 20
42.4325092861
 30
0.0
 10
20.778986658
 20
42.1950347069
 30
0.0
 10
20.759255631
 20
41.8776230817
 30
0.0
 10
20.7394381562
 20
41.5229153636
 30
0.0
 10
20.7195628927
 20
41.139182595
 30
0.0
 10
20.6996997
 20
40.7353581689
 30
0.0
 10
20.679825991
 20
40.3212240569
 30
0.0
 10
20.6599530841
 20
39.9072944964
 30
0.0
 10
20.6400985768
 20
39.504261468
 30
0.0
 10
20.6202931094
 20
39.1227608926
 30
0.0
 10
20.6004948986
 20
38.7725534782
 30
0.0
 10
20.5807320024
 20
38.4618891434
 30
0.0
 10
20.5664470811
 20
38.268933893
 30
0.0
 10
20.5590399101
 20
38.180211362
 30
0.0
  0
SPLINE
  5
381
100
AcDbEntity
  8
0
100
AcDbSpline
 62
7
  6
CONTINUOUS
 70
0
 71
3
 72
16
 73
12
 74
0
 42
0.0000001
 43
0.0000001
 44
0.0000000001
 40
0.0
 40
0.0
 40
0.0
 40
0.0
 40
0.4204261918
 40
0.5895614302
 40
0.7299350717
 40
0.8406171498
 40
0.884606656
 40
0.921073669
 40
0.9502434296
 40
0.9725062481
 40
1.0
 40
1.0
 40
1.0
 40
1.0
 10
20.5463709464
 20
38.0391091712
 30
0.0
 10
20.5415849318
 20
37.9899220456
 30
0.0
 10
20.5343133475
 20
37.9209906711
 30
0.0
 10
20.5228774191
 20
37.8359488604
 30
0.0
 10
20.5149743097
 20
37.7871848238
 30
0.0
 10
20.5080809109
 20
37.7531824105
 30
0.0
 10
20.5023058255
 20
37.73144521
 30
0.0
 10
20.4983669751
 20
37.7192050142
 30
0.0
 10
20.4943289468
 20
37.7095659772
 30
0.0
 10
20.4899935457
 20
37.7016833342
 30
0.0
 10
20.484977454
 20
37.6968773874
 30
0.0
 10
20.4817456731
 20
37.6968772292
 30
0.0
  0
SPLINE
  5
382
100
AcDbEntity
  8
0
100
AcDbSpline
 62
7
  6
CONTINUOUS
 70
0
 71
3
 72
12
 73
8
 74
0
 42
0.0000001
 43
0.0000001
 44
0.0000000001
 40
0.0
 40
0.0
 40
0.0
 40
0.0
 40
0.2312007138
 40
0.3495009654
 40
0.4715931227
 40
0.7278383272
 40
1.0
 40
1.0
 40
1.0
 40
1.0
 10
19.6083928444
 20
42.3137513836
 30
0.0
 10
19.6103364447
 20
42.291729482
 30
0.0
 10
19.6070336818
 20
42.2574096784
 30
0.0
 10
19.5896875452
 20
42.2155270717
 30
0.0
 10
19.5629615947
 20
42.1759212046
 30
0.0
 10
19.514772478
 20
42.1347361802
 30
0.0
 10
19.4677746575
 20
42.1143396512
 30
0.0
 10
19.4428037956
 20
42.1070105713
 30
0.0
  0
SPLINE
  5
383
100
AcDbEntity
  8
0
100
AcDbSpline
 62
7
  6
CONTINUOUS
 70
0
 71
3
 72
12
 73
8
 74
0
 42
0.0000001
 43
0.0000001
 44
0.0000000001
 40
0.0
 40
0.0
 40
0.0
 40
0.0
 40
0.3396425013
 40
0.6230124942
 40
0.8447748336
 40
0.930995202
 40
1.0
 40
1.0
 40
1.0
 40
1.0
 10
28.8399467913
 20
41.6428713315
 30
0.0
 10
28.846540089
 20
41.7318329764
 30
0.0
 10
28.8593310458
 20
41.8949710889
 30
0.0
 10
28.8800336375
 20
42.1158816296
 30
0.0
 10
28.8980776947
 20
42.2701897293
 30
0.0
 10
28.9132649555
 20
42.3680404134
 30
0.0
 10
28.9209878094
 20
42.4080936329
 30
0.0
 10
28.925049744
 20
42.4257563979
 30
0.0
  0
SPLINE
  5
384
100
AcDbEntity
  8
0
100
AcDbSpline
 62
7
  6
CONTINUOUS
 70
0
 71
3
 72
11
 73
7
 74
0
 42
0.0000001
 43
0.0000001
 44
0.0000000001
 40
0.0
 40
0.0
 40
0.0
 40
0.0
 40
0.2530871289
 40
0.5048168429
 40
0.7536185386
 40
1.0
 40
1.0
 40
1.0
 40
1.0
 10
28.9250412322
 20
42.4278444767
 30
0.0
 10
28.9529123016
 20
42.4278444734
 30
0.0
 10
29.0089269547
 20
42.4369881168
 30
0.0
 10
29.083461411
 20
42.4767224856
 30
0.0
 10
29.140472671
 20
42.5381060549
 30
0.0
 10
29.1624951663
 20
42.5893918755
 30
0.0
 10
29.1687322768
 20
42.61579788
 30
0.0
  0
SPLINE
  5
385
100
AcDbEntity
  8
0
100
AcDbSpline
 62
7
  6
CONTINUOUS
 70
0
 71
3
 72
9
 73
5
 74
0
 42
0.0000001
 43
0.0000001
 44
0.0000000001
 40
0.0
 40
0.0
 40
0.0
 40
0.0
 40
0.5328845244
 40
1.0
 40
1.0
 40
1.0
 40
1.0
 10
25.4181383826
 20
41.6018294426
 30
0.0
 10
25.407422811
 20
41.6116279083
 30
0.0
 10
25.3895087058
 20
41.6330308958
 30
0.0
 10
25.3821410265
 20
41.6604947259
 30
0.0
 10
25.3821412547
 20
41.6732227462
 30
0.0
  0
SPLINE
  5
386
100
AcDbEntity
  8
0
100
AcDbSpline
 62
7
  6
CONTINUOUS
 70
0
 71
3
 72
14
 73
10
 74
0
 42
0.0000001
 43
0.0000001
 44
0.0000000001
 40
0.0
 40
0.0
 40
0.0
 40
0.0
 40
0.3106131792
 40
0.4560393814
 40
0.5900501753
 40
0.7106545036
 40
0.8175222655
 40
0.9124673753
 40
1.0
 40
1.0
 40
1.0
 40
1.0
 10
17.7136412675
 20
45.6972494186
 30
0.0
 10
17.7457217045
 20
45.697254554
 30
0.0
 10
17.7930970463
 20
45.7021075194
 30
0.0
 10
17.8517664547
 20
45.719035967
 30
0.0
 10
17.8897100042
 20
45.735780886
 30
0.0
 10
17.9211251142
 20
45.7563127158
 30
0.0
 10
17.9449700505
 20
45.7799980637
 30
0.0
 10
17.9600322604
 20
45.8063008389
 30
0.0
 10
17.9636412584
 20
45.8252684617
 30
0.0
 10
17.9636412624
 20
45.8343089181
 30
0.0
  0
SPLINE
  5
387
100
AcDbEntity
  8
0
100
AcDbSpline
 62
7
  6
CONTINUOUS
 70
0
 71
3
 72
15
 73
11
 74
0
 42
0.0000001
 43
0.0000001
 44
0.0000000001
 40
0.0
 40
0.0
 40
0.0
 40
0.0
 40
0.1065237159
 40
0.2161847958
 40
0.330843071
 40
0.4514689293
 40
0.57864629
 40
0.7128941983
 40
0.8538326345
 40
1.0
 40
1.0
 40
1.0
 40
1.0
 10
30.9408468898
 20
44.4108031506
 30
0.0
 10
30.9409861368
 20
44.471702502
 30
0.0
 10
30.9579231911
 20
44.5957335183
 30
0.0
 10
31.0283964664
 20
44.7729300462
 30
0.0
 10
31.1397324467
 20
44.9374217802
 30
0.0
 10
31.2882443927
 20
45.0837088006
 30
0.0
 10
31.4704474137
 20
45.2063858108
 30
0.0
 10
31.682276886
 20
45.2989359612
 30
0.0
 10
31.9162413899
 20
45.3596889422
 30
0.0
 10
32.0799414086
 20
45.3782428295
 30
0.0
 10
32.1634164095
 20
45.382093064
 30
0.0
  0
SPLINE
  5
388
100
AcDbEntity
  8
0
100
AcDbSpline
 62
7
  6
CONTINUOUS
 70
0
 71
3
 72
14
 73
10
 74
0
 42
0.0000001
 43
0.0000001
 44
0.0000000001
 40
0.0
 40
0.0
 40
0.0
 40
0.0
 40
0.2615986844
 40
0.3894781154
 40
0.5149279337
 40
0.6380761357
 40
0.759514913
 40
0.8799681782
 40
1.0
 40
1.0
 40
1.0
 40
1.0
 10
33.1808453398
 20
45.1287819217
 30
0.0
 10
33.2872096873
 20
45.0645835956
 30
0.0
 10
33.4362859013
 20
44.9517385519
 30
0.0
 10
33.6032161837
 20
44.7724491049
 30
0.0
 10
33.7083965137
 20
44.6272220361
 30
0.0
 10
33.7916713581
 20
44.4718164925
 30
0.0
 10
33.8509916857
 20
44.3082814963
 30
0.0
 10
33.8866245637
 20
44.1395990879
 30
0.0
 10
33.8946464309
 20
44.0252452713
 30
0.0
 10
33.8947437517
 20
43.968240566
 30
0.0
  0
SPLINE
  5
389
100
AcDbEntity
  8
0
100
AcDbSpline
 62
7
  6
CONTINUOUS
 70
0
 71
3
 72
9
 73
5
 74
0
 42
0.0000001
 43
0.0000001
 44
0.0000000001
 40
0.0
 40
0.0
 40
0.0
 40
0.0
 40
0.4948967626
 40
1.0
 40
1.0
 40
1.0
 40
1.0
 10
31.9558988313
 20
43.586273007
 30
0.0
 10
32.0160113473
 20
43.5964577504
 30
0.0
 10
32.1387399363
 20
43.6101405836
 30
0.0
 10
32.262194718
 20
43.6102387679
 30
0.0
 10
32.3243443662
 20
43.6071451337
 30
0.0
  0
SPLINE
  5
38A
100
AcDbEntity
  8
0
100
AcDbSpline
 62
7
  6
CONTINUOUS
 70
0
 71
3
 72
15
 73
11
 74
0
 42
0.0000001
 43
0.0000001
 44
0.0000000001
 40
0.0
 40
0.0
 40
0.0
 40
0.0
 40
0.028619081
 40
0.0518097021
 40
0.0819955559
 40
0.1194087562
 40
0.1641143997
 40
0.2753199899
 40
0.5830924576
 40
1.0
 40
1.0
 40
1.0
 40
1.0
 10
20.0808123198
 20
42.9977405913
 30
0.0
 10
20.0776777253
 20
42.9977372222
 30
0.0
 10
20.0728462222
 20
42.9930181002
 30
0.0
 10
20.0686709384
 20
42.9853875539
 30
0.0
 10
20.0647737868
 20
42.9761131263
 30
0.0
 10
20.060970777
 20
42.9644448204
 30
0.0
 10
20.0554098236
 20
42.9439904471
 30
0.0
 10
20.0449803932
 20
42.8942683368
 30
0.0
 10
20.0317957655
 20
42.8036065613
 30
0.0
 10
20.0230079864
 20
42.724723847
 30
0.0
 10
20.0183877068
 20
42.6792950617
 30
0.0
  0
SPLINE
  5
38B
100
AcDbEntity
  8
0
100
AcDbSpline
 62
7
  6
CONTINUOUS
 70
0
 71
3
 72
33
 73
29
 74
0
 42
0.0000001
 43
0.0000001
 44
0.0000000001
 40
0.0
 40
0.0
 40
0.0
 40
0.0
 40
0.0477468328
 40
0.106793262
 40
0.1759860104
 40
0.2534164331
 40
0.3366992627
 40
0.4234399775
 40
0.5112432527
 40
0.5977246923
 40
0.6806622484
 40
0.7579570554
 40
0.8275148162
 40
0.8587387708
 40
0.8872448449
 40
0.9127729766
 40
0.9351085764
 40
0.9541784931
 40
0.9699400712
 40
0.9765688033
 40
0.9823578738
 40
0.9873054073
 40
0.9914123145
 40
0.9946851909
 40
0.9971440538
 40
0.9980854008
 40
0.9988533452
 40
1.0
 40
1.0
 40
1.0
 40
1.0
 10
20.0183877068
 20
42.6792950617
 30
0.0
 10
20.0103348057
 20
42.6001151095
 30
0.0
 10
19.9951167352
 20
42.4227366983
 30
0.0
 10
19.9745047316
 20
42.1301102141
 30
0.0
 10
19.9538697563
 20
41.7878996987
 30
0.0
 10
19.9331572827
 20
41.4052324363
 30
0.0
 10
19.9123698412
 20
40.9932790452
 30
0.0
 10
19.891546588
 20
40.5640165156
 30
0.0
 10
19.8707138013
 20
40.1294165831
 30
0.0
 10
19.8498714327
 20
39.7011638487
 30
0.0
 10
19.8290486449
 20
39.2904476092
 30
0.0
 10
19.8082838717
 20
38.9079766183
 30
0.0
 10
19.7904965857
 20
38.6116738119
 30
0.0
 10
19.7759956328
 20
38.3966535089
 30
0.0
 10
19.7655346403
 20
38.2549223599
 30
0.0
 10
19.7550979222
 20
38.1280494678
 30
0.0
 10
19.7446633992
 20
38.0169640952
 30
0.0
 10
19.7342613091
 20
37.9222387651
 30
0.0
 10
19.7252137857
 20
37.8537130263
 30
0.0
 10
19.7177955874
 20
37.807327863
 30
0.0
 10
19.7125709837
 20
37.7788535393
 30
0.0
 10
19.7073627604
 20
37.7546614484
 30
0.0
 10
19.7021898418
 20
37.7347628925
 30
0.0
 10
19.6970380657
 20
37.7191831748
 30
0.0
 10
19.6925104482
 20
37.7089768958
 30
0.0
 10
19.6886552602
 20
37.7031517975
 30
0.0
 10
19.6855063623
 20
37.69962108
 30
0.0
 10
19.6823944756
 20
37.6979678601
 30
0.0
 10
19.6804831358
 20
37.6979673274
 30
0.0
  0
SPLINE
  5
38C
100
AcDbEntity
  8
0
100
AcDbSpline
 62
7
  6
CONTINUOUS
 70
0
 71
3
 72
10
 73
6
 74
0
 42
0.0000001
 43
0.0000001
 44
0.0000000001
 40
0.0
 40
0.0
 40
0.0
 40
0.0
 40
0.5190791489
 40
0.7658170838
 40
1.0
 40
1.0
 40
1.0
 40
1.0
 10
17.7136412927
 20
42.5871376864
 30
0.0
 10
17.755525759
 20
42.5871376923
 30
0.0
 10
17.8186379473
 20
42.6010504965
 30
0.0
 10
17.8870826388
 20
42.6447869877
 30
0.0
 10
17.9141465022
 20
42.6733027656
 30
0.0
 10
17.9252368017
 20
42.6886021726
 30
0.0
  0
SPLINE
  5
38D
100
AcDbEntity
  8
0
100
AcDbSpline
 62
7
  6
CONTINUOUS
 70
0
 71
3
 72
9
 73
5
 74
0
 42
0.0000001
 43
0.0000001
 44
0.0000000001
 40
0.0
 40
0.0
 40
0.0
 40
0.0
 40
0.5088004834
 40
1.0
 40
1.0
 40
1.0
 40
1.0
 10
17.9252368017
 20
42.6886021726
 30
0.0
 10
17.9375139313
 20
42.7055388481
 30
0.0
 10
17.9568558078
 20
42.742652595
 30
0.0
 10
17.9636412624
 20
42.7840141606
 30
0.0
 10
17.9636412624
 20
42.8042089159
 30
0.0
  0
SPLINE
  5
38E
100
AcDbEntity
  8
0
100
AcDbSpline
 62
7
  6
CONTINUOUS
 70
0
 71
3
 72
11
 73
7
 74
0
 42
0.0000001
 43
0.0000001
 44
0.0000000001
 40
0.0
 40
0.0
 40
0.0
 40
0.0
 40
0.253758616
 40
0.5054406368
 40
0.7537819883
 40
1.0
 40
1.0
 40
1.0
 40
1.0
 10
17.7136412927
 20
42.4278444767
 30
0.0
 10
17.7461104623
 20
42.4278444805
 30
0.0
 10
17.8114586169
 20
42.4402879647
 30
0.0
 10
17.8945221994
 20
42.4938042434
 30
0.0
 10
17.9504736281
 20
42.5742019425
 30
0.0
 10
17.963641583
 20
42.6382054035
 30
0.0
 10
17.9636412702
 20
42.6697097304
 30
0.0
  0
SPLINE
  5
38F
100
AcDbEntity
  8
0
100
AcDbSpline
 62
7
  6
CONTINUOUS
 70
0
 71
3
 72
16
 73
12
 74
0
 42
0.0000001
 43
0.0000001
 44
0.0000000001
 40
0.0
 40
0.0
 40
0.0
 40
0.0
 40
0.0277813085
 40
0.0499995777
 40
0.0789403424
 40
0.114947072
 40
0.1581976503
 40
0.2667950471
 40
0.4052215731
 40
0.5737119356
 40
1.0
 40
1.0
 40
1.0
 40
1.0
 10
18.4809873738
 20
42.9937731287
 30
0.0
 10
18.4777272823
 20
42.9937700207
 30
0.0
 10
18.4726520391
 20
42.9890382739
 30
0.0
 10
18.4682237564
 20
42.9812067793
 30
0.0
 10
18.4641280827
 20
42.9717108698
 30
0.0
 10
18.4601276137
 20
42.9596874517
 30
0.0
 10
18.4542642999
 20
42.9384136033
 30
0.0
 10
18.4472366827
 20
42.9050679575
 30
0.0
 10
18.4391981615
 20
42.8569655663
 30
0.0
 10
18.4275060624
 20
42.7717153246
 30
0.0
 10
18.4202131809
 20
42.7022850934
 30
0.0
 10
18.4153947937
 20
42.6524934539
 30
0.0
  0
SPLINE
  5
390
100
AcDbEntity
  8
0
100
AcDbSpline
 62
7
  6
CONTINUOUS
 70
0
 71
3
 72
30
 73
26
 74
0
 42
0.0000001
 43
0.0000001
 44
0.0000000001
 40
0.0
 40
0.0
 40
0.0
 40
0.0
 40
0.0555244011
 40
0.1205494597
 40
0.1934599453
 40
0.2726372337
 40
0.356362908
 40
0.4425299547
 40
0.5289351605
 40
0.613375268
 40
0.693647403
 40
0.7675951738
 40
0.8335761012
 40
0.8902732084
 40
0.9147321491
 40
0.9363815425
 40
0.9550609316
 40
0.9706129199
 40
0.9771689118
 40
0.9828876501
 40
0.9877535091
 40
0.9917649868
 40
0.9949411725
 40
0.9973157667
 40
1.0
 40
1.0
 40
1.0
 40
1.0
 10
18.4030800425
 20
42.5145024777
 30
0.0
 10
18.3956807547
 20
42.4253224419
 30
0.0
 10
18.3814585307
 20
42.2315510756
 30
0.0
 10
18.3617831943
 20
41.9203788226
 30
0.0
 10
18.3420119155
 20
41.5710236788
 30
0.0
 10
18.3221855761
 20
41.19148939
 30
0.0
 10
18.3023738948
 20
40.7905620448
 30
0.0
 10
18.2825461947
 20
40.3779730163
 30
0.0
 10
18.2627172984
 20
39.9642313024
 30
0.0
 10
18.2429041045
 20
39.560000374
 30
0.0
 10
18.2231345088
 20
39.1758693359
 30
0.0
 10
18.2033648917
 20
38.821529508
 30
0.0
 10
18.1836311204
 20
38.505248283
 30
0.0
 10
18.1665933426
 20
38.2687186247
 30
0.0
 10
18.1526307128
 20
38.1036182754
 30
0.0
 10
18.142712832
 20
37.9996718012
 30
0.0
 10
18.1328348824
 20
37.9101500589
 30
0.0
 10
18.1242590495
 20
37.8449691536
 30
0.0
 10
18.1172151894
 20
37.8006712168
 30
0.0
 10
18.1122603311
 20
37.773501855
 30
0.0
 10
18.1072971021
 20
37.7504700231
 30
0.0
 10
18.1024239709
 20
37.7317480374
 30
0.0
 10
18.0973956321
 20
37.7169080145
 30
0.0
 10
18.092244651
 20
37.7053820181
 30
0.0
 10
18.0860557908
 20
37.697395825
 30
0.0
 10
18.0817297189
 20
37.6973946315
 30
0.0
  0
SPLINE
  5
391
100
AcDbEntity
  8
0
100
AcDbSpline
 62
7
  6
CONTINUOUS
 70
0
 71
3
 72
11
 73
7
 74
0
 42
0.0000001
 43
0.0000001
 44
0.0000000001
 40
0.0
 40
0.0
 40
0.0
 40
0.0
 40
0.2462139848
 40
0.4945519956
 40
0.7462378003
 40
1.0
 40
1.0
 40
1.0
 40
1.0
 10
28.6750413724
 20
42.6699366159
 30
0.0
 10
28.6750116957
 20
42.6384145661
 30
0.0
 10
28.6881309018
 20
42.5743612288
 30
0.0
 10
28.7440692082
 20
42.4938813989
 30
0.0
 10
28.8271649708
 20
42.4403031633
 30
0.0
 10
28.8925527922
 20
42.4278444805
 30
0.0
 10
28.9250412322
 20
42.4278444767
 30
0.0
  0
SPLINE
  5
392
100
AcDbEntity
  8
0
100
AcDbSpline
 62
7
  6
CONTINUOUS
 70
0
 71
3
 72
14
 73
10
 74
0
 42
0.0000001
 43
0.0000001
 44
0.0000000001
 40
0.0
 40
0.0
 40
0.0
 40
0.0
 40
0.0875390186
 40
0.182487455
 40
0.2893558693
 40
0.4099589595
 40
0.5439674304
 40
0.6893909755
 40
1.0
 40
1.0
 40
1.0
 40
1.0
 10
17.4636412624
 20
45.8343043138
 30
0.0
 10
17.4636412625
 20
45.8252631328
 30
0.0
 10
17.4672500532
 20
45.8062943428
 30
0.0
 10
17.4823121563
 20
45.7799899801
 30
0.0
 10
17.5061571487
 20
45.7563038754
 30
0.0
 10
17.5375723638
 20
45.7357721894
 30
0.0
 10
17.5755160319
 20
45.7190283121
 30
0.0
 10
17.6341856457
 20
45.7021023306
 30
0.0
 10
17.6815610312
 20
45.6972522043
 30
0.0
 10
17.7136412675
 20
45.6972494208
 30
0.0
  0
SPLINE
  5
393
100
AcDbEntity
  8
0
100
AcDbSpline
 62
7
  6
CONTINUOUS
 70
0
 71
3
 72
11
 73
7
 74
0
 42
0.0000001
 43
0.0000001
 44
0.0000000001
 40
0.0
 40
0.0
 40
0.0
 40
0.0
 40
0.2260546384
 40
0.4681061693
 40
0.7270133461
 40
1.0
 40
1.0
 40
1.0
 40
1.0
 10
31.1191495764
 20
44.0126768041
 30
0.0
 10
31.1736407029
 20
44.0834880843
 30
0.0
 10
31.3065972746
 20
44.2153563686
 30
0.0
 10
31.5545911892
 20
44.365368804
 30
0.0
 10
31.8472136132
 20
44.461833234
 30
0.0
 10
32.0569672
 20
44.4891693832
 30
0.0
 10
32.1647633201
 20
44.4939242019
 30
0.0
  0
ENDSEC
  0
SECTION
  2
OBJECTS
  0
DICTIONARY
  5
C
100
AcDbDictionary
280
0
281
1
  3
ACAD_GROUP
350
D
  3
ACAD_MLINESTYLE
350
17
  3
ACAD_LAYOUT
350
1A
  3
ACAD_PLOTSETTINGS
350
19
  3
ACAD_PLOTSTYLENAME
350
E
  0
DICTIONARY
  5
D
102
{ACAD_REACTORS
330
C
102
}
100
AcDbDictionary
280
0
281
1
  0
ACDBDICTIONARYWDFLT
  5
E
102
{ACAD_REACTORS
330
C
102
}
100
AcDbDictionary
281
1
  3
Normal
350
F
100
AcDbDictionaryWithDefault
340
F
  0
DICTIONARY
  5
17
102
{ACAD_REACTORS
330
C
102
}
100
AcDbDictionary
280
0
281
1
  3
Standard
350
18
  0
DICTIONARY
  5
19
102
{ACAD_REACTORS
330
C
102
}
100
AcDbDictionary
281
1
  0
DICTIONARY
  5
1A
102
{ACAD_REACTORS
330
C
102
}
100
AcDbDictionary
281
1
  3
Model
350
394
  3
Layout1
350
395
  0
ACDBPLACEHOLDER
  5
F
102
{ACAD_REACTORS
330
E
102
}
  0
MLINESTYLE
  5
18
102
{ACAD_REACTORS
330
17
102
}
100
AcDbMlineStyle
  2
STANDARD
 70
0
  3

 62
256
 51
90.0
 52
90.0
 71
2
 49
0.5
 62
256
  6
BYLAYER
 49
-0.5
 62
256
  6
BYLAYER
  0
LAYOUT
  5
394
102
{ACAD_REACTORS
330
1A
102
}
100
AcDbPlotSettings
  1

  2
none_device
  4

  6

 40
0.0
 41
0.0
 42
0.0
 43
0.0
 44
210.0
 45
297.0
 46
0.0
 47
0.0
 48
0.0
 49
0.0
140
0.0
141
0.0
142
1.0
143
1.0
 70
1024
 72
1
 73
0
 74
0
  7

 75
0
147
1.0
148
0.0
149
0.0
100
AcDbLayout
  1
Model
 70
0
 71
0
 10
0.0
 20
0.0
 11
210.0
 21
297.0
 12
0.0
 22
0.0
 32
0.0
 14
0.0
 24
0.0
 34
0.0
 15
0.0
 25
0.0
 35
0.0
146
0.0
 13
0.0
 23
0.0
 33
0.0
 16
1.0
 26
0.0
 36
0.0
 17
0.0
 27
1.0
 37
0.0
 76
0
330
210
345
0
346
0
  0
LAYOUT
  5
395
102
{ACAD_REACTORS
330
1A
102
}
100
AcDbPlotSettings
  1

  2
none_device
  4

  6

 40
0.0
 41
0.0
 42
0.0
 43
0.0
 44
210.0
 45
297.0
 46
0.0
 47
0.0
 48
0.0
 49
0.0
140
0.0
141
0.0
142
1.0
143
1.0
 70
0
 72
1
 73
0
 74
0
  7

 75
0
147
1.0
148
0.0
149
0.0
100
AcDbLayout
  1
Layout1
 70
0
 71
1
 10
0.0
 20
0.0
 11
210.0
 21
297.0
 12
0.0
 22
0.0
 32
0.0
 14
0.0
 24
0.0
 34
0.0
 15
0.0
 25
0.0
 35
0.0
146
0.0
 13
0.0
 23
0.0
 33
0.0
 16
1.0
 26
0.0
 36
0.0
 17
0.0
 27
1.0
 37
0.0
 76
0
330
211
345
0
346
0
  0
ENDSEC
  0
EOF
